  0
SECTION
  2
HEADER
  9
$ACADVER
  1
AC1014
  9
$ACADMAINTVER
 70
     9
  9
$DWGCODEPAGE
  3
ANSI_1252
  9
$INSBASE
 10
0.0
 20
0.0
 30
0.0
  9
$EXTMIN
 10
-0.0000000000000107
 20
-0.0700000000000096
 30
0.0
  9
$EXTMAX
 10
82.0
 20
199.07
 30
0.0
  9
$LIMMIN
 10
0.0
 20
0.0
  9
$LIMMAX
 10
12.0
 20
9.0
  9
$ORTHOMODE
 70
     0
  9
$REGENMODE
 70
     1
  9
$FILLMODE
 70
     1
  9
$QTEXTMODE
 70
     0
  9
$MIRRTEXT
 70
     1
  9
$DRAGMODE
 70
     2
  9
$LTSCALE
 40
1.0
  9
$OSMODE
 70
    37
  9
$ATTMODE
 70
     1
  9
$TEXTSIZE
 40
0.2
  9
$TRACEWID
 40
0.05
  9
$TEXTSTYLE
  7
STANDARD
  9
$CLAYER
  8
0
  9
$CELTYPE
  6
CONTINUOUS
  9
$CECOLOR
 62
   256
  9
$CELTSCALE
 40
1.0
  9
$DELOBJ
 70
     1
  9
$DISPSILH
 70
     0
  9
$DIMSCALE
 40
1.0
  9
$DIMASZ
 40
0.18
  9
$DIMEXO
 40
0.0625
  9
$DIMDLI
 40
0.38
  9
$DIMRND
 40
0.0
  9
$DIMDLE
 40
0.0
  9
$DIMEXE
 40
0.18
  9
$DIMTP
 40
0.0
  9
$DIMTM
 40
0.0
  9
$DIMTXT
 40
0.18
  9
$DIMCEN
 40
0.09
  9
$DIMTSZ
 40
0.0
  9
$DIMTOL
 70
     0
  9
$DIMLIM
 70
     0
  9
$DIMTIH
 70
     1
  9
$DIMTOH
 70
     1
  9
$DIMSE1
 70
     0
  9
$DIMSE2
 70
     0
  9
$DIMTAD
 70
     0
  9
$DIMZIN
 70
     0
  9
$DIMBLK
  1

  9
$DIMASO
 70
     1
  9
$DIMSHO
 70
     1
  9
$DIMPOST
  1

  9
$DIMAPOST
  1

  9
$DIMALT
 70
     0
  9
$DIMALTD
 70
     2
  9
$DIMALTF
 40
25.4
  9
$DIMLFAC
 40
1.0
  9
$DIMTOFL
 70
     0
  9
$DIMTVP
 40
0.0
  9
$DIMTIX
 70
     0
  9
$DIMSOXD
 70
     0
  9
$DIMSAH
 70
     0
  9
$DIMBLK1
  1

  9
$DIMBLK2
  1

  9
$DIMSTYLE
  2
STANDARD
  9
$DIMCLRD
 70
     0
  9
$DIMCLRE
 70
     0
  9
$DIMCLRT
 70
     0
  9
$DIMTFAC
 40
1.0
  9
$DIMGAP
 40
0.09
  9
$DIMJUST
 70
     0
  9
$DIMSD1
 70
     0
  9
$DIMSD2
 70
     0
  9
$DIMTOLJ
 70
     1
  9
$DIMTZIN
 70
     0
  9
$DIMALTZ
 70
     0
  9
$DIMALTTZ
 70
     0
  9
$DIMFIT
 70
     3
  9
$DIMUPT
 70
     0
  9
$DIMUNIT
 70
     2
  9
$DIMDEC
 70
     4
  9
$DIMTDEC
 70
     4
  9
$DIMALTU
 70
     2
  9
$DIMALTTD
 70
     2
  9
$DIMTXSTY
  7
STANDARD
  9
$DIMAUNIT
 70
     0
  9
$LUNITS
 70
     2
  9
$LUPREC
 70
     4
  9
$SKETCHINC
 40
0.1
  9
$FILLETRAD
 40
0.0
  9
$AUNITS
 70
     0
  9
$AUPREC
 70
     0
  9
$MENU
  1
.
  9
$ELEVATION
 40
0.0
  9
$PELEVATION
 40
0.0
  9
$THICKNESS
 40
0.0
  9
$LIMCHECK
 70
     0
  9
$BLIPMODE
 70
     0
  9
$CHAMFERA
 40
0.0
  9
$CHAMFERB
 40
0.0
  9
$CHAMFERC
 40
0.0
  9
$CHAMFERD
 40
0.0
  9
$SKPOLY
 70
     0
  9
$TDCREATE
 40
2455239.876895254
  9
$TDUPDATE
 40
2455239.878016666
  9
$TDINDWG
 40
0.0011215972
  9
$TDUSRTIMER
 40
0.0011215972
  9
$USRTIMER
 70
     1
  9
$ANGBASE
 50
0.0
  9
$ANGDIR
 70
     0
  9
$PDMODE
 70
     0
  9
$PDSIZE
 40
0.0
  9
$PLINEWID
 40
0.0
  9
$COORDS
 70
     1
  9
$SPLFRAME
 70
     0
  9
$SPLINETYPE
 70
     6
  9
$SPLINESEGS
 70
     8
  9
$ATTDIA
 70
     0
  9
$ATTREQ
 70
     1
  9
$HANDLING
 70
 22529
  9
$HANDSEED
  5
31B
  9
$SURFTAB1
 70
     6
  9
$SURFTAB2
 70
     6
  9
$SURFTYPE
 70
     6
  9
$SURFU
 70
     6
  9
$SURFV
 70
     6
  9
$UCSNAME
  2

  9
$UCSORG
 10
0.0
 20
0.0
 30
0.0
  9
$UCSXDIR
 10
1.0
 20
0.0
 30
0.0
  9
$UCSYDIR
 10
0.0
 20
1.0
 30
0.0
  9
$PUCSNAME
  2

  9
$PUCSORG
 10
0.0
 20
0.0
 30
0.0
  9
$PUCSXDIR
 10
1.0
 20
0.0
 30
0.0
  9
$PUCSYDIR
 10
0.0
 20
1.0
 30
0.0
  9
$USERI1
 70
     0
  9
$USERI2
 70
     0
  9
$USERI3
 70
     0
  9
$USERI4
 70
     0
  9
$USERI5
 70
     0
  9
$USERR1
 40
0.0
  9
$USERR2
 40
0.0
  9
$USERR3
 40
0.0
  9
$USERR4
 40
0.0
  9
$USERR5
 40
0.0
  9
$WORLDVIEW
 70
     1
  9
$SHADEDGE
 70
     3
  9
$SHADEDIF
 70
    70
  9
$TILEMODE
 70
     1
  9
$MAXACTVP
 70
    64
  9
$PINSBASE
 10
0.0
 20
0.0
 30
0.0
  9
$PLIMCHECK
 70
     0
  9
$PEXTMIN
 10
1.000000000000000E+20
 20
1.000000000000000E+20
 30
1.000000000000000E+20
  9
$PEXTMAX
 10
-1.000000000000000E+20
 20
-1.000000000000000E+20
 30
-1.000000000000000E+20
  9
$PLIMMIN
 10
0.0
 20
0.0
  9
$PLIMMAX
 10
12.0
 20
9.0
  9
$UNITMODE
 70
     0
  9
$VISRETAIN
 70
     1
  9
$PLINEGEN
 70
     0
  9
$PSLTSCALE
 70
     1
  9
$TREEDEPTH
 70
  3020
  9
$PICKSTYLE
 70
     1
  9
$CMLSTYLE
  2
STANDARD
  9
$CMLJUST
 70
     0
  9
$CMLSCALE
 40
1.0
  9
$PROXYGRAPHICS
 70
     1
  9
$MEASUREMENT
 70
     0
  0
ENDSEC
  0
SECTION
  2
CLASSES
  0
CLASS
  1
ACDBDICTIONARYWDFLT
  2
AcDbDictionaryWithDefault
  3
AutoCAD 2000
 90
        0
280
     0
281
     0
  0
CLASS
  1
ACDBPLACEHOLDER
  2
AcDbPlaceHolder
  3
AutoCAD 2000
 90
        0
280
     0
281
     0
  0
CLASS
  1
LAYOUT
  2
AcDbLayout
  3
AutoCAD 2000
 90
        0
280
     0
281
     0
  0
CLASS
  1
DICTIONARYVAR
  2
AcDbDictionaryVar
  3
AutoCAD 2000
 90
        0
280
     0
281
     0
  0
CLASS
  1
LONG_TRANSACTION
  2
AcDbLongTransaction
  3
AutoCAD 2000
 90
        0
280
     0
281
     0
  0
CLASS
  1
LWPOLYLINE
  2
AcDbPolyline
  3
AutoCAD 2000
 90
        0
280
     0
281
     1
  0
CLASS
  1
HATCH
  2
AcDbHatch
  3
AutoCAD 2000
 90
        0
280
     0
281
     1
  0
CLASS
  1
XRECORD
  2
AcDbXrecord
  3
AutoCAD 2000
 90
        0
280
     0
281
     0
  0
ENDSEC
  0
SECTION
  2
TABLES
  0
TABLE
  2
VPORT
  5
8
330
0
100
AcDbSymbolTable
 70
     3
  0
VPORT
  5
2F6
330
8
100
AcDbSymbolTableRecord
100
AcDbViewportTableRecord
  2
*ACTIVE
 70
     0
 10
0.0
 20
0.0
 11
1.0
 21
1.0
 12
40.99999999999999
 22
99.50000000000001
 13
0.0
 23
0.0
 14
1.0
 24
1.0
 15
0.0
 25
0.0
 16
0.0
 26
0.0
 36
1.0
 17
0.0
 27
0.0
 37
0.0
 40
200.4472647702407
 41
2.041621029572836
 42
50.0
 43
0.0
 44
0.0
 50
0.0
 51
0.0
 71
     0
 72
   100
 73
     1
 74
     3
 75
     0
 76
     0
 77
     0
 78
     0
  0
ENDTAB
  0
TABLE
  2
LTYPE
  5
5
330
0
100
AcDbSymbolTable
 70
     1
  0
LTYPE
  5
13
330
5
100
AcDbSymbolTableRecord
100
AcDbLinetypeTableRecord
  2
BYBLOCK
 70
     0
  3

 72
    65
 73
     0
 40
0.0
  0
LTYPE
  5
14
330
5
100
AcDbSymbolTableRecord
100
AcDbLinetypeTableRecord
  2
BYLAYER
 70
     0
  3

 72
    65
 73
     0
 40
0.0
  0
LTYPE
  5
15
330
5
100
AcDbSymbolTableRecord
100
AcDbLinetypeTableRecord
  2
CONTINUOUS
 70
     0
  3
Solid line
 72
    65
 73
     0
 40
0.0
  0
ENDTAB
  0
TABLE
  2
LAYER
  5
2
330
0
100
AcDbSymbolTable
 70
     1
  0
LAYER
  5
10
330
2
100
AcDbSymbolTableRecord
100
AcDbLayerTableRecord
  2
0
 70
     0
 62
     7
  6
CONTINUOUS
  0
ENDTAB
  0
TABLE
  2
STYLE
  5
3
330
0
100
AcDbSymbolTable
 70
     1
  0
STYLE
  5
11
330
3
100
AcDbSymbolTableRecord
100
AcDbTextStyleTableRecord
  2
STANDARD
 70
     0
 40
0.0
 41
1.0
 50
0.0
 71
     0
 42
0.2
  3
txt
  4

  0
ENDTAB
  0
TABLE
  2
VIEW
  5
6
330
0
100
AcDbSymbolTable
 70
     0
  0
ENDTAB
  0
TABLE
  2
UCS
  5
7
330
0
100
AcDbSymbolTable
 70
     0
  0
ENDTAB
  0
TABLE
  2
APPID
  5
9
330
0
100
AcDbSymbolTable
 70
     1
  0
APPID
  5
12
330
9
100
AcDbSymbolTableRecord
100
AcDbRegAppTableRecord
  2
ACAD
 70
     0
  0
ENDTAB
  0
TABLE
  2
DIMSTYLE
  5
A
330
0
100
AcDbSymbolTable
 70
     1
  0
DIMSTYLE
105
2EF
330
A
100
AcDbSymbolTableRecord
100
AcDbDimStyleTableRecord
  2
STANDARD
 70
     0
  3

  4

  5

  6

  7

 40
1.0
 41
0.18
 42
0.0625
 43
0.38
 44
0.18
 45
0.0
 46
0.0
 47
0.0
 48
0.0
140
0.18
141
0.09
142
0.0
143
25.4
144
1.0
145
0.0
146
1.0
147
0.09
 71
     0
 72
     0
 73
     1
 74
     1
 75
     0
 76
     0
 77
     0
 78
     0
170
     0
171
     2
172
     0
173
     0
174
     0
175
     0
176
     0
177
     0
178
     0
270
     2
271
     4
272
     4
273
     2
274
     2
340
11
275
     0
280
     0
281
     0
282
     0
283
     1
284
     0
285
     0
286
     0
287
     3
288
     0
  0
ENDTAB
  0
TABLE
  2
BLOCK_RECORD
  5
1
330
0
100
AcDbSymbolTable
 70
     0
  0
BLOCK_RECORD
  5
1E
102
{ACAD_XDICTIONARY
360
319
102
}
330
1
100
AcDbSymbolTableRecord
100
AcDbBlockTableRecord
  2
*MODEL_SPACE
  0
BLOCK_RECORD
  5
1A
102
{ACAD_XDICTIONARY
360
317
102
}
330
1
100
AcDbSymbolTableRecord
100
AcDbBlockTableRecord
  2
*PAPER_SPACE
  0
ENDTAB
  0
ENDSEC
  0
SECTION
  2
BLOCKS
  0
BLOCK
  5
1F
330
1E
100
AcDbEntity
  8
0
100
AcDbBlockBegin
  2
*MODEL_SPACE
 70
     0
 10
0.0
 20
0.0
 30
0.0
  3
*MODEL_SPACE
  1

  0
ENDBLK
  5
20
330
1E
100
AcDbEntity
  8
0
100
AcDbBlockEnd
  0
BLOCK
  5
1B
330
1A
100
AcDbEntity
 67
     1
  8
0
100
AcDbBlockBegin
  2
*PAPER_SPACE
 70
     0
 10
0.0
 20
0.0
 30
0.0
  3
*PAPER_SPACE
  1

  0
ENDBLK
  5
1C
330
1A
100
AcDbEntity
 67
     1
  8
0
100
AcDbBlockEnd
  0
ENDSEC
  0
SECTION
  2
ENTITIES
  0
LINE
  5
22
330
1E
100
AcDbEntity
  8
0
100
AcDbLine
 10
-0.0000000000000107
 20
2.91669999999999
 30
0.0
 11
0.15229999999999
 21
7.12509999999999
 31
0.0
  0
LINE
  5
23
330
1E
100
AcDbEntity
  8
0
100
AcDbLine
 10
-0.0000000000000107
 20
2.91669999999999
 30
0.0
 11
0.0543999999999892
 21
1.106999999999989
 31
0.0
  0
LINE
  5
24
330
1E
100
AcDbEntity
  8
0
100
AcDbLine
 10
-0.0000000000000107
 20
2.91669999999999
 30
0.0
 11
0.0543999999999892
 21
1.106999999999989
 31
0.0
  0
LINE
  5
25
330
1E
100
AcDbEntity
  8
0
100
AcDbLine
 10
-0.0000000000000107
 20
2.91669999999999
 30
0.0
 11
0.15229999999999
 21
7.12509999999999
 31
0.0
  0
LINE
  5
26
330
1E
100
AcDbEntity
  8
0
100
AcDbLine
 10
0.15229999999999
 20
7.12509999999999
 30
0.0
 11
0.5562999999999901
 21
12.8399
 31
0.0
  0
LINE
  5
2C
330
1E
100
AcDbEntity
  8
0
100
AcDbLine
 10
0.5562999999999901
 20
12.8399
 30
0.0
 11
1.24319999999999
 21
19.27909999999999
 31
0.0
  0
LINE
  5
30
330
1E
100
AcDbEntity
  8
0
100
AcDbLine
 10
2.051199999999989
 20
29.4611
 30
0.0
 11
2.53599999999999
 21
34.34129999999999
 31
0.0
  0
LINE
  5
32
330
1E
100
AcDbEntity
  8
0
100
AcDbLine
 10
1.647199999999989
 20
24.22919999999999
 30
0.0
 11
2.051199999999989
 21
29.4611
 31
0.0
  0
LINE
  5
33
330
1E
100
AcDbEntity
  8
0
100
AcDbLine
 10
1.24319999999999
 20
19.27909999999999
 30
0.0
 11
1.647199999999989
 21
24.22919999999999
 31
0.0
  0
LINE
  5
34
330
1E
100
AcDbEntity
  8
0
100
AcDbLine
 10
0.5562999999999901
 20
12.8399
 30
0.0
 11
1.24319999999999
 21
19.27909999999999
 31
0.0
  0
LINE
  5
35
330
1E
100
AcDbEntity
  8
0
100
AcDbLine
 10
0.15229999999999
 20
7.12509999999999
 30
0.0
 11
0.5562999999999901
 21
12.8399
 31
0.0
  0
LINE
  5
36
330
1E
100
AcDbEntity
  8
0
100
AcDbLine
 10
0.0543999999999892
 20
1.106999999999989
 30
0.0
 11
0.5255999999999891
 21
0.5332999999999921
 31
0.0
  0
LINE
  5
37
330
1E
100
AcDbEntity
  8
0
100
AcDbLine
 10
0.5255999999999891
 20
0.5332999999999921
 30
0.0
 11
3.61429999999999
 21
0.220399999999995
 31
0.0
  0
LINE
  5
38
330
1E
100
AcDbEntity
  8
0
100
AcDbLine
 10
6.99999999999999
 20
-0.0700000000000096
 30
0.0
 11
10.38569999999999
 21
0.220399999999995
 31
0.0
  0
LINE
  5
3A
330
1E
100
AcDbEntity
  8
0
100
AcDbLine
 10
13.47439999999999
 20
0.5332999999999921
 30
0.0
 11
13.9456
 21
1.106999999999989
 31
0.0
  0
LINE
  5
3B
330
1E
100
AcDbEntity
  8
0
100
AcDbLine
 10
10.38569999999999
 20
0.220399999999995
 30
0.0
 11
13.47439999999999
 21
0.5332999999999921
 31
0.0
  0
LINE
  5
3C
330
1E
100
AcDbEntity
  8
0
100
AcDbLine
 10
13.9456
 20
1.106999999999989
 30
0.0
 11
14.1931
 21
2.91279999999999
 31
0.0
  0
LINE
  5
3D
330
1E
100
AcDbEntity
  8
0
100
AcDbLine
 10
14.1931
 20
2.91279999999999
 30
0.0
 11
14.4817
 21
7.17049999999999
 31
0.0
  0
LINE
  5
3E
330
1E
100
AcDbEntity
  8
0
100
AcDbLine
 10
14.4817
 20
7.17049999999999
 30
0.0
 11
15.16469999999999
 21
12.7406
 31
0.0
  0
LINE
  5
3F
330
1E
100
AcDbEntity
  8
0
100
AcDbLine
 10
16.0184
 20
19.2462
 30
0.0
 11
16.7867
 21
24.2636
 31
0.0
  0
LINE
  5
40
330
1E
100
AcDbEntity
  8
0
100
AcDbLine
 10
15.16469999999999
 20
12.7406
 30
0.0
 11
16.0184
 21
19.2462
 31
0.0
  0
LINE
  5
41
330
1E
100
AcDbEntity
  8
0
100
AcDbLine
 10
16.7867
 20
24.2636
 30
0.0
 11
17.5123
 21
29.36609999999999
 31
0.0
  0
LINE
  5
4B
330
1E
100
AcDbEntity
  8
0
100
AcDbLine
 10
17.5123
 20
29.36609999999999
 30
0.0
 11
18.32329999999999
 21
34.2808
 31
0.0
  0
LINE
  5
4D
330
1E
100
AcDbEntity
  8
0
100
AcDbLine
 10
3.61429999999999
 20
0.220399999999995
 30
0.0
 11
6.99999999999999
 21
-0.0700000000000096
 31
0.0
  0
LINE
  5
4E
330
1E
100
AcDbEntity
  8
0
100
AcDbLine
 10
79.71429999999999
 20
30.09
 30
0.0
 11
79.71429999999999
 21
32.13
 31
0.0
  0
LINE
  5
4F
330
1E
100
AcDbEntity
  8
0
100
AcDbLine
 10
79.71429999999999
 20
30.09
 30
0.0
 11
79.71429999999999
 21
29.07
 31
0.0
  0
LINE
  5
50
330
1E
100
AcDbEntity
  8
0
100
AcDbLine
 10
79.71429999999999
 20
32.13
 30
0.0
 11
79.71429999999999
 21
35.86999999999999
 31
0.0
  0
LINE
  5
51
330
1E
100
AcDbEntity
  8
0
100
AcDbLine
 10
79.71429999999999
 20
32.13
 30
0.0
 11
79.71429999999999
 21
30.09
 31
0.0
  0
LINE
  5
52
330
1E
100
AcDbEntity
  8
0
100
AcDbLine
 10
18.32329999999999
 20
34.2808
 30
0.0
 11
19.04899999999999
 21
39.5959
 31
0.0
  0
LINE
  5
55
330
1E
100
AcDbEntity
  8
0
100
AcDbLine
 10
2.53599999999999
 20
34.34129999999999
 30
0.0
 11
2.73799999999999
 21
39.6536
 31
0.0
  0
LINE
  5
58
330
1E
100
AcDbEntity
  8
0
100
AcDbLine
 10
19.04899999999999
 20
39.5959
 30
0.0
 11
19.34779999999999
 21
43.2101
 31
0.0
  0
LINE
  5
59
330
1E
100
AcDbEntity
  8
0
100
AcDbLine
 10
2.73799999999999
 20
39.6536
 30
0.0
 11
2.77839999999999
 21
43.15489999999999
 31
0.0
  0
LINE
  5
5B
330
1E
100
AcDbEntity
  8
0
100
AcDbLine
 10
2.77839999999999
 20
46.0525
 30
0.0
 11
2.77839999999999
 21
43.15489999999999
 31
0.0
  0
LINE
  5
5C
330
1E
100
AcDbEntity
  8
0
100
AcDbLine
 10
19.34779999999999
 20
43.2101
 30
0.0
 11
19.5469
 21
46.0608
 31
0.0
  0
LINE
  5
5D
330
1E
100
AcDbEntity
  8
0
100
AcDbLine
 10
19.5469
 20
46.0608
 30
0.0
 11
20.171
 21
50.0327
 31
0.0
  0
LINE
  5
62
330
1E
100
AcDbEntity
  8
0
100
AcDbLine
 10
2.77839999999999
 20
43.15489999999999
 30
0.0
 11
2.77839999999999
 21
46.0525
 31
0.0
  0
LINE
  5
63
330
1E
100
AcDbEntity
  8
0
100
AcDbLine
 10
39.5
 20
46.2233
 30
0.0
 11
41.0
 21
46.72109999999999
 31
0.0
  0
LINE
  5
69
330
1E
100
AcDbEntity
  8
0
100
AcDbLine
 10
41.0
 20
46.72109999999999
 30
0.0
 11
42.0
 21
48.21439999999999
 31
0.0
  0
LINE
  5
6B
330
1E
100
AcDbEntity
  8
0
100
AcDbLine
 10
38.0
 20
46.72109999999999
 30
0.0
 11
39.5
 21
46.2233
 31
0.0
  0
LINE
  5
6D
330
1E
100
AcDbEntity
  8
0
100
AcDbLine
 10
20.171
 20
50.0327
 30
0.0
 11
21.1071
 21
52.1051
 31
0.0
  0
LINE
  5
72
330
1E
100
AcDbEntity
  8
0
100
AcDbLine
 10
2.73799999999999
 20
52.1295
 30
0.0
 11
2.73799999999999
 21
50.0368
 31
0.0
  0
LINE
  5
74
330
1E
100
AcDbEntity
  8
0
100
AcDbLine
 10
21.1071
 20
52.1051
 30
0.0
 11
22.0086
 21
53.3485
 31
0.0
  0
LINE
  5
75
330
1E
100
AcDbEntity
  8
0
100
AcDbLine
 10
2.73799999999999
 20
50.0368
 30
0.0
 11
2.77839999999999
 21
46.0525
 31
0.0
  0
LINE
  5
76
330
1E
100
AcDbEntity
  8
0
100
AcDbLine
 10
2.73799999999999
 20
50.0368
 30
0.0
 11
2.73799999999999
 21
52.1295
 31
0.0
  0
LINE
  5
77
330
1E
100
AcDbEntity
  8
0
100
AcDbLine
 10
42.0
 20
48.21439999999999
 30
0.0
 11
42.0
 21
49.32549999999999
 31
0.0
  0
LINE
  5
78
330
1E
100
AcDbEntity
  8
0
100
AcDbLine
 10
42.0
 20
49.32549999999999
 30
0.0
 11
42.0
 21
52.2883
 31
0.0
  0
LINE
  5
7D
330
1E
100
AcDbEntity
  8
0
100
AcDbLine
 10
42.0
 20
52.2883
 30
0.0
 11
42.0
 21
57.2262
 31
0.0
  0
LINE
  5
80
330
1E
100
AcDbEntity
  8
0
100
AcDbLine
 10
32.5
 20
50.7033
 30
0.0
 11
37.0
 21
48.21439999999999
 31
0.0
  0
LINE
  5
81
330
1E
100
AcDbEntity
  8
0
100
AcDbLine
 10
37.0
 20
48.21439999999999
 30
0.0
 11
38.0
 21
46.72109999999999
 31
0.0
  0
LINE
  5
82
330
1E
100
AcDbEntity
  8
0
100
AcDbLine
 10
27.5
 20
52.6944
 30
0.0
 11
32.5
 21
50.7033
 31
0.0
  0
LINE
  5
83
330
1E
100
AcDbEntity
  8
0
100
AcDbLine
 10
22.0086
 20
53.3485
 30
0.0
 11
23.1875
 21
54.1083
 31
0.0
  0
LINE
  5
86
330
1E
100
AcDbEntity
  8
0
100
AcDbLine
 10
2.65719999999999
 20
54.98689999999999
 30
0.0
 11
2.73799999999999
 21
52.1295
 31
0.0
  0
LINE
  5
8D
330
1E
100
AcDbEntity
  8
0
100
AcDbLine
 10
23.214240601165
 20
54.1167006858267
 30
0.0
 11
27.5
 21
52.6944
 31
0.0
  0
LINE
  5
8E
330
1E
100
AcDbEntity
  8
0
100
AcDbLine
 10
2.49999999999999
 20
57.9343
 30
0.0
 11
2.59559999999999
 21
56.5705
 31
0.0
  0
LINE
  5
8F
330
1E
100
AcDbEntity
  8
0
100
AcDbLine
 10
2.49999999999999
 20
57.9343
 30
0.0
 11
2.49999999999999
 21
58.8998
 31
0.0
  0
LINE
  5
90
330
1E
100
AcDbEntity
  8
0
100
AcDbLine
 10
2.49999999999999
 20
58.8998
 30
0.0
 11
2.49999999999999
 21
58.6678
 31
0.0
  0
LINE
  5
91
330
1E
100
AcDbEntity
  8
0
100
AcDbLine
 10
2.49999999999999
 20
58.8998
 30
0.0
 11
2.49999999999999
 21
59.6633
 31
0.0
  0
LINE
  5
92
330
1E
100
AcDbEntity
  8
0
100
AcDbLine
 10
2.49999999999999
 20
58.8998
 30
0.0
 11
2.49999999999999
 21
57.9343
 31
0.0
  0
LINE
  5
95
330
1E
100
AcDbEntity
  8
0
100
AcDbLine
 10
42.0
 20
57.2262
 30
0.0
 11
42.0
 21
63.769
 31
0.0
  0
LINE
  5
99
330
1E
100
AcDbEntity
  8
0
100
AcDbLine
 10
2.59559999999999
 20
56.5705
 30
0.0
 11
2.65719999999999
 21
54.98689999999999
 31
0.0
  0
LINE
  5
9A
330
1E
100
AcDbEntity
  8
0
100
AcDbLine
 10
2.49999999999999
 20
60.1611
 30
0.0
 11
2.49999999999999
 21
59.4025
 31
0.0
  0
LINE
  5
9B
330
1E
100
AcDbEntity
  8
0
100
AcDbLine
 10
2.49999999999999
 20
60.1611
 30
0.0
 11
2.49999999999999
 21
60.8421
 31
0.0
  0
LINE
  5
9C
330
1E
100
AcDbEntity
  8
0
100
AcDbLine
 10
2.49999999999999
 20
59.4025
 30
0.0
 11
2.49999999999999
 21
60.1611
 31
0.0
  0
LINE
  5
9D
330
1E
100
AcDbEntity
  8
0
100
AcDbLine
 10
2.49999999999999
 20
59.4025
 30
0.0
 11
2.49999999999999
 21
61.3618
 31
0.0
  0
LINE
  5
9E
330
1E
100
AcDbEntity
  8
0
100
AcDbLine
 10
2.49999999999999
 20
58.6678
 30
0.0
 11
2.49999999999999
 21
58.8998
 31
0.0
  0
LINE
  5
9F
330
1E
100
AcDbEntity
  8
0
100
AcDbLine
 10
66.0
 20
56.50199999999999
 30
0.0
 11
66.0
 21
60.662
 31
0.0
  0
LINE
  5
A0
330
1E
100
AcDbEntity
  8
0
100
AcDbLine
 10
66.0
 20
54.006
 30
0.0
 11
66.0
 21
56.50199999999999
 31
0.0
  0
LINE
  5
A1
330
1E
100
AcDbEntity
  8
0
100
AcDbLine
 10
42.0
 20
53.07
 30
0.0
 11
66.0
 21
53.07
 31
0.0
  0
LINE
  5
A2
330
1E
100
AcDbEntity
  8
0
100
AcDbLine
 10
66.0
 20
53.9308
 30
0.0
 11
66.0
 21
60.6129
 31
0.0
  0
LINE
  5
A3
330
1E
100
AcDbEntity
  8
0
100
AcDbLine
 10
66.0
 20
53.9308
 30
0.0
 11
66.0
 21
48.1599
 31
0.0
  0
LINE
  5
A4
330
1E
100
AcDbEntity
  8
0
100
AcDbLine
 10
2.49999999999999
 20
62.658
 30
0.0
 11
2.49999999999999
 21
60.8421
 31
0.0
  0
LINE
  5
A5
330
1E
100
AcDbEntity
  8
0
100
AcDbLine
 10
2.49999999999999
 20
62.658
 30
0.0
 11
2.49999999999999
 21
65.6845
 31
0.0
  0
LINE
  5
A6
330
1E
100
AcDbEntity
  8
0
100
AcDbLine
 10
2.49999999999999
 20
60.8421
 30
0.0
 11
2.49999999999999
 21
62.658
 31
0.0
  0
LINE
  5
A7
330
1E
100
AcDbEntity
  8
0
100
AcDbLine
 10
2.49999999999999
 20
60.8421
 30
0.0
 11
2.49999999999999
 21
60.1611
 31
0.0
  0
LINE
  5
A8
330
1E
100
AcDbEntity
  8
0
100
AcDbLine
 10
1.199999999999989
 20
61.6544
 30
0.0
 11
1.999999999999989
 21
60.6589
 31
0.0
  0
LINE
  5
A9
330
1E
100
AcDbEntity
  8
0
100
AcDbLine
 10
1.999999999999989
 20
60.6589
 30
0.0
 11
2.49999999999999
 21
60.1611
 31
0.0
  0
LINE
  5
AE
330
1E
100
AcDbEntity
  8
0
100
AcDbLine
 10
42.0
 20
63.769
 30
0.0
 11
42.0
 21
71.17589999999999
 31
0.0
  0
LINE
  5
B4
330
1E
100
AcDbEntity
  8
0
100
AcDbLine
 10
2.49999999999999
 20
64.6272
 30
0.0
 11
2.49999999999999
 21
68.9539
 31
0.0
  0
LINE
  5
B5
330
1E
100
AcDbEntity
  8
0
100
AcDbLine
 10
2.49999999999999
 20
65.6845
 30
0.0
 11
2.49999999999999
 21
69.69450000000001
 31
0.0
  0
LINE
  5
B6
330
1E
100
AcDbEntity
  8
0
100
AcDbLine
 10
2.49999999999999
 20
65.6845
 30
0.0
 11
2.49999999999999
 21
68.9539
 31
0.0
  0
LINE
  5
B7
330
1E
100
AcDbEntity
  8
0
100
AcDbLine
 10
2.49999999999999
 20
61.3618
 30
0.0
 11
2.49999999999999
 21
64.6272
 31
0.0
  0
LINE
  5
B8
330
1E
100
AcDbEntity
  8
0
100
AcDbLine
 10
2.49999999999999
 20
61.3618
 30
0.0
 11
2.49999999999999
 21
59.4025
 31
0.0
  0
LINE
  5
BB
330
1E
100
AcDbEntity
  8
0
100
AcDbLine
 10
2.49999999999999
 20
68.9539
 30
0.0
 11
2.49999999999999
 21
73.85200000000001
 31
0.0
  0
LINE
  5
BC
330
1E
100
AcDbEntity
  8
0
100
AcDbLine
 10
0.499999999999993
 20
69.1211
 30
0.0
 11
1.199999999999989
 21
61.6544
 31
0.0
  0
LINE
  5
BE
330
1E
100
AcDbEntity
  8
0
100
AcDbLine
 10
2.49999999999999
 20
74.2343
 30
0.0
 11
2.49999999999999
 21
79.0767
 31
0.0
  0
LINE
  5
BF
330
1E
100
AcDbEntity
  8
0
100
AcDbLine
 10
2.49999999999999
 20
73.85200000000001
 30
0.0
 11
2.49999999999999
 21
79.0767
 31
0.0
  0
LINE
  5
C2
330
1E
100
AcDbEntity
  8
0
100
AcDbLine
 10
42.0
 20
71.17589999999999
 30
0.0
 11
42.0
 21
79.0767
 31
0.0
  0
LINE
  5
C5
330
1E
100
AcDbEntity
  8
0
100
AcDbLine
 10
2.49999999999999
 20
69.69450000000001
 30
0.0
 11
2.49999999999999
 21
73.85200000000001
 31
0.0
  0
LINE
  5
C6
330
1E
100
AcDbEntity
  8
0
100
AcDbLine
 10
2.49999999999999
 20
69.69450000000001
 30
0.0
 11
2.49999999999999
 21
74.2343
 31
0.0
  0
LINE
  5
C7
330
1E
100
AcDbEntity
  8
0
100
AcDbLine
 10
66.0
 20
72.414
 30
0.0
 11
66.0
 21
79.07
 31
0.0
  0
LINE
  5
C8
330
1E
100
AcDbEntity
  8
0
100
AcDbLine
 10
66.0
 20
66.17399999999999
 30
0.0
 11
66.0
 21
72.414
 31
0.0
  0
LINE
  5
C9
330
1E
100
AcDbEntity
  8
0
100
AcDbLine
 10
66.0
 20
60.662
 30
0.0
 11
66.0
 21
66.17399999999999
 31
0.0
  0
LINE
  5
CA
330
1E
100
AcDbEntity
  8
0
100
AcDbLine
 10
2.49999999999999
 20
79.0767
 30
0.0
 11
2.49999999999999
 21
84.3013
 31
0.0
  0
LINE
  5
CF
330
1E
100
AcDbEntity
  8
0
100
AcDbLine
 10
42.0
 20
79.0767
 30
0.0
 11
42.0
 21
86.97740000000001
 31
0.0
  0
LINE
  5
D4
330
1E
100
AcDbEntity
  8
0
100
AcDbLine
 10
2.49999999999999
 20
83.91910000000001
 30
0.0
 11
2.49999999999999
 21
84.3013
 31
0.0
  0
LINE
  5
D6
330
1E
100
AcDbEntity
  8
0
100
AcDbLine
 10
2.49999999999999
 20
84.3013
 30
0.0
 11
2.49999999999999
 21
83.91910000000001
 31
0.0
  0
LINE
  5
D7
330
1E
100
AcDbEntity
  8
0
100
AcDbLine
 10
2.49999999999999
 20
84.3013
 30
0.0
 11
2.49999999999999
 21
89.1995
 31
0.0
  0
LINE
  5
D8
330
1E
100
AcDbEntity
  8
0
100
AcDbLine
 10
-0.000000000000006
 20
79.0767
 30
0.0
 11
0.499999999999993
 21
69.1211
 31
0.0
  0
LINE
  5
D9
330
1E
100
AcDbEntity
  8
0
100
AcDbLine
 10
-0.000000000000006
 20
79.0767
 30
0.0
 11
0.4999999999999951
 21
89.03220000000001
 31
0.0
  0
LINE
  5
DA
330
1E
100
AcDbEntity
  8
0
100
AcDbLine
 10
-0.000000000000006
 20
79.0767
 30
0.0
 11
0.499999999999993
 21
69.1211
 31
0.0
  0
LINE
  5
DB
330
1E
100
AcDbEntity
  8
0
100
AcDbLine
 10
-0.000000000000006
 20
79.0767
 30
0.0
 11
0.4999999999999951
 21
89.03220000000001
 31
0.0
  0
LINE
  5
DC
330
1E
100
AcDbEntity
  8
0
100
AcDbLine
 10
66.0
 20
79.07
 30
0.0
 11
66.0
 21
85.72599999999999
 31
0.0
  0
LINE
  5
DD
330
1E
100
AcDbEntity
  8
0
100
AcDbLine
 10
66.0
 20
67.9025
 30
0.0
 11
66.0
 21
76.4071
 31
0.0
  0
LINE
  5
DE
330
1E
100
AcDbEntity
  8
0
100
AcDbLine
 10
66.0
 20
67.9025
 30
0.0
 11
66.0
 21
60.6129
 31
0.0
  0
LINE
  5
DF
330
1E
100
AcDbEntity
  8
0
100
AcDbLine
 10
2.49999999999999
 20
88.45879999999999
 30
0.0
 11
2.49999999999999
 21
89.1995
 31
0.0
  0
LINE
  5
E2
330
1E
100
AcDbEntity
  8
0
100
AcDbLine
 10
42.0
 20
86.97740000000001
 30
0.0
 11
42.0
 21
94.3843
 31
0.0
  0
LINE
  5
E7
330
1E
100
AcDbEntity
  8
0
100
AcDbLine
 10
2.49999999999999
 20
89.1995
 30
0.0
 11
2.49999999999999
 21
88.45879999999999
 31
0.0
  0
LINE
  5
E8
330
1E
100
AcDbEntity
  8
0
100
AcDbLine
 10
2.49999999999999
 20
89.1995
 30
0.0
 11
2.49999999999999
 21
93.52619999999999
 31
0.0
  0
LINE
  5
EB
330
1E
100
AcDbEntity
  8
0
100
AcDbLine
 10
0.4999999999999951
 20
89.03220000000001
 30
0.0
 11
1.199999999999989
 21
96.4989
 31
0.0
  0
LINE
  5
EC
330
1E
100
AcDbEntity
  8
0
100
AcDbLine
 10
66.0
 20
85.72599999999999
 30
0.0
 11
66.0
 21
91.96600000000001
 31
0.0
  0
LINE
  5
ED
330
1E
100
AcDbEntity
  8
0
100
AcDbLine
 10
2.49999999999999
 20
92.4689
 30
0.0
 11
2.49999999999999
 21
95.4954
 31
0.0
  0
LINE
  5
EE
330
1E
100
AcDbEntity
  8
0
100
AcDbLine
 10
2.5
 20
96.79160000000001
 30
0.0
 11
2.5
 21
98.7508
 31
0.0
  0
LINE
  5
EF
330
1E
100
AcDbEntity
  8
0
100
AcDbLine
 10
2.49999999999999
 20
95.4954
 30
0.0
 11
2.49999999999999
 21
92.4689
 31
0.0
  0
LINE
  5
F0
330
1E
100
AcDbEntity
  8
0
100
AcDbLine
 10
2.49999999999999
 20
95.4954
 30
0.0
 11
2.5
 21
97.3113
 31
0.0
  0
LINE
  5
F1
330
1E
100
AcDbEntity
  8
0
100
AcDbLine
 10
2.49999999999999
 20
93.52619999999999
 30
0.0
 11
2.5
 21
96.79160000000001
 31
0.0
  0
LINE
  5
F2
330
1E
100
AcDbEntity
  8
0
100
AcDbLine
 10
1.199999999999989
 20
96.4989
 30
0.0
 11
2.0
 21
97.49439999999999
 31
0.0
  0
LINE
  5
F3
330
1E
100
AcDbEntity
  8
0
100
AcDbLine
 10
2.5
 20
99.4856
 30
0.0
 11
2.5
 21
98.7508
 31
0.0
  0
LINE
  5
F4
330
1E
100
AcDbEntity
  8
0
100
AcDbLine
 10
2.5
 20
99.4856
 30
0.0
 11
3.0
 21
99.983
 31
0.0
  0
LINE
  5
F5
330
1E
100
AcDbEntity
  8
0
100
AcDbLine
 10
2.5
 20
98.7508
 30
0.0
 11
2.5
 21
99.4856
 31
0.0
  0
LINE
  5
F6
330
1E
100
AcDbEntity
  8
0
100
AcDbLine
 10
2.5
 20
98.7508
 30
0.0
 11
2.5
 21
97.9922
 31
0.0
  0
LINE
  5
F7
330
1E
100
AcDbEntity
  8
0
100
AcDbLine
 10
2.5
 20
98.7508
 30
0.0
 11
2.5
 21
96.79160000000001
 31
0.0
  0
LINE
  5
F8
330
1E
100
AcDbEntity
  8
0
100
AcDbLine
 10
2.5
 20
97.9922
 30
0.0
 11
2.5
 21
97.3113
 31
0.0
  0
LINE
  5
F9
330
1E
100
AcDbEntity
  8
0
100
AcDbLine
 10
2.5
 20
97.9922
 30
0.0
 11
2.5
 21
98.7508
 31
0.0
  0
LINE
  5
FA
330
1E
100
AcDbEntity
  8
0
100
AcDbLine
 10
2.0
 20
97.49439999999999
 30
0.0
 11
2.5
 21
97.9922
 31
0.0
  0
LINE
  5
FE
330
1E
100
AcDbEntity
  8
0
100
AcDbLine
 10
8.0
 20
100.481
 30
0.0
 11
14.0
 21
101.4769999999999
 31
0.0
  0
LINE
  5
100
330
1E
100
AcDbEntity
  8
0
100
AcDbLine
 10
3.0
 20
99.983
 30
0.0
 11
8.0
 21
100.481
 31
0.0
  0
LINE
  5
102
330
1E
100
AcDbEntity
  8
0
100
AcDbLine
 10
2.5
 20
97.3113
 30
0.0
 11
2.5
 21
97.9922
 31
0.0
  0
LINE
  5
103
330
1E
100
AcDbEntity
  8
0
100
AcDbLine
 10
14.0
 20
101.4769999999999
 30
0.0
 11
21.49999999999999
 21
103.4679999999999
 31
0.0
  0
LINE
  5
104
330
1E
100
AcDbEntity
  8
0
100
AcDbLine
 10
42.0
 20
94.3843
 30
0.0
 11
42.0
 21
100.927
 31
0.0
  0
LINE
  5
10D
330
1E
100
AcDbEntity
  8
0
100
AcDbLine
 10
42.0
 20
100.927
 30
0.0
 11
42.0
 21
105.8649999999999
 31
0.0
  0
LINE
  5
112
330
1E
100
AcDbEntity
  8
0
100
AcDbLine
 10
21.49999999999999
 20
103.4679999999999
 30
0.0
 11
27.5
 21
105.459
 31
0.0
  0
LINE
  5
113
330
1E
100
AcDbEntity
  8
0
100
AcDbLine
 10
66.0
 20
91.96600000000001
 30
0.0
 11
66.0
 21
97.47799999999999
 31
0.0
  0
LINE
  5
114
330
1E
100
AcDbEntity
  8
0
100
AcDbLine
 10
66.0
 20
101.6379999999999
 30
0.0
 11
66.0
 21
104.1339999999999
 31
0.0
  0
LINE
  5
115
330
1E
100
AcDbEntity
  8
0
100
AcDbLine
 10
42.0
 20
105.0699999999999
 30
0.0
 11
66.0
 21
105.0699999999999
 31
0.0
  0
LINE
  5
116
330
1E
100
AcDbEntity
  8
0
100
AcDbLine
 10
66.0
 20
94.6311
 30
0.0
 11
66.0
 21
85.2153
 31
0.0
  0
LINE
  5
117
330
1E
100
AcDbEntity
  8
0
100
AcDbLine
 10
66.0
 20
94.6311
 30
0.0
 11
66.0
 21
104.0468
 31
0.0
  0
LINE
  5
118
330
1E
100
AcDbEntity
  8
0
100
AcDbLine
 10
66.0
 20
85.2153
 30
0.0
 11
66.0
 21
94.6311
 31
0.0
  0
LINE
  5
119
330
1E
100
AcDbEntity
  8
0
100
AcDbLine
 10
66.0
 20
85.2153
 30
0.0
 11
66.0
 21
76.4071
 31
0.0
  0
LINE
  5
11A
330
1E
100
AcDbEntity
  8
0
100
AcDbLine
 10
66.0
 20
76.4071
 30
0.0
 11
66.0
 21
85.2153
 31
0.0
  0
LINE
  5
11B
330
1E
100
AcDbEntity
  8
0
100
AcDbLine
 10
66.0
 20
76.4071
 30
0.0
 11
66.0
 21
67.9025
 31
0.0
  0
LINE
  5
11C
330
1E
100
AcDbEntity
  8
0
100
AcDbLine
 10
66.0
 20
60.6129
 30
0.0
 11
66.0
 21
67.9025
 31
0.0
  0
LINE
  5
11D
330
1E
100
AcDbEntity
  8
0
100
AcDbLine
 10
66.0
 20
60.6129
 30
0.0
 11
66.0
 21
53.9308
 31
0.0
  0
LINE
  5
11E
330
1E
100
AcDbEntity
  8
0
100
AcDbLine
 10
66.0
 20
53.07
 30
0.0
 11
66.0
 21
48.1599
 31
0.0
  0
LINE
  5
11F
330
1E
100
AcDbEntity
  8
0
100
AcDbLine
 10
66.0
 20
53.07
 30
0.0
 11
66.0
 21
54.006
 31
0.0
  0
LINE
  5
120
330
1E
100
AcDbEntity
  8
0
100
AcDbLine
 10
66.0
 20
48.1599
 30
0.0
 11
66.0
 21
53.07
 31
0.0
  0
LINE
  5
121
330
1E
100
AcDbEntity
  8
0
100
AcDbLine
 10
66.0
 20
48.1599
 30
0.0
 11
66.0
 21
44.2113
 31
0.0
  0
LINE
  5
122
330
1E
100
AcDbEntity
  8
0
100
AcDbLine
 10
66.0
 20
48.1599
 30
0.0
 11
66.0
 21
53.9308
 31
0.0
  0
LINE
  5
123
330
1E
100
AcDbEntity
  8
0
100
AcDbLine
 10
66.0
 20
44.2113
 30
0.0
 11
66.0
 21
48.1599
 31
0.0
  0
LINE
  5
124
330
1E
100
AcDbEntity
  8
0
100
AcDbLine
 10
66.0
 20
44.2113
 30
0.0
 11
66.0
 21
40.8703
 31
0.0
  0
LINE
  5
125
330
1E
100
AcDbEntity
  8
0
100
AcDbLine
 10
66.0
 20
40.8703
 30
0.0
 11
66.0
 21
44.2113
 31
0.0
  0
LINE
  5
126
330
1E
100
AcDbEntity
  8
0
100
AcDbLine
 10
66.0
 20
40.8703
 30
0.0
 11
66.0
 21
39.04787
 31
0.0
  0
LINE
  5
127
330
1E
100
AcDbEntity
  8
0
100
AcDbLine
 10
66.0
 20
39.04787
 30
0.0
 11
66.0
 21
40.8703
 31
0.0
  0
LINE
  5
128
330
1E
100
AcDbEntity
  8
0
100
AcDbLine
 10
66.0
 20
39.04787
 30
0.0
 11
66.0
 21
38.13667
 31
0.0
  0
LINE
  5
129
330
1E
100
AcDbEntity
  8
0
100
AcDbLine
 10
66.0
 20
38.13667
 30
0.0
 11
66.0
 21
39.04787
 31
0.0
  0
LINE
  5
12A
330
1E
100
AcDbEntity
  8
0
100
AcDbLine
 10
66.0
 20
38.13667
 30
0.0
 11
67.1429
 21
37.57
 31
0.0
  0
LINE
  5
12B
330
1E
100
AcDbEntity
  8
0
100
AcDbLine
 10
67.1429
 20
38.488
 30
0.0
 11
67.1429
 21
40.32399999999999
 31
0.0
  0
LINE
  5
12C
330
1E
100
AcDbEntity
  8
0
100
AcDbLine
 10
67.1429
 20
38.488
 30
0.0
 11
67.1429
 21
37.57
 31
0.0
  0
LINE
  5
12D
330
1E
100
AcDbEntity
  8
0
100
AcDbLine
 10
67.1429
 20
40.32399999999999
 30
0.0
 11
67.1429
 21
38.488
 31
0.0
  0
LINE
  5
12E
330
1E
100
AcDbEntity
  8
0
100
AcDbLine
 10
67.1429
 20
40.32399999999999
 30
0.0
 11
67.1429
 21
43.68999999999999
 31
0.0
  0
LINE
  5
12F
330
1E
100
AcDbEntity
  8
0
100
AcDbLine
 10
67.1429
 20
39.7777
 30
0.0
 11
67.1429
 21
37.92812999999999
 31
0.0
  0
LINE
  5
130
330
1E
100
AcDbEntity
  8
0
100
AcDbLine
 10
67.1429
 20
39.7777
 30
0.0
 11
67.1429
 21
43.1687
 31
0.0
  0
LINE
  5
131
330
1E
100
AcDbEntity
  8
0
100
AcDbLine
 10
67.1429
 20
43.68999999999999
 30
0.0
 11
67.1429
 21
47.66799999999999
 31
0.0
  0
LINE
  5
132
330
1E
100
AcDbEntity
  8
0
100
AcDbLine
 10
67.1429
 20
43.68999999999999
 30
0.0
 11
67.1429
 21
40.32399999999999
 31
0.0
  0
LINE
  5
133
330
1E
100
AcDbEntity
  8
0
100
AcDbLine
 10
67.1429
 20
47.66799999999999
 30
0.0
 11
67.1429
 21
53.482
 31
0.0
  0
LINE
  5
134
330
1E
100
AcDbEntity
  8
0
100
AcDbLine
 10
67.1429
 20
47.66799999999999
 30
0.0
 11
67.1429
 21
43.68999999999999
 31
0.0
  0
LINE
  5
135
330
1E
100
AcDbEntity
  8
0
100
AcDbLine
 10
67.1429
 20
43.1687
 30
0.0
 11
67.1429
 21
39.7777
 31
0.0
  0
LINE
  5
136
330
1E
100
AcDbEntity
  8
0
100
AcDbLine
 10
67.1429
 20
43.1687
 30
0.0
 11
67.1429
 21
47.17609999999999
 31
0.0
  0
LINE
  5
137
330
1E
100
AcDbEntity
  8
0
100
AcDbLine
 10
67.1429
 20
37.92812999999999
 30
0.0
 11
67.1429
 21
37.00333
 31
0.0
  0
LINE
  5
138
330
1E
100
AcDbEntity
  8
0
100
AcDbLine
 10
67.1429
 20
37.92812999999999
 30
0.0
 11
67.1429
 21
39.7777
 31
0.0
  0
LINE
  5
139
330
1E
100
AcDbEntity
  8
0
100
AcDbLine
 10
67.1429
 20
53.482
 30
0.0
 11
67.1429
 21
60.21399999999999
 31
0.0
  0
LINE
  5
13A
330
1E
100
AcDbEntity
  8
0
100
AcDbLine
 10
67.1429
 20
53.482
 30
0.0
 11
67.1429
 21
47.66799999999999
 31
0.0
  0
LINE
  5
13B
330
1E
100
AcDbEntity
  8
0
100
AcDbLine
 10
67.1429
 20
53.0332
 30
0.0
 11
67.1429
 21
47.17609999999999
 31
0.0
  0
LINE
  5
13C
330
1E
100
AcDbEntity
  8
0
100
AcDbLine
 10
67.1429
 20
53.0332
 30
0.0
 11
67.1429
 21
59.8151
 31
0.0
  0
LINE
  5
13D
330
1E
100
AcDbEntity
  8
0
100
AcDbLine
 10
67.1429
 20
47.17609999999999
 30
0.0
 11
67.1429
 21
43.1687
 31
0.0
  0
LINE
  5
13E
330
1E
100
AcDbEntity
  8
0
100
AcDbLine
 10
67.1429
 20
47.17609999999999
 30
0.0
 11
67.1429
 21
53.0332
 31
0.0
  0
LINE
  5
13F
330
1E
100
AcDbEntity
  8
0
100
AcDbLine
 10
67.1429
 20
60.21399999999999
 30
0.0
 11
67.1429
 21
67.558
 31
0.0
  0
LINE
  5
140
330
1E
100
AcDbEntity
  8
0
100
AcDbLine
 10
67.1429
 20
60.21399999999999
 30
0.0
 11
67.1429
 21
53.482
 31
0.0
  0
LINE
  5
141
330
1E
100
AcDbEntity
  8
0
100
AcDbLine
 10
67.1429
 20
67.558
 30
0.0
 11
67.1429
 21
76.126
 31
0.0
  0
LINE
  5
142
330
1E
100
AcDbEntity
  8
0
100
AcDbLine
 10
67.1429
 20
67.558
 30
0.0
 11
67.1429
 21
60.21399999999999
 31
0.0
  0
LINE
  5
143
330
1E
100
AcDbEntity
  8
0
100
AcDbLine
 10
67.1429
 20
76.126
 30
0.0
 11
67.1429
 21
85.0
 31
0.0
  0
LINE
  5
144
330
1E
100
AcDbEntity
  8
0
100
AcDbLine
 10
67.1429
 20
76.126
 30
0.0
 11
67.1429
 21
67.558
 31
0.0
  0
LINE
  5
145
330
1E
100
AcDbEntity
  8
0
100
AcDbLine
 10
67.1429
 20
67.2135
 30
0.0
 11
67.1429
 21
59.8151
 31
0.0
  0
LINE
  5
146
330
1E
100
AcDbEntity
  8
0
100
AcDbLine
 10
67.1429
 20
67.2135
 30
0.0
 11
67.1429
 21
75.84489999999999
 31
0.0
  0
LINE
  5
147
330
1E
100
AcDbEntity
  8
0
100
AcDbLine
 10
67.1429
 20
59.8151
 30
0.0
 11
67.1429
 21
53.0332
 31
0.0
  0
LINE
  5
148
330
1E
100
AcDbEntity
  8
0
100
AcDbLine
 10
67.1429
 20
59.8151
 30
0.0
 11
67.1429
 21
67.2135
 31
0.0
  0
LINE
  5
149
330
1E
100
AcDbEntity
  8
0
100
AcDbLine
 10
67.1429
 20
75.84489999999999
 30
0.0
 11
67.1429
 21
67.2135
 31
0.0
  0
LINE
  5
14A
330
1E
100
AcDbEntity
  8
0
100
AcDbLine
 10
67.1429
 20
75.84489999999999
 30
0.0
 11
67.1429
 21
84.78469999999999
 31
0.0
  0
LINE
  5
14B
330
1E
100
AcDbEntity
  8
0
100
AcDbLine
 10
67.1429
 20
84.78469999999999
 30
0.0
 11
67.1429
 21
94.34090000000001
 31
0.0
  0
LINE
  5
14C
330
1E
100
AcDbEntity
  8
0
100
AcDbLine
 10
67.1429
 20
84.78469999999999
 30
0.0
 11
67.1429
 21
75.84489999999999
 31
0.0
  0
LINE
  5
14D
330
1E
100
AcDbEntity
  8
0
100
AcDbLine
 10
67.1429
 20
85.0
 30
0.0
 11
67.1429
 21
94.486
 31
0.0
  0
LINE
  5
14E
330
1E
100
AcDbEntity
  8
0
100
AcDbLine
 10
67.1429
 20
85.0
 30
0.0
 11
67.1429
 21
76.126
 31
0.0
  0
LINE
  5
14F
330
1E
100
AcDbEntity
  8
0
100
AcDbLine
 10
66.0
 20
104.1339999999999
 30
0.0
 11
66.0
 21
105.0699999999999
 31
0.0
  0
LINE
  5
150
330
1E
100
AcDbEntity
  8
0
100
AcDbLine
 10
66.0
 20
104.0468
 30
0.0
 11
66.0
 21
114.07
 31
0.0
  0
LINE
  5
151
330
1E
100
AcDbEntity
  8
0
100
AcDbLine
 10
67.1429
 20
94.34090000000001
 30
0.0
 11
67.1429
 21
84.78469999999999
 31
0.0
  0
LINE
  5
152
330
1E
100
AcDbEntity
  8
0
100
AcDbLine
 10
67.1429
 20
94.34090000000001
 30
0.0
 11
67.1429
 21
103.8972
 31
0.0
  0
LINE
  5
153
330
1E
100
AcDbEntity
  8
0
100
AcDbLine
 10
66.0
 20
97.47799999999999
 30
0.0
 11
66.0
 21
104.0468
 31
0.0
  0
LINE
  5
154
330
1E
100
AcDbEntity
  8
0
100
AcDbLine
 10
66.0
 20
97.47799999999999
 30
0.0
 11
66.0
 21
101.6379999999999
 31
0.0
  0
LINE
  5
155
330
1E
100
AcDbEntity
  8
0
100
AcDbLine
 10
27.5
 20
105.459
 30
0.0
 11
32.5
 21
107.45
 31
0.0
  0
LINE
  5
158
330
1E
100
AcDbEntity
  8
0
100
AcDbLine
 10
37.0
 20
109.9389999999999
 30
0.0
 11
38.0
 21
111.4319999999999
 31
0.0
  0
LINE
  5
159
330
1E
100
AcDbEntity
  8
0
100
AcDbLine
 10
42.0
 20
105.8649999999999
 30
0.0
 11
42.0
 21
108.8279999999999
 31
0.0
  0
LINE
  5
15F
330
1E
100
AcDbEntity
  8
0
100
AcDbLine
 10
42.0
 20
108.8279999999999
 30
0.0
 11
42.0
 21
109.9389999999999
 31
0.0
  0
LINE
  5
163
330
1E
100
AcDbEntity
  8
0
100
AcDbLine
 10
39.5
 20
111.93
 30
0.0
 11
41.0
 21
111.4319999999999
 31
0.0
  0
LINE
  5
165
330
1E
100
AcDbEntity
  8
0
100
AcDbLine
 10
41.0
 20
111.4319999999999
 30
0.0
 11
42.0
 21
109.9389999999999
 31
0.0
  0
LINE
  5
167
330
1E
100
AcDbEntity
  8
0
100
AcDbLine
 10
38.0
 20
111.4319999999999
 30
0.0
 11
39.5
 21
111.93
 31
0.0
  0
LINE
  5
16A
330
1E
100
AcDbEntity
  8
0
100
AcDbLine
 10
32.5
 20
107.45
 30
0.0
 11
37.0
 21
109.9389999999999
 31
0.0
  0
LINE
  5
16B
330
1E
100
AcDbEntity
  8
0
100
AcDbLine
 10
43.4762
 20
133.339
 30
0.0
 11
44.381
 21
132.387
 31
0.0
  0
LINE
  5
16C
330
1E
100
AcDbEntity
  8
0
100
AcDbLine
 10
45.7381
 20
132.0699999999999
 30
0.0
 11
47.0952
 21
132.387
 31
0.0
  0
LINE
  5
16D
330
1E
100
AcDbEntity
  8
0
100
AcDbLine
 10
48.0
 20
133.339
 30
0.0
 11
48.0
 21
134.047
 31
0.0
  0
LINE
  5
16E
330
1E
100
AcDbEntity
  8
0
100
AcDbLine
 10
48.0
 20
134.047
 30
0.0
 11
48.0
 21
135.935
 31
0.0
  0
LINE
  5
16F
330
1E
100
AcDbEntity
  8
0
100
AcDbLine
 10
47.0952
 20
132.387
 30
0.0
 11
48.0
 21
133.339
 31
0.0
  0
LINE
  5
170
330
1E
100
AcDbEntity
  8
0
100
AcDbLine
 10
44.381
 20
132.387
 30
0.0
 11
45.7381
 21
132.0699999999999
 31
0.0
  0
LINE
  5
171
330
1E
100
AcDbEntity
  8
0
100
AcDbLine
 10
11.0857
 20
142.302
 30
0.0
 11
11.0857
 21
143.368
 31
0.0
  0
LINE
  5
172
330
1E
100
AcDbEntity
  8
0
100
AcDbLine
 10
11.0857
 20
142.302
 30
0.0
 11
11.0857
 21
141.903
 31
0.0
  0
LINE
  5
173
330
1E
100
AcDbEntity
  8
0
100
AcDbLine
 10
12.2619
 20
140.951
 30
0.0
 11
12.2619
 21
141.3849999999999
 31
0.0
  0
LINE
  5
174
330
1E
100
AcDbEntity
  8
0
100
AcDbLine
 10
12.2619
 20
140.951
 30
0.0
 11
12.2619
 21
140.4679999999999
 31
0.0
  0
LINE
  5
175
330
1E
100
AcDbEntity
  8
0
100
AcDbLine
 10
12.2619
 20
139.999
 30
0.0
 11
12.2619
 21
140.4679999999999
 31
0.0
  0
LINE
  5
176
330
1E
100
AcDbEntity
  8
0
100
AcDbLine
 10
12.2619
 20
139.999
 30
0.0
 11
12.7143
 21
139.682
 31
0.0
  0
LINE
  5
177
330
1E
100
AcDbEntity
  8
0
100
AcDbLine
 10
17.2381
 20
139.365
 30
0.0
 11
22.66669999999999
 21
138.731
 31
0.0
  0
LINE
  5
178
330
1E
100
AcDbEntity
  8
0
100
AcDbLine
 10
12.7143
 20
139.682
 30
0.0
 11
17.2381
 21
139.365
 31
0.0
  0
LINE
  5
179
330
1E
100
AcDbEntity
  8
0
100
AcDbLine
 10
12.2619
 20
140.4679999999999
 30
0.0
 11
12.2619
 21
139.999
 31
0.0
  0
LINE
  5
17A
330
1E
100
AcDbEntity
  8
0
100
AcDbLine
 10
12.2619
 20
140.4679999999999
 30
0.0
 11
12.2619
 21
141.716
 31
0.0
  0
LINE
  5
17B
330
1E
100
AcDbEntity
  8
0
100
AcDbLine
 10
12.2619
 20
140.4679999999999
 30
0.0
 11
12.2619
 21
140.951
 31
0.0
  0
LINE
  5
17C
330
1E
100
AcDbEntity
  8
0
100
AcDbLine
 10
12.2619
 20
141.3849999999999
 30
0.0
 11
12.2619
 21
142.542
 31
0.0
  0
LINE
  5
17D
330
1E
100
AcDbEntity
  8
0
100
AcDbLine
 10
12.2619
 20
141.3849999999999
 30
0.0
 11
12.2619
 21
140.951
 31
0.0
  0
LINE
  5
17E
330
1E
100
AcDbEntity
  8
0
100
AcDbLine
 10
12.2619
 20
142.542
 30
0.0
 11
12.2619
 21
144.47
 31
0.0
  0
LINE
  5
17F
330
1E
100
AcDbEntity
  8
0
100
AcDbLine
 10
12.2619
 20
142.542
 30
0.0
 11
12.2619
 21
141.3849999999999
 31
0.0
  0
LINE
  5
180
330
1E
100
AcDbEntity
  8
0
100
AcDbLine
 10
12.2619
 20
141.716
 30
0.0
 11
12.2619
 21
140.4679999999999
 31
0.0
  0
LINE
  5
181
330
1E
100
AcDbEntity
  8
0
100
AcDbLine
 10
12.2619
 20
141.716
 30
0.0
 11
12.2619
 21
143.7969999999999
 31
0.0
  0
LINE
  5
182
330
1E
100
AcDbEntity
  8
0
100
AcDbLine
 10
11.80949999999999
 20
141.2679999999999
 30
0.0
 11
12.2619
 21
140.951
 31
0.0
  0
LINE
  5
183
330
1E
100
AcDbEntity
  8
0
100
AcDbLine
 10
11.0857
 20
141.903
 30
0.0
 11
11.80949999999999
 21
141.2679999999999
 31
0.0
  0
LINE
  5
184
330
1E
100
AcDbEntity
  8
0
100
AcDbLine
 10
11.0857
 20
141.903
 30
0.0
 11
11.0857
 21
142.302
 31
0.0
  0
LINE
  5
185
330
1E
100
AcDbEntity
  8
0
100
AcDbLine
 10
22.66669999999999
 20
138.731
 30
0.0
 11
29.4524
 21
137.462
 31
0.0
  0
LINE
  5
186
330
1E
100
AcDbEntity
  8
0
100
AcDbLine
 10
48.0
 20
135.07
 30
0.0
 11
66.0
 21
135.07
 31
0.0
  0
LINE
  5
187
330
1E
100
AcDbEntity
  8
0
100
AcDbLine
 10
66.0
 20
135.7179999999999
 30
0.0
 11
66.0
 21
137.446
 31
0.0
  0
LINE
  5
188
330
1E
100
AcDbEntity
  8
0
100
AcDbLine
 10
48.0
 20
135.935
 30
0.0
 11
48.0
 21
139.081
 31
0.0
  0
LINE
  5
189
330
1E
100
AcDbEntity
  8
0
100
AcDbLine
 10
66.0
 20
137.446
 30
0.0
 11
66.0
 21
140.3259999999999
 31
0.0
  0
LINE
  5
18A
330
1E
100
AcDbEntity
  8
0
100
AcDbLine
 10
66.0
 20
140.3259999999999
 30
0.0
 11
66.0
 21
144.1419999999999
 31
0.0
  0
LINE
  5
18B
330
1E
100
AcDbEntity
  8
0
100
AcDbLine
 10
48.0
 20
139.081
 30
0.0
 11
48.0
 21
143.25
 31
0.0
  0
LINE
  5
18C
330
1E
100
AcDbEntity
  8
0
100
AcDbLine
 10
34.881
 20
136.1929999999999
 30
0.0
 11
39.4048
 21
134.925
 31
0.0
  0
LINE
  5
18D
330
1E
100
AcDbEntity
  8
0
100
AcDbLine
 10
29.4524
 20
137.462
 30
0.0
 11
34.881
 21
136.1929999999999
 31
0.0
  0
LINE
  5
18E
330
1E
100
AcDbEntity
  8
0
100
AcDbLine
 10
39.4048
 20
134.925
 30
0.0
 11
43.4762
 21
133.339
 31
0.0
  0
LINE
  5
18F
330
1E
100
AcDbEntity
  8
0
100
AcDbLine
 10
66.0
 20
135.07
 30
0.0
 11
66.0
 21
133.5089999999999
 31
0.0
  0
LINE
  5
190
330
1E
100
AcDbEntity
  8
0
100
AcDbLine
 10
66.0
 20
135.07
 30
0.0
 11
66.0
 21
135.7179999999999
 31
0.0
  0
LINE
  5
191
330
1E
100
AcDbEntity
  8
0
100
AcDbLine
 10
11.0857
 20
145.144
 30
0.0
 11
11.0857
 21
147.4979999999999
 31
0.0
  0
LINE
  5
192
330
1E
100
AcDbEntity
  8
0
100
AcDbLine
 10
11.0857
 20
145.144
 30
0.0
 11
11.0857
 21
143.368
 31
0.0
  0
LINE
  5
193
330
1E
100
AcDbEntity
  8
0
100
AcDbLine
 10
11.0857
 20
143.368
 30
0.0
 11
11.0857
 21
145.144
 31
0.0
  0
LINE
  5
194
330
1E
100
AcDbEntity
  8
0
100
AcDbLine
 10
11.0857
 20
143.368
 30
0.0
 11
11.0857
 21
142.302
 31
0.0
  0
LINE
  5
195
330
1E
100
AcDbEntity
  8
0
100
AcDbLine
 10
12.2619
 20
143.7969999999999
 30
0.0
 11
12.2619
 21
141.716
 31
0.0
  0
LINE
  5
196
330
1E
100
AcDbEntity
  8
0
100
AcDbLine
 10
12.2619
 20
143.7969999999999
 30
0.0
 11
12.2619
 21
146.554
 31
0.0
  0
LINE
  5
197
330
1E
100
AcDbEntity
  8
0
100
AcDbLine
 10
12.2619
 20
146.554
 30
0.0
 11
12.2619
 21
143.7969999999999
 31
0.0
  0
LINE
  5
198
330
1E
100
AcDbEntity
  8
0
100
AcDbLine
 10
12.2619
 20
146.554
 30
0.0
 11
12.2619
 21
149.675
 31
0.0
  0
LINE
  5
199
330
1E
100
AcDbEntity
  8
0
100
AcDbLine
 10
12.2619
 20
147.026
 30
0.0
 11
12.2619
 21
144.47
 31
0.0
  0
LINE
  5
19A
330
1E
100
AcDbEntity
  8
0
100
AcDbLine
 10
12.2619
 20
147.026
 30
0.0
 11
12.2619
 21
149.918
 31
0.0
  0
LINE
  5
19B
330
1E
100
AcDbEntity
  8
0
100
AcDbLine
 10
12.2619
 20
144.47
 30
0.0
 11
12.2619
 21
142.542
 31
0.0
  0
LINE
  5
19C
330
1E
100
AcDbEntity
  8
0
100
AcDbLine
 10
12.2619
 20
144.47
 30
0.0
 11
12.2619
 21
147.026
 31
0.0
  0
LINE
  5
19D
330
1E
100
AcDbEntity
  8
0
100
AcDbLine
 10
11.0857
 20
147.4979999999999
 30
0.0
 11
11.0857
 21
150.162
 31
0.0
  0
LINE
  5
19E
330
1E
100
AcDbEntity
  8
0
100
AcDbLine
 10
11.0857
 20
147.4979999999999
 30
0.0
 11
11.0857
 21
145.144
 31
0.0
  0
LINE
  5
19F
330
1E
100
AcDbEntity
  8
0
100
AcDbLine
 10
12.2619
 20
149.918
 30
0.0
 11
12.2619
 21
153.0039999999999
 31
0.0
  0
LINE
  5
1A0
330
1E
100
AcDbEntity
  8
0
100
AcDbLine
 10
12.2619
 20
149.918
 30
0.0
 11
12.2619
 21
147.026
 31
0.0
  0
LINE
  5
1A1
330
1E
100
AcDbEntity
  8
0
100
AcDbLine
 10
66.0
 20
144.1419999999999
 30
0.0
 11
66.0
 21
148.462
 31
0.0
  0
LINE
  5
1A2
330
1E
100
AcDbEntity
  8
0
100
AcDbLine
 10
48.0
 20
143.25
 30
0.0
 11
48.0
 21
147.97
 31
0.0
  0
LINE
  5
1A3
330
1E
100
AcDbEntity
  8
0
100
AcDbLine
 10
66.0
 20
148.462
 30
0.0
 11
66.0
 21
153.0699999999999
 31
0.0
  0
LINE
  5
1A4
330
1E
100
AcDbEntity
  8
0
100
AcDbLine
 10
48.0
 20
147.97
 30
0.0
 11
48.0
 21
153.0039999999999
 31
0.0
  0
LINE
  5
1A5
330
1E
100
AcDbEntity
  8
0
100
AcDbLine
 10
12.2619
 20
149.675
 30
0.0
 11
12.2619
 21
153.0039999999999
 31
0.0
  0
LINE
  5
1A6
330
1E
100
AcDbEntity
  8
0
100
AcDbLine
 10
12.2619
 20
149.675
 30
0.0
 11
12.2619
 21
146.554
 31
0.0
  0
LINE
  5
1A7
330
1E
100
AcDbEntity
  8
0
100
AcDbLine
 10
11.0857
 20
150.162
 30
0.0
 11
11.0857
 21
153.0039999999999
 31
0.0
  0
LINE
  5
1A8
330
1E
100
AcDbEntity
  8
0
100
AcDbLine
 10
11.0857
 20
150.162
 30
0.0
 11
11.0857
 21
147.4979999999999
 31
0.0
  0
LINE
  5
1A9
330
1E
100
AcDbEntity
  8
0
100
AcDbLine
 10
10.4524
 20
146.6599999999999
 30
0.0
 11
11.0857
 21
141.903
 31
0.0
  0
LINE
  5
1AA
330
1E
100
AcDbEntity
  8
0
100
AcDbLine
 10
66.0
 20
142.925
 30
0.0
 11
66.0
 21
151.733
 31
0.0
  0
LINE
  5
1AB
330
1E
100
AcDbEntity
  8
0
100
AcDbLine
 10
66.0
 20
142.925
 30
0.0
 11
66.0
 21
133.5089999999999
 31
0.0
  0
LINE
  5
1AC
330
1E
100
AcDbEntity
  8
0
100
AcDbLine
 10
66.0
 20
133.5089999999999
 30
0.0
 11
66.0
 21
142.925
 31
0.0
  0
LINE
  5
1AD
330
1E
100
AcDbEntity
  8
0
100
AcDbLine
 10
66.0
 20
133.5089999999999
 30
0.0
 11
66.0
 21
135.07
 31
0.0
  0
LINE
  5
1AE
330
1E
100
AcDbEntity
  8
0
100
AcDbLine
 10
66.0
 20
133.5089999999999
 30
0.0
 11
66.0
 21
124.0931999999999
 31
0.0
  0
LINE
  5
1AF
330
1E
100
AcDbEntity
  8
0
100
AcDbLine
 10
10.0
 20
153.0039999999999
 30
0.0
 11
10.4524
 21
159.347
 31
0.0
  0
LINE
  5
1B0
330
1E
100
AcDbEntity
  8
0
100
AcDbLine
 10
10.0
 20
153.0039999999999
 30
0.0
 11
10.4524
 21
146.6599999999999
 31
0.0
  0
LINE
  5
1B1
330
1E
100
AcDbEntity
  8
0
100
AcDbLine
 10
11.0857
 20
153.0039999999999
 30
0.0
 11
11.0857
 21
155.846
 31
0.0
  0
LINE
  5
1B2
330
1E
100
AcDbEntity
  8
0
100
AcDbLine
 10
11.0857
 20
153.0039999999999
 30
0.0
 11
11.0857
 21
150.162
 31
0.0
  0
LINE
  5
1B3
330
1E
100
AcDbEntity
  8
0
100
AcDbLine
 10
11.0857
 20
155.846
 30
0.0
 11
11.0857
 21
158.5099999999999
 31
0.0
  0
LINE
  5
1B4
330
1E
100
AcDbEntity
  8
0
100
AcDbLine
 10
11.0857
 20
155.846
 30
0.0
 11
11.0857
 21
153.0039999999999
 31
0.0
  0
LINE
  5
1B5
330
1E
100
AcDbEntity
  8
0
100
AcDbLine
 10
10.4524
 20
159.347
 30
0.0
 11
11.0857
 21
164.1049999999999
 31
0.0
  0
LINE
  5
1B6
330
1E
100
AcDbEntity
  8
0
100
AcDbLine
 10
11.0857
 20
164.1049999999999
 30
0.0
 11
11.0857
 21
163.706
 31
0.0
  0
LINE
  5
1B7
330
1E
100
AcDbEntity
  8
0
100
AcDbLine
 10
11.0857
 20
164.1049999999999
 30
0.0
 11
11.80949999999999
 21
164.74
 31
0.0
  0
LINE
  5
1B8
330
1E
100
AcDbEntity
  8
0
100
AcDbLine
 10
11.0857
 20
163.706
 30
0.0
 11
11.0857
 21
162.6399999999999
 31
0.0
  0
LINE
  5
1B9
330
1E
100
AcDbEntity
  8
0
100
AcDbLine
 10
11.0857
 20
163.706
 30
0.0
 11
11.0857
 21
164.1049999999999
 31
0.0
  0
LINE
  5
1BA
330
1E
100
AcDbEntity
  8
0
100
AcDbLine
 10
11.0857
 20
162.6399999999999
 30
0.0
 11
11.0857
 21
160.864
 31
0.0
  0
LINE
  5
1BB
330
1E
100
AcDbEntity
  8
0
100
AcDbLine
 10
11.0857
 20
162.6399999999999
 30
0.0
 11
11.0857
 21
163.706
 31
0.0
  0
LINE
  5
1BC
330
1E
100
AcDbEntity
  8
0
100
AcDbLine
 10
11.0857
 20
158.5099999999999
 30
0.0
 11
11.0857
 21
160.864
 31
0.0
  0
LINE
  5
1BD
330
1E
100
AcDbEntity
  8
0
100
AcDbLine
 10
11.0857
 20
158.5099999999999
 30
0.0
 11
11.0857
 21
155.846
 31
0.0
  0
LINE
  5
1BE
330
1E
100
AcDbEntity
  8
0
100
AcDbLine
 10
12.2619
 20
156.09
 30
0.0
 11
12.2619
 21
153.0039999999999
 31
0.0
  0
LINE
  5
1BF
330
1E
100
AcDbEntity
  8
0
100
AcDbLine
 10
12.2619
 20
156.09
 30
0.0
 11
12.2619
 21
158.982
 31
0.0
  0
LINE
  5
1C0
330
1E
100
AcDbEntity
  8
0
100
AcDbLine
 10
12.2619
 20
153.0039999999999
 30
0.0
 11
12.2619
 21
156.333
 31
0.0
  0
LINE
  5
1C1
330
1E
100
AcDbEntity
  8
0
100
AcDbLine
 10
12.2619
 20
153.0039999999999
 30
0.0
 11
12.2619
 21
156.09
 31
0.0
  0
LINE
  5
1C2
330
1E
100
AcDbEntity
  8
0
100
AcDbLine
 10
12.2619
 20
153.0039999999999
 30
0.0
 11
12.2619
 21
149.918
 31
0.0
  0
LINE
  5
1C3
330
1E
100
AcDbEntity
  8
0
100
AcDbLine
 10
12.2619
 20
153.0039999999999
 30
0.0
 11
12.2619
 21
149.675
 31
0.0
  0
LINE
  5
1C4
330
1E
100
AcDbEntity
  8
0
100
AcDbLine
 10
12.2619
 20
156.333
 30
0.0
 11
12.2619
 21
159.454
 31
0.0
  0
LINE
  5
1C5
330
1E
100
AcDbEntity
  8
0
100
AcDbLine
 10
12.2619
 20
156.333
 30
0.0
 11
12.2619
 21
153.0039999999999
 31
0.0
  0
LINE
  5
1C6
330
1E
100
AcDbEntity
  8
0
100
AcDbLine
 10
12.2619
 20
159.454
 30
0.0
 11
12.2619
 21
162.211
 31
0.0
  0
LINE
  5
1C7
330
1E
100
AcDbEntity
  8
0
100
AcDbLine
 10
12.2619
 20
158.982
 30
0.0
 11
12.2619
 21
156.09
 31
0.0
  0
LINE
  5
1C8
330
1E
100
AcDbEntity
  8
0
100
AcDbLine
 10
12.2619
 20
158.982
 30
0.0
 11
12.2619
 21
161.537
 31
0.0
  0
LINE
  5
1C9
330
1E
100
AcDbEntity
  8
0
100
AcDbLine
 10
12.2619
 20
161.537
 30
0.0
 11
12.2619
 21
163.466
 31
0.0
  0
LINE
  5
1CA
330
1E
100
AcDbEntity
  8
0
100
AcDbLine
 10
12.2619
 20
162.211
 30
0.0
 11
12.2619
 21
164.292
 31
0.0
  0
LINE
  5
1CB
330
1E
100
AcDbEntity
  8
0
100
AcDbLine
 10
12.2619
 20
162.211
 30
0.0
 11
12.2619
 21
159.454
 31
0.0
  0
LINE
  5
1CC
330
1E
100
AcDbEntity
  8
0
100
AcDbLine
 10
48.0
 20
158.0379999999999
 30
0.0
 11
48.0
 21
162.7579999999999
 31
0.0
  0
LINE
  5
1CD
330
1E
100
AcDbEntity
  8
0
100
AcDbLine
 10
66.0
 20
161.9979999999999
 30
0.0
 11
66.0
 21
165.814
 31
0.0
  0
LINE
  5
1CE
330
1E
100
AcDbEntity
  8
0
100
AcDbLine
 10
66.0
 20
157.678
 30
0.0
 11
66.0
 21
161.9979999999999
 31
0.0
  0
LINE
  5
1CF
330
1E
100
AcDbEntity
  8
0
100
AcDbLine
 10
66.0
 20
153.0699999999999
 30
0.0
 11
66.0
 21
157.678
 31
0.0
  0
LINE
  5
1D0
330
1E
100
AcDbEntity
  8
0
100
AcDbLine
 10
48.0
 20
153.0039999999999
 30
0.0
 11
48.0
 21
158.0379999999999
 31
0.0
  0
LINE
  5
1D1
330
1E
100
AcDbEntity
  8
0
100
AcDbLine
 10
48.0
 20
162.7579999999999
 30
0.0
 11
48.0
 21
166.927
 31
0.0
  0
LINE
  5
1D2
330
1E
100
AcDbEntity
  8
0
100
AcDbLine
 10
12.2619
 20
163.466
 30
0.0
 11
12.2619
 21
161.537
 31
0.0
  0
LINE
  5
1D3
330
1E
100
AcDbEntity
  8
0
100
AcDbLine
 10
12.2619
 20
163.466
 30
0.0
 11
12.2619
 21
164.6229999999999
 31
0.0
  0
LINE
  5
1D4
330
1E
100
AcDbEntity
  8
0
100
AcDbLine
 10
12.2619
 20
165.374
 30
0.0
 11
12.2619
 21
165.86
 31
0.0
  0
LINE
  5
1D5
330
1E
100
AcDbEntity
  8
0
100
AcDbLine
 10
11.80949999999999
 20
164.74
 30
0.0
 11
12.2619
 21
165.057
 31
0.0
  0
LINE
  5
1D6
330
1E
100
AcDbEntity
  8
0
100
AcDbLine
 10
12.2619
 20
164.6229999999999
 30
0.0
 11
12.2619
 21
163.466
 31
0.0
  0
LINE
  5
1D7
330
1E
100
AcDbEntity
  8
0
100
AcDbLine
 10
12.2619
 20
164.6229999999999
 30
0.0
 11
12.2619
 21
165.057
 31
0.0
  0
LINE
  5
1D8
330
1E
100
AcDbEntity
  8
0
100
AcDbLine
 10
12.2619
 20
165.057
 30
0.0
 11
12.2619
 21
164.6229999999999
 31
0.0
  0
LINE
  5
1D9
330
1E
100
AcDbEntity
  8
0
100
AcDbLine
 10
12.2619
 20
165.057
 30
0.0
 11
12.2619
 21
165.54
 31
0.0
  0
LINE
  5
1DA
330
1E
100
AcDbEntity
  8
0
100
AcDbLine
 10
12.2619
 20
165.86
 30
0.0
 11
12.2619
 21
165.374
 31
0.0
  0
LINE
  5
1DB
330
1E
100
AcDbEntity
  8
0
100
AcDbLine
 10
12.2619
 20
165.86
 30
0.0
 11
12.2619
 21
166.476
 31
0.0
  0
LINE
  5
1DC
330
1E
100
AcDbEntity
  8
0
100
AcDbLine
 10
12.2619
 20
166.476
 30
0.0
 11
12.3484
 21
167.345
 31
0.0
  0
LINE
  5
1DD
330
1E
100
AcDbEntity
  8
0
100
AcDbLine
 10
12.2619
 20
166.476
 30
0.0
 11
12.2619
 21
165.86
 31
0.0
  0
LINE
  5
1DE
330
1E
100
AcDbEntity
  8
0
100
AcDbLine
 10
12.2619
 20
165.54
 30
0.0
 11
12.2619
 21
164.292
 31
0.0
  0
LINE
  5
1DF
330
1E
100
AcDbEntity
  8
0
100
AcDbLine
 10
12.2619
 20
165.54
 30
0.0
 11
12.2619
 21
166.0079999999999
 31
0.0
  0
LINE
  5
1E0
330
1E
100
AcDbEntity
  8
0
100
AcDbLine
 10
12.2619
 20
165.54
 30
0.0
 11
12.2619
 21
165.057
 31
0.0
  0
LINE
  5
1E1
330
1E
100
AcDbEntity
  8
0
100
AcDbLine
 10
12.2619
 20
166.0079999999999
 30
0.0
 11
12.2619
 21
165.54
 31
0.0
  0
LINE
  5
1E2
330
1E
100
AcDbEntity
  8
0
100
AcDbLine
 10
12.3484
 20
167.345
 30
0.0
 11
12.4041
 21
168.354
 31
0.0
  0
LINE
  5
1E3
330
1E
100
AcDbEntity
  8
0
100
AcDbLine
 10
12.4772
 20
170.175
 30
0.0
 11
12.4772
 21
171.5079999999999
 31
0.0
  0
LINE
  5
1E5
330
1E
100
AcDbEntity
  8
0
100
AcDbLine
 10
29.9126
 20
169.3979999999999
 30
0.0
 11
30.9791
 21
168.914
 31
0.0
  0
LINE
  5
1E7
330
1E
100
AcDbEntity
  8
0
100
AcDbLine
 10
12.4041
 20
168.354
 30
0.0
 11
12.4772
 21
170.175
 31
0.0
  0
LINE
  5
1E8
330
1E
100
AcDbEntity
  8
0
100
AcDbLine
 10
29.0969
 20
170.19
 30
0.0
 11
29.9126
 21
169.3979999999999
 31
0.0
  0
LINE
  5
1EA
330
1E
100
AcDbEntity
  8
0
100
AcDbLine
 10
48.0
 20
171.0699999999999
 30
0.0
 11
66.0
 21
171.0699999999999
 31
0.0
  0
LINE
  5
1EB
330
1E
100
AcDbEntity
  8
0
100
AcDbLine
 10
34.881
 20
169.815
 30
0.0
 11
39.4048
 21
171.083
 31
0.0
  0
LINE
  5
1EC
330
1E
100
AcDbEntity
  8
0
100
AcDbLine
 10
31.0035162080701
 20
168.908591914682
 30
0.0
 11
34.881
 21
169.815
 31
0.0
  0
LINE
  5
1ED
330
1E
100
AcDbEntity
  8
0
100
AcDbLine
 10
48.0
 20
166.927
 30
0.0
 11
48.0
 21
170.0729999999999
 31
0.0
  0
LINE
  5
1EE
330
1E
100
AcDbEntity
  8
0
100
AcDbLine
 10
66.0
 20
170.422
 30
0.0
 11
66.0
 21
171.0699999999999
 31
0.0
  0
LINE
  5
1EF
330
1E
100
AcDbEntity
  8
0
100
AcDbLine
 10
66.0
 20
168.694
 30
0.0
 11
66.0
 21
170.422
 31
0.0
  0
LINE
  5
1F0
330
1E
100
AcDbEntity
  8
0
100
AcDbLine
 10
66.0
 20
165.814
 30
0.0
 11
66.0
 21
168.694
 31
0.0
  0
LINE
  5
1F1
330
1E
100
AcDbEntity
  8
0
100
AcDbLine
 10
48.0
 20
170.0729999999999
 30
0.0
 11
48.0
 21
171.9609999999999
 31
0.0
  0
LINE
  5
1F2
330
1E
100
AcDbEntity
  8
0
100
AcDbLine
 10
12.2619
 20
164.292
 30
0.0
 11
12.2619
 21
162.211
 31
0.0
  0
LINE
  5
1F3
330
1E
100
AcDbEntity
  8
0
100
AcDbLine
 10
12.2619
 20
164.292
 30
0.0
 11
12.2619
 21
165.54
 31
0.0
  0
LINE
  5
1F4
330
1E
100
AcDbEntity
  8
0
100
AcDbLine
 10
11.0857
 20
160.864
 30
0.0
 11
11.0857
 21
162.6399999999999
 31
0.0
  0
LINE
  5
1F5
330
1E
100
AcDbEntity
  8
0
100
AcDbLine
 10
12.5138
 20
174.047
 30
0.0
 11
12.5138
 21
175.0699999999999
 31
0.0
  0
LINE
  5
1F6
330
1E
100
AcDbEntity
  8
0
100
AcDbLine
 10
28.25
 20
171.5109999999999
 30
0.0
 11
29.0969
 21
170.19
 31
0.0
  0
LINE
  5
1F7
330
1E
100
AcDbEntity
  8
0
100
AcDbLine
 10
27.6853
 20
174.0409999999999
 30
0.0
 11
28.25
 21
171.5109999999999
 31
0.0
  0
LINE
  5
1FA
330
1E
100
AcDbEntity
  8
0
100
AcDbLine
 10
12.4772
 20
171.5079999999999
 30
0.0
 11
12.5138
 21
174.047
 31
0.0
  0
LINE
  5
1FB
330
1E
100
AcDbEntity
  8
0
100
AcDbLine
 10
12.4772
 20
171.5079999999999
 30
0.0
 11
12.4772
 21
170.175
 31
0.0
  0
LINE
  5
1FC
330
1E
100
AcDbEntity
  8
0
100
AcDbLine
 10
39.4048
 20
171.083
 30
0.0
 11
43.4762
 21
172.669
 31
0.0
  0
LINE
  5
1FD
330
1E
100
AcDbEntity
  8
0
100
AcDbLine
 10
48.0
 20
171.9609999999999
 30
0.0
 11
48.0
 21
172.669
 31
0.0
  0
LINE
  5
1FE
330
1E
100
AcDbEntity
  8
0
100
AcDbLine
 10
47.0952
 20
173.6209999999999
 30
0.0
 11
48.0
 21
172.669
 31
0.0
  0
LINE
  5
1FF
330
1E
100
AcDbEntity
  8
0
100
AcDbLine
 10
45.7381
 20
173.9379999999999
 30
0.0
 11
47.0952
 21
173.6209999999999
 31
0.0
  0
LINE
  5
200
330
1E
100
AcDbEntity
  8
0
100
AcDbLine
 10
44.381
 20
173.6209999999999
 30
0.0
 11
45.7381
 21
173.9379999999999
 31
0.0
  0
LINE
  5
201
330
1E
100
AcDbEntity
  8
0
100
AcDbLine
 10
43.4762
 20
172.669
 30
0.0
 11
44.381
 21
173.6209999999999
 31
0.0
  0
LINE
  5
202
330
1E
100
AcDbEntity
  8
0
100
AcDbLine
 10
66.0
 20
171.0699999999999
 30
0.0
 11
66.0
 21
174.209
 31
0.0
  0
LINE
  5
203
330
1E
100
AcDbEntity
  8
0
100
AcDbLine
 10
66.0
 20
160.237
 30
0.0
 11
66.0
 21
167.527
 31
0.0
  0
LINE
  5
204
330
1E
100
AcDbEntity
  8
0
100
AcDbLine
 10
66.0
 20
160.237
 30
0.0
 11
66.0
 21
151.733
 31
0.0
  0
LINE
  5
205
330
1E
100
AcDbEntity
  8
0
100
AcDbLine
 10
66.0
 20
151.733
 30
0.0
 11
66.0
 21
160.237
 31
0.0
  0
LINE
  5
206
330
1E
100
AcDbEntity
  8
0
100
AcDbLine
 10
66.0
 20
151.733
 30
0.0
 11
66.0
 21
142.925
 31
0.0
  0
LINE
  5
207
330
1E
100
AcDbEntity
  8
0
100
AcDbLine
 10
66.0
 20
167.527
 30
0.0
 11
66.0
 21
174.209
 31
0.0
  0
LINE
  5
208
330
1E
100
AcDbEntity
  8
0
100
AcDbLine
 10
66.0
 20
167.527
 30
0.0
 11
66.0
 21
160.237
 31
0.0
  0
LINE
  5
209
330
1E
100
AcDbEntity
  8
0
100
AcDbLine
 10
27.5833
 20
175.0699999999999
 30
0.0
 11
27.6853
 21
174.0409999999999
 31
0.0
  0
LINE
  5
20B
330
1E
100
AcDbEntity
  8
0
100
AcDbLine
 10
27.5051
 20
175.586
 30
0.0
 11
27.5833
 21
175.0699999999999
 31
0.0
  0
LINE
  5
20D
330
1E
100
AcDbEntity
  8
0
100
AcDbLine
 10
12.5138
 20
175.609
 30
0.0
 11
12.5138
 21
175.0699999999999
 31
0.0
  0
LINE
  5
20E
330
1E
100
AcDbEntity
  8
0
100
AcDbLine
 10
27.2348
 20
177.095
 30
0.0
 11
27.5051
 21
175.586
 31
0.0
  0
LINE
  5
210
330
1E
100
AcDbEntity
  8
0
100
AcDbLine
 10
12.4772
 20
177.071
 30
0.0
 11
12.5138
 21
175.609
 31
0.0
  0
LINE
  5
211
330
1E
100
AcDbEntity
  8
0
100
AcDbLine
 10
26.5782
 20
179.314
 30
0.0
 11
27.2348
 21
177.095
 31
0.0
  0
LINE
  5
214
330
1E
100
AcDbEntity
  8
0
100
AcDbLine
 10
12.2944
 20
179.289
 30
0.0
 11
12.4772
 21
177.071
 31
0.0
  0
LINE
  5
215
330
1E
100
AcDbEntity
  8
0
100
AcDbLine
 10
25.8445
 20
181.7809999999999
 30
0.0
 11
26.5782
 21
179.314
 31
0.0
  0
LINE
  5
217
330
1E
100
AcDbEntity
  8
0
100
AcDbLine
 10
25.188
 20
183.9109999999999
 30
0.0
 11
25.8445
 21
181.7809999999999
 31
0.0
  0
LINE
  5
21A
330
1E
100
AcDbEntity
  8
0
100
AcDbLine
 10
11.8558
 20
181.742
 30
0.0
 11
12.2944
 21
179.289
 31
0.0
  0
LINE
  5
21C
330
1E
100
AcDbEntity
  8
0
100
AcDbLine
 10
11.49029999999999
 20
183.9259999999999
 30
0.0
 11
11.8558
 21
181.742
 31
0.0
  0
LINE
  5
21D
330
1E
100
AcDbEntity
  8
0
100
AcDbLine
 10
12.5138
 20
175.0699999999999
 30
0.0
 11
12.5138
 21
174.047
 31
0.0
  0
LINE
  5
21E
330
1E
100
AcDbEntity
  8
0
100
AcDbLine
 10
12.5138
 20
175.0699999999999
 30
0.0
 11
12.5138
 21
175.609
 31
0.0
  0
LINE
  5
21F
330
1E
100
AcDbEntity
  8
0
100
AcDbLine
 10
66.0
 20
179.9799999999999
 30
0.0
 11
66.0
 21
183.929
 31
0.0
  0
LINE
  5
220
330
1E
100
AcDbEntity
  8
0
100
AcDbLine
 10
66.0
 20
179.9799999999999
 30
0.0
 11
66.0
 21
174.209
 31
0.0
  0
LINE
  5
221
330
1E
100
AcDbEntity
  8
0
100
AcDbLine
 10
10.1378
 20
191.0659999999999
 30
0.0
 11
10.5034
 21
188.68
 31
0.0
  0
LINE
  5
222
330
1E
100
AcDbEntity
  8
0
100
AcDbLine
 10
10.5034
 20
188.68
 30
0.0
 11
11.1248
 21
185.992
 31
0.0
  0
LINE
  5
224
330
1E
100
AcDbEntity
  8
0
100
AcDbLine
 10
10.0
 20
192.8229999999999
 30
0.0
 11
10.0493
 21
193.579
 31
0.0
  0
LINE
  5
225
330
1E
100
AcDbEntity
  8
0
100
AcDbLine
 10
10.0
 20
192.8229999999999
 30
0.0
 11
10.1378
 21
191.0659999999999
 31
0.0
  0
LINE
  5
229
330
1E
100
AcDbEntity
  8
0
100
AcDbLine
 10
10.0493
 20
193.579
 30
0.0
 11
10.47549999999999
 21
193.8179999999999
 31
0.0
  0
LINE
  5
22B
330
1E
100
AcDbEntity
  8
0
100
AcDbLine
 10
24.49279999999999
 20
186.0059999999999
 30
0.0
 11
25.188
 21
183.9109999999999
 31
0.0
  0
LINE
  5
22D
330
1E
100
AcDbEntity
  8
0
100
AcDbLine
 10
11.1248
 20
185.992
 30
0.0
 11
11.49029999999999
 21
183.9259999999999
 31
0.0
  0
LINE
  5
22E
330
1E
100
AcDbEntity
  8
0
100
AcDbLine
 10
22.6174
 20
193.579
 30
0.0
 11
22.8414
 21
192.825
 31
0.0
  0
LINE
  5
231
330
1E
100
AcDbEntity
  8
0
100
AcDbLine
 10
23.7204
 20
188.722
 30
0.0
 11
24.49279999999999
 21
186.0059999999999
 31
0.0
  0
LINE
  5
232
330
1E
100
AcDbEntity
  8
0
100
AcDbLine
 10
23.10249999999999
 20
191.047
 30
0.0
 11
23.7204
 21
188.722
 31
0.0
  0
LINE
  5
233
330
1E
100
AcDbEntity
  8
0
100
AcDbLine
 10
22.8414
 20
192.825
 30
0.0
 11
23.10249999999999
 21
191.047
 31
0.0
  0
LINE
  5
236
330
1E
100
AcDbEntity
  8
0
100
AcDbLine
 10
10.47549999999999
 20
193.8179999999999
 30
0.0
 11
13.2701
 21
193.949
 31
0.0
  0
LINE
  5
237
330
1E
100
AcDbEntity
  8
0
100
AcDbLine
 10
22.1911
 20
193.8179999999999
 30
0.0
 11
22.6174
 21
193.579
 31
0.0
  0
LINE
  5
238
330
1E
100
AcDbEntity
  8
0
100
AcDbLine
 10
19.39659999999999
 20
193.949
 30
0.0
 11
22.1911
 21
193.8179999999999
 31
0.0
  0
LINE
  5
239
330
1E
100
AcDbEntity
  8
0
100
AcDbLine
 10
16.3333
 20
194.0699999999999
 30
0.0
 11
19.39659999999999
 21
193.949
 31
0.0
  0
LINE
  5
23B
330
1E
100
AcDbEntity
  8
0
100
AcDbLine
 10
13.2701
 20
193.949
 30
0.0
 11
16.3333
 21
194.0699999999999
 31
0.0
  0
LINE
  5
23D
330
1E
100
AcDbEntity
  8
0
100
AcDbLine
 10
66.0
 20
187.27
 30
0.0
 11
66.0
 21
189.092
 31
0.0
  0
LINE
  5
23E
330
1E
100
AcDbEntity
  8
0
100
AcDbLine
 10
66.0
 20
187.27
 30
0.0
 11
66.0
 21
183.929
 31
0.0
  0
LINE
  5
23F
330
1E
100
AcDbEntity
  8
0
100
AcDbLine
 10
66.0
 20
183.929
 30
0.0
 11
66.0
 21
187.27
 31
0.0
  0
LINE
  5
240
330
1E
100
AcDbEntity
  8
0
100
AcDbLine
 10
66.0
 20
183.929
 30
0.0
 11
66.0
 21
179.9799999999999
 31
0.0
  0
LINE
  5
241
330
1E
100
AcDbEntity
  8
0
100
AcDbLine
 10
66.0
 20
189.092
 30
0.0
 11
66.0
 21
190.0029999999999
 31
0.0
  0
LINE
  5
242
330
1E
100
AcDbEntity
  8
0
100
AcDbLine
 10
66.0
 20
189.092
 30
0.0
 11
66.0
 21
187.27
 31
0.0
  0
LINE
  5
243
330
1E
100
AcDbEntity
  8
0
100
AcDbLine
 10
66.0
 20
174.209
 30
0.0
 11
66.0
 21
179.9799999999999
 31
0.0
  0
LINE
  5
244
330
1E
100
AcDbEntity
  8
0
100
AcDbLine
 10
66.0
 20
174.209
 30
0.0
 11
66.0
 21
171.0699999999999
 31
0.0
  0
LINE
  5
245
330
1E
100
AcDbEntity
  8
0
100
AcDbLine
 10
66.0
 20
174.209
 30
0.0
 11
66.0
 21
167.527
 31
0.0
  0
LINE
  5
246
330
1E
100
AcDbEntity
  8
0
100
AcDbLine
 10
66.0
 20
190.0029999999999
 30
0.0
 11
66.0
 21
189.092
 31
0.0
  0
LINE
  5
247
330
1E
100
AcDbEntity
  8
0
100
AcDbLine
 10
66.0
 20
190.0029999999999
 30
0.0
 11
67.1429
 21
190.5699999999999
 31
0.0
  0
LINE
  5
248
330
1E
100
AcDbEntity
  8
0
100
AcDbLine
 10
66.0
 20
124.0931999999999
 30
0.0
 11
66.0
 21
133.5089999999999
 31
0.0
  0
LINE
  5
249
330
1E
100
AcDbEntity
  8
0
100
AcDbLine
 10
66.0
 20
124.0931999999999
 30
0.0
 11
66.0
 21
114.07
 31
0.0
  0
LINE
  5
24A
330
1E
100
AcDbEntity
  8
0
100
AcDbLine
 10
66.0
 20
114.07
 30
0.0
 11
66.0
 21
105.0699999999999
 31
0.0
  0
LINE
  5
24B
330
1E
100
AcDbEntity
  8
0
100
AcDbLine
 10
66.0
 20
114.07
 30
0.0
 11
66.0
 21
104.0468
 31
0.0
  0
LINE
  5
24C
330
1E
100
AcDbEntity
  8
0
100
AcDbLine
 10
66.0
 20
114.07
 30
0.0
 11
66.0
 21
124.0931999999999
 31
0.0
  0
LINE
  5
24D
330
1E
100
AcDbEntity
  8
0
100
AcDbLine
 10
66.0
 20
105.0699999999999
 30
0.0
 11
66.0
 21
114.07
 31
0.0
  0
LINE
  5
24E
330
1E
100
AcDbEntity
  8
0
100
AcDbLine
 10
67.1429
 20
37.57
 30
0.0
 11
67.1429
 21
37.00333
 31
0.0
  0
LINE
  5
24F
330
1E
100
AcDbEntity
  8
0
100
AcDbLine
 10
67.1429
 20
37.57
 30
0.0
 11
67.1429
 21
38.488
 31
0.0
  0
LINE
  5
250
330
1E
100
AcDbEntity
  8
0
100
AcDbLine
 10
67.1429
 20
37.00333
 30
0.0
 11
67.1429
 21
37.57
 31
0.0
  0
LINE
  5
251
330
1E
100
AcDbEntity
  8
0
100
AcDbLine
 10
67.1429
 20
37.00333
 30
0.0
 11
70.5714
 21
36.43667
 31
0.0
  0
LINE
  5
252
330
1E
100
AcDbEntity
  8
0
100
AcDbLine
 10
67.1429
 20
37.00333
 30
0.0
 11
67.1429
 21
37.92812999999999
 31
0.0
  0
LINE
  5
253
330
1E
100
AcDbEntity
  8
0
100
AcDbLine
 10
67.1429
 20
103.8972
 30
0.0
 11
67.1429
 21
114.07
 31
0.0
  0
LINE
  5
254
330
1E
100
AcDbEntity
  8
0
100
AcDbLine
 10
67.1429
 20
103.972
 30
0.0
 11
67.1429
 21
114.07
 31
0.0
  0
LINE
  5
255
330
1E
100
AcDbEntity
  8
0
100
AcDbLine
 10
67.1429
 20
124.1679999999999
 30
0.0
 11
67.1429
 21
133.654
 31
0.0
  0
LINE
  5
256
330
1E
100
AcDbEntity
  8
0
100
AcDbLine
 10
67.1429
 20
124.1679999999999
 30
0.0
 11
67.1429
 21
114.07
 31
0.0
  0
LINE
  5
257
330
1E
100
AcDbEntity
  8
0
100
AcDbLine
 10
67.1429
 20
124.2428
 30
0.0
 11
67.1429
 21
114.07
 31
0.0
  0
LINE
  5
258
330
1E
100
AcDbEntity
  8
0
100
AcDbLine
 10
67.1429
 20
124.2428
 30
0.0
 11
67.1429
 21
133.799
 31
0.0
  0
LINE
  5
259
330
1E
100
AcDbEntity
  8
0
100
AcDbLine
 10
67.1429
 20
133.654
 30
0.0
 11
67.1429
 21
143.1399999999999
 31
0.0
  0
LINE
  5
25A
330
1E
100
AcDbEntity
  8
0
100
AcDbLine
 10
67.1429
 20
133.654
 30
0.0
 11
67.1429
 21
124.1679999999999
 31
0.0
  0
LINE
  5
25B
330
1E
100
AcDbEntity
  8
0
100
AcDbLine
 10
67.1429
 20
152.014
 30
0.0
 11
67.1429
 21
160.582
 31
0.0
  0
LINE
  5
25C
330
1E
100
AcDbEntity
  8
0
100
AcDbLine
 10
67.1429
 20
152.014
 30
0.0
 11
67.1429
 21
143.1399999999999
 31
0.0
  0
LINE
  5
25D
330
1E
100
AcDbEntity
  8
0
100
AcDbLine
 10
67.1429
 20
174.6579999999999
 30
0.0
 11
67.1429
 21
180.472
 31
0.0
  0
LINE
  5
25E
330
1E
100
AcDbEntity
  8
0
100
AcDbLine
 10
67.1429
 20
174.6579999999999
 30
0.0
 11
67.1429
 21
167.926
 31
0.0
  0
LINE
  5
25F
330
1E
100
AcDbEntity
  8
0
100
AcDbLine
 10
67.1429
 20
167.926
 30
0.0
 11
67.1429
 21
174.6579999999999
 31
0.0
  0
LINE
  5
260
330
1E
100
AcDbEntity
  8
0
100
AcDbLine
 10
67.1429
 20
167.926
 30
0.0
 11
67.1429
 21
160.582
 31
0.0
  0
LINE
  5
261
330
1E
100
AcDbEntity
  8
0
100
AcDbLine
 10
67.1429
 20
160.582
 30
0.0
 11
67.1429
 21
167.926
 31
0.0
  0
LINE
  5
262
330
1E
100
AcDbEntity
  8
0
100
AcDbLine
 10
67.1429
 20
160.582
 30
0.0
 11
67.1429
 21
152.014
 31
0.0
  0
LINE
  5
263
330
1E
100
AcDbEntity
  8
0
100
AcDbLine
 10
67.1429
 20
160.927
 30
0.0
 11
67.1429
 21
152.2949999999999
 31
0.0
  0
LINE
  5
264
330
1E
100
AcDbEntity
  8
0
100
AcDbLine
 10
67.1429
 20
160.927
 30
0.0
 11
67.1429
 21
168.3249999999999
 31
0.0
  0
LINE
  5
265
330
1E
100
AcDbEntity
  8
0
100
AcDbLine
 10
67.1429
 20
180.472
 30
0.0
 11
67.1429
 21
184.45
 31
0.0
  0
LINE
  5
266
330
1E
100
AcDbEntity
  8
0
100
AcDbLine
 10
67.1429
 20
180.472
 30
0.0
 11
67.1429
 21
174.6579999999999
 31
0.0
  0
LINE
  5
267
330
1E
100
AcDbEntity
  8
0
100
AcDbLine
 10
67.1429
 20
175.107
 30
0.0
 11
67.1429
 21
168.3249999999999
 31
0.0
  0
LINE
  5
268
330
1E
100
AcDbEntity
  8
0
100
AcDbLine
 10
67.1429
 20
175.107
 30
0.0
 11
67.1429
 21
180.964
 31
0.0
  0
LINE
  5
269
330
1E
100
AcDbEntity
  8
0
100
AcDbLine
 10
67.1429
 20
168.3249999999999
 30
0.0
 11
67.1429
 21
160.927
 31
0.0
  0
LINE
  5
26A
330
1E
100
AcDbEntity
  8
0
100
AcDbLine
 10
67.1429
 20
168.3249999999999
 30
0.0
 11
67.1429
 21
175.107
 31
0.0
  0
LINE
  5
26B
330
1E
100
AcDbEntity
  8
0
100
AcDbLine
 10
67.1429
 20
184.45
 30
0.0
 11
67.1429
 21
187.8159999999999
 31
0.0
  0
LINE
  5
26C
330
1E
100
AcDbEntity
  8
0
100
AcDbLine
 10
67.1429
 20
184.45
 30
0.0
 11
67.1429
 21
180.472
 31
0.0
  0
LINE
  5
26D
330
1E
100
AcDbEntity
  8
0
100
AcDbLine
 10
67.1429
 20
187.8159999999999
 30
0.0
 11
67.1429
 21
189.652
 31
0.0
  0
LINE
  5
26E
330
1E
100
AcDbEntity
  8
0
100
AcDbLine
 10
67.1429
 20
187.8159999999999
 30
0.0
 11
67.1429
 21
184.45
 31
0.0
  0
LINE
  5
26F
330
1E
100
AcDbEntity
  8
0
100
AcDbLine
 10
67.1429
 20
184.9709999999999
 30
0.0
 11
67.1429
 21
180.964
 31
0.0
  0
LINE
  5
270
330
1E
100
AcDbEntity
  8
0
100
AcDbLine
 10
67.1429
 20
184.9709999999999
 30
0.0
 11
67.1429
 21
188.362
 31
0.0
  0
LINE
  5
271
330
1E
100
AcDbEntity
  8
0
100
AcDbLine
 10
67.1429
 20
180.964
 30
0.0
 11
67.1429
 21
175.107
 31
0.0
  0
LINE
  5
272
330
1E
100
AcDbEntity
  8
0
100
AcDbLine
 10
67.1429
 20
180.964
 30
0.0
 11
67.1429
 21
184.9709999999999
 31
0.0
  0
LINE
  5
273
330
1E
100
AcDbEntity
  8
0
100
AcDbLine
 10
67.1429
 20
188.362
 30
0.0
 11
67.1429
 21
184.9709999999999
 31
0.0
  0
LINE
  5
274
330
1E
100
AcDbEntity
  8
0
100
AcDbLine
 10
67.1429
 20
188.362
 30
0.0
 11
67.1429
 21
190.212
 31
0.0
  0
LINE
  5
275
330
1E
100
AcDbEntity
  8
0
100
AcDbLine
 10
67.1429
 20
152.2949999999999
 30
0.0
 11
67.1429
 21
143.3549999999999
 31
0.0
  0
LINE
  5
276
330
1E
100
AcDbEntity
  8
0
100
AcDbLine
 10
67.1429
 20
152.2949999999999
 30
0.0
 11
67.1429
 21
160.927
 31
0.0
  0
LINE
  5
277
330
1E
100
AcDbEntity
  8
0
100
AcDbLine
 10
67.1429
 20
143.3549999999999
 30
0.0
 11
67.1429
 21
133.799
 31
0.0
  0
LINE
  5
278
330
1E
100
AcDbEntity
  8
0
100
AcDbLine
 10
67.1429
 20
143.3549999999999
 30
0.0
 11
67.1429
 21
152.2949999999999
 31
0.0
  0
LINE
  5
279
330
1E
100
AcDbEntity
  8
0
100
AcDbLine
 10
67.1429
 20
133.799
 30
0.0
 11
67.1429
 21
143.3549999999999
 31
0.0
  0
LINE
  5
27A
330
1E
100
AcDbEntity
  8
0
100
AcDbLine
 10
67.1429
 20
133.799
 30
0.0
 11
67.1429
 21
124.2428
 31
0.0
  0
LINE
  5
27B
330
1E
100
AcDbEntity
  8
0
100
AcDbLine
 10
67.1429
 20
143.1399999999999
 30
0.0
 11
67.1429
 21
133.654
 31
0.0
  0
LINE
  5
27C
330
1E
100
AcDbEntity
  8
0
100
AcDbLine
 10
67.1429
 20
143.1399999999999
 30
0.0
 11
67.1429
 21
152.014
 31
0.0
  0
LINE
  5
27D
330
1E
100
AcDbEntity
  8
0
100
AcDbLine
 10
67.1429
 20
189.652
 30
0.0
 11
67.1429
 21
190.5699999999999
 31
0.0
  0
LINE
  5
27E
330
1E
100
AcDbEntity
  8
0
100
AcDbLine
 10
67.1429
 20
189.652
 30
0.0
 11
67.1429
 21
187.8159999999999
 31
0.0
  0
LINE
  5
27F
330
1E
100
AcDbEntity
  8
0
100
AcDbLine
 10
67.1429
 20
190.212
 30
0.0
 11
67.1429
 21
191.1369999999999
 31
0.0
  0
LINE
  5
280
330
1E
100
AcDbEntity
  8
0
100
AcDbLine
 10
67.1429
 20
190.212
 30
0.0
 11
67.1429
 21
188.362
 31
0.0
  0
LINE
  5
281
330
1E
100
AcDbEntity
  8
0
100
AcDbLine
 10
67.1429
 20
191.1369999999999
 30
0.0
 11
67.1429
 21
190.212
 31
0.0
  0
LINE
  5
282
330
1E
100
AcDbEntity
  8
0
100
AcDbLine
 10
67.1429
 20
191.1369999999999
 30
0.0
 11
70.5714
 21
191.703
 31
0.0
  0
LINE
  5
283
330
1E
100
AcDbEntity
  8
0
100
AcDbLine
 10
67.1429
 20
191.1369999999999
 30
0.0
 11
67.1429
 21
190.5699999999999
 31
0.0
  0
LINE
  5
284
330
1E
100
AcDbEntity
  8
0
100
AcDbLine
 10
67.1429
 20
190.5699999999999
 30
0.0
 11
67.1429
 21
189.652
 31
0.0
  0
LINE
  5
285
330
1E
100
AcDbEntity
  8
0
100
AcDbLine
 10
67.1429
 20
190.5699999999999
 30
0.0
 11
67.1429
 21
191.1369999999999
 31
0.0
  0
LINE
  5
286
330
1E
100
AcDbEntity
  8
0
100
AcDbLine
 10
70.5714
 20
191.703
 30
0.0
 11
74.57139999999999
 21
193.4029999999999
 31
0.0
  0
LINE
  5
287
330
1E
100
AcDbEntity
  8
0
100
AcDbLine
 10
67.1429
 20
114.07
 30
0.0
 11
67.1429
 21
103.8972
 31
0.0
  0
LINE
  5
288
330
1E
100
AcDbEntity
  8
0
100
AcDbLine
 10
67.1429
 20
114.07
 30
0.0
 11
67.1429
 21
103.972
 31
0.0
  0
LINE
  5
289
330
1E
100
AcDbEntity
  8
0
100
AcDbLine
 10
67.1429
 20
114.07
 30
0.0
 11
67.1429
 21
124.1679999999999
 31
0.0
  0
LINE
  5
28A
330
1E
100
AcDbEntity
  8
0
100
AcDbLine
 10
67.1429
 20
114.07
 30
0.0
 11
67.1429
 21
124.2428
 31
0.0
  0
LINE
  5
28B
330
1E
100
AcDbEntity
  8
0
100
AcDbLine
 10
67.1429
 20
94.486
 30
0.0
 11
67.1429
 21
103.8972
 31
0.0
  0
LINE
  5
28C
330
1E
100
AcDbEntity
  8
0
100
AcDbLine
 10
67.1429
 20
94.486
 30
0.0
 11
67.1429
 21
85.0
 31
0.0
  0
LINE
  5
28D
330
1E
100
AcDbEntity
  8
0
100
AcDbLine
 10
67.1429
 20
94.486
 30
0.0
 11
67.1429
 21
103.972
 31
0.0
  0
LINE
  5
28E
330
1E
100
AcDbEntity
  8
0
100
AcDbLine
 10
70.5714
 20
36.43667
 30
0.0
 11
74.57139999999999
 21
34.73667
 31
0.0
  0
LINE
  5
28F
330
1E
100
AcDbEntity
  8
0
100
AcDbLine
 10
79.71429999999999
 20
35.86999999999999
 30
0.0
 11
79.71429999999999
 21
40.28999999999999
 31
0.0
  0
LINE
  5
290
330
1E
100
AcDbEntity
  8
0
100
AcDbLine
 10
79.71429999999999
 20
35.86999999999999
 30
0.0
 11
79.71429999999999
 21
32.13
 31
0.0
  0
LINE
  5
291
330
1E
100
AcDbEntity
  8
0
100
AcDbLine
 10
79.71429999999999
 20
62.39
 30
0.0
 11
79.71429999999999
 21
71.90999999999999
 31
0.0
  0
LINE
  5
292
330
1E
100
AcDbEntity
  8
0
100
AcDbLine
 10
79.71429999999999
 20
62.39
 30
0.0
 11
79.71429999999999
 21
54.23
 31
0.0
  0
LINE
  5
293
330
1E
100
AcDbEntity
  8
0
100
AcDbLine
 10
79.71429999999999
 20
71.90999999999999
 30
0.0
 11
79.71429999999999
 21
81.76999999999999
 31
0.0
  0
LINE
  5
294
330
1E
100
AcDbEntity
  8
0
100
AcDbLine
 10
79.71429999999999
 20
71.90999999999999
 30
0.0
 11
79.71429999999999
 21
62.39
 31
0.0
  0
LINE
  5
295
330
1E
100
AcDbEntity
  8
0
100
AcDbLine
 10
79.71429999999999
 20
54.23
 30
0.0
 11
79.71429999999999
 21
62.39
 31
0.0
  0
LINE
  5
296
330
1E
100
AcDbEntity
  8
0
100
AcDbLine
 10
79.71429999999999
 20
54.23
 30
0.0
 11
79.71429999999999
 21
46.74999999999999
 31
0.0
  0
LINE
  5
297
330
1E
100
AcDbEntity
  8
0
100
AcDbLine
 10
79.71429999999999
 20
46.74999999999999
 30
0.0
 11
79.71429999999999
 21
54.23
 31
0.0
  0
LINE
  5
298
330
1E
100
AcDbEntity
  8
0
100
AcDbLine
 10
79.71429999999999
 20
46.74999999999999
 30
0.0
 11
79.71429999999999
 21
40.28999999999999
 31
0.0
  0
LINE
  5
299
330
1E
100
AcDbEntity
  8
0
100
AcDbLine
 10
79.71429999999999
 20
40.28999999999999
 30
0.0
 11
79.71429999999999
 21
46.74999999999999
 31
0.0
  0
LINE
  5
29A
330
1E
100
AcDbEntity
  8
0
100
AcDbLine
 10
79.71429999999999
 20
40.28999999999999
 30
0.0
 11
79.71429999999999
 21
35.86999999999999
 31
0.0
  0
LINE
  5
29B
330
1E
100
AcDbEntity
  8
0
100
AcDbLine
 10
77.4286
 20
195.6699999999999
 30
0.0
 11
79.71429999999999
 21
199.07
 31
0.0
  0
LINE
  5
29C
330
1E
100
AcDbEntity
  8
0
100
AcDbLine
 10
74.57139999999999
 20
193.4029999999999
 30
0.0
 11
77.4286
 21
195.6699999999999
 31
0.0
  0
LINE
  5
29D
330
1E
100
AcDbEntity
  8
0
100
AcDbLine
 10
79.71429999999999
 20
102.8499999999999
 30
0.0
 11
79.71429999999999
 21
114.07
 31
0.0
  0
LINE
  5
29E
330
1E
100
AcDbEntity
  8
0
100
AcDbLine
 10
79.71429999999999
 20
102.8499999999999
 30
0.0
 11
79.71429999999999
 21
92.30999999999999
 31
0.0
  0
LINE
  5
29F
330
1E
100
AcDbEntity
  8
0
100
AcDbLine
 10
79.71429999999999
 20
92.30999999999999
 30
0.0
 11
79.71429999999999
 21
81.76999999999999
 31
0.0
  0
LINE
  5
2A0
330
1E
100
AcDbEntity
  8
0
100
AcDbLine
 10
79.71429999999999
 20
92.30999999999999
 30
0.0
 11
79.71429999999999
 21
102.8499999999999
 31
0.0
  0
LINE
  5
2A1
330
1E
100
AcDbEntity
  8
0
100
AcDbLine
 10
79.71429999999999
 20
81.76999999999999
 30
0.0
 11
79.71429999999999
 21
92.30999999999999
 31
0.0
  0
LINE
  5
2A2
330
1E
100
AcDbEntity
  8
0
100
AcDbLine
 10
79.71429999999999
 20
81.76999999999999
 30
0.0
 11
79.71429999999999
 21
71.90999999999999
 31
0.0
  0
LINE
  5
2A3
330
1E
100
AcDbEntity
  8
0
100
AcDbLine
 10
74.57139999999999
 20
34.73667
 30
0.0
 11
77.4286
 21
32.46999999999999
 31
0.0
  0
LINE
  5
2A4
330
1E
100
AcDbEntity
  8
0
100
AcDbLine
 10
77.4286
 20
32.46999999999999
 30
0.0
 11
79.71429999999999
 21
29.07
 31
0.0
  0
LINE
  5
2A5
330
1E
100
AcDbEntity
  8
0
100
AcDbLine
 10
82.0
 20
29.07
 30
0.0
 11
82.0
 21
30.09
 31
0.0
  0
LINE
  5
2A6
330
1E
100
AcDbEntity
  8
0
100
AcDbLine
 10
82.0
 20
32.13
 30
0.0
 11
82.0
 21
30.09
 31
0.0
  0
LINE
  5
2A7
330
1E
100
AcDbEntity
  8
0
100
AcDbLine
 10
82.0
 20
32.13
 30
0.0
 11
82.0
 21
35.86999999999999
 31
0.0
  0
LINE
  5
2A8
330
1E
100
AcDbEntity
  8
0
100
AcDbLine
 10
82.0
 20
30.09
 30
0.0
 11
82.0
 21
29.07
 31
0.0
  0
LINE
  5
2A9
330
1E
100
AcDbEntity
  8
0
100
AcDbLine
 10
82.0
 20
30.09
 30
0.0
 11
82.0
 21
32.13
 31
0.0
  0
LINE
  5
2AA
330
1E
100
AcDbEntity
  8
0
100
AcDbLine
 10
82.0
 20
40.28999999999999
 30
0.0
 11
82.0
 21
35.86999999999999
 31
0.0
  0
LINE
  5
2AB
330
1E
100
AcDbEntity
  8
0
100
AcDbLine
 10
82.0
 20
40.28999999999999
 30
0.0
 11
82.0
 21
46.74999999999999
 31
0.0
  0
LINE
  5
2AC
330
1E
100
AcDbEntity
  8
0
100
AcDbLine
 10
82.0
 20
46.74999999999999
 30
0.0
 11
82.0
 21
40.28999999999999
 31
0.0
  0
LINE
  5
2AD
330
1E
100
AcDbEntity
  8
0
100
AcDbLine
 10
82.0
 20
46.74999999999999
 30
0.0
 11
82.0
 21
54.23
 31
0.0
  0
LINE
  5
2AE
330
1E
100
AcDbEntity
  8
0
100
AcDbLine
 10
82.0
 20
62.39
 30
0.0
 11
82.0
 21
54.23
 31
0.0
  0
LINE
  5
2AF
330
1E
100
AcDbEntity
  8
0
100
AcDbLine
 10
82.0
 20
62.39
 30
0.0
 11
82.0
 21
71.90999999999999
 31
0.0
  0
LINE
  5
2B0
330
1E
100
AcDbEntity
  8
0
100
AcDbLine
 10
82.0
 20
81.76999999999999
 30
0.0
 11
82.0
 21
71.90999999999999
 31
0.0
  0
LINE
  5
2B1
330
1E
100
AcDbEntity
  8
0
100
AcDbLine
 10
82.0
 20
81.76999999999999
 30
0.0
 11
82.0
 21
92.30999999999999
 31
0.0
  0
LINE
  5
2B2
330
1E
100
AcDbEntity
  8
0
100
AcDbLine
 10
82.0
 20
71.90999999999999
 30
0.0
 11
82.0
 21
62.39
 31
0.0
  0
LINE
  5
2B3
330
1E
100
AcDbEntity
  8
0
100
AcDbLine
 10
82.0
 20
71.90999999999999
 30
0.0
 11
82.0
 21
81.76999999999999
 31
0.0
  0
LINE
  5
2B4
330
1E
100
AcDbEntity
  8
0
100
AcDbLine
 10
79.71429999999999
 20
125.29
 30
0.0
 11
79.71429999999999
 21
135.83
 31
0.0
  0
LINE
  5
2B5
330
1E
100
AcDbEntity
  8
0
100
AcDbLine
 10
79.71429999999999
 20
125.29
 30
0.0
 11
79.71429999999999
 21
114.07
 31
0.0
  0
LINE
  5
2B6
330
1E
100
AcDbEntity
  8
0
100
AcDbLine
 10
79.71429999999999
 20
114.07
 30
0.0
 11
79.71429999999999
 21
125.29
 31
0.0
  0
LINE
  5
2B7
330
1E
100
AcDbEntity
  8
0
100
AcDbLine
 10
79.71429999999999
 20
181.3899999999999
 30
0.0
 11
79.71429999999999
 21
187.85
 31
0.0
  0
LINE
  5
2B8
330
1E
100
AcDbEntity
  8
0
100
AcDbLine
 10
79.71429999999999
 20
181.3899999999999
 30
0.0
 11
79.71429999999999
 21
173.91
 31
0.0
  0
LINE
  5
2B9
330
1E
100
AcDbEntity
  8
0
100
AcDbLine
 10
79.71429999999999
 20
173.91
 30
0.0
 11
79.71429999999999
 21
181.3899999999999
 31
0.0
  0
LINE
  5
2BA
330
1E
100
AcDbEntity
  8
0
100
AcDbLine
 10
79.71429999999999
 20
173.91
 30
0.0
 11
79.71429999999999
 21
165.7499999999999
 31
0.0
  0
LINE
  5
2BB
330
1E
100
AcDbEntity
  8
0
100
AcDbLine
 10
79.71429999999999
 20
165.7499999999999
 30
0.0
 11
79.71429999999999
 21
173.91
 31
0.0
  0
LINE
  5
2BC
330
1E
100
AcDbEntity
  8
0
100
AcDbLine
 10
79.71429999999999
 20
165.7499999999999
 30
0.0
 11
79.71429999999999
 21
156.23
 31
0.0
  0
LINE
  5
2BD
330
1E
100
AcDbEntity
  8
0
100
AcDbLine
 10
79.71429999999999
 20
192.27
 30
0.0
 11
79.71429999999999
 21
196.0099999999999
 31
0.0
  0
LINE
  5
2BE
330
1E
100
AcDbEntity
  8
0
100
AcDbLine
 10
79.71429999999999
 20
192.27
 30
0.0
 11
79.71429999999999
 21
187.85
 31
0.0
  0
LINE
  5
2BF
330
1E
100
AcDbEntity
  8
0
100
AcDbLine
 10
79.71429999999999
 20
196.0099999999999
 30
0.0
 11
79.71429999999999
 21
198.05
 31
0.0
  0
LINE
  5
2C0
330
1E
100
AcDbEntity
  8
0
100
AcDbLine
 10
79.71429999999999
 20
196.0099999999999
 30
0.0
 11
79.71429999999999
 21
192.27
 31
0.0
  0
LINE
  5
2C1
330
1E
100
AcDbEntity
  8
0
100
AcDbLine
 10
79.71429999999999
 20
187.85
 30
0.0
 11
79.71429999999999
 21
192.27
 31
0.0
  0
LINE
  5
2C2
330
1E
100
AcDbEntity
  8
0
100
AcDbLine
 10
79.71429999999999
 20
187.85
 30
0.0
 11
79.71429999999999
 21
181.3899999999999
 31
0.0
  0
LINE
  5
2C3
330
1E
100
AcDbEntity
  8
0
100
AcDbLine
 10
79.71429999999999
 20
156.23
 30
0.0
 11
79.71429999999999
 21
165.7499999999999
 31
0.0
  0
LINE
  5
2C4
330
1E
100
AcDbEntity
  8
0
100
AcDbLine
 10
79.71429999999999
 20
156.23
 30
0.0
 11
79.71429999999999
 21
146.37
 31
0.0
  0
LINE
  5
2C5
330
1E
100
AcDbEntity
  8
0
100
AcDbLine
 10
79.71429999999999
 20
135.83
 30
0.0
 11
79.71429999999999
 21
146.37
 31
0.0
  0
LINE
  5
2C6
330
1E
100
AcDbEntity
  8
0
100
AcDbLine
 10
79.71429999999999
 20
135.83
 30
0.0
 11
79.71429999999999
 21
125.29
 31
0.0
  0
LINE
  5
2C7
330
1E
100
AcDbEntity
  8
0
100
AcDbLine
 10
79.71429999999999
 20
146.37
 30
0.0
 11
79.71429999999999
 21
135.83
 31
0.0
  0
LINE
  5
2C8
330
1E
100
AcDbEntity
  8
0
100
AcDbLine
 10
79.71429999999999
 20
146.37
 30
0.0
 11
79.71429999999999
 21
156.23
 31
0.0
  0
LINE
  5
2C9
330
1E
100
AcDbEntity
  8
0
100
AcDbLine
 10
79.71429999999999
 20
198.05
 30
0.0
 11
79.71429999999999
 21
199.07
 31
0.0
  0
LINE
  5
2CA
330
1E
100
AcDbEntity
  8
0
100
AcDbLine
 10
79.71429999999999
 20
198.05
 30
0.0
 11
79.71429999999999
 21
196.0099999999999
 31
0.0
  0
LINE
  5
2CB
330
1E
100
AcDbEntity
  8
0
100
AcDbLine
 10
82.0
 20
146.37
 30
0.0
 11
82.0
 21
135.83
 31
0.0
  0
LINE
  5
2CC
330
1E
100
AcDbEntity
  8
0
100
AcDbLine
 10
82.0
 20
146.37
 30
0.0
 11
82.0
 21
156.23
 31
0.0
  0
LINE
  5
2CD
330
1E
100
AcDbEntity
  8
0
100
AcDbLine
 10
82.0
 20
165.7499999999999
 30
0.0
 11
82.0
 21
156.23
 31
0.0
  0
LINE
  5
2CE
330
1E
100
AcDbEntity
  8
0
100
AcDbLine
 10
82.0
 20
165.7499999999999
 30
0.0
 11
82.0
 21
173.91
 31
0.0
  0
LINE
  5
2CF
330
1E
100
AcDbEntity
  8
0
100
AcDbLine
 10
82.0
 20
156.23
 30
0.0
 11
82.0
 21
146.37
 31
0.0
  0
LINE
  5
2D0
330
1E
100
AcDbEntity
  8
0
100
AcDbLine
 10
82.0
 20
156.23
 30
0.0
 11
82.0
 21
165.7499999999999
 31
0.0
  0
LINE
  5
2D1
330
1E
100
AcDbEntity
  8
0
100
AcDbLine
 10
82.0
 20
173.91
 30
0.0
 11
82.0
 21
165.7499999999999
 31
0.0
  0
LINE
  5
2D2
330
1E
100
AcDbEntity
  8
0
100
AcDbLine
 10
82.0
 20
173.91
 30
0.0
 11
82.0
 21
181.3899999999999
 31
0.0
  0
LINE
  5
2D3
330
1E
100
AcDbEntity
  8
0
100
AcDbLine
 10
79.71429999999999
 20
199.07
 30
0.0
 11
79.71429999999999
 21
198.05
 31
0.0
  0
LINE
  5
2D4
330
1E
100
AcDbEntity
  8
0
100
AcDbLine
 10
79.71429999999999
 20
199.07
 30
0.0
 11
82.0
 21
199.07
 31
0.0
  0
LINE
  5
2D5
330
1E
100
AcDbEntity
  8
0
100
AcDbLine
 10
82.0
 20
125.29
 30
0.0
 11
82.0
 21
114.07
 31
0.0
  0
LINE
  5
2D6
330
1E
100
AcDbEntity
  8
0
100
AcDbLine
 10
82.0
 20
125.29
 30
0.0
 11
82.0
 21
135.83
 31
0.0
  0
LINE
  5
2D7
330
1E
100
AcDbEntity
  8
0
100
AcDbLine
 10
82.0
 20
135.83
 30
0.0
 11
82.0
 21
125.29
 31
0.0
  0
LINE
  5
2D8
330
1E
100
AcDbEntity
  8
0
100
AcDbLine
 10
82.0
 20
135.83
 30
0.0
 11
82.0
 21
146.37
 31
0.0
  0
LINE
  5
2D9
330
1E
100
AcDbEntity
  8
0
100
AcDbLine
 10
82.0
 20
102.8499999999999
 30
0.0
 11
82.0
 21
92.30999999999999
 31
0.0
  0
LINE
  5
2DA
330
1E
100
AcDbEntity
  8
0
100
AcDbLine
 10
82.0
 20
102.8499999999999
 30
0.0
 11
82.0
 21
114.07
 31
0.0
  0
LINE
  5
2DB
330
1E
100
AcDbEntity
  8
0
100
AcDbLine
 10
82.0
 20
114.07
 30
0.0
 11
82.0
 21
102.8499999999999
 31
0.0
  0
LINE
  5
2DC
330
1E
100
AcDbEntity
  8
0
100
AcDbLine
 10
82.0
 20
114.07
 30
0.0
 11
82.0
 21
125.29
 31
0.0
  0
LINE
  5
2DD
330
1E
100
AcDbEntity
  8
0
100
AcDbLine
 10
82.0
 20
92.30999999999999
 30
0.0
 11
82.0
 21
81.76999999999999
 31
0.0
  0
LINE
  5
2DE
330
1E
100
AcDbEntity
  8
0
100
AcDbLine
 10
82.0
 20
92.30999999999999
 30
0.0
 11
82.0
 21
102.8499999999999
 31
0.0
  0
LINE
  5
2DF
330
1E
100
AcDbEntity
  8
0
100
AcDbLine
 10
82.0
 20
181.3899999999999
 30
0.0
 11
82.0
 21
187.85
 31
0.0
  0
LINE
  5
2E0
330
1E
100
AcDbEntity
  8
0
100
AcDbLine
 10
82.0
 20
196.0099999999999
 30
0.0
 11
82.0
 21
192.27
 31
0.0
  0
LINE
  5
2E1
330
1E
100
AcDbEntity
  8
0
100
AcDbLine
 10
82.0
 20
196.0099999999999
 30
0.0
 11
82.0
 21
198.05
 31
0.0
  0
LINE
  5
2E2
330
1E
100
AcDbEntity
  8
0
100
AcDbLine
 10
82.0
 20
187.85
 30
0.0
 11
82.0
 21
181.3899999999999
 31
0.0
  0
LINE
  5
2E3
330
1E
100
AcDbEntity
  8
0
100
AcDbLine
 10
82.0
 20
187.85
 30
0.0
 11
82.0
 21
192.27
 31
0.0
  0
LINE
  5
2E4
330
1E
100
AcDbEntity
  8
0
100
AcDbLine
 10
82.0
 20
192.27
 30
0.0
 11
82.0
 21
187.85
 31
0.0
  0
LINE
  5
2E5
330
1E
100
AcDbEntity
  8
0
100
AcDbLine
 10
82.0
 20
192.27
 30
0.0
 11
82.0
 21
196.0099999999999
 31
0.0
  0
LINE
  5
2E6
330
1E
100
AcDbEntity
  8
0
100
AcDbLine
 10
82.0
 20
199.07
 30
0.0
 11
82.0
 21
198.05
 31
0.0
  0
LINE
  5
2E7
330
1E
100
AcDbEntity
  8
0
100
AcDbLine
 10
82.0
 20
198.05
 30
0.0
 11
82.0
 21
199.07
 31
0.0
  0
LINE
  5
2E8
330
1E
100
AcDbEntity
  8
0
100
AcDbLine
 10
82.0
 20
198.05
 30
0.0
 11
82.0
 21
196.0099999999999
 31
0.0
  0
LINE
  5
2E9
330
1E
100
AcDbEntity
  8
0
100
AcDbLine
 10
82.0
 20
54.23
 30
0.0
 11
82.0
 21
46.74999999999999
 31
0.0
  0
LINE
  5
2EA
330
1E
100
AcDbEntity
  8
0
100
AcDbLine
 10
82.0
 20
54.23
 30
0.0
 11
82.0
 21
62.39
 31
0.0
  0
LINE
  5
2EB
330
1E
100
AcDbEntity
  8
0
100
AcDbLine
 10
82.0
 20
35.86999999999999
 30
0.0
 11
82.0
 21
32.13
 31
0.0
  0
LINE
  5
2EC
330
1E
100
AcDbEntity
  8
0
100
AcDbLine
 10
82.0
 20
35.86999999999999
 30
0.0
 11
82.0
 21
40.28999999999999
 31
0.0
  0
LINE
  5
2ED
330
1E
100
AcDbEntity
  8
0
100
AcDbLine
 10
79.71429999999999
 20
29.07
 30
0.0
 11
82.0
 21
29.07
 31
0.0
  0
LINE
  5
2EE
330
1E
100
AcDbEntity
  8
0
100
AcDbLine
 10
79.71429999999999
 20
29.07
 30
0.0
 11
79.71429999999999
 21
30.09
 31
0.0
  0
ENDSEC
  0
SECTION
  2
OBJECTS
  0
DICTIONARY
  5
C
330
0
100
AcDbDictionary
  3
ACAD_GROUP
350
D
  3
ACAD_LAYOUT
350
19
  3
ACAD_MLINESTYLE
350
16
  3
ACAD_PLOTSETTINGS
350
18
  3
ACAD_PLOTSTYLENAME
350
E
  3
ACDBHEADERROUNDTRIPXREC
350
2F7
  3
ACDBVARIABLEDICTIONARY
350
2F4
  0
DICTIONARY
  5
319
330
1E
100
AcDbDictionary
280
     1
  3
ACAD_LAYOUTSELFREF
360
31A
  0
DICTIONARY
  5
317
330
1A
100
AcDbDictionary
280
     1
  3
ACAD_LAYOUTSELFREF
360
318
  0
DICTIONARY
  5
D
102
{ACAD_REACTORS
330
C
102
}
330
C
100
AcDbDictionary
  0
DICTIONARY
  5
19
102
{ACAD_REACTORS
330
C
102
}
330
C
100
AcDbDictionary
  0
DICTIONARY
  5
16
102
{ACAD_REACTORS
330
C
102
}
330
C
100
AcDbDictionary
  3
STANDARD
350
17
  0
DICTIONARY
  5
18
102
{ACAD_REACTORS
330
C
102
}
330
C
100
AcDbDictionary
  0
ACDBDICTIONARYWDFLT
  5
E
102
{ACAD_REACTORS
330
C
102
}
330
C
100
AcDbDictionary
281
     1
  3
Normal
350
F
100
AcDbDictionaryWithDefault
340
F
  0
DICTIONARY
  5
2F7
102
{ACAD_REACTORS
330
C
102
}
330
C
100
AcDbDictionary
  3
CEPSNTYPE
350
301
  3
FINGERPRINTGUID
350
302
  3
HYPERLINKBASE
350
2FA
  3
INSUNITS
350
300
  3
LAYOUTDICT
350
2FC
  3
LWETCUNION
350
2FF
  3
PLOTSETDICT
350
2FD
  3
PLOTSTYLNAMDICT
350
2FE
  3
PSVPSCALE
350
304
  3
PUCSBASE
350
307
  3
PUCSORGBACK
350
30D
  3
PUCSORGBOTTOM
350
309
  3
PUCSORGFRONT
350
30C
  3
PUCSORGLEFT
350
30A
  3
PUCSORGRIGHT
350
30B
  3
PUCSORGTOP
350
308
  3
PUCSORTHOREF
350
305
  3
PUCSORTHOVIEW
350
306
  3
STYLESHEET
350
2FB
  3
TSTACKALIGN
350
2F8
  3
TSTACKSIZE
350
2F9
  3
UCSBASE
350
310
  3
UCSORGBACK
350
316
  3
UCSORGBOTTOM
350
312
  3
UCSORGFRONT
350
315
  3
UCSORGLEFT
350
313
  3
UCSORGRIGHT
350
314
  3
UCSORGTOP
350
311
  3
UCSORTHOREF
350
30E
  3
UCSORTHOVIEW
350
30F
  3
VERSIONGUID
350
303
  0
DICTIONARY
  5
2F4
102
{ACAD_REACTORS
330
C
102
}
330
C
100
AcDbDictionary
  3
DIMASSOC
350
2F5
  0
XRECORD
  5
31A
102
{ACAD_REACTORS
330
319
102
}
330
319
100
AcDbXrecord
340
1E
  0
XRECORD
  5
318
102
{ACAD_REACTORS
330
317
102
}
330
317
100
AcDbXrecord
340
1A
  0
MLINESTYLE
  5
17
102
{ACAD_REACTORS
330
16
102
}
330
16
100
AcDbMlineStyle
  2
STANDARD
 70
     0
  3

 62
   256
 51
90.0
 52
90.0
 71
     2
 49
0.5
 62
   256
  6
BYLAYER
 49
-0.5
 62
   256
  6
BYLAYER
  0
ACDBPLACEHOLDER
  5
F
102
{ACAD_REACTORS
330
E
102
}
330
E
100
AcDbPlaceHolder
280
     0
  0
XRECORD
  5
301
102
{ACAD_REACTORS
330
2F7
102
}
330
2F7
100
AcDbXrecord
 90
        0
  0
XRECORD
  5
302
102
{ACAD_REACTORS
330
2F7
102
}
330
2F7
100
AcDbXrecord
  1
{CD4BEA52-EA01-4C58-AE87-C07B913357A8}
  0
XRECORD
  5
2FA
102
{ACAD_REACTORS
330
2F7
102
}
330
2F7
100
AcDbXrecord
  1

  0
XRECORD
  5
300
102
{ACAD_REACTORS
330
2F7
102
}
330
2F7
100
AcDbXrecord
 90
        0
  0
XRECORD
  5
2FC
102
{ACAD_REACTORS
330
2F7
102
}
330
2F7
100
AcDbXrecord
340
19
  0
XRECORD
  5
2FF
102
{ACAD_REACTORS
330
2F7
102
}
330
2F7
100
AcDbXrecord
 90
    10781
  0
XRECORD
  5
2FD
102
{ACAD_REACTORS
330
2F7
102
}
330
2F7
100
AcDbXrecord
340
18
  0
XRECORD
  5
2FE
102
{ACAD_REACTORS
330
2F7
102
}
330
2F7
100
AcDbXrecord
340
E
  0
XRECORD
  5
304
102
{ACAD_REACTORS
330
2F7
102
}
330
2F7
100
AcDbXrecord
 40
0.0
  0
XRECORD
  5
307
102
{ACAD_REACTORS
330
2F7
102
}
330
2F7
100
AcDbXrecord
340
0
  0
XRECORD
  5
30D
102
{ACAD_REACTORS
330
2F7
102
}
330
2F7
100
AcDbXrecord
 10
0.0
 20
0.0
 30
0.0
  0
XRECORD
  5
309
102
{ACAD_REACTORS
330
2F7
102
}
330
2F7
100
AcDbXrecord
 10
0.0
 20
0.0
 30
0.0
  0
XRECORD
  5
30C
102
{ACAD_REACTORS
330
2F7
102
}
330
2F7
100
AcDbXrecord
 10
0.0
 20
0.0
 30
0.0
  0
XRECORD
  5
30A
102
{ACAD_REACTORS
330
2F7
102
}
330
2F7
100
AcDbXrecord
 10
0.0
 20
0.0
 30
0.0
  0
XRECORD
  5
30B
102
{ACAD_REACTORS
330
2F7
102
}
330
2F7
100
AcDbXrecord
 10
0.0
 20
0.0
 30
0.0
  0
XRECORD
  5
308
102
{ACAD_REACTORS
330
2F7
102
}
330
2F7
100
AcDbXrecord
 10
0.0
 20
0.0
 30
0.0
  0
XRECORD
  5
305
102
{ACAD_REACTORS
330
2F7
102
}
330
2F7
100
AcDbXrecord
340
0
  0
XRECORD
  5
306
102
{ACAD_REACTORS
330
2F7
102
}
330
2F7
100
AcDbXrecord
 70
     0
  0
XRECORD
  5
2FB
102
{ACAD_REACTORS
330
2F7
102
}
330
2F7
100
AcDbXrecord
  1

  0
XRECORD
  5
2F8
102
{ACAD_REACTORS
330
2F7
102
}
330
2F7
100
AcDbXrecord
 90
        1
  0
XRECORD
  5
2F9
102
{ACAD_REACTORS
330
2F7
102
}
330
2F7
100
AcDbXrecord
 90
       70
  0
XRECORD
  5
310
102
{ACAD_REACTORS
330
2F7
102
}
330
2F7
100
AcDbXrecord
340
0
  0
XRECORD
  5
316
102
{ACAD_REACTORS
330
2F7
102
}
330
2F7
100
AcDbXrecord
 10
0.0
 20
0.0
 30
0.0
  0
XRECORD
  5
312
102
{ACAD_REACTORS
330
2F7
102
}
330
2F7
100
AcDbXrecord
 10
0.0
 20
0.0
 30
0.0
  0
XRECORD
  5
315
102
{ACAD_REACTORS
330
2F7
102
}
330
2F7
100
AcDbXrecord
 10
0.0
 20
0.0
 30
0.0
  0
XRECORD
  5
313
102
{ACAD_REACTORS
330
2F7
102
}
330
2F7
100
AcDbXrecord
 10
0.0
 20
0.0
 30
0.0
  0
XRECORD
  5
314
102
{ACAD_REACTORS
330
2F7
102
}
330
2F7
100
AcDbXrecord
 10
0.0
 20
0.0
 30
0.0
  0
XRECORD
  5
311
102
{ACAD_REACTORS
330
2F7
102
}
330
2F7
100
AcDbXrecord
 10
0.0
 20
0.0
 30
0.0
  0
XRECORD
  5
30E
102
{ACAD_REACTORS
330
2F7
102
}
330
2F7
100
AcDbXrecord
340
0
  0
XRECORD
  5
30F
102
{ACAD_REACTORS
330
2F7
102
}
330
2F7
100
AcDbXrecord
 70
     1
  0
XRECORD
  5
303
102
{ACAD_REACTORS
330
2F7
102
}
330
2F7
100
AcDbXrecord
  1
{315DC014-0E80-4548-92F6-4D110CE9BDD2}
  0
DICTIONARYVAR
  5
2F5
102
{ACAD_REACTORS
330
2F4
102
}
330
2F4
100
DictionaryVariables
280
     0
  1
1
  0
ENDSEC
  0
EOF
