  0
SECTION
  2
HEADER
  9
$ACADVER
  1
AC1014
  9
$ACADMAINTVER
 70
     9
  9
$DWGCODEPAGE
  3
ANSI_1252
  9
$INSBASE
 10
0.0
 20
0.0
 30
0.0
  9
$EXTMIN
 10
0.0
 20
-0.0700000000000096
 30
0.0
  9
$EXTMAX
 10
170.0
 20
199.07
 30
0.0
  9
$LIMMIN
 10
0.0
 20
0.0
  9
$LIMMAX
 10
12.0
 20
9.0
  9
$ORTHOMODE
 70
     0
  9
$REGENMODE
 70
     1
  9
$FILLMODE
 70
     1
  9
$QTEXTMODE
 70
     0
  9
$MIRRTEXT
 70
     1
  9
$DRAGMODE
 70
     2
  9
$LTSCALE
 40
1.0
  9
$OSMODE
 70
    37
  9
$ATTMODE
 70
     1
  9
$TEXTSIZE
 40
0.2
  9
$TRACEWID
 40
0.05
  9
$TEXTSTYLE
  7
STANDARD
  9
$CLAYER
  8
0
  9
$CELTYPE
  6
CONTINUOUS
  9
$CECOLOR
 62
   256
  9
$CELTSCALE
 40
1.0
  9
$DELOBJ
 70
     1
  9
$DISPSILH
 70
     0
  9
$DIMSCALE
 40
1.0
  9
$DIMASZ
 40
0.18
  9
$DIMEXO
 40
0.0625
  9
$DIMDLI
 40
0.38
  9
$DIMRND
 40
0.0
  9
$DIMDLE
 40
0.0
  9
$DIMEXE
 40
0.18
  9
$DIMTP
 40
0.0
  9
$DIMTM
 40
0.0
  9
$DIMTXT
 40
0.18
  9
$DIMCEN
 40
0.09
  9
$DIMTSZ
 40
0.0
  9
$DIMTOL
 70
     0
  9
$DIMLIM
 70
     0
  9
$DIMTIH
 70
     1
  9
$DIMTOH
 70
     1
  9
$DIMSE1
 70
     0
  9
$DIMSE2
 70
     0
  9
$DIMTAD
 70
     0
  9
$DIMZIN
 70
     0
  9
$DIMBLK
  1

  9
$DIMASO
 70
     1
  9
$DIMSHO
 70
     1
  9
$DIMPOST
  1

  9
$DIMAPOST
  1

  9
$DIMALT
 70
     0
  9
$DIMALTD
 70
     2
  9
$DIMALTF
 40
25.4
  9
$DIMLFAC
 40
1.0
  9
$DIMTOFL
 70
     0
  9
$DIMTVP
 40
0.0
  9
$DIMTIX
 70
     0
  9
$DIMSOXD
 70
     0
  9
$DIMSAH
 70
     0
  9
$DIMBLK1
  1

  9
$DIMBLK2
  1

  9
$DIMSTYLE
  2
STANDARD
  9
$DIMCLRD
 70
     0
  9
$DIMCLRE
 70
     0
  9
$DIMCLRT
 70
     0
  9
$DIMTFAC
 40
1.0
  9
$DIMGAP
 40
0.09
  9
$DIMJUST
 70
     0
  9
$DIMSD1
 70
     0
  9
$DIMSD2
 70
     0
  9
$DIMTOLJ
 70
     1
  9
$DIMTZIN
 70
     0
  9
$DIMALTZ
 70
     0
  9
$DIMALTTZ
 70
     0
  9
$DIMFIT
 70
     3
  9
$DIMUPT
 70
     0
  9
$DIMUNIT
 70
     2
  9
$DIMDEC
 70
     4
  9
$DIMTDEC
 70
     4
  9
$DIMALTU
 70
     2
  9
$DIMALTTD
 70
     2
  9
$DIMTXSTY
  7
STANDARD
  9
$DIMAUNIT
 70
     0
  9
$LUNITS
 70
     2
  9
$LUPREC
 70
     4
  9
$SKETCHINC
 40
0.1
  9
$FILLETRAD
 40
0.0
  9
$AUNITS
 70
     0
  9
$AUPREC
 70
     0
  9
$MENU
  1
.
  9
$ELEVATION
 40
0.0
  9
$PELEVATION
 40
0.0
  9
$THICKNESS
 40
0.0
  9
$LIMCHECK
 70
     0
  9
$BLIPMODE
 70
     0
  9
$CHAMFERA
 40
0.0
  9
$CHAMFERB
 40
0.0
  9
$CHAMFERC
 40
0.0
  9
$CHAMFERD
 40
0.0
  9
$SKPOLY
 70
     0
  9
$TDCREATE
 40
2455239.876892176
  9
$TDUPDATE
 40
2455239.880836759
  9
$TDINDWG
 40
0.0039445833
  9
$TDUSRTIMER
 40
0.0039445833
  9
$USRTIMER
 70
     1
  9
$ANGBASE
 50
0.0
  9
$ANGDIR
 70
     0
  9
$PDMODE
 70
     0
  9
$PDSIZE
 40
0.0
  9
$PLINEWID
 40
0.0
  9
$COORDS
 70
     1
  9
$SPLFRAME
 70
     0
  9
$SPLINETYPE
 70
     6
  9
$SPLINESEGS
 70
     8
  9
$ATTDIA
 70
     0
  9
$ATTREQ
 70
     1
  9
$HANDLING
 70
 22529
  9
$HANDSEED
  5
435
  9
$SURFTAB1
 70
     6
  9
$SURFTAB2
 70
     6
  9
$SURFTYPE
 70
     6
  9
$SURFU
 70
     6
  9
$SURFV
 70
     6
  9
$UCSNAME
  2

  9
$UCSORG
 10
0.0
 20
0.0
 30
0.0
  9
$UCSXDIR
 10
1.0
 20
0.0
 30
0.0
  9
$UCSYDIR
 10
0.0
 20
1.0
 30
0.0
  9
$PUCSNAME
  2

  9
$PUCSORG
 10
0.0
 20
0.0
 30
0.0
  9
$PUCSXDIR
 10
1.0
 20
0.0
 30
0.0
  9
$PUCSYDIR
 10
0.0
 20
1.0
 30
0.0
  9
$USERI1
 70
     0
  9
$USERI2
 70
     0
  9
$USERI3
 70
     0
  9
$USERI4
 70
     0
  9
$USERI5
 70
     0
  9
$USERR1
 40
0.0
  9
$USERR2
 40
0.0
  9
$USERR3
 40
0.0
  9
$USERR4
 40
0.0
  9
$USERR5
 40
0.0
  9
$WORLDVIEW
 70
     1
  9
$SHADEDGE
 70
     3
  9
$SHADEDIF
 70
    70
  9
$TILEMODE
 70
     1
  9
$MAXACTVP
 70
    64
  9
$PINSBASE
 10
0.0
 20
0.0
 30
0.0
  9
$PLIMCHECK
 70
     0
  9
$PEXTMIN
 10
1.000000000000000E+20
 20
1.000000000000000E+20
 30
1.000000000000000E+20
  9
$PEXTMAX
 10
-1.000000000000000E+20
 20
-1.000000000000000E+20
 30
-1.000000000000000E+20
  9
$PLIMMIN
 10
0.0
 20
0.0
  9
$PLIMMAX
 10
12.0
 20
9.0
  9
$UNITMODE
 70
     0
  9
$VISRETAIN
 70
     1
  9
$PLINEGEN
 70
     0
  9
$PSLTSCALE
 70
     1
  9
$TREEDEPTH
 70
  3020
  9
$PICKSTYLE
 70
     1
  9
$CMLSTYLE
  2
STANDARD
  9
$CMLJUST
 70
     0
  9
$CMLSCALE
 40
1.0
  9
$PROXYGRAPHICS
 70
     1
  9
$MEASUREMENT
 70
     0
  0
ENDSEC
  0
SECTION
  2
CLASSES
  0
CLASS
  1
ACDBDICTIONARYWDFLT
  2
AcDbDictionaryWithDefault
  3
AutoCAD 2000
 90
        0
280
     0
281
     0
  0
CLASS
  1
ACDBPLACEHOLDER
  2
AcDbPlaceHolder
  3
AutoCAD 2000
 90
        0
280
     0
281
     0
  0
CLASS
  1
LAYOUT
  2
AcDbLayout
  3
AutoCAD 2000
 90
        0
280
     0
281
     0
  0
CLASS
  1
DICTIONARYVAR
  2
AcDbDictionaryVar
  3
AutoCAD 2000
 90
        0
280
     0
281
     0
  0
CLASS
  1
LONG_TRANSACTION
  2
AcDbLongTransaction
  3
AutoCAD 2000
 90
        0
280
     0
281
     0
  0
CLASS
  1
LWPOLYLINE
  2
AcDbPolyline
  3
AutoCAD 2000
 90
        0
280
     0
281
     1
  0
CLASS
  1
HATCH
  2
AcDbHatch
  3
AutoCAD 2000
 90
        0
280
     0
281
     1
  0
CLASS
  1
XRECORD
  2
AcDbXrecord
  3
AutoCAD 2000
 90
        0
280
     0
281
     0
  0
ENDSEC
  0
SECTION
  2
TABLES
  0
TABLE
  2
VPORT
  5
8
330
0
100
AcDbSymbolTable
 70
     3
  0
VPORT
  5
410
330
8
100
AcDbSymbolTableRecord
100
AcDbViewportTableRecord
  2
*ACTIVE
 70
     0
 10
0.0
 20
0.0
 11
1.0
 21
1.0
 12
85.0
 22
99.50000000000001
 13
0.0
 23
0.0
 14
1.0
 24
1.0
 15
0.0
 25
0.0
 16
0.0
 26
0.0
 36
1.0
 17
0.0
 27
0.0
 37
0.0
 40
200.4472647702407
 41
2.041621029572836
 42
50.0
 43
0.0
 44
0.0
 50
0.0
 51
0.0
 71
     0
 72
   100
 73
     1
 74
     3
 75
     0
 76
     0
 77
     0
 78
     0
  0
ENDTAB
  0
TABLE
  2
LTYPE
  5
5
330
0
100
AcDbSymbolTable
 70
     1
  0
LTYPE
  5
13
330
5
100
AcDbSymbolTableRecord
100
AcDbLinetypeTableRecord
  2
BYBLOCK
 70
     0
  3

 72
    65
 73
     0
 40
0.0
  0
LTYPE
  5
14
330
5
100
AcDbSymbolTableRecord
100
AcDbLinetypeTableRecord
  2
BYLAYER
 70
     0
  3

 72
    65
 73
     0
 40
0.0
  0
LTYPE
  5
15
330
5
100
AcDbSymbolTableRecord
100
AcDbLinetypeTableRecord
  2
CONTINUOUS
 70
     0
  3
Solid line
 72
    65
 73
     0
 40
0.0
  0
ENDTAB
  0
TABLE
  2
LAYER
  5
2
330
0
100
AcDbSymbolTable
 70
     1
  0
LAYER
  5
10
330
2
100
AcDbSymbolTableRecord
100
AcDbLayerTableRecord
  2
0
 70
     0
 62
     7
  6
CONTINUOUS
  0
ENDTAB
  0
TABLE
  2
STYLE
  5
3
330
0
100
AcDbSymbolTable
 70
     1
  0
STYLE
  5
11
330
3
100
AcDbSymbolTableRecord
100
AcDbTextStyleTableRecord
  2
STANDARD
 70
     0
 40
0.0
 41
1.0
 50
0.0
 71
     0
 42
0.2
  3
txt
  4

  0
ENDTAB
  0
TABLE
  2
VIEW
  5
6
330
0
100
AcDbSymbolTable
 70
     0
  0
ENDTAB
  0
TABLE
  2
UCS
  5
7
330
0
100
AcDbSymbolTable
 70
     0
  0
ENDTAB
  0
TABLE
  2
APPID
  5
9
330
0
100
AcDbSymbolTable
 70
     1
  0
APPID
  5
12
330
9
100
AcDbSymbolTableRecord
100
AcDbRegAppTableRecord
  2
ACAD
 70
     0
  0
ENDTAB
  0
TABLE
  2
DIMSTYLE
  5
A
330
0
100
AcDbSymbolTable
 70
     1
  0
DIMSTYLE
105
30D
330
A
100
AcDbSymbolTableRecord
100
AcDbDimStyleTableRecord
  2
STANDARD
 70
     0
  3

  4

  5

  6

  7

 40
1.0
 41
0.18
 42
0.0625
 43
0.38
 44
0.18
 45
0.0
 46
0.0
 47
0.0
 48
0.0
140
0.18
141
0.09
142
0.0
143
25.4
144
1.0
145
0.0
146
1.0
147
0.09
 71
     0
 72
     0
 73
     1
 74
     1
 75
     0
 76
     0
 77
     0
 78
     0
170
     0
171
     2
172
     0
173
     0
174
     0
175
     0
176
     0
177
     0
178
     0
270
     2
271
     4
272
     4
273
     2
274
     2
340
11
275
     0
280
     0
281
     0
282
     0
283
     1
284
     0
285
     0
286
     0
287
     3
288
     0
  0
ENDTAB
  0
TABLE
  2
BLOCK_RECORD
  5
1
330
0
100
AcDbSymbolTable
 70
     0
  0
BLOCK_RECORD
  5
1E
102
{ACAD_XDICTIONARY
360
433
102
}
330
1
100
AcDbSymbolTableRecord
100
AcDbBlockTableRecord
  2
*MODEL_SPACE
  0
BLOCK_RECORD
  5
1A
102
{ACAD_XDICTIONARY
360
431
102
}
330
1
100
AcDbSymbolTableRecord
100
AcDbBlockTableRecord
  2
*PAPER_SPACE
  0
ENDTAB
  0
ENDSEC
  0
SECTION
  2
BLOCKS
  0
BLOCK
  5
1F
330
1E
100
AcDbEntity
  8
0
100
AcDbBlockBegin
  2
*MODEL_SPACE
 70
     0
 10
0.0
 20
0.0
 30
0.0
  3
*MODEL_SPACE
  1

  0
ENDBLK
  5
20
330
1E
100
AcDbEntity
  8
0
100
AcDbBlockEnd
  0
BLOCK
  5
1B
330
1A
100
AcDbEntity
 67
     1
  8
0
100
AcDbBlockBegin
  2
*PAPER_SPACE
 70
     0
 10
0.0
 20
0.0
 30
0.0
  3
*PAPER_SPACE
  1

  0
ENDBLK
  5
1C
330
1A
100
AcDbEntity
 67
     1
  8
0
100
AcDbBlockEnd
  0
ENDSEC
  0
SECTION
  2
ENTITIES
  0
LINE
  5
22
330
1E
100
AcDbEntity
  8
0
100
AcDbLine
 10
6.799999999999999
 20
81.76999999999999
 30
0.0
 11
11.22
 21
71.90999999999999
 31
0.0
  0
LINE
  5
23
330
1E
100
AcDbEntity
  8
0
100
AcDbLine
 10
31.5429
 20
60.6129
 30
0.0
 11
38.8325
 21
53.9308
 31
0.0
  0
LINE
  5
26
330
1E
100
AcDbEntity
  8
0
100
AcDbLine
 10
25.16
 20
54.23
 30
0.0
 11
33.32
 21
46.74999999999999
 31
0.0
  0
LINE
  5
27
330
1E
100
AcDbEntity
  8
0
100
AcDbLine
 10
38.8325
 20
53.9308
 30
0.0
 11
47.3371
 21
48.1599
 31
0.0
  0
LINE
  5
28
330
1E
100
AcDbEntity
  8
0
100
AcDbLine
 10
47.3371
 20
48.1599
 30
0.0
 11
56.1453
 21
44.2113
 31
0.0
  0
LINE
  5
2D
330
1E
100
AcDbEntity
  8
0
100
AcDbLine
 10
33.32
 20
46.74999999999999
 30
0.0
 11
42.84
 21
40.28999999999999
 31
0.0
  0
LINE
  5
2E
330
1E
100
AcDbEntity
  8
0
100
AcDbLine
 10
42.84
 20
40.28999999999999
 30
0.0
 11
52.7
 21
35.86999999999999
 31
0.0
  0
LINE
  5
2F
330
1E
100
AcDbEntity
  8
0
100
AcDbLine
 10
68.632
 20
50.56
 30
0.0
 11
76.55199999999999
 21
47.4061
 31
0.0
  0
LINE
  5
30
330
1E
100
AcDbEntity
  8
0
100
AcDbLine
 10
61.636
 20
55.81649999999999
 30
0.0
 11
68.632
 21
50.56
 31
0.0
  0
LINE
  5
31
330
1E
100
AcDbEntity
  8
0
100
AcDbLine
 10
61.99
 20
56.1689
 30
0.0
 11
68.87999999999999
 21
50.99199999999999
 31
0.0
  0
LINE
  5
32
330
1E
100
AcDbEntity
  8
0
100
AcDbLine
 10
68.87999999999999
 20
50.99199999999999
 30
0.0
 11
76.68000000000001
 21
47.8859
 31
0.0
  0
LINE
  5
33
330
1E
100
AcDbEntity
  8
0
100
AcDbLine
 10
56.1453
 20
44.2113
 30
0.0
 11
65.5611
 21
40.8703
 31
0.0
  0
LINE
  5
34
330
1E
100
AcDbEntity
  8
0
100
AcDbLine
 10
65.5611
 20
40.8703
 30
0.0
 11
74.97679999999999
 21
39.04787
 31
0.0
  0
LINE
  5
39
330
1E
100
AcDbEntity
  8
0
100
AcDbLine
 10
52.7
 20
35.86999999999999
 30
0.0
 11
63.24
 21
32.13
 31
0.0
  0
LINE
  5
3A
330
1E
100
AcDbEntity
  8
0
100
AcDbLine
 10
63.24
 20
32.13
 30
0.0
 11
73.78
 21
30.09
 31
0.0
  0
LINE
  5
3D
330
1E
100
AcDbEntity
  8
0
100
AcDbLine
 10
80.5
 20
7.085399999999999
 30
0.0
 11
80.5
 21
12.8682
 31
0.0
  0
LINE
  5
3E
330
1E
100
AcDbEntity
  8
0
100
AcDbLine
 10
80.5
 20
7.085399999999999
 30
0.0
 11
80.5
 21
2.95769999999999
 31
0.0
  0
LINE
  5
3F
330
1E
100
AcDbEntity
  8
0
100
AcDbLine
 10
80.5
 20
2.95769999999999
 30
0.0
 11
80.5
 21
7.085399999999999
 31
0.0
  0
LINE
  5
40
330
1E
100
AcDbEntity
  8
0
100
AcDbLine
 10
80.5
 20
2.95769999999999
 30
0.0
 11
80.5
 21
1.471999999999989
 31
0.0
  0
LINE
  5
41
330
1E
100
AcDbEntity
  8
0
100
AcDbLine
 10
80.5
 20
19.28879999999999
 30
0.0
 11
80.5
 21
24.2636
 31
0.0
  0
LINE
  5
42
330
1E
100
AcDbEntity
  8
0
100
AcDbLine
 10
80.5
 20
19.28879999999999
 30
0.0
 11
80.5
 21
12.8682
 31
0.0
  0
LINE
  5
43
330
1E
100
AcDbEntity
  8
0
100
AcDbLine
 10
80.5
 20
12.8682
 30
0.0
 11
80.5
 21
19.28879999999999
 31
0.0
  0
LINE
  5
44
330
1E
100
AcDbEntity
  8
0
100
AcDbLine
 10
80.5
 20
12.8682
 30
0.0
 11
80.5
 21
7.085399999999999
 31
0.0
  0
LINE
  5
45
330
1E
100
AcDbEntity
  8
0
100
AcDbLine
 10
80.5
 20
29.3236
 30
0.0
 11
80.5
 21
34.2808
 31
0.0
  0
LINE
  5
46
330
1E
100
AcDbEntity
  8
0
100
AcDbLine
 10
80.5
 20
29.3236
 30
0.0
 11
80.5
 21
24.2636
 31
0.0
  0
LINE
  5
47
330
1E
100
AcDbEntity
  8
0
100
AcDbLine
 10
80.5
 20
24.2636
 30
0.0
 11
80.5
 21
29.3236
 31
0.0
  0
LINE
  5
48
330
1E
100
AcDbEntity
  8
0
100
AcDbLine
 10
80.5
 20
24.2636
 30
0.0
 11
80.5
 21
19.28879999999999
 31
0.0
  0
LINE
  5
49
330
1E
100
AcDbEntity
  8
0
100
AcDbLine
 10
80.5
 20
29.4582
 30
0.0
 11
80.5
 21
24.22159999999999
 31
0.0
  0
LINE
  5
4A
330
1E
100
AcDbEntity
  8
0
100
AcDbLine
 10
80.5
 20
29.4582
 30
0.0
 11
80.5
 21
34.3364
 31
0.0
  0
LINE
  5
4B
330
1E
100
AcDbEntity
  8
0
100
AcDbLine
 10
80.5
 20
24.22159999999999
 30
0.0
 11
80.5
 21
19.2736
 31
0.0
  0
LINE
  5
4C
330
1E
100
AcDbEntity
  8
0
100
AcDbLine
 10
80.5
 20
24.22159999999999
 30
0.0
 11
80.5
 21
29.4582
 31
0.0
  0
LINE
  5
4D
330
1E
100
AcDbEntity
  8
0
100
AcDbLine
 10
80.5
 20
19.2736
 30
0.0
 11
80.5
 21
12.8324
 31
0.0
  0
LINE
  5
4E
330
1E
100
AcDbEntity
  8
0
100
AcDbLine
 10
80.5
 20
19.2736
 30
0.0
 11
80.5
 21
24.22159999999999
 31
0.0
  0
LINE
  5
4F
330
1E
100
AcDbEntity
  8
0
100
AcDbLine
 10
80.5
 20
12.8324
 30
0.0
 11
80.5
 21
7.117899999999999
 31
0.0
  0
LINE
  5
50
330
1E
100
AcDbEntity
  8
0
100
AcDbLine
 10
80.5
 20
12.8324
 30
0.0
 11
80.5
 21
19.2736
 31
0.0
  0
LINE
  5
51
330
1E
100
AcDbEntity
  8
0
100
AcDbLine
 10
80.5
 20
7.117899999999999
 30
0.0
 11
80.5
 21
2.91669999999999
 31
0.0
  0
LINE
  5
52
330
1E
100
AcDbEntity
  8
0
100
AcDbLine
 10
80.5
 20
7.117899999999999
 30
0.0
 11
80.5
 21
12.8324
 31
0.0
  0
LINE
  5
53
330
1E
100
AcDbEntity
  8
0
100
AcDbLine
 10
80.5
 20
2.91669999999999
 30
0.0
 11
80.5
 21
1.471999999999989
 31
0.0
  0
LINE
  5
54
330
1E
100
AcDbEntity
  8
0
100
AcDbLine
 10
80.5
 20
2.91669999999999
 30
0.0
 11
80.5
 21
7.117899999999999
 31
0.0
  0
LINE
  5
55
330
1E
100
AcDbEntity
  8
0
100
AcDbLine
 10
80.5
 20
1.471999999999989
 30
0.0
 11
80.5
 21
1.054799999999989
 31
0.0
  0
LINE
  5
56
330
1E
100
AcDbEntity
  8
0
100
AcDbLine
 10
80.5
 20
1.471999999999989
 30
0.0
 11
80.5
 21
2.95769999999999
 31
0.0
  0
LINE
  5
57
330
1E
100
AcDbEntity
  8
0
100
AcDbLine
 10
80.5
 20
1.471999999999989
 30
0.0
 11
80.5
 21
2.91669999999999
 31
0.0
  0
LINE
  5
58
330
1E
100
AcDbEntity
  8
0
100
AcDbLine
 10
80.5
 20
1.054799999999989
 30
0.0
 11
80.5
 21
0.7418999999999909
 31
0.0
  0
LINE
  5
59
330
1E
100
AcDbEntity
  8
0
100
AcDbLine
 10
80.5
 20
1.054799999999989
 30
0.0
 11
80.5
 21
1.471999999999989
 31
0.0
  0
LINE
  5
6C
330
1E
100
AcDbEntity
  8
0
100
AcDbLine
 10
80.5
 20
0.7418999999999909
 30
0.0
 11
80.5
 21
0.427799999999995
 31
0.0
  0
LINE
  5
6D
330
1E
100
AcDbEntity
  8
0
100
AcDbLine
 10
80.5
 20
0.7418999999999909
 30
0.0
 11
80.5
 21
1.054799999999989
 31
0.0
  0
LINE
  5
6E
330
1E
100
AcDbEntity
  8
0
100
AcDbLine
 10
80.5
 20
0.427799999999995
 30
0.0
 11
81.0
 21
-0.0700000000000096
 31
0.0
  0
LINE
  5
6F
330
1E
100
AcDbEntity
  8
0
100
AcDbLine
 10
80.5
 20
0.427799999999995
 30
0.0
 11
80.5
 21
0.7418999999999909
 31
0.0
  0
LINE
  5
9B
330
1E
100
AcDbEntity
  8
0
100
AcDbLine
 10
80.5
 20
34.2808
 30
0.0
 11
80.5
 21
39.6809
 31
0.0
  0
LINE
  5
9C
330
1E
100
AcDbEntity
  8
0
100
AcDbLine
 10
80.5
 20
34.2808
 30
0.0
 11
80.5
 21
29.3236
 31
0.0
  0
LINE
  5
A1
330
1E
100
AcDbEntity
  8
0
100
AcDbLine
 10
80.5
 20
34.3364
 30
0.0
 11
80.5
 21
29.4582
 31
0.0
  0
LINE
  5
A2
330
1E
100
AcDbEntity
  8
0
100
AcDbLine
 10
80.5
 20
34.3364
 30
0.0
 11
80.5
 21
39.6527
 31
0.0
  0
LINE
  5
AA
330
1E
100
AcDbEntity
  8
0
100
AcDbLine
 10
74.58400000000001
 20
60.9297
 30
0.0
 11
79.2502872347564
 21
59.07142517680959
 31
0.0
  0
LINE
  5
B1
330
1E
100
AcDbEntity
  8
0
100
AcDbLine
 10
80.5
 20
39.6809
 30
0.0
 11
80.5
 21
43.2101
 31
0.0
  0
LINE
  5
B2
330
1E
100
AcDbEntity
  8
0
100
AcDbLine
 10
80.5
 20
39.6809
 30
0.0
 11
80.5
 21
34.2808
 31
0.0
  0
LINE
  5
B3
330
1E
100
AcDbEntity
  8
0
100
AcDbLine
 10
80.5
 20
43.2101
 30
0.0
 11
80.5
 21
46.0263
 31
0.0
  0
LINE
  5
B4
330
1E
100
AcDbEntity
  8
0
100
AcDbLine
 10
80.5
 20
43.2101
 30
0.0
 11
80.5
 21
39.6809
 31
0.0
  0
LINE
  5
BF
330
1E
100
AcDbEntity
  8
0
100
AcDbLine
 10
80.5
 20
43.13709999999999
 30
0.0
 11
80.5
 21
39.6527
 31
0.0
  0
LINE
  5
C0
330
1E
100
AcDbEntity
  8
0
100
AcDbLine
 10
80.5
 20
43.13709999999999
 30
0.0
 11
80.5
 21
46.0441
 31
0.0
  0
LINE
  5
C1
330
1E
100
AcDbEntity
  8
0
100
AcDbLine
 10
80.5
 20
39.6527
 30
0.0
 11
80.5
 21
34.3364
 31
0.0
  0
LINE
  5
C2
330
1E
100
AcDbEntity
  8
0
100
AcDbLine
 10
80.5
 20
39.6527
 30
0.0
 11
80.5
 21
43.13709999999999
 31
0.0
  0
LINE
  5
C8
330
1E
100
AcDbEntity
  8
0
100
AcDbLine
 10
76.55199999999999
 20
47.4061
 30
0.0
 11
80.5
 21
46.8533426136364
 31
0.0
  0
LINE
  5
CB
330
1E
100
AcDbEntity
  8
0
100
AcDbLine
 10
80.5
 20
46.0263
 30
0.0
 11
80.5
 21
50.1018
 31
0.0
  0
LINE
  5
CC
330
1E
100
AcDbEntity
  8
0
100
AcDbLine
 10
80.5
 20
46.0263
 30
0.0
 11
80.5
 21
43.2101
 31
0.0
  0
LINE
  5
CD
330
1E
100
AcDbEntity
  8
0
100
AcDbLine
 10
80.5
 20
52.0705
 30
0.0
 11
80.5
 21
53.832
 31
0.0
  0
LINE
  5
CE
330
1E
100
AcDbEntity
  8
0
100
AcDbLine
 10
80.5
 20
52.0705
 30
0.0
 11
80.5
 21
50.1018
 31
0.0
  0
LINE
  5
CF
330
1E
100
AcDbEntity
  8
0
100
AcDbLine
 10
80.5
 20
50.1018
 30
0.0
 11
80.5
 21
52.0705
 31
0.0
  0
LINE
  5
D0
330
1E
100
AcDbEntity
  8
0
100
AcDbLine
 10
80.5
 20
50.1018
 30
0.0
 11
80.5
 21
46.0263
 31
0.0
  0
LINE
  5
D1
330
1E
100
AcDbEntity
  8
0
100
AcDbLine
 10
80.5
 20
53.832
 30
0.0
 11
80.5
 21
52.0705
 31
0.0
  0
LINE
  5
D2
330
1E
100
AcDbEntity
  8
0
100
AcDbLine
 10
80.5
 20
53.832
 30
0.0
 11
80.5
 21
54.9842
 31
0.0
  0
LINE
  5
D5
330
1E
100
AcDbEntity
  8
0
100
AcDbLine
 10
79.595
 20
58.6163
 30
0.0
 11
80.13049999999999
 21
57.8195
 31
0.0
  0
LINE
  5
D6
330
1E
100
AcDbEntity
  8
0
100
AcDbLine
 10
80.13049999999999
 20
57.8195
 30
0.0
 11
80.39289999999999
 21
56.6094
 31
0.0
  0
LINE
  5
D7
330
1E
100
AcDbEntity
  8
0
100
AcDbLine
 10
80.39289999999999
 20
56.6094
 30
0.0
 11
80.5
 21
54.9842
 31
0.0
  0
LINE
  5
D8
330
1E
100
AcDbEntity
  8
0
100
AcDbLine
 10
80.5
 20
54.9842
 30
0.0
 11
80.5
 21
52.12699999999999
 31
0.0
  0
LINE
  5
D9
330
1E
100
AcDbEntity
  8
0
100
AcDbLine
 10
80.5
 20
54.9842
 30
0.0
 11
80.5
 21
53.832
 31
0.0
  0
LINE
  5
DA
330
1E
100
AcDbEntity
  8
0
100
AcDbLine
 10
80.5
 20
52.12699999999999
 30
0.0
 11
80.5
 21
50.0363
 31
0.0
  0
LINE
  5
DB
330
1E
100
AcDbEntity
  8
0
100
AcDbLine
 10
80.5
 20
52.12699999999999
 30
0.0
 11
80.5
 21
54.9842
 31
0.0
  0
LINE
  5
105
330
1E
100
AcDbEntity
  8
0
100
AcDbLine
 10
80.5
 20
50.0363
 30
0.0
 11
80.5
 21
46.0441
 31
0.0
  0
LINE
  5
106
330
1E
100
AcDbEntity
  8
0
100
AcDbLine
 10
80.5
 20
50.0363
 30
0.0
 11
80.5
 21
52.12699999999999
 31
0.0
  0
LINE
  5
107
330
1E
100
AcDbEntity
  8
0
100
AcDbLine
 10
80.5
 20
46.0441
 30
0.0
 11
80.5
 21
43.13709999999999
 31
0.0
  0
LINE
  5
108
330
1E
100
AcDbEntity
  8
0
100
AcDbLine
 10
80.5
 20
46.0441
 30
0.0
 11
80.5
 21
50.0363
 31
0.0
  0
LINE
  5
109
330
1E
100
AcDbEntity
  8
0
100
AcDbLine
 10
76.68000000000001
 20
47.8859
 30
0.0
 11
80.5
 21
47.3511
 31
0.0
  0
LINE
  5
110
330
1E
100
AcDbEntity
  8
0
100
AcDbLine
 10
80.13600000000002
 20
60.8421
 30
0.0
 11
85.0
 21
60.1611
 31
0.0
  0
LINE
  5
120
330
1E
100
AcDbEntity
  8
0
100
AcDbLine
 10
74.97679999999999
 20
39.04787
 30
0.0
 11
80.5
 21
38.5457609090909
 31
0.0
  0
LINE
  5
123
330
1E
100
AcDbEntity
  8
0
100
AcDbLine
 10
73.78
 20
30.09
 30
0.0
 11
80.5
 21
29.4790909090909
 31
0.0
  0
LINE
  5
124
330
1E
100
AcDbEntity
  8
0
100
AcDbLine
 10
56.356
 20
62.7814
 30
0.0
 11
61.636
 21
55.81649999999999
 31
0.0
  0
LINE
  5
125
330
1E
100
AcDbEntity
  8
0
100
AcDbLine
 10
56.79
 20
63.0283
 30
0.0
 11
61.99
 21
56.1689
 31
0.0
  0
LINE
  5
12B
330
1E
100
AcDbEntity
  8
0
100
AcDbLine
 10
75.576
 20
62.658
 30
0.0
 11
80.13600000000002
 21
60.8421
 31
0.0
  0
LINE
  5
12C
330
1E
100
AcDbEntity
  8
0
100
AcDbLine
 10
70.13200000000001
 20
64.27469999999999
 30
0.0
 11
74.58400000000001
 21
60.9297
 31
0.0
  0
LINE
  5
12E
330
1E
100
AcDbEntity
  8
0
100
AcDbLine
 10
71.548
 20
65.6845
 30
0.0
 11
75.576
 21
62.658
 31
0.0
  0
LINE
  5
133
330
1E
100
AcDbEntity
  8
0
100
AcDbLine
 10
53.67
 20
70.7936
 30
0.0
 11
56.79
 21
63.0283
 31
0.0
  0
LINE
  5
134
330
1E
100
AcDbEntity
  8
0
100
AcDbLine
 10
53.188
 20
70.6662
 30
0.0
 11
56.356
 21
62.7814
 31
0.0
  0
LINE
  5
13A
330
1E
100
AcDbEntity
  8
0
100
AcDbLine
 10
68.50799999999999
 20
69.69450000000001
 30
0.0
 11
71.548
 21
65.6845
 31
0.0
  0
LINE
  5
13C
330
1E
100
AcDbEntity
  8
0
100
AcDbLine
 10
66.77199999999999
 20
68.70699999999999
 30
0.0
 11
70.13200000000001
 21
64.27469999999999
 31
0.0
  0
LINE
  5
13E
330
1E
100
AcDbEntity
  8
0
100
AcDbLine
 10
52.5
 20
79.0767
 30
0.0
 11
53.67
 21
70.7936
 31
0.0
  0
LINE
  5
13F
330
1E
100
AcDbEntity
  8
0
100
AcDbLine
 10
52.5
 20
79.0767
 30
0.0
 11
53.67
 21
87.3597
 31
0.0
  0
LINE
  5
140
330
1E
100
AcDbEntity
  8
0
100
AcDbLine
 10
52.0
 20
79.0767
 30
0.0
 11
53.188
 21
70.6662
 31
0.0
  0
LINE
  5
141
330
1E
100
AcDbEntity
  8
0
100
AcDbLine
 10
52.0
 20
79.0767
 30
0.0
 11
53.188
 21
87.4871
 31
0.0
  0
LINE
  5
143
330
1E
100
AcDbEntity
  8
0
100
AcDbLine
 10
66.0
 20
79.0767
 30
0.0
 11
66.684
 21
74.2343
 31
0.0
  0
LINE
  5
144
330
1E
100
AcDbEntity
  8
0
100
AcDbLine
 10
66.0
 20
79.0767
 30
0.0
 11
66.684
 21
83.91910000000001
 31
0.0
  0
LINE
  5
148
330
1E
100
AcDbEntity
  8
0
100
AcDbLine
 10
66.684
 20
74.2343
 30
0.0
 11
68.50799999999999
 21
69.69450000000001
 31
0.0
  0
LINE
  5
14A
330
1E
100
AcDbEntity
  8
0
100
AcDbLine
 10
64.0
 20
79.0767
 30
0.0
 11
64.756
 21
73.7246
 31
0.0
  0
LINE
  5
14B
330
1E
100
AcDbEntity
  8
0
100
AcDbLine
 10
64.0
 20
79.0767
 30
0.0
 11
64.756
 21
84.4288
 31
0.0
  0
LINE
  5
14C
330
1E
100
AcDbEntity
  8
0
100
AcDbLine
 10
64.756
 20
73.7246
 30
0.0
 11
66.77199999999999
 21
68.70699999999999
 31
0.0
  0
LINE
  5
152
330
1E
100
AcDbEntity
  8
0
100
AcDbLine
 10
24.8608
 20
67.9025
 30
0.0
 11
31.5429
 21
60.6129
 31
0.0
  0
LINE
  5
153
330
1E
100
AcDbEntity
  8
0
100
AcDbLine
 10
19.0899
 20
76.4071
 30
0.0
 11
24.8608
 21
67.9025
 31
0.0
  0
LINE
  5
158
330
1E
100
AcDbEntity
  8
0
100
AcDbLine
 10
17.67999999999999
 20
62.39
 30
0.0
 11
25.16
 21
54.23
 31
0.0
  0
LINE
  5
159
330
1E
100
AcDbEntity
  8
0
100
AcDbLine
 10
11.22
 20
71.90999999999999
 30
0.0
 11
17.67999999999999
 21
62.39
 31
0.0
  0
LINE
  5
15D
330
1E
100
AcDbEntity
  8
0
100
AcDbLine
 10
66.684
 20
83.91910000000001
 30
0.0
 11
68.50799999999999
 21
88.45879999999999
 31
0.0
  0
LINE
  5
15F
330
1E
100
AcDbEntity
  8
0
100
AcDbLine
 10
64.756
 20
84.4288
 30
0.0
 11
66.77199999999999
 21
89.44639999999999
 31
0.0
  0
LINE
  5
163
330
1E
100
AcDbEntity
  8
0
100
AcDbLine
 10
53.188
 20
87.4871
 30
0.0
 11
56.356
 21
95.3719
 31
0.0
  0
LINE
  5
164
330
1E
100
AcDbEntity
  8
0
100
AcDbLine
 10
68.50799999999999
 20
88.45879999999999
 30
0.0
 11
71.548
 21
92.4689
 31
0.0
  0
LINE
  5
165
330
1E
100
AcDbEntity
  8
0
100
AcDbLine
 10
66.77199999999999
 20
89.44639999999999
 30
0.0
 11
70.13200000000001
 21
93.87860000000001
 31
0.0
  0
LINE
  5
16E
330
1E
100
AcDbEntity
  8
0
100
AcDbLine
 10
71.548
 20
92.4689
 30
0.0
 11
75.576
 21
95.4954
 31
0.0
  0
LINE
  5
170
330
1E
100
AcDbEntity
  8
0
100
AcDbLine
 10
70.13200000000001
 20
93.87860000000001
 30
0.0
 11
74.58400000000001
 21
97.22369999999999
 31
0.0
  0
LINE
  5
172
330
1E
100
AcDbEntity
  8
0
100
AcDbLine
 10
53.67
 20
87.3597
 30
0.0
 11
56.79
 21
95.12500000000001
 31
0.0
  0
LINE
  5
173
330
1E
100
AcDbEntity
  8
0
100
AcDbLine
 10
56.356
 20
95.3719
 30
0.0
 11
61.636
 21
102.337
 31
0.0
  0
LINE
  5
179
330
1E
100
AcDbEntity
  8
0
100
AcDbLine
 10
75.576
 20
95.4954
 30
0.0
 11
80.13600000000002
 21
97.3113
 31
0.0
  0
LINE
  5
17C
330
1E
100
AcDbEntity
  8
0
100
AcDbLine
 10
80.13600000000002
 20
97.3113
 30
0.0
 11
85.0
 21
97.9922
 31
0.0
  0
LINE
  5
17D
330
1E
100
AcDbEntity
  8
0
100
AcDbLine
 10
74.58400000000001
 20
97.22369999999999
 30
0.0
 11
79.62399999999999
 21
99.2307
 31
0.0
  0
LINE
  5
17E
330
1E
100
AcDbEntity
  8
0
100
AcDbLine
 10
56.79
 20
95.12500000000001
 30
0.0
 11
61.99
 21
101.9839999999999
 31
0.0
  0
LINE
  5
180
330
1E
100
AcDbEntity
  8
0
100
AcDbLine
 10
79.62399999999999
 20
99.2307
 30
0.0
 11
85.0
 21
99.983
 31
0.0
  0
LINE
  5
181
330
1E
100
AcDbEntity
  8
0
100
AcDbLine
 10
61.636
 20
102.337
 30
0.0
 11
68.632
 21
107.5929999999999
 31
0.0
  0
LINE
  5
182
330
1E
100
AcDbEntity
  8
0
100
AcDbLine
 10
61.99
 20
101.9839999999999
 30
0.0
 11
68.87999999999999
 21
107.1609999999999
 31
0.0
  0
LINE
  5
18F
330
1E
100
AcDbEntity
  8
0
100
AcDbLine
 10
15.14129999999999
 20
85.2153
 30
0.0
 11
19.0899
 21
76.4071
 31
0.0
  0
LINE
  5
190
330
1E
100
AcDbEntity
  8
0
100
AcDbLine
 10
11.8003
 20
94.6311
 30
0.0
 11
15.14129999999999
 21
85.2153
 31
0.0
  0
LINE
  5
195
330
1E
100
AcDbEntity
  8
0
100
AcDbLine
 10
6.799999999999999
 20
81.76999999999999
 30
0.0
 11
11.22
 21
71.90999999999999
 31
0.0
  0
LINE
  5
196
330
1E
100
AcDbEntity
  8
0
100
AcDbLine
 10
3.06
 20
92.30999999999999
 30
0.0
 11
6.799999999999999
 21
81.76999999999999
 31
0.0
  0
LINE
  5
197
330
1E
100
AcDbEntity
  8
0
100
AcDbLine
 10
1.02
 20
125.29
 30
0.0
 11
3.06
 21
135.83
 31
0.0
  0
LINE
  5
198
330
1E
100
AcDbEntity
  8
0
100
AcDbLine
 10
3.06
 20
135.83
 30
0.0
 11
6.799999999999999
 21
146.37
 31
0.0
  0
LINE
  5
199
330
1E
100
AcDbEntity
  8
0
100
AcDbLine
 10
6.799999999999999
 20
146.37
 30
0.0
 11
11.22
 21
156.23
 31
0.0
  0
LINE
  5
19F
330
1E
100
AcDbEntity
  8
0
100
AcDbLine
 10
9.977869999999999
 20
124.0931999999999
 30
0.0
 11
11.8003
 21
133.5089999999999
 31
0.0
  0
LINE
  5
1A4
330
1E
100
AcDbEntity
  8
0
100
AcDbLine
 10
11.8003
 20
133.5089999999999
 30
0.0
 11
15.14129999999999
 21
142.925
 31
0.0
  0
LINE
  5
1A7
330
1E
100
AcDbEntity
  8
0
100
AcDbLine
 10
19.0899
 20
151.733
 30
0.0
 11
24.8608
 21
160.237
 31
0.0
  0
LINE
  5
1A8
330
1E
100
AcDbEntity
  8
0
100
AcDbLine
 10
15.14129999999999
 20
142.925
 30
0.0
 11
19.0899
 21
151.733
 31
0.0
  0
LINE
  5
1AB
330
1E
100
AcDbEntity
  8
0
100
AcDbLine
 10
24.8608
 20
160.237
 30
0.0
 11
31.5429
 21
167.527
 31
0.0
  0
LINE
  5
1AC
330
1E
100
AcDbEntity
  8
0
100
AcDbLine
 10
17.67999999999999
 20
165.7499999999999
 30
0.0
 11
25.16
 21
173.91
 31
0.0
  0
LINE
  5
1AD
330
1E
100
AcDbEntity
  8
0
100
AcDbLine
 10
11.22
 20
156.23
 30
0.0
 11
17.67999999999999
 21
165.7499999999999
 31
0.0
  0
LINE
  5
1B4
330
1E
100
AcDbEntity
  8
0
100
AcDbLine
 10
38.8325
 20
174.209
 30
0.0
 11
47.3371
 21
179.9799999999999
 31
0.0
  0
LINE
  5
1B5
330
1E
100
AcDbEntity
  8
0
100
AcDbLine
 10
31.5429
 20
167.527
 30
0.0
 11
38.8325
 21
174.209
 31
0.0
  0
LINE
  5
1B6
330
1E
100
AcDbEntity
  8
0
100
AcDbLine
 10
68.632
 20
107.5929999999999
 30
0.0
 11
76.55199999999999
 21
110.747
 31
0.0
  0
LINE
  5
1B7
330
1E
100
AcDbEntity
  8
0
100
AcDbLine
 10
76.68000000000001
 20
110.267
 30
0.0
 11
85.0
 21
111.4319999999999
 31
0.0
  0
LINE
  5
1B8
330
1E
100
AcDbEntity
  8
0
100
AcDbLine
 10
76.55199999999999
 20
110.747
 30
0.0
 11
85.0
 21
111.93
 31
0.0
  0
LINE
  5
1B9
330
1E
100
AcDbEntity
  8
0
100
AcDbLine
 10
68.87999999999999
 20
107.1609999999999
 30
0.0
 11
76.68000000000001
 21
110.267
 31
0.0
  0
LINE
  5
1BA
330
1E
100
AcDbEntity
  8
0
100
AcDbLine
 10
66.77199999999999
 20
142.621
 30
0.0
 11
70.13200000000001
 21
138.1829999999999
 31
0.0
  0
LINE
  5
1BB
330
1E
100
AcDbEntity
  8
0
100
AcDbLine
 10
64.756
 20
147.6449999999999
 30
0.0
 11
66.77199999999999
 21
142.621
 31
0.0
  0
LINE
  5
1BC
330
1E
100
AcDbEntity
  8
0
100
AcDbLine
 10
72.4242
 20
149.675
 30
0.0
 11
73.67659999999999
 21
146.554
 31
0.0
  0
LINE
  5
1BD
330
1E
100
AcDbEntity
  8
0
100
AcDbLine
 10
70.13200000000001
 20
138.1829999999999
 30
0.0
 11
74.58400000000001
 21
134.833
 31
0.0
  0
LINE
  5
1C1
330
1E
100
AcDbEntity
  8
0
100
AcDbLine
 10
71.9546
 20
153.0039999999999
 30
0.0
 11
72.4242
 21
156.333
 31
0.0
  0
LINE
  5
1C2
330
1E
100
AcDbEntity
  8
0
100
AcDbLine
 10
71.9546
 20
153.0039999999999
 30
0.0
 11
72.4242
 21
149.675
 31
0.0
  0
LINE
  5
1C3
330
1E
100
AcDbEntity
  8
0
100
AcDbLine
 10
64.0
 20
153.0039999999999
 30
0.0
 11
64.756
 21
158.363
 31
0.0
  0
LINE
  5
1C4
330
1E
100
AcDbEntity
  8
0
100
AcDbLine
 10
64.0
 20
153.0039999999999
 30
0.0
 11
64.756
 21
147.6449999999999
 31
0.0
  0
LINE
  5
1C5
330
1E
100
AcDbEntity
  8
0
100
AcDbLine
 10
64.756
 20
158.363
 30
0.0
 11
66.77199999999999
 21
163.3869999999999
 31
0.0
  0
LINE
  5
1C6
330
1E
100
AcDbEntity
  8
0
100
AcDbLine
 10
66.77199999999999
 20
163.3869999999999
 30
0.0
 11
70.13200000000001
 21
167.825
 31
0.0
  0
LINE
  5
1C7
330
1E
100
AcDbEntity
  8
0
100
AcDbLine
 10
72.4242
 20
156.333
 30
0.0
 11
73.67659999999999
 21
159.454
 31
0.0
  0
LINE
  5
1C8
330
1E
100
AcDbEntity
  8
0
100
AcDbLine
 10
73.67659999999999
 20
146.554
 30
0.0
 11
75.7638
 21
143.7969999999999
 31
0.0
  0
LINE
  5
1CA
330
1E
100
AcDbEntity
  8
0
100
AcDbLine
 10
74.58400000000001
 20
134.833
 30
0.0
 11
79.62399999999999
 21
132.8239999999999
 31
0.0
  0
LINE
  5
1CB
330
1E
100
AcDbEntity
  8
0
100
AcDbLine
 10
81.6604
 20
140.4679999999999
 30
0.0
 11
85.0
 21
139.999
 31
0.0
  0
LINE
  5
1CE
330
1E
100
AcDbEntity
  8
0
100
AcDbLine
 10
79.47639999999999
 20
143.368
 30
0.0
 11
82.14910000000001
 21
142.302
 31
0.0
  0
LINE
  5
1CF
330
1E
100
AcDbEntity
  8
0
100
AcDbLine
 10
78.52949999999999
 20
141.716
 30
0.0
 11
81.6604
 21
140.4679999999999
 31
0.0
  0
LINE
  5
1D0
330
1E
100
AcDbEntity
  8
0
100
AcDbLine
 10
77.11549999999999
 20
145.144
 30
0.0
 11
79.47639999999999
 21
143.368
 31
0.0
  0
LINE
  5
1D2
330
1E
100
AcDbEntity
  8
0
100
AcDbLine
 10
75.7638
 20
143.7969999999999
 30
0.0
 11
78.52949999999999
 21
141.716
 31
0.0
  0
LINE
  5
1D3
330
1E
100
AcDbEntity
  8
0
100
AcDbLine
 10
75.3336
 20
147.4979999999999
 30
0.0
 11
77.11549999999999
 21
145.144
 31
0.0
  0
LINE
  5
1D4
330
1E
100
AcDbEntity
  8
0
100
AcDbLine
 10
74.26449999999999
 20
150.162
 30
0.0
 11
75.3336
 21
147.4979999999999
 31
0.0
  0
LINE
  5
1D9
330
1E
100
AcDbEntity
  8
0
100
AcDbLine
 10
82.14910000000001
 20
142.302
 30
0.0
 11
85.0
 21
141.903
 31
0.0
  0
LINE
  5
1DA
330
1E
100
AcDbEntity
  8
0
100
AcDbLine
 10
79.62399999999999
 20
132.8239999999999
 30
0.0
 11
85.0
 21
132.0699999999999
 31
0.0
  0
LINE
  5
1DB
330
1E
100
AcDbEntity
  8
0
100
AcDbLine
 10
73.8636
 20
153.0039999999999
 30
0.0
 11
74.26449999999999
 21
155.846
 31
0.0
  0
LINE
  5
1DC
330
1E
100
AcDbEntity
  8
0
100
AcDbLine
 10
73.8636
 20
153.0039999999999
 30
0.0
 11
74.26449999999999
 21
150.162
 31
0.0
  0
LINE
  5
1DD
330
1E
100
AcDbEntity
  8
0
100
AcDbLine
 10
75.3336
 20
158.5099999999999
 30
0.0
 11
77.11549999999999
 21
160.864
 31
0.0
  0
LINE
  5
1DE
330
1E
100
AcDbEntity
  8
0
100
AcDbLine
 10
75.7638
 20
162.211
 30
0.0
 11
78.52949999999999
 21
164.292
 31
0.0
  0
LINE
  5
1E0
330
1E
100
AcDbEntity
  8
0
100
AcDbLine
 10
77.11549999999999
 20
160.864
 30
0.0
 11
79.47639999999999
 21
162.6399999999999
 31
0.0
  0
LINE
  5
1E1
330
1E
100
AcDbEntity
  8
0
100
AcDbLine
 10
82.14910000000001
 20
163.706
 30
0.0
 11
85.0
 21
164.1049999999999
 31
0.0
  0
LINE
  5
1E2
330
1E
100
AcDbEntity
  8
0
100
AcDbLine
 10
79.47639999999999
 20
162.6399999999999
 30
0.0
 11
82.14910000000001
 21
163.706
 31
0.0
  0
LINE
  5
1E5
330
1E
100
AcDbEntity
  8
0
100
AcDbLine
 10
73.67659999999999
 20
159.454
 30
0.0
 11
75.7638
 21
162.211
 31
0.0
  0
LINE
  5
1E6
330
1E
100
AcDbEntity
  8
0
100
AcDbLine
 10
74.26449999999999
 20
155.846
 30
0.0
 11
75.3336
 21
158.5099999999999
 31
0.0
  0
LINE
  5
1E8
330
1E
100
AcDbEntity
  8
0
100
AcDbLine
 10
78.52949999999999
 20
164.292
 30
0.0
 11
81.07182080816404
 21
165.5943913409783
 31
0.0
  0
LINE
  5
1F2
330
1E
100
AcDbEntity
  8
0
100
AcDbLine
 10
82.13639999999999
 20
168.3559999999999
 30
0.0
 11
82.13639999999999
 21
170.1759999999999
 31
0.0
  0
LINE
  5
1F3
330
1E
100
AcDbEntity
  8
0
100
AcDbLine
 10
82.13639999999999
 20
168.3559999999999
 30
0.0
 11
82.13639999999999
 21
169.09
 31
0.0
  0
LINE
  5
1F6
330
1E
100
AcDbEntity
  8
0
100
AcDbLine
 10
74.58400000000001
 20
171.175
 30
0.0
 11
79.62399999999999
 21
173.184
 31
0.0
  0
LINE
  5
1F7
330
1E
100
AcDbEntity
  8
0
100
AcDbLine
 10
82.13639999999999
 20
169.09
 30
0.0
 11
82.13639999999999
 21
168.3559999999999
 31
0.0
  0
LINE
  5
1F8
330
1E
100
AcDbEntity
  8
0
100
AcDbLine
 10
82.13639999999999
 20
170.1759999999999
 30
0.0
 11
82.13639999999999
 21
171.5079999999999
 31
0.0
  0
LINE
  5
1F9
330
1E
100
AcDbEntity
  8
0
100
AcDbLine
 10
82.13639999999999
 20
170.1759999999999
 30
0.0
 11
82.13639999999999
 21
168.3559999999999
 31
0.0
  0
LINE
  5
1FA
330
1E
100
AcDbEntity
  8
0
100
AcDbLine
 10
82.13639999999999
 20
177.0599999999999
 30
0.0
 11
82.13639999999999
 21
179.314
 31
0.0
  0
LINE
  5
1FB
330
1E
100
AcDbEntity
  8
0
100
AcDbLine
 10
82.13639999999999
 20
175.617
 30
0.0
 11
82.13639999999999
 21
177.071
 31
0.0
  0
LINE
  5
1FC
330
1E
100
AcDbEntity
  8
0
100
AcDbLine
 10
82.13639999999999
 20
175.617
 30
0.0
 11
82.13639999999999
 21
175.0699999999999
 31
0.0
  0
LINE
  5
1FD
330
1E
100
AcDbEntity
  8
0
100
AcDbLine
 10
82.13639999999999
 20
177.071
 30
0.0
 11
82.13639999999999
 21
179.291
 31
0.0
  0
LINE
  5
1FE
330
1E
100
AcDbEntity
  8
0
100
AcDbLine
 10
82.13639999999999
 20
177.071
 30
0.0
 11
82.13639999999999
 21
175.617
 31
0.0
  0
LINE
  5
1FF
330
1E
100
AcDbEntity
  8
0
100
AcDbLine
 10
82.13639999999999
 20
179.314
 30
0.0
 11
82.13639999999999
 21
177.0599999999999
 31
0.0
  0
LINE
  5
200
330
1E
100
AcDbEntity
  8
0
100
AcDbLine
 10
82.13639999999999
 20
179.314
 30
0.0
 11
82.13639999999999
 21
181.7989999999999
 31
0.0
  0
LINE
  5
201
330
1E
100
AcDbEntity
  8
0
100
AcDbLine
 10
82.13639999999999
 20
179.291
 30
0.0
 11
82.13639999999999
 21
181.7429999999999
 31
0.0
  0
LINE
  5
202
330
1E
100
AcDbEntity
  8
0
100
AcDbLine
 10
82.13639999999999
 20
179.291
 30
0.0
 11
82.13639999999999
 21
177.071
 31
0.0
  0
LINE
  5
203
330
1E
100
AcDbEntity
  8
0
100
AcDbLine
 10
82.13639999999999
 20
175.0699999999999
 30
0.0
 11
82.13639999999999
 21
174.052
 31
0.0
  0
LINE
  5
204
330
1E
100
AcDbEntity
  8
0
100
AcDbLine
 10
82.13639999999999
 20
175.0699999999999
 30
0.0
 11
82.13639999999999
 21
175.617
 31
0.0
  0
LINE
  5
205
330
1E
100
AcDbEntity
  8
0
100
AcDbLine
 10
79.62399999999999
 20
173.184
 30
0.0
 11
82.13639999999999
 21
173.5363715773809
 31
0.0
  0
LINE
  5
206
330
1E
100
AcDbEntity
  8
0
100
AcDbLine
 10
82.13639999999999
 20
171.5079999999999
 30
0.0
 11
82.13639999999999
 21
174.052
 31
0.0
  0
LINE
  5
207
330
1E
100
AcDbEntity
  8
0
100
AcDbLine
 10
82.13639999999999
 20
171.5079999999999
 30
0.0
 11
82.13639999999999
 21
170.1759999999999
 31
0.0
  0
LINE
  5
216
330
1E
100
AcDbEntity
  8
0
100
AcDbLine
 10
82.13639999999999
 20
174.052
 30
0.0
 11
82.13639999999999
 21
175.0699999999999
 31
0.0
  0
LINE
  5
217
330
1E
100
AcDbEntity
  8
0
100
AcDbLine
 10
82.13639999999999
 20
174.052
 30
0.0
 11
82.13639999999999
 21
171.5079999999999
 31
0.0
  0
LINE
  5
219
330
1E
100
AcDbEntity
  8
0
100
AcDbLine
 10
70.13200000000001
 20
167.825
 30
0.0
 11
74.58400000000001
 21
171.175
 31
0.0
  0
LINE
  5
21D
330
1E
100
AcDbEntity
  8
0
100
AcDbLine
 10
47.3371
 20
179.9799999999999
 30
0.0
 11
56.1453
 21
183.929
 31
0.0
  0
LINE
  5
21E
330
1E
100
AcDbEntity
  8
0
100
AcDbLine
 10
42.84
 20
187.85
 30
0.0
 11
52.7
 21
192.27
 31
0.0
  0
LINE
  5
223
330
1E
100
AcDbEntity
  8
0
100
AcDbLine
 10
56.1453
 20
183.929
 30
0.0
 11
65.5611
 21
187.27
 31
0.0
  0
LINE
  5
224
330
1E
100
AcDbEntity
  8
0
100
AcDbLine
 10
82.13639999999999
 20
183.9109999999999
 30
0.0
 11
82.13639999999999
 21
181.7989999999999
 31
0.0
  0
LINE
  5
225
330
1E
100
AcDbEntity
  8
0
100
AcDbLine
 10
82.13639999999999
 20
183.9109999999999
 30
0.0
 11
82.13639999999999
 21
185.988
 31
0.0
  0
LINE
  5
226
330
1E
100
AcDbEntity
  8
0
100
AcDbLine
 10
82.13639999999999
 20
181.7429999999999
 30
0.0
 11
82.13639999999999
 21
183.929
 31
0.0
  0
LINE
  5
227
330
1E
100
AcDbEntity
  8
0
100
AcDbLine
 10
82.13639999999999
 20
181.7429999999999
 30
0.0
 11
82.13639999999999
 21
179.291
 31
0.0
  0
LINE
  5
228
330
1E
100
AcDbEntity
  8
0
100
AcDbLine
 10
82.13639999999999
 20
183.929
 30
0.0
 11
82.13639999999999
 21
185.9949999999999
 31
0.0
  0
LINE
  5
229
330
1E
100
AcDbEntity
  8
0
100
AcDbLine
 10
82.13639999999999
 20
183.929
 30
0.0
 11
82.13639999999999
 21
181.7429999999999
 31
0.0
  0
LINE
  5
22A
330
1E
100
AcDbEntity
  8
0
100
AcDbLine
 10
82.13639999999999
 20
185.988
 30
0.0
 11
82.13639999999999
 21
183.9109999999999
 31
0.0
  0
LINE
  5
22B
330
1E
100
AcDbEntity
  8
0
100
AcDbLine
 10
82.13639999999999
 20
185.9949999999999
 30
0.0
 11
82.13639999999999
 21
188.684
 31
0.0
  0
LINE
  5
22C
330
1E
100
AcDbEntity
  8
0
100
AcDbLine
 10
82.13639999999999
 20
185.9949999999999
 30
0.0
 11
82.13639999999999
 21
183.929
 31
0.0
  0
LINE
  5
22D
330
1E
100
AcDbEntity
  8
0
100
AcDbLine
 10
82.13639999999999
 20
188.684
 30
0.0
 11
82.13639999999999
 21
191.069
 31
0.0
  0
LINE
  5
22E
330
1E
100
AcDbEntity
  8
0
100
AcDbLine
 10
82.13639999999999
 20
188.684
 30
0.0
 11
82.13639999999999
 21
185.9949999999999
 31
0.0
  0
LINE
  5
237
330
1E
100
AcDbEntity
  8
0
100
AcDbLine
 10
82.13639999999999
 20
181.7989999999999
 30
0.0
 11
82.13639999999999
 21
179.314
 31
0.0
  0
LINE
  5
238
330
1E
100
AcDbEntity
  8
0
100
AcDbLine
 10
82.13639999999999
 20
181.7989999999999
 30
0.0
 11
82.13639999999999
 21
183.9109999999999
 31
0.0
  0
LINE
  5
239
330
1E
100
AcDbEntity
  8
0
100
AcDbLine
 10
82.13639999999999
 20
191.069
 30
0.0
 11
82.13639999999999
 21
192.8229999999999
 31
0.0
  0
LINE
  5
23A
330
1E
100
AcDbEntity
  8
0
100
AcDbLine
 10
82.13639999999999
 20
191.069
 30
0.0
 11
82.13639999999999
 21
188.684
 31
0.0
  0
LINE
  5
23B
330
1E
100
AcDbEntity
  8
0
100
AcDbLine
 10
82.13639999999999
 20
192.8229999999999
 30
0.0
 11
82.13639999999999
 21
193.4259999999999
 31
0.0
  0
LINE
  5
23C
330
1E
100
AcDbEntity
  8
0
100
AcDbLine
 10
82.13639999999999
 20
192.8229999999999
 30
0.0
 11
82.13639999999999
 21
191.069
 31
0.0
  0
LINE
  5
23D
330
1E
100
AcDbEntity
  8
0
100
AcDbLine
 10
82.13639999999999
 20
193.4259999999999
 30
0.0
 11
82.13639999999999
 21
193.5999999999999
 31
0.0
  0
LINE
  5
23F
330
1E
100
AcDbEntity
  8
0
100
AcDbLine
 10
82.13639999999999
 20
193.4259999999999
 30
0.0
 11
82.13639999999999
 21
192.8229999999999
 31
0.0
  0
LINE
  5
240
330
1E
100
AcDbEntity
  8
0
100
AcDbLine
 10
82.13639999999999
 20
193.5999999999999
 30
0.0
 11
82.13639999999999
 21
193.731
 31
0.0
  0
LINE
  5
241
330
1E
100
AcDbEntity
  8
0
100
AcDbLine
 10
82.13639999999999
 20
193.5999999999999
 30
0.0
 11
82.13639999999999
 21
193.4259999999999
 31
0.0
  0
LINE
  5
242
330
1E
100
AcDbEntity
  8
0
100
AcDbLine
 10
82.13639999999999
 20
193.862
 30
0.0
 11
82.13639999999999
 21
193.731
 31
0.0
  0
LINE
  5
243
330
1E
100
AcDbEntity
  8
0
100
AcDbLine
 10
82.13639999999999
 20
193.862
 30
0.0
 11
82.45449999999999
 21
194.0699999999999
 31
0.0
  0
LINE
  5
24F
330
1E
100
AcDbEntity
  8
0
100
AcDbLine
 10
82.13639999999999
 20
193.731
 30
0.0
 11
82.13639999999999
 21
193.862
 31
0.0
  0
LINE
  5
250
330
1E
100
AcDbEntity
  8
0
100
AcDbLine
 10
82.13639999999999
 20
193.731
 30
0.0
 11
82.13639999999999
 21
193.5999999999999
 31
0.0
  0
LINE
  5
253
330
1E
100
AcDbEntity
  8
0
100
AcDbLine
 10
74.97679999999999
 20
189.092
 30
0.0
 11
82.13639999999999
 21
189.7427298667089
 31
0.0
  0
LINE
  5
254
330
1E
100
AcDbEntity
  8
0
100
AcDbLine
 10
65.5611
 20
187.27
 30
0.0
 11
74.97679999999999
 21
189.092
 31
0.0
  0
LINE
  5
255
330
1E
100
AcDbEntity
  8
0
100
AcDbLine
 10
63.24
 20
196.0099999999999
 30
0.0
 11
73.78
 21
198.05
 31
0.0
  0
LINE
  5
256
330
1E
100
AcDbEntity
  8
0
100
AcDbLine
 10
52.7
 20
192.27
 30
0.0
 11
63.24
 21
196.0099999999999
 31
0.0
  0
LINE
  5
257
330
1E
100
AcDbEntity
  8
0
100
AcDbLine
 10
33.32
 20
181.3899999999999
 30
0.0
 11
42.84
 21
187.85
 31
0.0
  0
LINE
  5
258
330
1E
100
AcDbEntity
  8
0
100
AcDbLine
 10
25.16
 20
173.91
 30
0.0
 11
33.32
 21
181.3899999999999
 31
0.0
  0
LINE
  5
259
330
1E
100
AcDbEntity
  8
0
100
AcDbLine
 10
73.78
 20
198.05
 30
0.0
 11
85.0
 21
199.07
 31
0.0
  0
LINE
  5
301
330
1E
100
AcDbEntity
  8
0
100
AcDbLine
 10
9.977869999999999
 20
104.0468
 30
0.0
 11
11.8003
 21
94.6311
 31
0.0
  0
LINE
  5
302
330
1E
100
AcDbEntity
  8
0
100
AcDbLine
 10
9.06667
 20
114.07
 30
0.0
 11
9.977869999999999
 21
104.0468
 31
0.0
  0
LINE
  5
303
330
1E
100
AcDbEntity
  8
0
100
AcDbLine
 10
9.06667
 20
114.07
 30
0.0
 11
9.977869999999999
 21
124.0931999999999
 31
0.0
  0
LINE
  5
30A
330
1E
100
AcDbEntity
  8
0
100
AcDbLine
 10
1.02
 20
102.8499999999999
 30
0.0
 11
3.06
 21
92.30999999999999
 31
0.0
  0
LINE
  5
30B
330
1E
100
AcDbEntity
  8
0
100
AcDbLine
 10
0.0
 20
114.07
 30
0.0
 11
1.02
 21
102.8499999999999
 31
0.0
  0
LINE
  5
30C
330
1E
100
AcDbEntity
  8
0
100
AcDbLine
 10
0.0
 20
114.07
 30
0.0
 11
1.02
 21
125.29
 31
0.0
  0
LINE
  5
311
330
1E
100
AcDbEntity
  8
0
100
AcDbLine
 10
81.07182080816404
 20
165.5943913409783
 30
0.0
 11
81.51604823903722
 21
165.9791736807483
 31
0.0
  0
LINE
  5
312
330
1E
100
AcDbEntity
  8
0
100
AcDbLine
 10
81.51604823903722
 20
165.9791736807483
 30
0.0
 11
81.91585378437002
 21
166.6007446141813
 31
0.0
  0
LINE
  5
313
330
1E
100
AcDbEntity
  8
0
100
AcDbLine
 10
81.91585378437002
 20
166.6007446141813
 30
0.0
 11
82.13796702339164
 21
167.4591050746827
 31
0.0
  0
LINE
  5
314
330
1E
100
AcDbEntity
  8
0
100
AcDbLine
 10
82.13796702339164
 20
167.4591050746827
 30
0.0
 11
82.13639999999999
 21
168.3559999999999
 31
0.0
  0
LINE
  5
315
330
1E
100
AcDbEntity
  8
0
100
AcDbLine
 10
79.2502872347564
 20
59.07142517680959
 30
0.0
 11
79.595
 21
58.6163
 31
0.0
  0
LINE
  5
316
330
1E
100
AcDbEntity
  8
0
100
AcDbLine
 10
90.7497127652436
 20
59.07142517680959
 30
0.0
 11
90.40499999999999
 21
58.6163
 31
0.0
  0
LINE
  5
317
330
1E
100
AcDbEntity
  8
0
100
AcDbLine
 10
87.86203297660836
 20
167.4591050746827
 30
0.0
 11
87.8636
 21
168.3559999999999
 31
0.0
  0
LINE
  5
318
330
1E
100
AcDbEntity
  8
0
100
AcDbLine
 10
88.08414621562997
 20
166.6007446141813
 30
0.0
 11
87.86203297660836
 21
167.4591050746827
 31
0.0
  0
LINE
  5
319
330
1E
100
AcDbEntity
  8
0
100
AcDbLine
 10
88.48395176096278
 20
165.9791736807483
 30
0.0
 11
88.08414621562997
 21
166.6007446141813
 31
0.0
  0
LINE
  5
31A
330
1E
100
AcDbEntity
  8
0
100
AcDbLine
 10
88.92817919183597
 20
165.5943913409783
 30
0.0
 11
88.48395176096278
 21
165.9791736807483
 31
0.0
  0
LINE
  5
31B
330
1E
100
AcDbEntity
  8
0
100
AcDbLine
 10
170.0
 20
114.07
 30
0.0
 11
168.9799999999999
 21
125.29
 31
0.0
  0
LINE
  5
31C
330
1E
100
AcDbEntity
  8
0
100
AcDbLine
 10
170.0
 20
114.07
 30
0.0
 11
168.9799999999999
 21
102.8499999999999
 31
0.0
  0
LINE
  5
31D
330
1E
100
AcDbEntity
  8
0
100
AcDbLine
 10
168.9799999999999
 20
102.8499999999999
 30
0.0
 11
166.9399999999999
 21
92.30999999999999
 31
0.0
  0
LINE
  5
31E
330
1E
100
AcDbEntity
  8
0
100
AcDbLine
 10
160.93333
 20
114.07
 30
0.0
 11
160.02213
 21
124.0931999999999
 31
0.0
  0
LINE
  5
31F
330
1E
100
AcDbEntity
  8
0
100
AcDbLine
 10
160.93333
 20
114.07
 30
0.0
 11
160.02213
 21
104.0468
 31
0.0
  0
LINE
  5
320
330
1E
100
AcDbEntity
  8
0
100
AcDbLine
 10
160.02213
 20
104.0468
 30
0.0
 11
158.1997
 21
94.6311
 31
0.0
  0
LINE
  5
321
330
1E
100
AcDbEntity
  8
0
100
AcDbLine
 10
96.21999999999999
 20
198.05
 30
0.0
 11
85.0
 21
199.07
 31
0.0
  0
LINE
  5
322
330
1E
100
AcDbEntity
  8
0
100
AcDbLine
 10
144.84
 20
173.91
 30
0.0
 11
136.68
 21
181.3899999999999
 31
0.0
  0
LINE
  5
323
330
1E
100
AcDbEntity
  8
0
100
AcDbLine
 10
136.68
 20
181.3899999999999
 30
0.0
 11
127.16
 21
187.85
 31
0.0
  0
LINE
  5
324
330
1E
100
AcDbEntity
  8
0
100
AcDbLine
 10
117.3
 20
192.27
 30
0.0
 11
106.7599999999999
 21
196.0099999999999
 31
0.0
  0
LINE
  5
325
330
1E
100
AcDbEntity
  8
0
100
AcDbLine
 10
106.7599999999999
 20
196.0099999999999
 30
0.0
 11
96.21999999999999
 21
198.05
 31
0.0
  0
LINE
  5
326
330
1E
100
AcDbEntity
  8
0
100
AcDbLine
 10
104.4389
 20
187.27
 30
0.0
 11
95.0232
 21
189.092
 31
0.0
  0
LINE
  5
327
330
1E
100
AcDbEntity
  8
0
100
AcDbLine
 10
95.0232
 20
189.092
 30
0.0
 11
87.8636
 21
189.7427298667089
 31
0.0
  0
LINE
  5
328
330
1E
100
AcDbEntity
  8
0
100
AcDbLine
 10
87.8636
 20
193.731
 30
0.0
 11
87.8636
 21
193.5999999999999
 31
0.0
  0
LINE
  5
329
330
1E
100
AcDbEntity
  8
0
100
AcDbLine
 10
87.8636
 20
193.731
 30
0.0
 11
87.8636
 21
193.862
 31
0.0
  0
LINE
  5
32A
330
1E
100
AcDbEntity
  8
0
100
AcDbLine
 10
87.8636
 20
193.862
 30
0.0
 11
87.5455
 21
194.0699999999999
 31
0.0
  0
LINE
  5
32B
330
1E
100
AcDbEntity
  8
0
100
AcDbLine
 10
87.8636
 20
193.862
 30
0.0
 11
87.8636
 21
193.731
 31
0.0
  0
LINE
  5
32C
330
1E
100
AcDbEntity
  8
0
100
AcDbLine
 10
87.8636
 20
193.5999999999999
 30
0.0
 11
87.8636
 21
193.4259999999999
 31
0.0
  0
LINE
  5
32D
330
1E
100
AcDbEntity
  8
0
100
AcDbLine
 10
87.8636
 20
193.5999999999999
 30
0.0
 11
87.8636
 21
193.731
 31
0.0
  0
LINE
  5
32E
330
1E
100
AcDbEntity
  8
0
100
AcDbLine
 10
87.8636
 20
193.4259999999999
 30
0.0
 11
87.8636
 21
192.8229999999999
 31
0.0
  0
LINE
  5
32F
330
1E
100
AcDbEntity
  8
0
100
AcDbLine
 10
87.8636
 20
193.4259999999999
 30
0.0
 11
87.8636
 21
193.5999999999999
 31
0.0
  0
LINE
  5
330
330
1E
100
AcDbEntity
  8
0
100
AcDbLine
 10
87.8636
 20
192.8229999999999
 30
0.0
 11
87.8636
 21
191.069
 31
0.0
  0
LINE
  5
331
330
1E
100
AcDbEntity
  8
0
100
AcDbLine
 10
87.8636
 20
192.8229999999999
 30
0.0
 11
87.8636
 21
193.4259999999999
 31
0.0
  0
LINE
  5
332
330
1E
100
AcDbEntity
  8
0
100
AcDbLine
 10
87.8636
 20
191.069
 30
0.0
 11
87.8636
 21
188.684
 31
0.0
  0
LINE
  5
333
330
1E
100
AcDbEntity
  8
0
100
AcDbLine
 10
87.8636
 20
191.069
 30
0.0
 11
87.8636
 21
192.8229999999999
 31
0.0
  0
LINE
  5
334
330
1E
100
AcDbEntity
  8
0
100
AcDbLine
 10
87.8636
 20
181.7989999999999
 30
0.0
 11
87.8636
 21
183.9109999999999
 31
0.0
  0
LINE
  5
335
330
1E
100
AcDbEntity
  8
0
100
AcDbLine
 10
87.8636
 20
181.7989999999999
 30
0.0
 11
87.8636
 21
179.314
 31
0.0
  0
LINE
  5
336
330
1E
100
AcDbEntity
  8
0
100
AcDbLine
 10
87.8636
 20
188.684
 30
0.0
 11
87.8636
 21
185.9949999999999
 31
0.0
  0
LINE
  5
337
330
1E
100
AcDbEntity
  8
0
100
AcDbLine
 10
87.8636
 20
188.684
 30
0.0
 11
87.8636
 21
191.069
 31
0.0
  0
LINE
  5
338
330
1E
100
AcDbEntity
  8
0
100
AcDbLine
 10
87.8636
 20
185.9949999999999
 30
0.0
 11
87.8636
 21
183.929
 31
0.0
  0
LINE
  5
339
330
1E
100
AcDbEntity
  8
0
100
AcDbLine
 10
87.8636
 20
185.9949999999999
 30
0.0
 11
87.8636
 21
188.684
 31
0.0
  0
LINE
  5
33A
330
1E
100
AcDbEntity
  8
0
100
AcDbLine
 10
87.8636
 20
185.988
 30
0.0
 11
87.8636
 21
183.9109999999999
 31
0.0
  0
LINE
  5
33B
330
1E
100
AcDbEntity
  8
0
100
AcDbLine
 10
87.8636
 20
183.929
 30
0.0
 11
87.8636
 21
181.7429999999999
 31
0.0
  0
LINE
  5
33C
330
1E
100
AcDbEntity
  8
0
100
AcDbLine
 10
87.8636
 20
183.929
 30
0.0
 11
87.8636
 21
185.9949999999999
 31
0.0
  0
LINE
  5
33D
330
1E
100
AcDbEntity
  8
0
100
AcDbLine
 10
87.8636
 20
181.7429999999999
 30
0.0
 11
87.8636
 21
179.291
 31
0.0
  0
LINE
  5
33E
330
1E
100
AcDbEntity
  8
0
100
AcDbLine
 10
87.8636
 20
181.7429999999999
 30
0.0
 11
87.8636
 21
183.929
 31
0.0
  0
LINE
  5
33F
330
1E
100
AcDbEntity
  8
0
100
AcDbLine
 10
87.8636
 20
183.9109999999999
 30
0.0
 11
87.8636
 21
185.988
 31
0.0
  0
LINE
  5
340
330
1E
100
AcDbEntity
  8
0
100
AcDbLine
 10
87.8636
 20
183.9109999999999
 30
0.0
 11
87.8636
 21
181.7989999999999
 31
0.0
  0
LINE
  5
341
330
1E
100
AcDbEntity
  8
0
100
AcDbLine
 10
113.8547
 20
183.929
 30
0.0
 11
104.4389
 21
187.27
 31
0.0
  0
LINE
  5
342
330
1E
100
AcDbEntity
  8
0
100
AcDbLine
 10
127.16
 20
187.85
 30
0.0
 11
117.3
 21
192.27
 31
0.0
  0
LINE
  5
343
330
1E
100
AcDbEntity
  8
0
100
AcDbLine
 10
122.6629
 20
179.9799999999999
 30
0.0
 11
113.8547
 21
183.929
 31
0.0
  0
LINE
  5
344
330
1E
100
AcDbEntity
  8
0
100
AcDbLine
 10
99.868
 20
167.825
 30
0.0
 11
95.416
 21
171.175
 31
0.0
  0
LINE
  5
345
330
1E
100
AcDbEntity
  8
0
100
AcDbLine
 10
87.8636
 20
174.052
 30
0.0
 11
87.8636
 21
171.5079999999999
 31
0.0
  0
LINE
  5
346
330
1E
100
AcDbEntity
  8
0
100
AcDbLine
 10
87.8636
 20
174.052
 30
0.0
 11
87.8636
 21
175.0699999999999
 31
0.0
  0
LINE
  5
347
330
1E
100
AcDbEntity
  8
0
100
AcDbLine
 10
87.8636
 20
171.5079999999999
 30
0.0
 11
87.8636
 21
170.1759999999999
 31
0.0
  0
LINE
  5
348
330
1E
100
AcDbEntity
  8
0
100
AcDbLine
 10
87.8636
 20
171.5079999999999
 30
0.0
 11
87.8636
 21
174.052
 31
0.0
  0
LINE
  5
349
330
1E
100
AcDbEntity
  8
0
100
AcDbLine
 10
90.37600000000001
 20
173.184
 30
0.0
 11
87.8636
 21
173.5363715773809
 31
0.0
  0
LINE
  5
34A
330
1E
100
AcDbEntity
  8
0
100
AcDbLine
 10
87.8636
 20
175.0699999999999
 30
0.0
 11
87.8636
 21
175.617
 31
0.0
  0
LINE
  5
34B
330
1E
100
AcDbEntity
  8
0
100
AcDbLine
 10
87.8636
 20
175.0699999999999
 30
0.0
 11
87.8636
 21
174.052
 31
0.0
  0
LINE
  5
34C
330
1E
100
AcDbEntity
  8
0
100
AcDbLine
 10
87.8636
 20
179.291
 30
0.0
 11
87.8636
 21
177.071
 31
0.0
  0
LINE
  5
34D
330
1E
100
AcDbEntity
  8
0
100
AcDbLine
 10
87.8636
 20
179.291
 30
0.0
 11
87.8636
 21
181.7429999999999
 31
0.0
  0
LINE
  5
34E
330
1E
100
AcDbEntity
  8
0
100
AcDbLine
 10
87.8636
 20
179.314
 30
0.0
 11
87.8636
 21
181.7989999999999
 31
0.0
  0
LINE
  5
34F
330
1E
100
AcDbEntity
  8
0
100
AcDbLine
 10
87.8636
 20
179.314
 30
0.0
 11
87.8636
 21
177.0599999999999
 31
0.0
  0
LINE
  5
350
330
1E
100
AcDbEntity
  8
0
100
AcDbLine
 10
87.8636
 20
177.071
 30
0.0
 11
87.8636
 21
175.617
 31
0.0
  0
LINE
  5
351
330
1E
100
AcDbEntity
  8
0
100
AcDbLine
 10
87.8636
 20
177.071
 30
0.0
 11
87.8636
 21
179.291
 31
0.0
  0
LINE
  5
352
330
1E
100
AcDbEntity
  8
0
100
AcDbLine
 10
87.8636
 20
175.617
 30
0.0
 11
87.8636
 21
175.0699999999999
 31
0.0
  0
LINE
  5
353
330
1E
100
AcDbEntity
  8
0
100
AcDbLine
 10
87.8636
 20
175.617
 30
0.0
 11
87.8636
 21
177.071
 31
0.0
  0
LINE
  5
354
330
1E
100
AcDbEntity
  8
0
100
AcDbLine
 10
87.8636
 20
177.0599999999999
 30
0.0
 11
87.8636
 21
179.314
 31
0.0
  0
LINE
  5
355
330
1E
100
AcDbEntity
  8
0
100
AcDbLine
 10
87.8636
 20
170.1759999999999
 30
0.0
 11
87.8636
 21
168.3559999999999
 31
0.0
  0
LINE
  5
356
330
1E
100
AcDbEntity
  8
0
100
AcDbLine
 10
87.8636
 20
170.1759999999999
 30
0.0
 11
87.8636
 21
171.5079999999999
 31
0.0
  0
LINE
  5
357
330
1E
100
AcDbEntity
  8
0
100
AcDbLine
 10
87.8636
 20
169.09
 30
0.0
 11
87.8636
 21
168.3559999999999
 31
0.0
  0
LINE
  5
358
330
1E
100
AcDbEntity
  8
0
100
AcDbLine
 10
95.416
 20
171.175
 30
0.0
 11
90.37600000000001
 21
173.184
 31
0.0
  0
LINE
  5
359
330
1E
100
AcDbEntity
  8
0
100
AcDbLine
 10
87.8636
 20
168.3559999999999
 30
0.0
 11
87.8636
 21
169.09
 31
0.0
  0
LINE
  5
35A
330
1E
100
AcDbEntity
  8
0
100
AcDbLine
 10
87.8636
 20
168.3559999999999
 30
0.0
 11
87.8636
 21
170.1759999999999
 31
0.0
  0
LINE
  5
35B
330
1E
100
AcDbEntity
  8
0
100
AcDbLine
 10
91.4705
 20
164.292
 30
0.0
 11
88.92817919183597
 21
165.5943913409783
 31
0.0
  0
LINE
  5
35C
330
1E
100
AcDbEntity
  8
0
100
AcDbLine
 10
95.7355
 20
155.846
 30
0.0
 11
94.66639999999999
 21
158.5099999999999
 31
0.0
  0
LINE
  5
35D
330
1E
100
AcDbEntity
  8
0
100
AcDbLine
 10
96.32340000000001
 20
159.454
 30
0.0
 11
94.23619999999999
 21
162.211
 31
0.0
  0
LINE
  5
35E
330
1E
100
AcDbEntity
  8
0
100
AcDbLine
 10
90.5236
 20
162.6399999999999
 30
0.0
 11
87.8509
 21
163.706
 31
0.0
  0
LINE
  5
35F
330
1E
100
AcDbEntity
  8
0
100
AcDbLine
 10
87.8509
 20
163.706
 30
0.0
 11
85.0
 21
164.1049999999999
 31
0.0
  0
LINE
  5
360
330
1E
100
AcDbEntity
  8
0
100
AcDbLine
 10
92.8845
 20
160.864
 30
0.0
 11
90.5236
 21
162.6399999999999
 31
0.0
  0
LINE
  5
361
330
1E
100
AcDbEntity
  8
0
100
AcDbLine
 10
94.23619999999999
 20
162.211
 30
0.0
 11
91.4705
 21
164.292
 31
0.0
  0
LINE
  5
362
330
1E
100
AcDbEntity
  8
0
100
AcDbLine
 10
94.66639999999999
 20
158.5099999999999
 30
0.0
 11
92.8845
 21
160.864
 31
0.0
  0
LINE
  5
363
330
1E
100
AcDbEntity
  8
0
100
AcDbLine
 10
96.1364
 20
153.0039999999999
 30
0.0
 11
95.7355
 21
150.162
 31
0.0
  0
LINE
  5
364
330
1E
100
AcDbEntity
  8
0
100
AcDbLine
 10
96.1364
 20
153.0039999999999
 30
0.0
 11
95.7355
 21
155.846
 31
0.0
  0
LINE
  5
365
330
1E
100
AcDbEntity
  8
0
100
AcDbLine
 10
90.37600000000001
 20
132.8239999999999
 30
0.0
 11
85.0
 21
132.0699999999999
 31
0.0
  0
LINE
  5
366
330
1E
100
AcDbEntity
  8
0
100
AcDbLine
 10
87.8509
 20
142.302
 30
0.0
 11
85.0
 21
141.903
 31
0.0
  0
LINE
  5
367
330
1E
100
AcDbEntity
  8
0
100
AcDbLine
 10
95.7355
 20
150.162
 30
0.0
 11
94.66639999999999
 21
147.4979999999999
 31
0.0
  0
LINE
  5
368
330
1E
100
AcDbEntity
  8
0
100
AcDbLine
 10
94.66639999999999
 20
147.4979999999999
 30
0.0
 11
92.8845
 21
145.144
 31
0.0
  0
LINE
  5
369
330
1E
100
AcDbEntity
  8
0
100
AcDbLine
 10
94.23619999999999
 20
143.7969999999999
 30
0.0
 11
91.4705
 21
141.716
 31
0.0
  0
LINE
  5
36A
330
1E
100
AcDbEntity
  8
0
100
AcDbLine
 10
92.8845
 20
145.144
 30
0.0
 11
90.5236
 21
143.368
 31
0.0
  0
LINE
  5
36B
330
1E
100
AcDbEntity
  8
0
100
AcDbLine
 10
91.4705
 20
141.716
 30
0.0
 11
88.33960000000001
 21
140.4679999999999
 31
0.0
  0
LINE
  5
36C
330
1E
100
AcDbEntity
  8
0
100
AcDbLine
 10
90.5236
 20
143.368
 30
0.0
 11
87.8509
 21
142.302
 31
0.0
  0
LINE
  5
36D
330
1E
100
AcDbEntity
  8
0
100
AcDbLine
 10
88.33960000000001
 20
140.4679999999999
 30
0.0
 11
85.0
 21
139.999
 31
0.0
  0
LINE
  5
36E
330
1E
100
AcDbEntity
  8
0
100
AcDbLine
 10
95.416
 20
134.833
 30
0.0
 11
90.37600000000001
 21
132.8239999999999
 31
0.0
  0
LINE
  5
36F
330
1E
100
AcDbEntity
  8
0
100
AcDbLine
 10
96.32340000000001
 20
146.554
 30
0.0
 11
94.23619999999999
 21
143.7969999999999
 31
0.0
  0
LINE
  5
370
330
1E
100
AcDbEntity
  8
0
100
AcDbLine
 10
97.5758
 20
156.333
 30
0.0
 11
96.32340000000001
 21
159.454
 31
0.0
  0
LINE
  5
371
330
1E
100
AcDbEntity
  8
0
100
AcDbLine
 10
103.228
 20
163.3869999999999
 30
0.0
 11
99.868
 21
167.825
 31
0.0
  0
LINE
  5
372
330
1E
100
AcDbEntity
  8
0
100
AcDbLine
 10
105.244
 20
158.363
 30
0.0
 11
103.228
 21
163.3869999999999
 31
0.0
  0
LINE
  5
373
330
1E
100
AcDbEntity
  8
0
100
AcDbLine
 10
106.0
 20
153.0039999999999
 30
0.0
 11
105.244
 21
147.6449999999999
 31
0.0
  0
LINE
  5
374
330
1E
100
AcDbEntity
  8
0
100
AcDbLine
 10
106.0
 20
153.0039999999999
 30
0.0
 11
105.244
 21
158.363
 31
0.0
  0
LINE
  5
375
330
1E
100
AcDbEntity
  8
0
100
AcDbLine
 10
98.04540000000001
 20
153.0039999999999
 30
0.0
 11
97.5758
 21
149.675
 31
0.0
  0
LINE
  5
376
330
1E
100
AcDbEntity
  8
0
100
AcDbLine
 10
98.04540000000001
 20
153.0039999999999
 30
0.0
 11
97.5758
 21
156.333
 31
0.0
  0
LINE
  5
377
330
1E
100
AcDbEntity
  8
0
100
AcDbLine
 10
99.868
 20
138.1829999999999
 30
0.0
 11
95.416
 21
134.833
 31
0.0
  0
LINE
  5
378
330
1E
100
AcDbEntity
  8
0
100
AcDbLine
 10
97.5758
 20
149.675
 30
0.0
 11
96.32340000000001
 21
146.554
 31
0.0
  0
LINE
  5
379
330
1E
100
AcDbEntity
  8
0
100
AcDbLine
 10
105.244
 20
147.6449999999999
 30
0.0
 11
103.228
 21
142.621
 31
0.0
  0
LINE
  5
37A
330
1E
100
AcDbEntity
  8
0
100
AcDbLine
 10
103.228
 20
142.621
 30
0.0
 11
99.868
 21
138.1829999999999
 31
0.0
  0
LINE
  5
37B
330
1E
100
AcDbEntity
  8
0
100
AcDbLine
 10
101.12
 20
107.1609999999999
 30
0.0
 11
93.31999999999998
 21
110.267
 31
0.0
  0
LINE
  5
37C
330
1E
100
AcDbEntity
  8
0
100
AcDbLine
 10
93.44800000000001
 20
110.747
 30
0.0
 11
85.0
 21
111.93
 31
0.0
  0
LINE
  5
37D
330
1E
100
AcDbEntity
  8
0
100
AcDbLine
 10
93.31999999999998
 20
110.267
 30
0.0
 11
85.0
 21
111.4319999999999
 31
0.0
  0
LINE
  5
37E
330
1E
100
AcDbEntity
  8
0
100
AcDbLine
 10
101.3679999999999
 20
107.5929999999999
 30
0.0
 11
93.44800000000001
 21
110.747
 31
0.0
  0
LINE
  5
37F
330
1E
100
AcDbEntity
  8
0
100
AcDbLine
 10
138.4571
 20
167.527
 30
0.0
 11
131.1674999999999
 21
174.209
 31
0.0
  0
LINE
  5
380
330
1E
100
AcDbEntity
  8
0
100
AcDbLine
 10
131.1674999999999
 20
174.209
 30
0.0
 11
122.6629
 21
179.9799999999999
 31
0.0
  0
LINE
  5
381
330
1E
100
AcDbEntity
  8
0
100
AcDbLine
 10
158.78
 20
156.23
 30
0.0
 11
152.3199999999999
 21
165.7499999999999
 31
0.0
  0
LINE
  5
382
330
1E
100
AcDbEntity
  8
0
100
AcDbLine
 10
152.3199999999999
 20
165.7499999999999
 30
0.0
 11
144.84
 21
173.91
 31
0.0
  0
LINE
  5
383
330
1E
100
AcDbEntity
  8
0
100
AcDbLine
 10
145.1392
 20
160.237
 30
0.0
 11
138.4571
 21
167.527
 31
0.0
  0
LINE
  5
384
330
1E
100
AcDbEntity
  8
0
100
AcDbLine
 10
154.8586999999999
 20
142.925
 30
0.0
 11
150.9101
 21
151.733
 31
0.0
  0
LINE
  5
385
330
1E
100
AcDbEntity
  8
0
100
AcDbLine
 10
150.9101
 20
151.733
 30
0.0
 11
145.1392
 21
160.237
 31
0.0
  0
LINE
  5
386
330
1E
100
AcDbEntity
  8
0
100
AcDbLine
 10
158.1997
 20
133.5089999999999
 30
0.0
 11
154.8586999999999
 21
142.925
 31
0.0
  0
LINE
  5
387
330
1E
100
AcDbEntity
  8
0
100
AcDbLine
 10
160.02213
 20
124.0931999999999
 30
0.0
 11
158.1997
 21
133.5089999999999
 31
0.0
  0
LINE
  5
388
330
1E
100
AcDbEntity
  8
0
100
AcDbLine
 10
163.1999999999999
 20
146.37
 30
0.0
 11
158.78
 21
156.23
 31
0.0
  0
LINE
  5
389
330
1E
100
AcDbEntity
  8
0
100
AcDbLine
 10
166.9399999999999
 20
135.83
 30
0.0
 11
163.1999999999999
 21
146.37
 31
0.0
  0
LINE
  5
38A
330
1E
100
AcDbEntity
  8
0
100
AcDbLine
 10
168.9799999999999
 20
125.29
 30
0.0
 11
166.9399999999999
 21
135.83
 31
0.0
  0
LINE
  5
38B
330
1E
100
AcDbEntity
  8
0
100
AcDbLine
 10
166.9399999999999
 20
92.30999999999999
 30
0.0
 11
163.1999999999999
 21
81.76999999999999
 31
0.0
  0
LINE
  5
38C
330
1E
100
AcDbEntity
  8
0
100
AcDbLine
 10
163.1999999999999
 20
81.76999999999999
 30
0.0
 11
158.78
 21
71.90999999999999
 31
0.0
  0
LINE
  5
38D
330
1E
100
AcDbEntity
  8
0
100
AcDbLine
 10
158.1997
 20
94.6311
 30
0.0
 11
154.8586999999999
 21
85.2153
 31
0.0
  0
LINE
  5
38E
330
1E
100
AcDbEntity
  8
0
100
AcDbLine
 10
154.8586999999999
 20
85.2153
 30
0.0
 11
150.9101
 21
76.4071
 31
0.0
  0
LINE
  5
38F
330
1E
100
AcDbEntity
  8
0
100
AcDbLine
 10
108.0099999999999
 20
101.9839999999999
 30
0.0
 11
101.12
 21
107.1609999999999
 31
0.0
  0
LINE
  5
390
330
1E
100
AcDbEntity
  8
0
100
AcDbLine
 10
108.364
 20
102.337
 30
0.0
 11
101.3679999999999
 21
107.5929999999999
 31
0.0
  0
LINE
  5
391
330
1E
100
AcDbEntity
  8
0
100
AcDbLine
 10
90.37600000000001
 20
99.2307
 30
0.0
 11
85.0
 21
99.983
 31
0.0
  0
LINE
  5
392
330
1E
100
AcDbEntity
  8
0
100
AcDbLine
 10
113.21
 20
95.12500000000001
 30
0.0
 11
108.0099999999999
 21
101.9839999999999
 31
0.0
  0
LINE
  5
393
330
1E
100
AcDbEntity
  8
0
100
AcDbLine
 10
95.416
 20
97.22369999999999
 30
0.0
 11
90.37600000000001
 21
99.2307
 31
0.0
  0
LINE
  5
394
330
1E
100
AcDbEntity
  8
0
100
AcDbLine
 10
89.86399999999999
 20
97.3113
 30
0.0
 11
85.0
 21
97.9922
 31
0.0
  0
LINE
  5
395
330
1E
100
AcDbEntity
  8
0
100
AcDbLine
 10
94.42399999999999
 20
95.4954
 30
0.0
 11
89.86399999999999
 21
97.3113
 31
0.0
  0
LINE
  5
396
330
1E
100
AcDbEntity
  8
0
100
AcDbLine
 10
113.644
 20
95.3719
 30
0.0
 11
108.364
 21
102.337
 31
0.0
  0
LINE
  5
397
330
1E
100
AcDbEntity
  8
0
100
AcDbLine
 10
116.33
 20
87.3597
 30
0.0
 11
113.21
 21
95.12500000000001
 31
0.0
  0
LINE
  5
398
330
1E
100
AcDbEntity
  8
0
100
AcDbLine
 10
99.868
 20
93.87860000000001
 30
0.0
 11
95.416
 21
97.22369999999999
 31
0.0
  0
LINE
  5
399
330
1E
100
AcDbEntity
  8
0
100
AcDbLine
 10
98.452
 20
92.4689
 30
0.0
 11
94.42399999999999
 21
95.4954
 31
0.0
  0
LINE
  5
39A
330
1E
100
AcDbEntity
  8
0
100
AcDbLine
 10
103.228
 20
89.44639999999999
 30
0.0
 11
99.868
 21
93.87860000000001
 31
0.0
  0
LINE
  5
39B
330
1E
100
AcDbEntity
  8
0
100
AcDbLine
 10
101.492
 20
88.45879999999999
 30
0.0
 11
98.452
 21
92.4689
 31
0.0
  0
LINE
  5
39C
330
1E
100
AcDbEntity
  8
0
100
AcDbLine
 10
116.812
 20
87.4871
 30
0.0
 11
113.644
 21
95.3719
 31
0.0
  0
LINE
  5
39D
330
1E
100
AcDbEntity
  8
0
100
AcDbLine
 10
105.244
 20
84.4288
 30
0.0
 11
103.228
 21
89.44639999999999
 31
0.0
  0
LINE
  5
39E
330
1E
100
AcDbEntity
  8
0
100
AcDbLine
 10
103.316
 20
83.91910000000001
 30
0.0
 11
101.492
 21
88.45879999999999
 31
0.0
  0
LINE
  5
39F
330
1E
100
AcDbEntity
  8
0
100
AcDbLine
 10
158.78
 20
71.90999999999999
 30
0.0
 11
152.3199999999999
 21
62.39
 31
0.0
  0
LINE
  5
3A0
330
1E
100
AcDbEntity
  8
0
100
AcDbLine
 10
152.3199999999999
 20
62.39
 30
0.0
 11
144.84
 21
54.23
 31
0.0
  0
LINE
  5
3A1
330
1E
100
AcDbEntity
  8
0
100
AcDbLine
 10
150.9101
 20
76.4071
 30
0.0
 11
145.1392
 21
67.9025
 31
0.0
  0
LINE
  5
3A2
330
1E
100
AcDbEntity
  8
0
100
AcDbLine
 10
145.1392
 20
67.9025
 30
0.0
 11
138.4571
 21
60.6129
 31
0.0
  0
LINE
  5
3A3
330
1E
100
AcDbEntity
  8
0
100
AcDbLine
 10
105.244
 20
73.7246
 30
0.0
 11
103.228
 21
68.70699999999999
 31
0.0
  0
LINE
  5
3A4
330
1E
100
AcDbEntity
  8
0
100
AcDbLine
 10
106.0
 20
79.0767
 30
0.0
 11
105.244
 21
84.4288
 31
0.0
  0
LINE
  5
3A5
330
1E
100
AcDbEntity
  8
0
100
AcDbLine
 10
106.0
 20
79.0767
 30
0.0
 11
105.244
 21
73.7246
 31
0.0
  0
LINE
  5
3A6
330
1E
100
AcDbEntity
  8
0
100
AcDbLine
 10
103.316
 20
74.2343
 30
0.0
 11
101.492
 21
69.69450000000001
 31
0.0
  0
LINE
  5
3A7
330
1E
100
AcDbEntity
  8
0
100
AcDbLine
 10
104.0
 20
79.0767
 30
0.0
 11
103.316
 21
83.91910000000001
 31
0.0
  0
LINE
  5
3A8
330
1E
100
AcDbEntity
  8
0
100
AcDbLine
 10
104.0
 20
79.0767
 30
0.0
 11
103.316
 21
74.2343
 31
0.0
  0
LINE
  5
3A9
330
1E
100
AcDbEntity
  8
0
100
AcDbLine
 10
118.0
 20
79.0767
 30
0.0
 11
116.812
 21
87.4871
 31
0.0
  0
LINE
  5
3AA
330
1E
100
AcDbEntity
  8
0
100
AcDbLine
 10
118.0
 20
79.0767
 30
0.0
 11
116.812
 21
70.6662
 31
0.0
  0
LINE
  5
3AB
330
1E
100
AcDbEntity
  8
0
100
AcDbLine
 10
117.5
 20
79.0767
 30
0.0
 11
116.33
 21
87.3597
 31
0.0
  0
LINE
  5
3AC
330
1E
100
AcDbEntity
  8
0
100
AcDbLine
 10
117.5
 20
79.0767
 30
0.0
 11
116.33
 21
70.7936
 31
0.0
  0
LINE
  5
3AD
330
1E
100
AcDbEntity
  8
0
100
AcDbLine
 10
103.228
 20
68.70699999999999
 30
0.0
 11
99.868
 21
64.27469999999999
 31
0.0
  0
LINE
  5
3AE
330
1E
100
AcDbEntity
  8
0
100
AcDbLine
 10
101.492
 20
69.69450000000001
 30
0.0
 11
98.452
 21
65.6845
 31
0.0
  0
LINE
  5
3AF
330
1E
100
AcDbEntity
  8
0
100
AcDbLine
 10
116.812
 20
70.6662
 30
0.0
 11
113.644
 21
62.7814
 31
0.0
  0
LINE
  5
3B0
330
1E
100
AcDbEntity
  8
0
100
AcDbLine
 10
116.33
 20
70.7936
 30
0.0
 11
113.21
 21
63.0283
 31
0.0
  0
LINE
  5
3B1
330
1E
100
AcDbEntity
  8
0
100
AcDbLine
 10
98.452
 20
65.6845
 30
0.0
 11
94.42399999999999
 21
62.658
 31
0.0
  0
LINE
  5
3B2
330
1E
100
AcDbEntity
  8
0
100
AcDbLine
 10
99.868
 20
64.27469999999999
 30
0.0
 11
95.416
 21
60.9297
 31
0.0
  0
LINE
  5
3B3
330
1E
100
AcDbEntity
  8
0
100
AcDbLine
 10
94.42399999999999
 20
62.658
 30
0.0
 11
89.86399999999999
 21
60.8421
 31
0.0
  0
LINE
  5
3B4
330
1E
100
AcDbEntity
  8
0
100
AcDbLine
 10
113.21
 20
63.0283
 30
0.0
 11
108.0099999999999
 21
56.1689
 31
0.0
  0
LINE
  5
3B5
330
1E
100
AcDbEntity
  8
0
100
AcDbLine
 10
113.644
 20
62.7814
 30
0.0
 11
108.364
 21
55.81649999999999
 31
0.0
  0
LINE
  5
3B6
330
1E
100
AcDbEntity
  8
0
100
AcDbLine
 10
96.21999999999999
 20
30.09
 30
0.0
 11
89.50000000000001
 21
29.4790909090909
 31
0.0
  0
LINE
  5
3B7
330
1E
100
AcDbEntity
  8
0
100
AcDbLine
 10
95.0232
 20
39.04787
 30
0.0
 11
89.50000000000001
 21
38.5457609090909
 31
0.0
  0
LINE
  5
3B8
330
1E
100
AcDbEntity
  8
0
100
AcDbLine
 10
89.86399999999999
 20
60.8421
 30
0.0
 11
85.0
 21
60.1611
 31
0.0
  0
LINE
  5
3B9
330
1E
100
AcDbEntity
  8
0
100
AcDbLine
 10
93.31999999999998
 20
47.8859
 30
0.0
 11
89.50000000000001
 21
47.3511
 31
0.0
  0
LINE
  5
3BA
330
1E
100
AcDbEntity
  8
0
100
AcDbLine
 10
89.50000000000001
 20
46.0441
 30
0.0
 11
89.50000000000001
 21
50.0363
 31
0.0
  0
LINE
  5
3BB
330
1E
100
AcDbEntity
  8
0
100
AcDbLine
 10
89.50000000000001
 20
46.0441
 30
0.0
 11
89.50000000000001
 21
43.13709999999999
 31
0.0
  0
LINE
  5
3BC
330
1E
100
AcDbEntity
  8
0
100
AcDbLine
 10
89.50000000000001
 20
50.0363
 30
0.0
 11
89.50000000000001
 21
52.12699999999999
 31
0.0
  0
LINE
  5
3BD
330
1E
100
AcDbEntity
  8
0
100
AcDbLine
 10
89.50000000000001
 20
50.0363
 30
0.0
 11
89.50000000000001
 21
46.0441
 31
0.0
  0
LINE
  5
3BE
330
1E
100
AcDbEntity
  8
0
100
AcDbLine
 10
89.50000000000001
 20
52.12699999999999
 30
0.0
 11
89.50000000000001
 21
54.9842
 31
0.0
  0
LINE
  5
3BF
330
1E
100
AcDbEntity
  8
0
100
AcDbLine
 10
89.50000000000001
 20
52.12699999999999
 30
0.0
 11
89.50000000000001
 21
50.0363
 31
0.0
  0
LINE
  5
3C0
330
1E
100
AcDbEntity
  8
0
100
AcDbLine
 10
89.50000000000001
 20
54.9842
 30
0.0
 11
89.50000000000001
 21
53.832
 31
0.0
  0
LINE
  5
3C1
330
1E
100
AcDbEntity
  8
0
100
AcDbLine
 10
89.50000000000001
 20
54.9842
 30
0.0
 11
89.50000000000001
 21
52.12699999999999
 31
0.0
  0
LINE
  5
3C2
330
1E
100
AcDbEntity
  8
0
100
AcDbLine
 10
89.6071
 20
56.6094
 30
0.0
 11
89.50000000000001
 21
54.9842
 31
0.0
  0
LINE
  5
3C3
330
1E
100
AcDbEntity
  8
0
100
AcDbLine
 10
89.8695
 20
57.8195
 30
0.0
 11
89.6071
 21
56.6094
 31
0.0
  0
LINE
  5
3C4
330
1E
100
AcDbEntity
  8
0
100
AcDbLine
 10
90.40499999999999
 20
58.6163
 30
0.0
 11
89.8695
 21
57.8195
 31
0.0
  0
LINE
  5
3C5
330
1E
100
AcDbEntity
  8
0
100
AcDbLine
 10
89.50000000000001
 20
53.832
 30
0.0
 11
89.50000000000001
 21
54.9842
 31
0.0
  0
LINE
  5
3C6
330
1E
100
AcDbEntity
  8
0
100
AcDbLine
 10
89.50000000000001
 20
53.832
 30
0.0
 11
89.50000000000001
 21
52.0705
 31
0.0
  0
LINE
  5
3C7
330
1E
100
AcDbEntity
  8
0
100
AcDbLine
 10
89.50000000000001
 20
50.1018
 30
0.0
 11
89.50000000000001
 21
46.0263
 31
0.0
  0
LINE
  5
3C8
330
1E
100
AcDbEntity
  8
0
100
AcDbLine
 10
89.50000000000001
 20
50.1018
 30
0.0
 11
89.50000000000001
 21
52.0705
 31
0.0
  0
LINE
  5
3C9
330
1E
100
AcDbEntity
  8
0
100
AcDbLine
 10
89.50000000000001
 20
52.0705
 30
0.0
 11
89.50000000000001
 21
50.1018
 31
0.0
  0
LINE
  5
3CA
330
1E
100
AcDbEntity
  8
0
100
AcDbLine
 10
89.50000000000001
 20
52.0705
 30
0.0
 11
89.50000000000001
 21
53.832
 31
0.0
  0
LINE
  5
3CB
330
1E
100
AcDbEntity
  8
0
100
AcDbLine
 10
89.50000000000001
 20
46.0263
 30
0.0
 11
89.50000000000001
 21
43.2101
 31
0.0
  0
LINE
  5
3CC
330
1E
100
AcDbEntity
  8
0
100
AcDbLine
 10
89.50000000000001
 20
46.0263
 30
0.0
 11
89.50000000000001
 21
50.1018
 31
0.0
  0
LINE
  5
3CD
330
1E
100
AcDbEntity
  8
0
100
AcDbLine
 10
93.44800000000001
 20
47.4061
 30
0.0
 11
89.50000000000001
 21
46.8533426136364
 31
0.0
  0
LINE
  5
3CE
330
1E
100
AcDbEntity
  8
0
100
AcDbLine
 10
89.50000000000001
 20
39.6527
 30
0.0
 11
89.50000000000001
 21
43.13709999999999
 31
0.0
  0
LINE
  5
3CF
330
1E
100
AcDbEntity
  8
0
100
AcDbLine
 10
89.50000000000001
 20
39.6527
 30
0.0
 11
89.50000000000001
 21
34.3364
 31
0.0
  0
LINE
  5
3D0
330
1E
100
AcDbEntity
  8
0
100
AcDbLine
 10
89.50000000000001
 20
43.13709999999999
 30
0.0
 11
89.50000000000001
 21
46.0441
 31
0.0
  0
LINE
  5
3D1
330
1E
100
AcDbEntity
  8
0
100
AcDbLine
 10
89.50000000000001
 20
43.13709999999999
 30
0.0
 11
89.50000000000001
 21
39.6527
 31
0.0
  0
LINE
  5
3D2
330
1E
100
AcDbEntity
  8
0
100
AcDbLine
 10
89.50000000000001
 20
43.2101
 30
0.0
 11
89.50000000000001
 21
39.6809
 31
0.0
  0
LINE
  5
3D3
330
1E
100
AcDbEntity
  8
0
100
AcDbLine
 10
89.50000000000001
 20
43.2101
 30
0.0
 11
89.50000000000001
 21
46.0263
 31
0.0
  0
LINE
  5
3D4
330
1E
100
AcDbEntity
  8
0
100
AcDbLine
 10
89.50000000000001
 20
39.6809
 30
0.0
 11
89.50000000000001
 21
34.2808
 31
0.0
  0
LINE
  5
3D5
330
1E
100
AcDbEntity
  8
0
100
AcDbLine
 10
89.50000000000001
 20
39.6809
 30
0.0
 11
89.50000000000001
 21
43.2101
 31
0.0
  0
LINE
  5
3D6
330
1E
100
AcDbEntity
  8
0
100
AcDbLine
 10
95.416
 20
60.9297
 30
0.0
 11
90.7497127652436
 21
59.07142517680959
 31
0.0
  0
LINE
  5
3D7
330
1E
100
AcDbEntity
  8
0
100
AcDbLine
 10
89.50000000000001
 20
34.3364
 30
0.0
 11
89.50000000000001
 21
39.6527
 31
0.0
  0
LINE
  5
3D8
330
1E
100
AcDbEntity
  8
0
100
AcDbLine
 10
89.50000000000001
 20
34.3364
 30
0.0
 11
89.50000000000001
 21
29.4582
 31
0.0
  0
LINE
  5
3D9
330
1E
100
AcDbEntity
  8
0
100
AcDbLine
 10
89.50000000000001
 20
34.2808
 30
0.0
 11
89.50000000000001
 21
29.3236
 31
0.0
  0
LINE
  5
3DA
330
1E
100
AcDbEntity
  8
0
100
AcDbLine
 10
89.50000000000001
 20
34.2808
 30
0.0
 11
89.50000000000001
 21
39.6809
 31
0.0
  0
LINE
  5
3DB
330
1E
100
AcDbEntity
  8
0
100
AcDbLine
 10
89.50000000000001
 20
0.427799999999995
 30
0.0
 11
89.50000000000001
 21
0.7418999999999909
 31
0.0
  0
LINE
  5
3DC
330
1E
100
AcDbEntity
  8
0
100
AcDbLine
 10
89.50000000000001
 20
0.427799999999995
 30
0.0
 11
89.0
 21
-0.0700000000000096
 31
0.0
  0
LINE
  5
3DD
330
1E
100
AcDbEntity
  8
0
100
AcDbLine
 10
89.50000000000001
 20
0.7418999999999909
 30
0.0
 11
89.50000000000001
 21
1.054799999999989
 31
0.0
  0
LINE
  5
3DE
330
1E
100
AcDbEntity
  8
0
100
AcDbLine
 10
89.50000000000001
 20
0.7418999999999909
 30
0.0
 11
89.50000000000001
 21
0.427799999999995
 31
0.0
  0
LINE
  5
3DF
330
1E
100
AcDbEntity
  8
0
100
AcDbLine
 10
89.50000000000001
 20
1.054799999999989
 30
0.0
 11
89.50000000000001
 21
1.471999999999989
 31
0.0
  0
LINE
  5
3E0
330
1E
100
AcDbEntity
  8
0
100
AcDbLine
 10
89.50000000000001
 20
1.054799999999989
 30
0.0
 11
89.50000000000001
 21
0.7418999999999909
 31
0.0
  0
LINE
  5
3E1
330
1E
100
AcDbEntity
  8
0
100
AcDbLine
 10
89.50000000000001
 20
1.471999999999989
 30
0.0
 11
89.50000000000001
 21
2.91669999999999
 31
0.0
  0
LINE
  5
3E2
330
1E
100
AcDbEntity
  8
0
100
AcDbLine
 10
89.50000000000001
 20
1.471999999999989
 30
0.0
 11
89.50000000000001
 21
2.95769999999999
 31
0.0
  0
LINE
  5
3E3
330
1E
100
AcDbEntity
  8
0
100
AcDbLine
 10
89.50000000000001
 20
1.471999999999989
 30
0.0
 11
89.50000000000001
 21
1.054799999999989
 31
0.0
  0
LINE
  5
3E4
330
1E
100
AcDbEntity
  8
0
100
AcDbLine
 10
89.50000000000001
 20
2.91669999999999
 30
0.0
 11
89.50000000000001
 21
7.117899999999999
 31
0.0
  0
LINE
  5
3E5
330
1E
100
AcDbEntity
  8
0
100
AcDbLine
 10
89.50000000000001
 20
2.91669999999999
 30
0.0
 11
89.50000000000001
 21
1.471999999999989
 31
0.0
  0
LINE
  5
3E6
330
1E
100
AcDbEntity
  8
0
100
AcDbLine
 10
89.50000000000001
 20
7.117899999999999
 30
0.0
 11
89.50000000000001
 21
12.8324
 31
0.0
  0
LINE
  5
3E7
330
1E
100
AcDbEntity
  8
0
100
AcDbLine
 10
89.50000000000001
 20
7.117899999999999
 30
0.0
 11
89.50000000000001
 21
2.91669999999999
 31
0.0
  0
LINE
  5
3E8
330
1E
100
AcDbEntity
  8
0
100
AcDbLine
 10
89.50000000000001
 20
12.8324
 30
0.0
 11
89.50000000000001
 21
19.2736
 31
0.0
  0
LINE
  5
3E9
330
1E
100
AcDbEntity
  8
0
100
AcDbLine
 10
89.50000000000001
 20
12.8324
 30
0.0
 11
89.50000000000001
 21
7.117899999999999
 31
0.0
  0
LINE
  5
3EA
330
1E
100
AcDbEntity
  8
0
100
AcDbLine
 10
89.50000000000001
 20
19.2736
 30
0.0
 11
89.50000000000001
 21
24.22159999999999
 31
0.0
  0
LINE
  5
3EB
330
1E
100
AcDbEntity
  8
0
100
AcDbLine
 10
89.50000000000001
 20
19.2736
 30
0.0
 11
89.50000000000001
 21
12.8324
 31
0.0
  0
LINE
  5
3EC
330
1E
100
AcDbEntity
  8
0
100
AcDbLine
 10
89.50000000000001
 20
24.22159999999999
 30
0.0
 11
89.50000000000001
 21
29.4582
 31
0.0
  0
LINE
  5
3ED
330
1E
100
AcDbEntity
  8
0
100
AcDbLine
 10
89.50000000000001
 20
24.22159999999999
 30
0.0
 11
89.50000000000001
 21
19.2736
 31
0.0
  0
LINE
  5
3EE
330
1E
100
AcDbEntity
  8
0
100
AcDbLine
 10
89.50000000000001
 20
29.4582
 30
0.0
 11
89.50000000000001
 21
34.3364
 31
0.0
  0
LINE
  5
3EF
330
1E
100
AcDbEntity
  8
0
100
AcDbLine
 10
89.50000000000001
 20
29.4582
 30
0.0
 11
89.50000000000001
 21
24.22159999999999
 31
0.0
  0
LINE
  5
3F0
330
1E
100
AcDbEntity
  8
0
100
AcDbLine
 10
89.50000000000001
 20
24.2636
 30
0.0
 11
89.50000000000001
 21
19.28879999999999
 31
0.0
  0
LINE
  5
3F1
330
1E
100
AcDbEntity
  8
0
100
AcDbLine
 10
89.50000000000001
 20
24.2636
 30
0.0
 11
89.50000000000001
 21
29.3236
 31
0.0
  0
LINE
  5
3F2
330
1E
100
AcDbEntity
  8
0
100
AcDbLine
 10
89.50000000000001
 20
29.3236
 30
0.0
 11
89.50000000000001
 21
24.2636
 31
0.0
  0
LINE
  5
3F3
330
1E
100
AcDbEntity
  8
0
100
AcDbLine
 10
89.50000000000001
 20
29.3236
 30
0.0
 11
89.50000000000001
 21
34.2808
 31
0.0
  0
LINE
  5
3F4
330
1E
100
AcDbEntity
  8
0
100
AcDbLine
 10
89.50000000000001
 20
12.8682
 30
0.0
 11
89.50000000000001
 21
7.085399999999999
 31
0.0
  0
LINE
  5
3F5
330
1E
100
AcDbEntity
  8
0
100
AcDbLine
 10
89.50000000000001
 20
12.8682
 30
0.0
 11
89.50000000000001
 21
19.28879999999999
 31
0.0
  0
LINE
  5
3F6
330
1E
100
AcDbEntity
  8
0
100
AcDbLine
 10
89.50000000000001
 20
19.28879999999999
 30
0.0
 11
89.50000000000001
 21
12.8682
 31
0.0
  0
LINE
  5
3F7
330
1E
100
AcDbEntity
  8
0
100
AcDbLine
 10
89.50000000000001
 20
19.28879999999999
 30
0.0
 11
89.50000000000001
 21
24.2636
 31
0.0
  0
LINE
  5
3F8
330
1E
100
AcDbEntity
  8
0
100
AcDbLine
 10
89.50000000000001
 20
2.95769999999999
 30
0.0
 11
89.50000000000001
 21
1.471999999999989
 31
0.0
  0
LINE
  5
3F9
330
1E
100
AcDbEntity
  8
0
100
AcDbLine
 10
89.50000000000001
 20
2.95769999999999
 30
0.0
 11
89.50000000000001
 21
7.085399999999999
 31
0.0
  0
LINE
  5
3FA
330
1E
100
AcDbEntity
  8
0
100
AcDbLine
 10
89.50000000000001
 20
7.085399999999999
 30
0.0
 11
89.50000000000001
 21
2.95769999999999
 31
0.0
  0
LINE
  5
3FB
330
1E
100
AcDbEntity
  8
0
100
AcDbLine
 10
89.50000000000001
 20
7.085399999999999
 30
0.0
 11
89.50000000000001
 21
12.8682
 31
0.0
  0
LINE
  5
3FC
330
1E
100
AcDbEntity
  8
0
100
AcDbLine
 10
106.7599999999999
 20
32.13
 30
0.0
 11
96.21999999999999
 21
30.09
 31
0.0
  0
LINE
  5
3FD
330
1E
100
AcDbEntity
  8
0
100
AcDbLine
 10
117.3
 20
35.86999999999999
 30
0.0
 11
106.7599999999999
 21
32.13
 31
0.0
  0
LINE
  5
3FE
330
1E
100
AcDbEntity
  8
0
100
AcDbLine
 10
104.4389
 20
40.8703
 30
0.0
 11
95.0232
 21
39.04787
 31
0.0
  0
LINE
  5
3FF
330
1E
100
AcDbEntity
  8
0
100
AcDbLine
 10
113.8547
 20
44.2113
 30
0.0
 11
104.4389
 21
40.8703
 31
0.0
  0
LINE
  5
400
330
1E
100
AcDbEntity
  8
0
100
AcDbLine
 10
101.12
 20
50.99199999999999
 30
0.0
 11
93.31999999999998
 21
47.8859
 31
0.0
  0
LINE
  5
401
330
1E
100
AcDbEntity
  8
0
100
AcDbLine
 10
108.0099999999999
 20
56.1689
 30
0.0
 11
101.12
 21
50.99199999999999
 31
0.0
  0
LINE
  5
402
330
1E
100
AcDbEntity
  8
0
100
AcDbLine
 10
108.364
 20
55.81649999999999
 30
0.0
 11
101.3679999999999
 21
50.56
 31
0.0
  0
LINE
  5
403
330
1E
100
AcDbEntity
  8
0
100
AcDbLine
 10
101.3679999999999
 20
50.56
 30
0.0
 11
93.44800000000001
 21
47.4061
 31
0.0
  0
LINE
  5
404
330
1E
100
AcDbEntity
  8
0
100
AcDbLine
 10
127.16
 20
40.28999999999999
 30
0.0
 11
117.3
 21
35.86999999999999
 31
0.0
  0
LINE
  5
405
330
1E
100
AcDbEntity
  8
0
100
AcDbLine
 10
136.68
 20
46.74999999999999
 30
0.0
 11
127.16
 21
40.28999999999999
 31
0.0
  0
LINE
  5
406
330
1E
100
AcDbEntity
  8
0
100
AcDbLine
 10
122.6629
 20
48.1599
 30
0.0
 11
113.8547
 21
44.2113
 31
0.0
  0
LINE
  5
407
330
1E
100
AcDbEntity
  8
0
100
AcDbLine
 10
131.1674999999999
 20
53.9308
 30
0.0
 11
122.6629
 21
48.1599
 31
0.0
  0
LINE
  5
408
330
1E
100
AcDbEntity
  8
0
100
AcDbLine
 10
144.84
 20
54.23
 30
0.0
 11
136.68
 21
46.74999999999999
 31
0.0
  0
LINE
  5
409
330
1E
100
AcDbEntity
  8
0
100
AcDbLine
 10
138.4571
 20
60.6129
 30
0.0
 11
131.1674999999999
 21
53.9308
 31
0.0
  0
LINE
  5
40A
330
1E
100
AcDbEntity
  8
0
100
AcDbLine
 10
163.1999999999999
 20
81.76999999999999
 30
0.0
 11
158.78
 21
71.90999999999999
 31
0.0
  0
LINE
  5
40B
330
1E
100
AcDbEntity
  8
0
100
AcDbLine
 10
82.45449999999999
 20
194.0699999999999
 30
0.0
 11
87.5455
 21
194.0699999999999
 31
0.0
  0
LINE
  5
40C
330
1E
100
AcDbEntity
  8
0
100
AcDbLine
 10
81.0
 20
-0.0700000000000096
 30
0.0
 11
89.0
 21
-0.0700000000000096
 31
0.0
  0
ENDSEC
  0
SECTION
  2
OBJECTS
  0
DICTIONARY
  5
C
330
0
100
AcDbDictionary
  3
ACAD_GROUP
350
D
  3
ACAD_LAYOUT
350
19
  3
ACAD_MLINESTYLE
350
16
  3
ACAD_PLOTSETTINGS
350
18
  3
ACAD_PLOTSTYLENAME
350
E
  3
ACDBHEADERROUNDTRIPXREC
350
411
  3
ACDBVARIABLEDICTIONARY
350
40E
  0
DICTIONARY
  5
433
330
1E
100
AcDbDictionary
280
     1
  3
ACAD_LAYOUTSELFREF
360
434
  0
DICTIONARY
  5
431
330
1A
100
AcDbDictionary
280
     1
  3
ACAD_LAYOUTSELFREF
360
432
  0
DICTIONARY
  5
D
102
{ACAD_REACTORS
330
C
102
}
330
C
100
AcDbDictionary
  0
DICTIONARY
  5
19
102
{ACAD_REACTORS
330
C
102
}
330
C
100
AcDbDictionary
  0
DICTIONARY
  5
16
102
{ACAD_REACTORS
330
C
102
}
330
C
100
AcDbDictionary
  3
STANDARD
350
17
  0
DICTIONARY
  5
18
102
{ACAD_REACTORS
330
C
102
}
330
C
100
AcDbDictionary
  0
ACDBDICTIONARYWDFLT
  5
E
102
{ACAD_REACTORS
330
C
102
}
330
C
100
AcDbDictionary
281
     1
  3
Normal
350
F
100
AcDbDictionaryWithDefault
340
F
  0
DICTIONARY
  5
411
102
{ACAD_REACTORS
330
C
102
}
330
C
100
AcDbDictionary
  3
CEPSNTYPE
350
41B
  3
FINGERPRINTGUID
350
41C
  3
HYPERLINKBASE
350
414
  3
INSUNITS
350
41A
  3
LAYOUTDICT
350
416
  3
LWETCUNION
350
419
  3
PLOTSETDICT
350
417
  3
PLOTSTYLNAMDICT
350
418
  3
PSVPSCALE
350
41E
  3
PUCSBASE
350
421
  3
PUCSORGBACK
350
427
  3
PUCSORGBOTTOM
350
423
  3
PUCSORGFRONT
350
426
  3
PUCSORGLEFT
350
424
  3
PUCSORGRIGHT
350
425
  3
PUCSORGTOP
350
422
  3
PUCSORTHOREF
350
41F
  3
PUCSORTHOVIEW
350
420
  3
STYLESHEET
350
415
  3
TSTACKALIGN
350
412
  3
TSTACKSIZE
350
413
  3
UCSBASE
350
42A
  3
UCSORGBACK
350
430
  3
UCSORGBOTTOM
350
42C
  3
UCSORGFRONT
350
42F
  3
UCSORGLEFT
350
42D
  3
UCSORGRIGHT
350
42E
  3
UCSORGTOP
350
42B
  3
UCSORTHOREF
350
428
  3
UCSORTHOVIEW
350
429
  3
VERSIONGUID
350
41D
  0
DICTIONARY
  5
40E
102
{ACAD_REACTORS
330
C
102
}
330
C
100
AcDbDictionary
  3
DIMASSOC
350
40F
  0
XRECORD
  5
434
102
{ACAD_REACTORS
330
433
102
}
330
433
100
AcDbXrecord
340
1E
  0
XRECORD
  5
432
102
{ACAD_REACTORS
330
431
102
}
330
431
100
AcDbXrecord
340
1A
  0
MLINESTYLE
  5
17
102
{ACAD_REACTORS
330
16
102
}
330
16
100
AcDbMlineStyle
  2
STANDARD
 70
     0
  3

 62
   256
 51
90.0
 52
90.0
 71
     2
 49
0.5
 62
   256
  6
BYLAYER
 49
-0.5
 62
   256
  6
BYLAYER
  0
ACDBPLACEHOLDER
  5
F
102
{ACAD_REACTORS
330
E
102
}
330
E
100
AcDbPlaceHolder
280
     0
  0
XRECORD
  5
41B
102
{ACAD_REACTORS
330
411
102
}
330
411
100
AcDbXrecord
 90
        0
  0
XRECORD
  5
41C
102
{ACAD_REACTORS
330
411
102
}
330
411
100
AcDbXrecord
  1
{B42D119F-FFED-4BC8-8812-3776FEC3AB6B}
  0
XRECORD
  5
414
102
{ACAD_REACTORS
330
411
102
}
330
411
100
AcDbXrecord
  1

  0
XRECORD
  5
41A
102
{ACAD_REACTORS
330
411
102
}
330
411
100
AcDbXrecord
 90
        0
  0
XRECORD
  5
416
102
{ACAD_REACTORS
330
411
102
}
330
411
100
AcDbXrecord
340
19
  0
XRECORD
  5
419
102
{ACAD_REACTORS
330
411
102
}
330
411
100
AcDbXrecord
 90
    10781
  0
XRECORD
  5
417
102
{ACAD_REACTORS
330
411
102
}
330
411
100
AcDbXrecord
340
18
  0
XRECORD
  5
418
102
{ACAD_REACTORS
330
411
102
}
330
411
100
AcDbXrecord
340
E
  0
XRECORD
  5
41E
102
{ACAD_REACTORS
330
411
102
}
330
411
100
AcDbXrecord
 40
0.0
  0
XRECORD
  5
421
102
{ACAD_REACTORS
330
411
102
}
330
411
100
AcDbXrecord
340
0
  0
XRECORD
  5
427
102
{ACAD_REACTORS
330
411
102
}
330
411
100
AcDbXrecord
 10
0.0
 20
0.0
 30
0.0
  0
XRECORD
  5
423
102
{ACAD_REACTORS
330
411
102
}
330
411
100
AcDbXrecord
 10
0.0
 20
0.0
 30
0.0
  0
XRECORD
  5
426
102
{ACAD_REACTORS
330
411
102
}
330
411
100
AcDbXrecord
 10
0.0
 20
0.0
 30
0.0
  0
XRECORD
  5
424
102
{ACAD_REACTORS
330
411
102
}
330
411
100
AcDbXrecord
 10
0.0
 20
0.0
 30
0.0
  0
XRECORD
  5
425
102
{ACAD_REACTORS
330
411
102
}
330
411
100
AcDbXrecord
 10
0.0
 20
0.0
 30
0.0
  0
XRECORD
  5
422
102
{ACAD_REACTORS
330
411
102
}
330
411
100
AcDbXrecord
 10
0.0
 20
0.0
 30
0.0
  0
XRECORD
  5
41F
102
{ACAD_REACTORS
330
411
102
}
330
411
100
AcDbXrecord
340
0
  0
XRECORD
  5
420
102
{ACAD_REACTORS
330
411
102
}
330
411
100
AcDbXrecord
 70
     0
  0
XRECORD
  5
415
102
{ACAD_REACTORS
330
411
102
}
330
411
100
AcDbXrecord
  1

  0
XRECORD
  5
412
102
{ACAD_REACTORS
330
411
102
}
330
411
100
AcDbXrecord
 90
        1
  0
XRECORD
  5
413
102
{ACAD_REACTORS
330
411
102
}
330
411
100
AcDbXrecord
 90
       70
  0
XRECORD
  5
42A
102
{ACAD_REACTORS
330
411
102
}
330
411
100
AcDbXrecord
340
0
  0
XRECORD
  5
430
102
{ACAD_REACTORS
330
411
102
}
330
411
100
AcDbXrecord
 10
0.0
 20
0.0
 30
0.0
  0
XRECORD
  5
42C
102
{ACAD_REACTORS
330
411
102
}
330
411
100
AcDbXrecord
 10
0.0
 20
0.0
 30
0.0
  0
XRECORD
  5
42F
102
{ACAD_REACTORS
330
411
102
}
330
411
100
AcDbXrecord
 10
0.0
 20
0.0
 30
0.0
  0
XRECORD
  5
42D
102
{ACAD_REACTORS
330
411
102
}
330
411
100
AcDbXrecord
 10
0.0
 20
0.0
 30
0.0
  0
XRECORD
  5
42E
102
{ACAD_REACTORS
330
411
102
}
330
411
100
AcDbXrecord
 10
0.0
 20
0.0
 30
0.0
  0
XRECORD
  5
42B
102
{ACAD_REACTORS
330
411
102
}
330
411
100
AcDbXrecord
 10
0.0
 20
0.0
 30
0.0
  0
XRECORD
  5
428
102
{ACAD_REACTORS
330
411
102
}
330
411
100
AcDbXrecord
340
0
  0
XRECORD
  5
429
102
{ACAD_REACTORS
330
411
102
}
330
411
100
AcDbXrecord
 70
     1
  0
XRECORD
  5
41D
102
{ACAD_REACTORS
330
411
102
}
330
411
100
AcDbXrecord
  1
{0A6F3646-5888-4BEF-8D45-FC7727C17380}
  0
DICTIONARYVAR
  5
40F
102
{ACAD_REACTORS
330
40E
102
}
330
40E
100
DictionaryVariables
280
     0
  1
1
  0
ENDSEC
  0
EOF
