  0
SECTION
  2
HEADER
  9
$ACADVER
  1
AC1014
  9
$ACADMAINTVER
 70
     9
  9
$DWGCODEPAGE
  3
ANSI_1252
  9
$INSBASE
 10
0.0
 20
0.0
 30
0.0
  9
$EXTMIN
 10
0.0200469999999859
 20
-0.0419999999999798
 30
0.0
  9
$EXTMAX
 10
487.979953
 20
196.042
 30
0.0
  9
$LIMMIN
 10
0.0
 20
0.0
  9
$LIMMAX
 10
12.0
 20
9.0
  9
$ORTHOMODE
 70
     0
  9
$REGENMODE
 70
     1
  9
$FILLMODE
 70
     1
  9
$QTEXTMODE
 70
     0
  9
$MIRRTEXT
 70
     1
  9
$DRAGMODE
 70
     2
  9
$LTSCALE
 40
1.0
  9
$OSMODE
 70
    37
  9
$ATTMODE
 70
     1
  9
$TEXTSIZE
 40
0.2
  9
$TRACEWID
 40
0.05
  9
$TEXTSTYLE
  7
STANDARD
  9
$CLAYER
  8
0
  9
$CELTYPE
  6
CONTINUOUS
  9
$CECOLOR
 62
   256
  9
$CELTSCALE
 40
1.0
  9
$DELOBJ
 70
     1
  9
$DISPSILH
 70
     0
  9
$DIMSCALE
 40
1.0
  9
$DIMASZ
 40
0.18
  9
$DIMEXO
 40
0.0625
  9
$DIMDLI
 40
0.38
  9
$DIMRND
 40
0.0
  9
$DIMDLE
 40
0.0
  9
$DIMEXE
 40
0.18
  9
$DIMTP
 40
0.0
  9
$DIMTM
 40
0.0
  9
$DIMTXT
 40
0.18
  9
$DIMCEN
 40
0.09
  9
$DIMTSZ
 40
0.0
  9
$DIMTOL
 70
     0
  9
$DIMLIM
 70
     0
  9
$DIMTIH
 70
     1
  9
$DIMTOH
 70
     1
  9
$DIMSE1
 70
     0
  9
$DIMSE2
 70
     0
  9
$DIMTAD
 70
     0
  9
$DIMZIN
 70
     0
  9
$DIMBLK
  1

  9
$DIMASO
 70
     1
  9
$DIMSHO
 70
     1
  9
$DIMPOST
  1

  9
$DIMAPOST
  1

  9
$DIMALT
 70
     0
  9
$DIMALTD
 70
     2
  9
$DIMALTF
 40
25.4
  9
$DIMLFAC
 40
1.0
  9
$DIMTOFL
 70
     0
  9
$DIMTVP
 40
0.0
  9
$DIMTIX
 70
     0
  9
$DIMSOXD
 70
     0
  9
$DIMSAH
 70
     0
  9
$DIMBLK1
  1

  9
$DIMBLK2
  1

  9
$DIMSTYLE
  2
STANDARD
  9
$DIMCLRD
 70
     0
  9
$DIMCLRE
 70
     0
  9
$DIMCLRT
 70
     0
  9
$DIMTFAC
 40
1.0
  9
$DIMGAP
 40
0.09
  9
$DIMJUST
 70
     0
  9
$DIMSD1
 70
     0
  9
$DIMSD2
 70
     0
  9
$DIMTOLJ
 70
     1
  9
$DIMTZIN
 70
     0
  9
$DIMALTZ
 70
     0
  9
$DIMALTTZ
 70
     0
  9
$DIMFIT
 70
     3
  9
$DIMUPT
 70
     0
  9
$DIMUNIT
 70
     2
  9
$DIMDEC
 70
     4
  9
$DIMTDEC
 70
     4
  9
$DIMALTU
 70
     2
  9
$DIMALTTD
 70
     2
  9
$DIMTXSTY
  7
STANDARD
  9
$DIMAUNIT
 70
     0
  9
$LUNITS
 70
     2
  9
$LUPREC
 70
     4
  9
$SKETCHINC
 40
0.1
  9
$FILLETRAD
 40
0.0
  9
$AUNITS
 70
     0
  9
$AUPREC
 70
     0
  9
$MENU
  1
.
  9
$ELEVATION
 40
0.0
  9
$PELEVATION
 40
0.0
  9
$THICKNESS
 40
0.0
  9
$LIMCHECK
 70
     0
  9
$BLIPMODE
 70
     0
  9
$CHAMFERA
 40
0.0
  9
$CHAMFERB
 40
0.0
  9
$CHAMFERC
 40
0.0
  9
$CHAMFERD
 40
0.0
  9
$SKPOLY
 70
     0
  9
$TDCREATE
 40
2455238.838391204
  9
$TDUPDATE
 40
2455238.849367940
  9
$TDINDWG
 40
0.0109767361
  9
$TDUSRTIMER
 40
0.0109767361
  9
$USRTIMER
 70
     1
  9
$ANGBASE
 50
0.0
  9
$ANGDIR
 70
     0
  9
$PDMODE
 70
     0
  9
$PDSIZE
 40
0.0
  9
$PLINEWID
 40
0.0
  9
$COORDS
 70
     1
  9
$SPLFRAME
 70
     0
  9
$SPLINETYPE
 70
     6
  9
$SPLINESEGS
 70
     8
  9
$ATTDIA
 70
     0
  9
$ATTREQ
 70
     1
  9
$HANDLING
 70
 22529
  9
$HANDSEED
  5
64A
  9
$SURFTAB1
 70
     6
  9
$SURFTAB2
 70
     6
  9
$SURFTYPE
 70
     6
  9
$SURFU
 70
     6
  9
$SURFV
 70
     6
  9
$UCSNAME
  2

  9
$UCSORG
 10
0.0
 20
0.0
 30
0.0
  9
$UCSXDIR
 10
1.0
 20
0.0
 30
0.0
  9
$UCSYDIR
 10
0.0
 20
1.0
 30
0.0
  9
$PUCSNAME
  2

  9
$PUCSORG
 10
0.0
 20
0.0
 30
0.0
  9
$PUCSXDIR
 10
1.0
 20
0.0
 30
0.0
  9
$PUCSYDIR
 10
0.0
 20
1.0
 30
0.0
  9
$USERI1
 70
     0
  9
$USERI2
 70
     0
  9
$USERI3
 70
     0
  9
$USERI4
 70
     0
  9
$USERI5
 70
     0
  9
$USERR1
 40
0.0
  9
$USERR2
 40
0.0
  9
$USERR3
 40
0.0
  9
$USERR4
 40
0.0
  9
$USERR5
 40
0.0
  9
$WORLDVIEW
 70
     1
  9
$SHADEDGE
 70
     3
  9
$SHADEDIF
 70
    70
  9
$TILEMODE
 70
     1
  9
$MAXACTVP
 70
    64
  9
$PINSBASE
 10
0.0
 20
0.0
 30
0.0
  9
$PLIMCHECK
 70
     0
  9
$PEXTMIN
 10
1.000000000000000E+20
 20
1.000000000000000E+20
 30
1.000000000000000E+20
  9
$PEXTMAX
 10
-1.000000000000000E+20
 20
-1.000000000000000E+20
 30
-1.000000000000000E+20
  9
$PLIMMIN
 10
0.0
 20
0.0
  9
$PLIMMAX
 10
12.0
 20
9.0
  9
$UNITMODE
 70
     0
  9
$VISRETAIN
 70
     1
  9
$PLINEGEN
 70
     0
  9
$PSLTSCALE
 70
     1
  9
$TREEDEPTH
 70
  3020
  9
$PICKSTYLE
 70
     1
  9
$CMLSTYLE
  2
STANDARD
  9
$CMLJUST
 70
     0
  9
$CMLSCALE
 40
1.0
  9
$PROXYGRAPHICS
 70
     1
  9
$MEASUREMENT
 70
     0
  0
ENDSEC
  0
SECTION
  2
CLASSES
  0
CLASS
  1
ACDBDICTIONARYWDFLT
  2
AcDbDictionaryWithDefault
  3
AutoCAD 2000
 90
        0
280
     0
281
     0
  0
CLASS
  1
ACDBPLACEHOLDER
  2
AcDbPlaceHolder
  3
AutoCAD 2000
 90
        0
280
     0
281
     0
  0
CLASS
  1
LAYOUT
  2
AcDbLayout
  3
AutoCAD 2000
 90
        0
280
     0
281
     0
  0
CLASS
  1
DICTIONARYVAR
  2
AcDbDictionaryVar
  3
AutoCAD 2000
 90
        0
280
     0
281
     0
  0
CLASS
  1
LONG_TRANSACTION
  2
AcDbLongTransaction
  3
AutoCAD 2000
 90
        0
280
     0
281
     0
  0
CLASS
  1
LWPOLYLINE
  2
AcDbPolyline
  3
AutoCAD 2000
 90
        0
280
     0
281
     1
  0
CLASS
  1
HATCH
  2
AcDbHatch
  3
AutoCAD 2000
 90
        0
280
     0
281
     1
  0
CLASS
  1
XRECORD
  2
AcDbXrecord
  3
AutoCAD 2000
 90
        0
280
     0
281
     0
  0
ENDSEC
  0
SECTION
  2
TABLES
  0
TABLE
  2
VPORT
  5
8
330
0
100
AcDbSymbolTable
 70
     7
  0
VPORT
  5
625
330
8
100
AcDbSymbolTableRecord
100
AcDbViewportTableRecord
  2
*ACTIVE
 70
     0
 10
0.0
 20
0.0
 11
1.0
 21
1.0
 12
244.0
 22
98.00000000000002
 13
0.0
 23
0.0
 14
1.0
 24
1.0
 15
0.0
 25
0.0
 16
0.0
 26
0.0
 36
1.0
 17
0.0
 27
0.0
 37
0.0
 40
239.7750332264317
 41
2.041621029572836
 42
50.0
 43
0.0
 44
0.0
 50
0.0
 51
0.0
 71
     0
 72
   100
 73
     1
 74
     3
 75
     0
 76
     0
 77
     0
 78
     0
  0
ENDTAB
  0
TABLE
  2
LTYPE
  5
5
330
0
100
AcDbSymbolTable
 70
     1
  0
LTYPE
  5
13
330
5
100
AcDbSymbolTableRecord
100
AcDbLinetypeTableRecord
  2
BYBLOCK
 70
     0
  3

 72
    65
 73
     0
 40
0.0
  0
LTYPE
  5
14
330
5
100
AcDbSymbolTableRecord
100
AcDbLinetypeTableRecord
  2
BYLAYER
 70
     0
  3

 72
    65
 73
     0
 40
0.0
  0
LTYPE
  5
15
330
5
100
AcDbSymbolTableRecord
100
AcDbLinetypeTableRecord
  2
CONTINUOUS
 70
     0
  3
Solid line
 72
    65
 73
     0
 40
0.0
  0
ENDTAB
  0
TABLE
  2
LAYER
  5
2
330
0
100
AcDbSymbolTable
 70
     1
  0
LAYER
  5
10
330
2
100
AcDbSymbolTableRecord
100
AcDbLayerTableRecord
  2
0
 70
     0
 62
     7
  6
CONTINUOUS
  0
ENDTAB
  0
TABLE
  2
STYLE
  5
3
330
0
100
AcDbSymbolTable
 70
     1
  0
STYLE
  5
11
330
3
100
AcDbSymbolTableRecord
100
AcDbTextStyleTableRecord
  2
STANDARD
 70
     0
 40
0.0
 41
1.0
 50
0.0
 71
     0
 42
0.2
  3
txt
  4

  0
ENDTAB
  0
TABLE
  2
VIEW
  5
6
330
0
100
AcDbSymbolTable
 70
     0
  0
ENDTAB
  0
TABLE
  2
UCS
  5
7
330
0
100
AcDbSymbolTable
 70
     0
  0
ENDTAB
  0
TABLE
  2
APPID
  5
9
330
0
100
AcDbSymbolTable
 70
     1
  0
APPID
  5
12
330
9
100
AcDbSymbolTableRecord
100
AcDbRegAppTableRecord
  2
ACAD
 70
     0
  0
ENDTAB
  0
TABLE
  2
DIMSTYLE
  5
A
330
0
100
AcDbSymbolTable
 70
     1
  0
DIMSTYLE
105
487
330
A
100
AcDbSymbolTableRecord
100
AcDbDimStyleTableRecord
  2
STANDARD
 70
     0
  3

  4

  5

  6

  7

 40
1.0
 41
0.18
 42
0.0625
 43
0.38
 44
0.18
 45
0.0
 46
0.0
 47
0.0
 48
0.0
140
0.18
141
0.09
142
0.0
143
25.4
144
1.0
145
0.0
146
1.0
147
0.09
 71
     0
 72
     0
 73
     1
 74
     1
 75
     0
 76
     0
 77
     0
 78
     0
170
     0
171
     2
172
     0
173
     0
174
     0
175
     0
176
     0
177
     0
178
     0
270
     2
271
     4
272
     4
273
     2
274
     2
340
11
275
     0
280
     0
281
     0
282
     0
283
     1
284
     0
285
     0
286
     0
287
     3
288
     0
  0
ENDTAB
  0
TABLE
  2
BLOCK_RECORD
  5
1
330
0
100
AcDbSymbolTable
 70
     0
  0
BLOCK_RECORD
  5
1E
102
{ACAD_XDICTIONARY
360
648
102
}
330
1
100
AcDbSymbolTableRecord
100
AcDbBlockTableRecord
  2
*MODEL_SPACE
  0
BLOCK_RECORD
  5
1A
102
{ACAD_XDICTIONARY
360
646
102
}
330
1
100
AcDbSymbolTableRecord
100
AcDbBlockTableRecord
  2
*PAPER_SPACE
  0
ENDTAB
  0
ENDSEC
  0
SECTION
  2
BLOCKS
  0
BLOCK
  5
1F
330
1E
100
AcDbEntity
  8
0
100
AcDbBlockBegin
  2
*MODEL_SPACE
 70
     0
 10
0.0
 20
0.0
 30
0.0
  3
*MODEL_SPACE
  1

  0
ENDBLK
  5
20
330
1E
100
AcDbEntity
  8
0
100
AcDbBlockEnd
  0
BLOCK
  5
1B
330
1A
100
AcDbEntity
 67
     1
  8
0
100
AcDbBlockBegin
  2
*PAPER_SPACE
 70
     0
 10
0.0
 20
0.0
 30
0.0
  3
*PAPER_SPACE
  1

  0
ENDBLK
  5
1C
330
1A
100
AcDbEntity
 67
     1
  8
0
100
AcDbBlockEnd
  0
ENDSEC
  0
SECTION
  2
ENTITIES
  0
LINE
  5
22
330
1E
100
AcDbEntity
  8
0
100
AcDbLine
 10
62.979953
 20
131.042
 30
0.0
 11
70.65645299999999
 21
132.1007999999999
 31
0.0
  0
LINE
  5
23
330
1E
100
AcDbEntity
  8
0
100
AcDbLine
 10
70.65645299999999
 20
132.1007999999999
 30
0.0
 11
77.89175300000001
 21
135.1007999999999
 31
0.0
  0
LINE
  5
24
330
1E
100
AcDbEntity
  8
0
100
AcDbLine
 10
1.23659299999999
 20
157.042
 30
0.0
 11
47.5316737689113
 21
157.042
 31
0.0
  0
LINE
  5
25
330
1E
100
AcDbEntity
  8
0
100
AcDbLine
 10
1.23659299999999
 20
157.042
 30
0.0
 11
47.5316737689113
 21
157.042
 31
0.0
  0
LINE
  5
26
330
1E
100
AcDbEntity
  8
0
100
AcDbLine
 10
37.03875299999999
 20
146.1302
 30
0.0
 11
41.803453
 21
139.8654999999999
 31
0.0
  0
LINE
  5
27
330
1E
100
AcDbEntity
  8
0
100
AcDbLine
 10
34.038753
 20
153.3654999999999
 30
0.0
 11
37.03875299999999
 21
146.1302
 31
0.0
  0
LINE
  5
28
330
1E
100
AcDbEntity
  8
0
100
AcDbLine
 10
1.13468299999999
 20
157.10082
 30
0.0
 11
1.416162999999989
 21
157.242
 31
0.0
  0
LINE
  5
29
330
1E
100
AcDbEntity
  8
0
100
AcDbLine
 10
0.164058999999986
 20
159.13612
 30
0.0
 11
0.330982999999986
 21
158.3361199999999
 31
0.0
  0
LINE
  5
2A
330
1E
100
AcDbEntity
  8
0
100
AcDbLine
 10
0.0593229999999859
 20
160.0537699999999
 30
0.0
 11
0.164058999999986
 21
159.13612
 31
0.0
  0
LINE
  5
2B
330
1E
100
AcDbEntity
  8
0
100
AcDbLine
 10
0.330982999999986
 20
158.3361199999999
 30
0.0
 11
0.358979999999986
 21
158.25376
 31
0.0
  0
LINE
  5
2C
330
1E
100
AcDbEntity
  8
0
100
AcDbLine
 10
0.358979999999986
 20
158.25376
 30
0.0
 11
0.5880869999999861
 21
157.63023
 31
0.0
  0
LINE
  5
2D
330
1E
100
AcDbEntity
  8
0
100
AcDbLine
 10
0.5880869999999861
 20
157.63023
 30
0.0
 11
0.8531999999999859
 21
157.242
 31
0.0
  0
LINE
  5
2E
330
1E
100
AcDbEntity
  8
0
100
AcDbLine
 10
1.910382999999989
 20
158.25376
 30
0.0
 11
2.083852999999989
 21
159.0772899999999
 31
0.0
  0
LINE
  5
2F
330
1E
100
AcDbEntity
  8
0
100
AcDbLine
 10
2.083852999999989
 20
159.0772899999999
 30
0.0
 11
2.191852999999989
 21
160.03023
 31
0.0
  0
LINE
  5
30
330
1E
100
AcDbEntity
  8
0
100
AcDbLine
 10
2.191852999999989
 20
160.03023
 30
0.0
 11
2.23113299999999
 21
161.0419999999999
 31
0.0
  0
LINE
  5
31
330
1E
100
AcDbEntity
  8
0
100
AcDbLine
 10
1.681272999999989
 20
157.63023
 30
0.0
 11
1.910382999999989
 21
158.25376
 31
0.0
  0
LINE
  5
32
330
1E
100
AcDbEntity
  8
0
100
AcDbLine
 10
1.416162999999989
 20
157.242
 30
0.0
 11
1.681272999999989
 21
157.63023
 31
0.0
  0
LINE
  5
33
330
1E
100
AcDbEntity
  8
0
100
AcDbLine
 10
0.8531999999999859
 20
157.242
 30
0.0
 11
0.9518389999999859
 21
157.18318
 31
0.0
  0
LINE
  5
34
330
1E
100
AcDbEntity
  8
0
100
AcDbLine
 10
0.8531999999999859
 20
157.242
 30
0.0
 11
1.13468299999999
 21
157.10082
 31
0.0
  0
LINE
  5
35
330
1E
100
AcDbEntity
  8
0
100
AcDbLine
 10
0.9518389999999859
 20
157.18318
 30
0.0
 11
1.23659299999999
 21
157.042
 31
0.0
  0
LINE
  5
36
330
1E
100
AcDbEntity
  8
0
100
AcDbLine
 10
0.0200469999999859
 20
161.0419999999999
 30
0.0
 11
0.0593229999999859
 21
162.03023
 31
0.0
  0
LINE
  5
37
330
1E
100
AcDbEntity
  8
0
100
AcDbLine
 10
0.0200469999999859
 20
161.0419999999999
 30
0.0
 11
0.0593229999999859
 21
160.0537699999999
 31
0.0
  0
LINE
  5
38
330
1E
100
AcDbEntity
  8
0
100
AcDbLine
 10
33.5316627635641
 20
157.042
 30
0.0
 11
34.038753
 21
153.3654999999999
 31
0.0
  0
LINE
  5
39
330
1E
100
AcDbEntity
  8
0
100
AcDbLine
 10
77.89175300000001
 20
135.1007999999999
 30
0.0
 11
84.15645299999999
 21
139.8654999999999
 31
0.0
  0
LINE
  5
3A
330
1E
100
AcDbEntity
  8
0
100
AcDbLine
 10
62.979953
 20
145.2773
 30
0.0
 11
67.02705300000001
 21
145.842
 31
0.0
  0
LINE
  5
3F
330
1E
100
AcDbEntity
  8
0
100
AcDbLine
 10
49.332853
 20
153.1832
 30
0.0
 11
51.827053
 21
149.8891
 31
0.0
  0
LINE
  5
40
330
1E
100
AcDbEntity
  8
0
100
AcDbLine
 10
47.5316737689113
 20
157.042
 30
0.0
 11
49.332853
 21
153.1832
 31
0.0
  0
LINE
  5
45
330
1E
100
AcDbEntity
  8
0
100
AcDbLine
 10
51.827053
 20
149.8891
 30
0.0
 11
55.121153
 21
147.3949
 31
0.0
  0
LINE
  5
48
330
1E
100
AcDbEntity
  8
0
100
AcDbLine
 10
55.121153
 20
147.3949
 30
0.0
 11
58.932853
 21
145.842
 31
0.0
  0
LINE
  5
49
330
1E
100
AcDbEntity
  8
0
100
AcDbLine
 10
67.02705300000001
 20
145.842
 30
0.0
 11
70.83875299999999
 21
147.3949
 31
0.0
  0
LINE
  5
4A
330
1E
100
AcDbEntity
  8
0
100
AcDbLine
 10
74.132853
 20
149.8891
 30
0.0
 11
76.627053
 21
153.1832
 31
0.0
  0
LINE
  5
4B
330
1E
100
AcDbEntity
  8
0
100
AcDbLine
 10
76.627053
 20
153.1832
 30
0.0
 11
78.17995299999999
 21
156.9949
 31
0.0
  0
LINE
  5
4D
330
1E
100
AcDbEntity
  8
0
100
AcDbLine
 10
78.17995299999999
 20
156.9949
 30
0.0
 11
78.744653
 21
161.0419999999999
 31
0.0
  0
LINE
  5
4F
330
1E
100
AcDbEntity
  8
0
100
AcDbLine
 10
70.83875299999999
 20
147.3949
 30
0.0
 11
74.132853
 21
149.8891
 31
0.0
  0
LINE
  5
51
330
1E
100
AcDbEntity
  8
0
100
AcDbLine
 10
58.932853
 20
145.842
 30
0.0
 11
62.979953
 21
145.2773
 31
0.0
  0
LINE
  5
55
330
1E
100
AcDbEntity
  8
0
100
AcDbLine
 10
88.921153
 20
146.1302
 30
0.0
 11
91.92115300000001
 21
153.3654999999999
 31
0.0
  0
LINE
  5
E2
330
1E
100
AcDbEntity
  8
0
100
AcDbLine
 10
91.92115300000001
 20
153.3654999999999
 30
0.0
 11
92.97995300000001
 21
161.0419999999999
 31
0.0
  0
LINE
  5
E3
330
1E
100
AcDbEntity
  8
0
100
AcDbLine
 10
84.15645299999999
 20
139.8654999999999
 30
0.0
 11
88.921153
 21
146.1302
 31
0.0
  0
LINE
  5
E4
330
1E
100
AcDbEntity
  8
0
100
AcDbLine
 10
48.068153
 20
135.1007999999999
 30
0.0
 11
55.303453
 21
132.1007999999999
 31
0.0
  0
LINE
  5
E5
330
1E
100
AcDbEntity
  8
0
100
AcDbLine
 10
41.803453
 20
139.8654999999999
 30
0.0
 11
48.068153
 21
135.1007999999999
 31
0.0
  0
LINE
  5
E6
330
1E
100
AcDbEntity
  8
0
100
AcDbLine
 10
55.303453
 20
132.1007999999999
 30
0.0
 11
62.979953
 21
131.042
 31
0.0
  0
LINE
  5
E7
330
1E
100
AcDbEntity
  8
0
100
AcDbLine
 10
163.273953
 20
136.3360999999999
 30
0.0
 11
170.582953
 21
130.7773
 31
0.0
  0
LINE
  5
E8
330
1E
100
AcDbEntity
  8
0
100
AcDbLine
 10
178.067953
 20
49.151
 30
0.0
 11
181.035953
 21
47.353
 31
0.0
  0
LINE
  5
E9
330
1E
100
AcDbEntity
  8
0
100
AcDbLine
 10
175.827953
 20
51.074
 30
0.0
 11
178.067953
 21
48.692
 31
0.0
  0
LINE
  5
EA
330
1E
100
AcDbEntity
  8
0
100
AcDbLine
 10
178.067953
 20
48.692
 30
0.0
 11
181.035953
 21
46.894
 31
0.0
  0
LINE
  5
EB
330
1E
100
AcDbEntity
  8
0
100
AcDbLine
 10
174.483953
 20
48.26399999999999
 30
0.0
 11
175.827953
 21
45.567
 31
0.0
  0
LINE
  5
EC
330
1E
100
AcDbEntity
  8
0
100
AcDbLine
 10
175.827953
 20
45.567
 30
0.0
 11
178.067953
 21
43.185
 31
0.0
  0
LINE
  5
ED
330
1E
100
AcDbEntity
  8
0
100
AcDbLine
 10
181.035953
 20
47.353
 30
0.0
 11
184.395953
 21
46.275
 31
0.0
  0
LINE
  5
EE
330
1E
100
AcDbEntity
  8
0
100
AcDbLine
 10
184.395953
 20
46.275
 30
0.0
 11
187.9799529999999
 21
45.86999999999999
 31
0.0
  0
LINE
  5
EF
330
1E
100
AcDbEntity
  8
0
100
AcDbLine
 10
181.035953
 20
46.894
 30
0.0
 11
184.395953
 21
45.816
 31
0.0
  0
LINE
  5
F0
330
1E
100
AcDbEntity
  8
0
100
AcDbLine
 10
184.395953
 20
45.816
 30
0.0
 11
187.9799529999999
 21
45.411
 31
0.0
  0
LINE
  5
F1
330
1E
100
AcDbEntity
  8
0
100
AcDbLine
 10
178.067953
 20
43.185
 30
0.0
 11
181.035953
 21
41.387
 31
0.0
  0
LINE
  5
F2
330
1E
100
AcDbEntity
  8
0
100
AcDbLine
 10
181.035953
 20
41.387
 30
0.0
 11
184.395953
 21
40.30899999999999
 31
0.0
  0
LINE
  5
F3
330
1E
100
AcDbEntity
  8
0
100
AcDbLine
 10
187.9799529999999
 20
45.411
 30
0.0
 11
191.5639529999999
 21
45.816
 31
0.0
  0
LINE
  5
F4
330
1E
100
AcDbEntity
  8
0
100
AcDbLine
 10
191.5639529999999
 20
45.816
 30
0.0
 11
194.923953
 21
46.894
 31
0.0
  0
LINE
  5
F5
330
1E
100
AcDbEntity
  8
0
100
AcDbLine
 10
194.923953
 20
41.387
 30
0.0
 11
197.8919529999999
 21
43.185
 31
0.0
  0
LINE
  5
F6
330
1E
100
AcDbEntity
  8
0
100
AcDbLine
 10
191.5639529999999
 20
40.30899999999999
 30
0.0
 11
194.923953
 21
41.387
 31
0.0
  0
LINE
  5
F7
330
1E
100
AcDbEntity
  8
0
100
AcDbLine
 10
187.9799529999999
 20
39.904
 30
0.0
 11
191.5639529999999
 21
40.30899999999999
 31
0.0
  0
LINE
  5
F8
330
1E
100
AcDbEntity
  8
0
100
AcDbLine
 10
194.923953
 20
46.894
 30
0.0
 11
197.8919529999999
 21
48.692
 31
0.0
  0
LINE
  5
F9
330
1E
100
AcDbEntity
  8
0
100
AcDbLine
 10
194.923953
 20
47.353
 30
0.0
 11
197.8919529999999
 21
49.151
 31
0.0
  0
LINE
  5
FA
330
1E
100
AcDbEntity
  8
0
100
AcDbLine
 10
191.5639529999999
 20
46.275
 30
0.0
 11
194.923953
 21
47.353
 31
0.0
  0
LINE
  5
FB
330
1E
100
AcDbEntity
  8
0
100
AcDbLine
 10
187.9799529999999
 20
45.86999999999999
 30
0.0
 11
191.5639529999999
 21
46.275
 31
0.0
  0
LINE
  5
FC
330
1E
100
AcDbEntity
  8
0
100
AcDbLine
 10
184.395953
 20
40.30899999999999
 30
0.0
 11
187.9799529999999
 21
39.904
 31
0.0
  0
LINE
  5
FD
330
1E
100
AcDbEntity
  8
0
100
AcDbLine
 10
173.9799529999999
 20
82.51510000000001
 30
0.0
 11
173.9799529999999
 21
87.039
 31
0.0
  0
LINE
  5
FE
330
1E
100
AcDbEntity
  8
0
100
AcDbLine
 10
173.9799529999999
 20
82.51510000000001
 30
0.0
 11
173.9799529999999
 21
78.54770000000001
 31
0.0
  0
LINE
  5
FF
330
1E
100
AcDbEntity
  8
0
100
AcDbLine
 10
173.9799529999999
 20
87.039
 30
0.0
 11
173.9799529999999
 21
92.042
 31
0.0
  0
LINE
  5
100
330
1E
100
AcDbEntity
  8
0
100
AcDbLine
 10
173.9799529999999
 20
87.039
 30
0.0
 11
173.9799529999999
 21
82.51510000000001
 31
0.0
  0
LINE
  5
101
330
1E
100
AcDbEntity
  8
0
100
AcDbLine
 10
173.9799529999999
 20
92.042
 30
0.0
 11
173.9799529999999
 21
97.43859999999999
 31
0.0
  0
LINE
  5
102
330
1E
100
AcDbEntity
  8
0
100
AcDbLine
 10
173.9799529999999
 20
92.042
 30
0.0
 11
173.9799529999999
 21
87.039
 31
0.0
  0
LINE
  5
103
330
1E
100
AcDbEntity
  8
0
100
AcDbLine
 10
173.9799529999999
 20
97.43859999999999
 30
0.0
 11
173.9799529999999
 21
103.1363
 31
0.0
  0
LINE
  5
104
330
1E
100
AcDbEntity
  8
0
100
AcDbLine
 10
173.9799529999999
 20
97.43859999999999
 30
0.0
 11
173.9799529999999
 21
92.042
 31
0.0
  0
LINE
  5
105
330
1E
100
AcDbEntity
  8
0
100
AcDbLine
 10
173.9799529999999
 20
103.1363
 30
0.0
 11
173.9799529999999
 21
97.43859999999999
 31
0.0
  0
LINE
  5
106
330
1E
100
AcDbEntity
  8
0
100
AcDbLine
 10
173.9799529999999
 20
103.1363
 30
0.0
 11
173.9799529999999
 21
109.0378
 31
0.0
  0
LINE
  5
107
330
1E
100
AcDbEntity
  8
0
100
AcDbLine
 10
173.9799529999999
 20
109.0378
 30
0.0
 11
173.9799529999999
 21
115.0419999999999
 31
0.0
  0
LINE
  5
108
330
1E
100
AcDbEntity
  8
0
100
AcDbLine
 10
173.9799529999999
 20
109.0378
 30
0.0
 11
173.9799529999999
 21
103.1363
 31
0.0
  0
LINE
  5
109
330
1E
100
AcDbEntity
  8
0
100
AcDbLine
 10
173.9799529999999
 20
132.6454
 30
0.0
 11
173.9799529999999
 21
138.0419999999999
 31
0.0
  0
LINE
  5
10A
330
1E
100
AcDbEntity
  8
0
100
AcDbLine
 10
173.9799529999999
 20
132.6454
 30
0.0
 11
173.9799529999999
 21
126.9476999999999
 31
0.0
  0
LINE
  5
10B
330
1E
100
AcDbEntity
  8
0
100
AcDbLine
 10
173.9799529999999
 20
138.0419999999999
 30
0.0
 11
173.9799529999999
 21
143.0449999999999
 31
0.0
  0
LINE
  5
10C
330
1E
100
AcDbEntity
  8
0
100
AcDbLine
 10
173.9799529999999
 20
138.0419999999999
 30
0.0
 11
173.9799529999999
 21
132.6454
 31
0.0
  0
LINE
  5
10D
330
1E
100
AcDbEntity
  8
0
100
AcDbLine
 10
173.9799529999999
 20
143.0449999999999
 30
0.0
 11
173.9799529999999
 21
138.0419999999999
 31
0.0
  0
LINE
  5
10E
330
1E
100
AcDbEntity
  8
0
100
AcDbLine
 10
173.9799529999999
 20
143.0449999999999
 30
0.0
 11
173.9799529999999
 21
147.5689
 31
0.0
  0
LINE
  5
10F
330
1E
100
AcDbEntity
  8
0
100
AcDbLine
 10
173.9799529999999
 20
126.9476999999999
 30
0.0
 11
173.9799529999999
 21
121.0461999999999
 31
0.0
  0
LINE
  5
110
330
1E
100
AcDbEntity
  8
0
100
AcDbLine
 10
173.9799529999999
 20
126.9476999999999
 30
0.0
 11
173.9799529999999
 21
132.6454
 31
0.0
  0
LINE
  5
111
330
1E
100
AcDbEntity
  8
0
100
AcDbLine
 10
173.9799529999999
 20
115.0419999999999
 30
0.0
 11
173.9799529999999
 21
121.0461999999999
 31
0.0
  0
LINE
  5
112
330
1E
100
AcDbEntity
  8
0
100
AcDbLine
 10
173.9799529999999
 20
115.0419999999999
 30
0.0
 11
173.9799529999999
 21
109.0378
 31
0.0
  0
LINE
  5
113
330
1E
100
AcDbEntity
  8
0
100
AcDbLine
 10
173.9799529999999
 20
121.0461999999999
 30
0.0
 11
173.9799529999999
 21
115.0419999999999
 31
0.0
  0
LINE
  5
114
330
1E
100
AcDbEntity
  8
0
100
AcDbLine
 10
173.9799529999999
 20
121.0461999999999
 30
0.0
 11
173.9799529999999
 21
126.9476999999999
 31
0.0
  0
LINE
  5
115
330
1E
100
AcDbEntity
  8
0
100
AcDbLine
 10
173.9799529999999
 20
78.54770000000001
 30
0.0
 11
173.9799529999999
 21
57.106
 31
0.0
  0
LINE
  5
116
330
1E
100
AcDbEntity
  8
0
100
AcDbLine
 10
173.9799529999999
 20
78.54770000000001
 30
0.0
 11
173.9799529999999
 21
82.51510000000001
 31
0.0
  0
LINE
  5
117
330
1E
100
AcDbEntity
  8
0
100
AcDbLine
 10
173.9799529999999
 20
57.106
 30
0.0
 11
173.9799529999999
 21
78.54770000000001
 31
0.0
  0
LINE
  5
118
330
1E
100
AcDbEntity
  8
0
100
AcDbLine
 10
173.9799529999999
 20
57.106
 30
0.0
 11
174.483953
 21
54.23
 31
0.0
  0
LINE
  5
119
330
1E
100
AcDbEntity
  8
0
100
AcDbLine
 10
173.9799529999999
 20
56.64699999999999
 30
0.0
 11
174.020171358832
 21
56.8765
 31
0.0
  0
LINE
  5
11A
330
1E
100
AcDbEntity
  8
0
100
AcDbLine
 10
173.9799529999999
 20
56.64699999999999
 30
0.0
 11
173.9799529999999
 21
53.894
 31
0.0
  0
LINE
  5
11B
330
1E
100
AcDbEntity
  8
0
100
AcDbLine
 10
173.9799529999999
 20
56.64699999999999
 30
0.0
 11
174.483953
 21
53.771
 31
0.0
  0
LINE
  5
11C
330
1E
100
AcDbEntity
  8
0
100
AcDbLine
 10
175.827953
 20
51.533
 30
0.0
 11
178.067953
 21
49.151
 31
0.0
  0
LINE
  5
11D
330
1E
100
AcDbEntity
  8
0
100
AcDbLine
 10
174.483953
 20
54.23
 30
0.0
 11
175.827953
 21
51.533
 31
0.0
  0
LINE
  5
11E
330
1E
100
AcDbEntity
  8
0
100
AcDbLine
 10
174.483953
 20
53.771
 30
0.0
 11
175.827953
 21
51.074
 31
0.0
  0
LINE
  5
11F
330
1E
100
AcDbEntity
  8
0
100
AcDbLine
 10
173.9799529999999
 20
53.894
 30
0.0
 11
173.9799529999999
 21
51.14
 31
0.0
  0
LINE
  5
120
330
1E
100
AcDbEntity
  8
0
100
AcDbLine
 10
173.9799529999999
 20
53.894
 30
0.0
 11
173.9799529999999
 21
56.64699999999999
 31
0.0
  0
LINE
  5
121
330
1E
100
AcDbEntity
  8
0
100
AcDbLine
 10
173.9799529999999
 20
51.14
 30
0.0
 11
173.9799529999999
 21
53.894
 31
0.0
  0
LINE
  5
122
330
1E
100
AcDbEntity
  8
0
100
AcDbLine
 10
173.9799529999999
 20
51.14
 30
0.0
 11
174.483953
 21
48.26399999999999
 31
0.0
  0
LINE
  5
123
330
1E
100
AcDbEntity
  8
0
100
AcDbLine
 10
170.582953
 20
130.7773
 30
0.0
 11
173.9799529999999
 21
129.368758358014
 31
0.0
  0
LINE
  5
124
330
1E
100
AcDbEntity
  8
0
100
AcDbLine
 10
173.9799529999999
 20
154.8791699999999
 30
0.0
 11
173.9799529999999
 21
151.5362499999999
 31
0.0
  0
LINE
  5
125
330
1E
100
AcDbEntity
  8
0
100
AcDbLine
 10
173.9799529999999
 20
154.8791699999999
 30
0.0
 11
173.9799529999999
 21
157.5404599999999
 31
0.0
  0
LINE
  5
126
330
1E
100
AcDbEntity
  8
0
100
AcDbLine
 10
173.9799529999999
 20
147.5689
 30
0.0
 11
173.9799529999999
 21
151.5362499999999
 31
0.0
  0
LINE
  5
127
330
1E
100
AcDbEntity
  8
0
100
AcDbLine
 10
173.9799529999999
 20
147.5689
 30
0.0
 11
173.9799529999999
 21
143.0449999999999
 31
0.0
  0
LINE
  5
128
330
1E
100
AcDbEntity
  8
0
100
AcDbLine
 10
173.9799529999999
 20
151.5362499999999
 30
0.0
 11
173.9799529999999
 21
147.5689
 31
0.0
  0
LINE
  5
129
330
1E
100
AcDbEntity
  8
0
100
AcDbLine
 10
173.9799529999999
 20
151.5362499999999
 30
0.0
 11
173.9799529999999
 21
154.8791699999999
 31
0.0
  0
LINE
  5
12A
330
1E
100
AcDbEntity
  8
0
100
AcDbLine
 10
171.038953
 20
144.1007999999999
 30
0.0
 11
173.9799529999999
 21
141.864126077414
 31
0.0
  0
LINE
  5
12B
330
1E
100
AcDbEntity
  8
0
100
AcDbLine
 10
167.226953
 20
149.1125999999999
 30
0.0
 11
171.038953
 21
144.1007999999999
 31
0.0
  0
LINE
  5
12C
330
1E
100
AcDbEntity
  8
0
100
AcDbLine
 10
173.9799529999999
 20
157.5404599999999
 30
0.0
 11
173.9799529999999
 21
154.8791699999999
 31
0.0
  0
LINE
  5
12D
330
1E
100
AcDbEntity
  8
0
100
AcDbLine
 10
173.9799529999999
 20
157.5404599999999
 30
0.0
 11
173.9799529999999
 21
159.4745899999999
 31
0.0
  0
LINE
  5
12E
330
1E
100
AcDbEntity
  8
0
100
AcDbLine
 10
173.9799529999999
 20
159.4745899999999
 30
0.0
 11
173.9799529999999
 21
160.6484639999999
 31
0.0
  0
LINE
  5
12F
330
1E
100
AcDbEntity
  8
0
100
AcDbLine
 10
173.9799529999999
 20
159.4745899999999
 30
0.0
 11
173.9799529999999
 21
157.5404599999999
 31
0.0
  0
LINE
  5
130
330
1E
100
AcDbEntity
  8
0
100
AcDbLine
 10
173.9799529999999
 20
160.6484639999999
 30
0.0
 11
173.9799529999999
 21
161.0419999999999
 31
0.0
  0
LINE
  5
131
330
1E
100
AcDbEntity
  8
0
100
AcDbLine
 10
173.9799529999999
 20
160.6484639999999
 30
0.0
 11
173.9799529999999
 21
159.4745899999999
 31
0.0
  0
LINE
  5
132
330
1E
100
AcDbEntity
  8
0
100
AcDbLine
 10
173.9799529999999
 20
161.0419999999999
 30
0.0
 11
174.483953
 21
164.6259999999999
 31
0.0
  0
LINE
  5
133
330
1E
100
AcDbEntity
  8
0
100
AcDbLine
 10
164.826953
 20
154.9008
 30
0.0
 11
167.226953
 21
149.1125999999999
 31
0.0
  0
LINE
  5
134
330
1E
100
AcDbEntity
  8
0
100
AcDbLine
 10
163.9799529999999
 20
161.0419999999999
 30
0.0
 11
164.826953
 21
167.1832
 31
0.0
  0
LINE
  5
135
330
1E
100
AcDbEntity
  8
0
100
AcDbLine
 10
163.9799529999999
 20
161.0419999999999
 30
0.0
 11
164.826953
 21
167.1832
 31
0.0
  0
LINE
  5
136
330
1E
100
AcDbEntity
  8
0
100
AcDbLine
 10
163.9799529999999
 20
161.0419999999999
 30
0.0
 11
164.826953
 21
154.9008
 31
0.0
  0
LINE
  5
137
330
1E
100
AcDbEntity
  8
0
100
AcDbLine
 10
157.7149529999999
 20
143.6449
 30
0.0
 11
163.273953
 21
136.3360999999999
 31
0.0
  0
LINE
  5
138
330
1E
100
AcDbEntity
  8
0
100
AcDbLine
 10
154.214953
 20
152.0861
 30
0.0
 11
157.7149529999999
 21
143.6449
 31
0.0
  0
LINE
  5
139
330
1E
100
AcDbEntity
  8
0
100
AcDbLine
 10
0.0593229999999859
 20
162.03023
 30
0.0
 11
0.164058999999986
 21
162.94788
 31
0.0
  0
LINE
  5
13A
330
1E
100
AcDbEntity
  8
0
100
AcDbLine
 10
0.164058999999986
 20
162.94788
 30
0.0
 11
0.330982999999986
 21
163.74788
 31
0.0
  0
LINE
  5
13B
330
1E
100
AcDbEntity
  8
0
100
AcDbLine
 10
0.330982999999986
 20
163.74788
 30
0.0
 11
0.358979999999986
 21
163.83023
 31
0.0
  0
LINE
  5
13C
330
1E
100
AcDbEntity
  8
0
100
AcDbLine
 10
0.358979999999986
 20
163.83023
 30
0.0
 11
0.5880869999999861
 21
164.4537699999999
 31
0.0
  0
LINE
  5
13D
330
1E
100
AcDbEntity
  8
0
100
AcDbLine
 10
0.5880869999999861
 20
164.4537699999999
 30
0.0
 11
0.8531999999999859
 21
164.842
 31
0.0
  0
LINE
  5
13E
330
1E
100
AcDbEntity
  8
0
100
AcDbLine
 10
0.8531999999999859
 20
164.842
 30
0.0
 11
1.13468299999999
 21
164.98318
 31
0.0
  0
LINE
  5
13F
330
1E
100
AcDbEntity
  8
0
100
AcDbLine
 10
0.8531999999999859
 20
164.842
 30
0.0
 11
0.9518389999999859
 21
164.9008199999999
 31
0.0
  0
LINE
  5
140
330
1E
100
AcDbEntity
  8
0
100
AcDbLine
 10
0.9518389999999859
 20
164.9008199999999
 30
0.0
 11
1.23659299999999
 21
165.0419999999999
 31
0.0
  0
LINE
  5
141
330
1E
100
AcDbEntity
  8
0
100
AcDbLine
 10
1.23659299999999
 20
165.0419999999999
 30
0.0
 11
47.5316737689113
 21
165.0419999999999
 31
0.0
  0
LINE
  5
142
330
1E
100
AcDbEntity
  8
0
100
AcDbLine
 10
1.13468299999999
 20
164.98318
 30
0.0
 11
1.416162999999989
 21
164.842
 31
0.0
  0
LINE
  5
143
330
1E
100
AcDbEntity
  8
0
100
AcDbLine
 10
1.681272999999989
 20
164.4537699999999
 30
0.0
 11
1.910382999999989
 21
163.83023
 31
0.0
  0
LINE
  5
144
330
1E
100
AcDbEntity
  8
0
100
AcDbLine
 10
1.416162999999989
 20
164.842
 30
0.0
 11
1.681272999999989
 21
164.4537699999999
 31
0.0
  0
LINE
  5
145
330
1E
100
AcDbEntity
  8
0
100
AcDbLine
 10
1.23659299999999
 20
165.0419999999999
 30
0.0
 11
47.5316737689113
 21
165.0419999999999
 31
0.0
  0
LINE
  5
146
330
1E
100
AcDbEntity
  8
0
100
AcDbLine
 10
1.910382999999989
 20
163.83023
 30
0.0
 11
2.083852999999989
 21
163.0067099999999
 31
0.0
  0
LINE
  5
147
330
1E
100
AcDbEntity
  8
0
100
AcDbLine
 10
2.083852999999989
 20
163.0067099999999
 30
0.0
 11
2.191852999999989
 21
162.0537699999999
 31
0.0
  0
LINE
  5
148
330
1E
100
AcDbEntity
  8
0
100
AcDbLine
 10
2.191852999999989
 20
162.0537699999999
 30
0.0
 11
2.23113299999999
 21
161.0419999999999
 31
0.0
  0
LINE
  5
14A
330
1E
100
AcDbEntity
  8
0
100
AcDbLine
 10
47.5316737689113
 20
165.0419999999999
 30
0.0
 11
49.332853
 21
168.9008199999999
 31
0.0
  0
LINE
  5
14E
330
1E
100
AcDbEntity
  8
0
100
AcDbLine
 10
78.17995299999999
 20
165.0891
 30
0.0
 11
78.744653
 21
161.0419999999999
 31
0.0
  0
LINE
  5
1D3
330
1E
100
AcDbEntity
  8
0
100
AcDbLine
 10
34.038753
 20
168.7185
 30
0.0
 11
37.03875299999999
 21
175.9538
 31
0.0
  0
LINE
  5
1D4
330
1E
100
AcDbEntity
  8
0
100
AcDbLine
 10
33.5316627635641
 20
165.0419999999999
 30
0.0
 11
34.038753
 21
168.7185
 31
0.0
  0
LINE
  5
1D5
330
1E
100
AcDbEntity
  8
0
100
AcDbLine
 10
37.03875299999999
 20
175.9538
 30
0.0
 11
41.803453
 21
182.2185
 31
0.0
  0
LINE
  5
1D6
330
1E
100
AcDbEntity
  8
0
100
AcDbLine
 10
49.332853
 20
168.9008199999999
 30
0.0
 11
51.827053
 21
172.1948999999999
 31
0.0
  0
LINE
  5
1D8
330
1E
100
AcDbEntity
  8
0
100
AcDbLine
 10
51.827053
 20
172.1948999999999
 30
0.0
 11
55.121153
 21
174.6890999999999
 31
0.0
  0
LINE
  5
1DA
330
1E
100
AcDbEntity
  8
0
100
AcDbLine
 10
74.132853
 20
172.1948999999999
 30
0.0
 11
76.627053
 21
168.9008199999999
 31
0.0
  0
LINE
  5
1DB
330
1E
100
AcDbEntity
  8
0
100
AcDbLine
 10
76.627053
 20
168.9008199999999
 30
0.0
 11
78.17995299999999
 21
165.0891
 31
0.0
  0
LINE
  5
1DD
330
1E
100
AcDbEntity
  8
0
100
AcDbLine
 10
55.121153
 20
174.6890999999999
 30
0.0
 11
58.932853
 21
176.242
 31
0.0
  0
LINE
  5
1DE
330
1E
100
AcDbEntity
  8
0
100
AcDbLine
 10
58.932853
 20
176.242
 30
0.0
 11
62.979953
 21
176.8067
 31
0.0
  0
LINE
  5
1E1
330
1E
100
AcDbEntity
  8
0
100
AcDbLine
 10
67.02705300000001
 20
176.242
 30
0.0
 11
70.83875299999999
 21
174.6890999999999
 31
0.0
  0
LINE
  5
1E2
330
1E
100
AcDbEntity
  8
0
100
AcDbLine
 10
62.979953
 20
176.8067
 30
0.0
 11
67.02705300000001
 21
176.242
 31
0.0
  0
LINE
  5
1E4
330
1E
100
AcDbEntity
  8
0
100
AcDbLine
 10
70.83875299999999
 20
174.6890999999999
 30
0.0
 11
74.132853
 21
172.1948999999999
 31
0.0
  0
LINE
  5
1E8
330
1E
100
AcDbEntity
  8
0
100
AcDbLine
 10
41.803453
 20
182.2185
 30
0.0
 11
48.068153
 21
186.9832
 31
0.0
  0
LINE
  5
1E9
330
1E
100
AcDbEntity
  8
0
100
AcDbLine
 10
48.068153
 20
186.9832
 30
0.0
 11
55.303453
 21
189.9832
 31
0.0
  0
LINE
  5
1EA
330
1E
100
AcDbEntity
  8
0
100
AcDbLine
 10
55.303453
 20
189.9832
 30
0.0
 11
62.979953
 21
191.042
 31
0.0
  0
LINE
  5
1EB
330
1E
100
AcDbEntity
  8
0
100
AcDbLine
 10
70.65645299999999
 20
189.9832
 30
0.0
 11
77.89175300000001
 21
186.9832
 31
0.0
  0
LINE
  5
1EC
330
1E
100
AcDbEntity
  8
0
100
AcDbLine
 10
62.979953
 20
191.042
 30
0.0
 11
70.65645299999999
 21
189.9832
 31
0.0
  0
LINE
  5
1ED
330
1E
100
AcDbEntity
  8
0
100
AcDbLine
 10
77.89175300000001
 20
186.9832
 30
0.0
 11
84.15645299999999
 21
182.2185
 31
0.0
  0
LINE
  5
1EE
330
1E
100
AcDbEntity
  8
0
100
AcDbLine
 10
84.15645299999999
 20
182.2185
 30
0.0
 11
88.921153
 21
175.9538
 31
0.0
  0
LINE
  5
1EF
330
1E
100
AcDbEntity
  8
0
100
AcDbLine
 10
88.921153
 20
175.9538
 30
0.0
 11
91.92115300000001
 21
168.7185
 31
0.0
  0
LINE
  5
1F0
330
1E
100
AcDbEntity
  8
0
100
AcDbLine
 10
91.92115300000001
 20
168.7185
 30
0.0
 11
92.97995300000001
 21
161.0419999999999
 31
0.0
  0
LINE
  5
1F1
330
1E
100
AcDbEntity
  8
0
100
AcDbLine
 10
164.826953
 20
167.1832
 30
0.0
 11
167.226953
 21
172.9713999999999
 31
0.0
  0
LINE
  5
1F2
330
1E
100
AcDbEntity
  8
0
100
AcDbLine
 10
178.067953
 20
170.954
 30
0.0
 11
181.035953
 21
173.194
 31
0.0
  0
LINE
  5
1F3
330
1E
100
AcDbEntity
  8
0
100
AcDbLine
 10
175.827953
 20
167.9859999999999
 30
0.0
 11
178.067953
 21
170.954
 31
0.0
  0
LINE
  5
1F4
330
1E
100
AcDbEntity
  8
0
100
AcDbLine
 10
174.483953
 20
164.6259999999999
 30
0.0
 11
175.827953
 21
167.9859999999999
 31
0.0
  0
LINE
  5
1F5
330
1E
100
AcDbEntity
  8
0
100
AcDbLine
 10
173.9799529999999
 20
161.0419999999999
 30
0.0
 11
174.483953
 21
164.6259999999999
 31
0.0
  0
LINE
  5
1F6
330
1E
100
AcDbEntity
  8
0
100
AcDbLine
 10
173.9799529999999
 20
161.0419999999999
 30
0.0
 11
174.0077423802389
 21
160.844386629409
 31
0.0
  0
LINE
  5
1F7
330
1E
100
AcDbEntity
  8
0
100
AcDbLine
 10
173.9799529999999
 20
161.0419999999999
 30
0.0
 11
173.9799529999999
 21
160.6484639999999
 31
0.0
  0
LINE
  5
1F8
330
1E
100
AcDbEntity
  8
0
100
AcDbLine
 10
194.923953
 20
173.194
 30
0.0
 11
197.8919529999999
 21
170.954
 31
0.0
  0
LINE
  5
1F9
330
1E
100
AcDbEntity
  8
0
100
AcDbLine
 10
187.9799529999999
 20
175.042
 30
0.0
 11
191.5639529999999
 21
174.5379999999999
 31
0.0
  0
LINE
  5
1FA
330
1E
100
AcDbEntity
  8
0
100
AcDbLine
 10
191.5639529999999
 20
174.5379999999999
 30
0.0
 11
194.923953
 21
173.194
 31
0.0
  0
LINE
  5
1FB
330
1E
100
AcDbEntity
  8
0
100
AcDbLine
 10
184.395953
 20
174.5379999999999
 30
0.0
 11
187.9799529999999
 21
175.042
 31
0.0
  0
LINE
  5
1FC
330
1E
100
AcDbEntity
  8
0
100
AcDbLine
 10
181.035953
 20
173.194
 30
0.0
 11
184.395953
 21
174.5379999999999
 31
0.0
  0
LINE
  5
1FD
330
1E
100
AcDbEntity
  8
0
100
AcDbLine
 10
171.038953
 20
177.9832
 30
0.0
 11
176.050953
 21
181.7949
 31
0.0
  0
LINE
  5
1FE
330
1E
100
AcDbEntity
  8
0
100
AcDbLine
 10
167.226953
 20
172.9713999999999
 30
0.0
 11
171.038953
 21
177.9832
 31
0.0
  0
LINE
  5
1FF
330
1E
100
AcDbEntity
  8
0
100
AcDbLine
 10
176.050953
 20
181.7949
 30
0.0
 11
181.838953
 21
184.1948999999999
 31
0.0
  0
LINE
  5
200
330
1E
100
AcDbEntity
  8
0
100
AcDbLine
 10
163.273953
 20
185.7478999999999
 30
0.0
 11
170.582953
 21
191.3067
 31
0.0
  0
LINE
  5
201
330
1E
100
AcDbEntity
  8
0
100
AcDbLine
 10
170.582953
 20
191.3067
 30
0.0
 11
179.023953
 21
194.8067
 31
0.0
  0
LINE
  5
202
330
1E
100
AcDbEntity
  8
0
100
AcDbLine
 10
181.838953
 20
184.1948999999999
 30
0.0
 11
187.9799529999999
 21
185.0419999999999
 31
0.0
  0
LINE
  5
203
330
1E
100
AcDbEntity
  8
0
100
AcDbLine
 10
187.9799529999999
 20
185.0419999999999
 30
0.0
 11
194.120953
 21
184.1948999999999
 31
0.0
  0
LINE
  5
204
330
1E
100
AcDbEntity
  8
0
100
AcDbLine
 10
194.120953
 20
184.1948999999999
 30
0.0
 11
199.908953
 21
181.7949
 31
0.0
  0
LINE
  5
205
330
1E
100
AcDbEntity
  8
0
100
AcDbLine
 10
179.023953
 20
194.8067
 30
0.0
 11
187.9799529999999
 21
196.042
 31
0.0
  0
LINE
  5
206
330
1E
100
AcDbEntity
  8
0
100
AcDbLine
 10
157.7149529999999
 20
178.4391
 30
0.0
 11
163.273953
 21
185.7478999999999
 31
0.0
  0
LINE
  5
207
330
1E
100
AcDbEntity
  8
0
100
AcDbLine
 10
154.214953
 20
169.9978999999999
 30
0.0
 11
157.7149529999999
 21
178.4391
 31
0.0
  0
LINE
  5
208
330
1E
100
AcDbEntity
  8
0
100
AcDbLine
 10
152.979953
 20
161.0419999999999
 30
0.0
 11
154.214953
 21
169.9978999999999
 31
0.0
  0
LINE
  5
209
330
1E
100
AcDbEntity
  8
0
100
AcDbLine
 10
152.979953
 20
161.0419999999999
 30
0.0
 11
154.214953
 21
152.0861
 31
0.0
  0
LINE
  5
20A
330
1E
100
AcDbEntity
  8
0
100
AcDbLine
 10
197.8919529999999
 20
48.692
 30
0.0
 11
200.1319529999999
 21
51.074
 31
0.0
  0
LINE
  5
20B
330
1E
100
AcDbEntity
  8
0
100
AcDbLine
 10
197.8919529999999
 20
43.185
 30
0.0
 11
200.1319529999999
 21
45.567
 31
0.0
  0
LINE
  5
20C
330
1E
100
AcDbEntity
  8
0
100
AcDbLine
 10
200.1319529999999
 20
51.074
 30
0.0
 11
201.475953
 21
53.771
 31
0.0
  0
LINE
  5
20D
330
1E
100
AcDbEntity
  8
0
100
AcDbLine
 10
201.9799529999999
 20
51.14
 30
0.0
 11
201.9799529999999
 21
53.894
 31
0.0
  0
LINE
  5
20E
330
1E
100
AcDbEntity
  8
0
100
AcDbLine
 10
201.475953
 20
48.26399999999999
 30
0.0
 11
201.9799529999999
 21
51.14
 31
0.0
  0
LINE
  5
20F
330
1E
100
AcDbEntity
  8
0
100
AcDbLine
 10
200.1319529999999
 20
45.567
 30
0.0
 11
201.475953
 21
48.26399999999999
 31
0.0
  0
LINE
  5
210
330
1E
100
AcDbEntity
  8
0
100
AcDbLine
 10
201.475953
 20
53.771
 30
0.0
 11
201.9799529999999
 21
56.64699999999999
 31
0.0
  0
LINE
  5
211
330
1E
100
AcDbEntity
  8
0
100
AcDbLine
 10
201.9397346411679
 20
56.8765
 30
0.0
 11
201.9799529999999
 21
56.64699999999999
 31
0.0
  0
LINE
  5
212
330
1E
100
AcDbEntity
  8
0
100
AcDbLine
 10
201.9799529999999
 20
56.64699999999999
 30
0.0
 11
201.9799529999999
 21
53.894
 31
0.0
  0
LINE
  5
213
330
1E
100
AcDbEntity
  8
0
100
AcDbLine
 10
201.9799529999999
 20
53.894
 30
0.0
 11
201.9799529999999
 21
51.14
 31
0.0
  0
LINE
  5
214
330
1E
100
AcDbEntity
  8
0
100
AcDbLine
 10
201.9799529999999
 20
53.894
 30
0.0
 11
201.9799529999999
 21
56.64699999999999
 31
0.0
  0
LINE
  5
215
330
1E
100
AcDbEntity
  8
0
100
AcDbLine
 10
201.9799529999999
 20
57.106
 30
0.0
 11
201.9799529999999
 21
78.54770000000001
 31
0.0
  0
LINE
  5
216
330
1E
100
AcDbEntity
  8
0
100
AcDbLine
 10
201.475953
 20
54.23
 30
0.0
 11
201.9799529999999
 21
57.106
 31
0.0
  0
LINE
  5
217
330
1E
100
AcDbEntity
  8
0
100
AcDbLine
 10
200.1319529999999
 20
51.533
 30
0.0
 11
201.475953
 21
54.23
 31
0.0
  0
LINE
  5
218
330
1E
100
AcDbEntity
  8
0
100
AcDbLine
 10
197.8919529999999
 20
49.151
 30
0.0
 11
200.1319529999999
 21
51.533
 31
0.0
  0
LINE
  5
219
330
1E
100
AcDbEntity
  8
0
100
AcDbLine
 10
201.9799529999999
 20
97.43859999999999
 30
0.0
 11
201.9799529999999
 21
92.042
 31
0.0
  0
LINE
  5
21A
330
1E
100
AcDbEntity
  8
0
100
AcDbLine
 10
201.9799529999999
 20
97.43859999999999
 30
0.0
 11
201.9799529999999
 21
103.1363
 31
0.0
  0
LINE
  5
21B
330
1E
100
AcDbEntity
  8
0
100
AcDbLine
 10
201.9799529999999
 20
92.042
 30
0.0
 11
201.9799529999999
 21
87.039
 31
0.0
  0
LINE
  5
21C
330
1E
100
AcDbEntity
  8
0
100
AcDbLine
 10
201.9799529999999
 20
92.042
 30
0.0
 11
201.9799529999999
 21
97.43859999999999
 31
0.0
  0
LINE
  5
21D
330
1E
100
AcDbEntity
  8
0
100
AcDbLine
 10
201.9799529999999
 20
121.0461999999999
 30
0.0
 11
201.9799529999999
 21
126.9476999999999
 31
0.0
  0
LINE
  5
21E
330
1E
100
AcDbEntity
  8
0
100
AcDbLine
 10
201.9799529999999
 20
121.0461999999999
 30
0.0
 11
201.9799529999999
 21
115.0419999999999
 31
0.0
  0
LINE
  5
21F
330
1E
100
AcDbEntity
  8
0
100
AcDbLine
 10
201.9799529999999
 20
138.0419999999999
 30
0.0
 11
201.9799529999999
 21
132.6454
 31
0.0
  0
LINE
  5
220
330
1E
100
AcDbEntity
  8
0
100
AcDbLine
 10
201.9799529999999
 20
138.0419999999999
 30
0.0
 11
201.9799529999999
 21
143.0449999999999
 31
0.0
  0
LINE
  5
221
330
1E
100
AcDbEntity
  8
0
100
AcDbLine
 10
201.9799529999999
 20
132.6454
 30
0.0
 11
201.9799529999999
 21
126.9476999999999
 31
0.0
  0
LINE
  5
222
330
1E
100
AcDbEntity
  8
0
100
AcDbLine
 10
201.9799529999999
 20
132.6454
 30
0.0
 11
201.9799529999999
 21
138.0419999999999
 31
0.0
  0
LINE
  5
223
330
1E
100
AcDbEntity
  8
0
100
AcDbLine
 10
201.9799529999999
 20
126.9476999999999
 30
0.0
 11
201.9799529999999
 21
132.6454
 31
0.0
  0
LINE
  5
224
330
1E
100
AcDbEntity
  8
0
100
AcDbLine
 10
201.9799529999999
 20
126.9476999999999
 30
0.0
 11
201.9799529999999
 21
121.0461999999999
 31
0.0
  0
LINE
  5
225
330
1E
100
AcDbEntity
  8
0
100
AcDbLine
 10
201.9799529999999
 20
115.0419999999999
 30
0.0
 11
201.9799529999999
 21
109.0378
 31
0.0
  0
LINE
  5
226
330
1E
100
AcDbEntity
  8
0
100
AcDbLine
 10
201.9799529999999
 20
115.0419999999999
 30
0.0
 11
201.9799529999999
 21
121.0461999999999
 31
0.0
  0
LINE
  5
227
330
1E
100
AcDbEntity
  8
0
100
AcDbLine
 10
201.9799529999999
 20
109.0378
 30
0.0
 11
201.9799529999999
 21
103.1363
 31
0.0
  0
LINE
  5
228
330
1E
100
AcDbEntity
  8
0
100
AcDbLine
 10
201.9799529999999
 20
109.0378
 30
0.0
 11
201.9799529999999
 21
115.0419999999999
 31
0.0
  0
LINE
  5
229
330
1E
100
AcDbEntity
  8
0
100
AcDbLine
 10
201.9799529999999
 20
103.1363
 30
0.0
 11
201.9799529999999
 21
109.0378
 31
0.0
  0
LINE
  5
22A
330
1E
100
AcDbEntity
  8
0
100
AcDbLine
 10
201.9799529999999
 20
103.1363
 30
0.0
 11
201.9799529999999
 21
97.43859999999999
 31
0.0
  0
LINE
  5
22B
330
1E
100
AcDbEntity
  8
0
100
AcDbLine
 10
201.9799529999999
 20
87.039
 30
0.0
 11
201.9799529999999
 21
82.51510000000001
 31
0.0
  0
LINE
  5
22C
330
1E
100
AcDbEntity
  8
0
100
AcDbLine
 10
201.9799529999999
 20
87.039
 30
0.0
 11
201.9799529999999
 21
92.042
 31
0.0
  0
LINE
  5
22D
330
1E
100
AcDbEntity
  8
0
100
AcDbLine
 10
201.9799529999999
 20
82.51510000000001
 30
0.0
 11
201.9799529999999
 21
78.54770000000001
 31
0.0
  0
LINE
  5
22E
330
1E
100
AcDbEntity
  8
0
100
AcDbLine
 10
201.9799529999999
 20
82.51510000000001
 30
0.0
 11
201.9799529999999
 21
87.039
 31
0.0
  0
LINE
  5
22F
330
1E
100
AcDbEntity
  8
0
100
AcDbLine
 10
201.9799529999999
 20
78.54770000000001
 30
0.0
 11
201.9799529999999
 21
82.51510000000001
 31
0.0
  0
LINE
  5
230
330
1E
100
AcDbEntity
  8
0
100
AcDbLine
 10
201.9799529999999
 20
78.54770000000001
 30
0.0
 11
201.9799529999999
 21
57.106
 31
0.0
  0
LINE
  5
231
330
1E
100
AcDbEntity
  8
0
100
AcDbLine
 10
197.8919529999999
 20
170.954
 30
0.0
 11
200.1319529999999
 21
167.9859999999999
 31
0.0
  0
LINE
  5
232
330
1E
100
AcDbEntity
  8
0
100
AcDbLine
 10
201.9799529999999
 20
161.0419999999999
 30
0.0
 11
201.9799529999999
 21
160.6484639999999
 31
0.0
  0
LINE
  5
233
330
1E
100
AcDbEntity
  8
0
100
AcDbLine
 10
201.9799529999999
 20
160.6484639999999
 30
0.0
 11
201.9799529999999
 21
161.0419999999999
 31
0.0
  0
LINE
  5
234
330
1E
100
AcDbEntity
  8
0
100
AcDbLine
 10
201.9799529999999
 20
160.6484639999999
 30
0.0
 11
201.9799529999999
 21
159.4745899999999
 31
0.0
  0
LINE
  5
235
330
1E
100
AcDbEntity
  8
0
100
AcDbLine
 10
201.9799529999999
 20
159.4745899999999
 30
0.0
 11
201.9799529999999
 21
157.5404599999999
 31
0.0
  0
LINE
  5
236
330
1E
100
AcDbEntity
  8
0
100
AcDbLine
 10
201.9799529999999
 20
159.4745899999999
 30
0.0
 11
201.9799529999999
 21
160.6484639999999
 31
0.0
  0
LINE
  5
237
330
1E
100
AcDbEntity
  8
0
100
AcDbLine
 10
201.9799529999999
 20
157.5404599999999
 30
0.0
 11
201.9799529999999
 21
154.8791699999999
 31
0.0
  0
LINE
  5
238
330
1E
100
AcDbEntity
  8
0
100
AcDbLine
 10
201.9799529999999
 20
157.5404599999999
 30
0.0
 11
201.9799529999999
 21
159.4745899999999
 31
0.0
  0
LINE
  5
239
330
1E
100
AcDbEntity
  8
0
100
AcDbLine
 10
201.9799529999999
 20
154.8791699999999
 30
0.0
 11
201.9799529999999
 21
151.5362499999999
 31
0.0
  0
LINE
  5
23A
330
1E
100
AcDbEntity
  8
0
100
AcDbLine
 10
201.9799529999999
 20
154.8791699999999
 30
0.0
 11
201.9799529999999
 21
157.5404599999999
 31
0.0
  0
LINE
  5
23B
330
1E
100
AcDbEntity
  8
0
100
AcDbLine
 10
201.9799529999999
 20
151.5362499999999
 30
0.0
 11
201.9799529999999
 21
154.8791699999999
 31
0.0
  0
LINE
  5
23C
330
1E
100
AcDbEntity
  8
0
100
AcDbLine
 10
201.9799529999999
 20
151.5362499999999
 30
0.0
 11
201.9799529999999
 21
147.5689
 31
0.0
  0
LINE
  5
23D
330
1E
100
AcDbEntity
  8
0
100
AcDbLine
 10
201.9799529999999
 20
147.5689
 30
0.0
 11
201.9799529999999
 21
143.0449999999999
 31
0.0
  0
LINE
  5
23E
330
1E
100
AcDbEntity
  8
0
100
AcDbLine
 10
201.9799529999999
 20
147.5689
 30
0.0
 11
201.9799529999999
 21
151.5362499999999
 31
0.0
  0
LINE
  5
23F
330
1E
100
AcDbEntity
  8
0
100
AcDbLine
 10
201.9799529999999
 20
143.0449999999999
 30
0.0
 11
201.9799529999999
 21
147.5689
 31
0.0
  0
LINE
  5
240
330
1E
100
AcDbEntity
  8
0
100
AcDbLine
 10
201.9799529999999
 20
143.0449999999999
 30
0.0
 11
201.9799529999999
 21
138.0419999999999
 31
0.0
  0
LINE
  5
241
330
1E
100
AcDbEntity
  8
0
100
AcDbLine
 10
201.9521636197609
 20
160.844386629409
 30
0.0
 11
201.9799529999999
 21
161.0419999999999
 31
0.0
  0
LINE
  5
242
330
1E
100
AcDbEntity
  8
0
100
AcDbLine
 10
200.1319529999999
 20
167.9859999999999
 30
0.0
 11
201.475953
 21
164.6259999999999
 31
0.0
  0
LINE
  5
243
330
1E
100
AcDbEntity
  8
0
100
AcDbLine
 10
201.475953
 20
164.6259999999999
 30
0.0
 11
201.9799529999999
 21
161.0419999999999
 31
0.0
  0
LINE
  5
244
330
1E
100
AcDbEntity
  8
0
100
AcDbLine
 10
199.908953
 20
181.7949
 30
0.0
 11
204.920953
 21
177.9832
 31
0.0
  0
LINE
  5
245
330
1E
100
AcDbEntity
  8
0
100
AcDbLine
 10
201.9799529999999
 20
141.864126077414
 30
0.0
 11
204.920953
 21
144.1007999999999
 31
0.0
  0
LINE
  5
246
330
1E
100
AcDbEntity
  8
0
100
AcDbLine
 10
196.935953
 20
194.8067
 30
0.0
 11
205.376953
 21
191.3067
 31
0.0
  0
LINE
  5
247
330
1E
100
AcDbEntity
  8
0
100
AcDbLine
 10
187.9799529999999
 20
196.042
 30
0.0
 11
196.935953
 21
194.8067
 31
0.0
  0
LINE
  5
248
330
1E
100
AcDbEntity
  8
0
100
AcDbLine
 10
387.9799529999999
 20
39.203
 30
0.0
 11
388.0502546241299
 21
39.5565
 31
0.0
  0
LINE
  5
249
330
1E
100
AcDbEntity
  8
0
100
AcDbLine
 10
387.9799529999999
 20
39.203
 30
0.0
 11
387.9799529999999
 21
37.435
 31
0.0
  0
LINE
  5
24A
330
1E
100
AcDbEntity
  8
0
100
AcDbLine
 10
387.9799529999999
 20
39.203
 30
0.0
 11
389.7799529999999
 21
30.152
 31
0.0
  0
LINE
  5
24B
330
1E
100
AcDbEntity
  8
0
100
AcDbLine
 10
387.9799529999999
 20
37.435
 30
0.0
 11
387.9799529999999
 21
39.203
 31
0.0
  0
LINE
  5
24C
330
1E
100
AcDbEntity
  8
0
100
AcDbLine
 10
387.9799529999999
 20
37.435
 30
0.0
 11
389.7799529999999
 21
28.384
 31
0.0
  0
LINE
  5
24D
330
1E
100
AcDbEntity
  8
0
100
AcDbLine
 10
387.9799529999999
 20
47.335
 30
0.0
 11
389.7799529999999
 21
56.386
 31
0.0
  0
LINE
  5
24E
330
1E
100
AcDbEntity
  8
0
100
AcDbLine
 10
387.9799529999999
 20
47.335
 30
0.0
 11
387.9799529999999
 21
39.90999999999999
 31
0.0
  0
LINE
  5
24F
330
1E
100
AcDbEntity
  8
0
100
AcDbLine
 10
389.7799529999999
 20
30.152
 30
0.0
 11
394.6799529999999
 21
21.596
 31
0.0
  0
LINE
  5
250
330
1E
100
AcDbEntity
  8
0
100
AcDbLine
 10
389.7799529999999
 20
28.384
 30
0.0
 11
390.2799529999999
 21
26.68699999999999
 31
0.0
  0
LINE
  5
251
330
1E
100
AcDbEntity
  8
0
100
AcDbLine
 10
402.6799529999999
 20
14.242
 30
0.0
 11
413.0799529999999
 21
8.585
 31
0.0
  0
LINE
  5
252
330
1E
100
AcDbEntity
  8
0
100
AcDbLine
 10
413.0799529999999
 20
8.585
 30
0.0
 11
425.179953
 21
5.12
 31
0.0
  0
LINE
  5
253
330
1E
100
AcDbEntity
  8
0
100
AcDbLine
 10
404.079953
 20
9.929000000000051
 30
0.0
 11
414.0799529999999
 21
4.484000000000009
 31
0.0
  0
LINE
  5
254
330
1E
100
AcDbEntity
  8
0
100
AcDbLine
 10
394.6799529999999
 20
21.596
 30
0.0
 11
402.6799529999999
 21
14.242
 31
0.0
  0
LINE
  5
255
330
1E
100
AcDbEntity
  8
0
100
AcDbLine
 10
395.0799529999999
 20
18.2730000000001
 30
0.0
 11
396.379953
 21
17.0
 31
0.0
  0
LINE
  5
256
330
1E
100
AcDbEntity
  8
0
100
AcDbLine
 10
396.379953
 20
17.0
 30
0.0
 11
401.3780573273609
 21
12.41018237678299
 31
0.0
  0
LINE
  5
257
330
1E
100
AcDbEntity
  8
0
100
AcDbLine
 10
396.379953
 20
17.0
 30
0.0
 11
401.3780573273609
 21
12.41018237678299
 31
0.0
  0
LINE
  5
258
330
1E
100
AcDbEntity
  8
0
100
AcDbLine
 10
402.6799529999999
 20
14.949
 30
0.0
 11
413.0799529999999
 21
9.29200000000003
 31
0.0
  0
LINE
  5
259
330
1E
100
AcDbEntity
  8
0
100
AcDbLine
 10
413.0799529999999
 20
9.29200000000003
 30
0.0
 11
425.179953
 21
5.827000000000049
 31
0.0
  0
LINE
  5
25A
330
1E
100
AcDbEntity
  8
0
100
AcDbLine
 10
390.2799529999999
 20
26.68699999999999
 30
0.0
 11
395.0799529999999
 21
18.2730000000001
 31
0.0
  0
LINE
  5
25B
330
1E
100
AcDbEntity
  8
0
100
AcDbLine
 10
394.6799529999999
 20
22.30300000000009
 30
0.0
 11
402.6799529999999
 21
14.949
 31
0.0
  0
LINE
  5
25C
330
1E
100
AcDbEntity
  8
0
100
AcDbLine
 10
389.7799529999999
 20
30.859
 30
0.0
 11
394.6799529999999
 21
22.30300000000009
 31
0.0
  0
LINE
  5
25D
330
1E
100
AcDbEntity
  8
0
100
AcDbLine
 10
395.0799529999999
 20
65.813
 30
0.0
 11
402.979953
 21
73.8062
 31
0.0
  0
LINE
  5
25E
330
1E
100
AcDbEntity
  8
0
100
AcDbLine
 10
394.6799529999999
 20
65.30719999999999
 30
0.0
 11
395.0799529999999
 21
65.813
 31
0.0
  0
LINE
  5
25F
330
1E
100
AcDbEntity
  8
0
100
AcDbLine
 10
389.7799529999999
 20
56.386
 30
0.0
 11
394.6799529999999
 21
65.30719999999999
 31
0.0
  0
LINE
  5
260
330
1E
100
AcDbEntity
  8
0
100
AcDbLine
 10
387.9799529999999
 20
39.90999999999999
 30
0.0
 11
387.9799529999999
 21
47.335
 31
0.0
  0
LINE
  5
261
330
1E
100
AcDbEntity
  8
0
100
AcDbLine
 10
387.9799529999999
 20
39.90999999999999
 30
0.0
 11
389.7799529999999
 21
30.859
 31
0.0
  0
LINE
  5
262
330
1E
100
AcDbEntity
  8
0
100
AcDbLine
 10
402.979953
 20
73.8062
 30
0.0
 11
413.379953
 21
79.8826
 31
0.0
  0
LINE
  5
263
330
1E
100
AcDbEntity
  8
0
100
AcDbLine
 10
437.979953
 20
-0.0419999999999798
 30
0.0
 11
450.279953
 21
1.159999999999989
 31
0.0
  0
LINE
  5
264
330
1E
100
AcDbEntity
  8
0
100
AcDbLine
 10
437.979953
 20
3.84800000000005
 30
0.0
 11
450.779953
 21
5.12
 31
0.0
  0
LINE
  5
265
330
1E
100
AcDbEntity
  8
0
100
AcDbLine
 10
425.179953
 20
5.12
 30
0.0
 11
437.979953
 21
3.84800000000005
 31
0.0
  0
LINE
  5
266
330
1E
100
AcDbEntity
  8
0
100
AcDbLine
 10
414.0799529999999
 20
4.484000000000009
 30
0.0
 11
425.679953
 21
1.159999999999989
 31
0.0
  0
LINE
  5
267
330
1E
100
AcDbEntity
  8
0
100
AcDbLine
 10
425.679953
 20
1.159999999999989
 30
0.0
 11
437.979953
 21
-0.0419999999999798
 31
0.0
  0
LINE
  5
268
330
1E
100
AcDbEntity
  8
0
100
AcDbLine
 10
450.779953
 20
5.12
 30
0.0
 11
462.879953
 21
8.585
 31
0.0
  0
LINE
  5
269
330
1E
100
AcDbEntity
  8
0
100
AcDbLine
 10
450.279953
 20
1.159999999999989
 30
0.0
 11
461.879953
 21
4.484000000000009
 31
0.0
  0
LINE
  5
26A
330
1E
100
AcDbEntity
  8
0
100
AcDbLine
 10
461.879953
 20
4.484000000000009
 30
0.0
 11
471.879953
 21
9.929000000000051
 31
0.0
  0
LINE
  5
26B
330
1E
100
AcDbEntity
  8
0
100
AcDbLine
 10
450.779953
 20
5.827000000000049
 30
0.0
 11
462.879953
 21
9.29200000000003
 31
0.0
  0
LINE
  5
26C
330
1E
100
AcDbEntity
  8
0
100
AcDbLine
 10
437.979953
 20
4.554999999999999
 30
0.0
 11
450.779953
 21
5.827000000000049
 31
0.0
  0
LINE
  5
26D
330
1E
100
AcDbEntity
  8
0
100
AcDbLine
 10
417.8528799032799
 20
81.65434135843979
 30
0.0
 11
421.607953
 21
84.8224
 31
0.0
  0
LINE
  5
26E
330
1E
100
AcDbEntity
  8
0
100
AcDbLine
 10
417.8528799032799
 20
81.65434135843979
 30
0.0
 11
421.607953
 21
84.8224
 31
0.0
  0
LINE
  5
26F
330
1E
100
AcDbEntity
  8
0
100
AcDbLine
 10
421.607953
 20
84.8224
 30
0.0
 11
423.514599543955
 21
87.30938072595328
 31
0.0
  0
LINE
  5
270
330
1E
100
AcDbEntity
  8
0
100
AcDbLine
 10
424.4851313618109
 20
89.065363036961
 30
0.0
 11
425.979953
 21
93.96680000000001
 31
0.0
  0
LINE
  5
271
330
1E
100
AcDbEntity
  8
0
100
AcDbLine
 10
425.979953
 20
93.96680000000001
 30
0.0
 11
425.979953
 21
101.4288999999999
 31
0.0
  0
LINE
  5
272
330
1E
100
AcDbEntity
  8
0
100
AcDbLine
 10
425.979953
 20
101.4288999999999
 30
0.0
 11
425.979953
 21
93.96680000000001
 31
0.0
  0
LINE
  5
273
330
1E
100
AcDbEntity
  8
0
100
AcDbLine
 10
425.979953
 20
99.68380000000001
 30
0.0
 11
425.979953
 21
106.832
 31
0.0
  0
LINE
  5
274
330
1E
100
AcDbEntity
  8
0
100
AcDbLine
 10
425.979953
 20
118.746
 30
0.0
 11
425.979953
 21
106.832
 31
0.0
  0
LINE
  5
275
330
1E
100
AcDbEntity
  8
0
100
AcDbLine
 10
425.979953
 20
106.832
 30
0.0
 11
425.979953
 21
118.746
 31
0.0
  0
LINE
  5
276
330
1E
100
AcDbEntity
  8
0
100
AcDbLine
 10
425.979953
 20
106.832
 30
0.0
 11
425.979953
 21
99.68380000000001
 31
0.0
  0
LINE
  5
277
330
1E
100
AcDbEntity
  8
0
100
AcDbLine
 10
425.979953
 20
118.746
 30
0.0
 11
425.979953
 21
128.1733999999999
 31
0.0
  0
LINE
  5
278
330
1E
100
AcDbEntity
  8
0
100
AcDbLine
 10
462.879953
 20
8.585
 30
0.0
 11
473.279953
 21
14.242
 31
0.0
  0
LINE
  5
279
330
1E
100
AcDbEntity
  8
0
100
AcDbLine
 10
452.4453064560449
 20
87.30938072595311
 30
0.0
 11
454.351953
 21
84.8224
 31
0.0
  0
LINE
  5
27A
330
1E
100
AcDbEntity
  8
0
100
AcDbLine
 10
473.279953
 20
14.242
 30
0.0
 11
481.279953
 21
21.596
 31
0.0
  0
LINE
  5
27B
330
1E
100
AcDbEntity
  8
0
100
AcDbLine
 10
474.5818486726379
 20
12.4101823767822
 30
0.0
 11
479.579953
 21
17.0
 31
0.0
  0
LINE
  5
27C
330
1E
100
AcDbEntity
  8
0
100
AcDbLine
 10
481.279953
 20
21.596
 30
0.0
 11
486.1799529999999
 21
30.152
 31
0.0
  0
LINE
  5
27D
330
1E
100
AcDbEntity
  8
0
100
AcDbLine
 10
480.8799529999999
 20
18.2730000000001
 30
0.0
 11
485.6799529999999
 21
26.68699999999999
 31
0.0
  0
LINE
  5
27E
330
1E
100
AcDbEntity
  8
0
100
AcDbLine
 10
479.579953
 20
17.0
 30
0.0
 11
480.8799529999999
 21
18.2730000000001
 31
0.0
  0
LINE
  5
27F
330
1E
100
AcDbEntity
  8
0
100
AcDbLine
 10
474.5818486726379
 20
12.4101823767823
 30
0.0
 11
479.579953
 21
17.0
 31
0.0
  0
LINE
  5
280
330
1E
100
AcDbEntity
  8
0
100
AcDbLine
 10
473.279953
 20
14.949
 30
0.0
 11
481.279953
 21
22.30300000000009
 31
0.0
  0
LINE
  5
281
330
1E
100
AcDbEntity
  8
0
100
AcDbLine
 10
486.1799529999999
 20
30.152
 30
0.0
 11
487.979953
 21
39.203
 31
0.0
  0
LINE
  5
282
330
1E
100
AcDbEntity
  8
0
100
AcDbLine
 10
486.1799529999999
 20
28.384
 30
0.0
 11
487.979953
 21
37.435
 31
0.0
  0
LINE
  5
283
330
1E
100
AcDbEntity
  8
0
100
AcDbLine
 10
485.6799529999999
 20
26.68699999999999
 30
0.0
 11
486.1799529999999
 21
28.384
 31
0.0
  0
LINE
  5
284
330
1E
100
AcDbEntity
  8
0
100
AcDbLine
 10
481.279953
 20
22.30300000000009
 30
0.0
 11
486.1799529999999
 21
30.859
 31
0.0
  0
LINE
  5
285
330
1E
100
AcDbEntity
  8
0
100
AcDbLine
 10
486.1799529999999
 20
30.859
 30
0.0
 11
487.979953
 21
39.90999999999999
 31
0.0
  0
LINE
  5
286
330
1E
100
AcDbEntity
  8
0
100
AcDbLine
 10
462.579953
 20
79.8826
 30
0.0
 11
472.979953
 21
73.8062
 31
0.0
  0
LINE
  5
287
330
1E
100
AcDbEntity
  8
0
100
AcDbLine
 10
459.3123334500659
 20
80.86585143566422
 30
0.0
 11
462.579953
 21
79.8826
 31
0.0
  0
LINE
  5
288
330
1E
100
AcDbEntity
  8
0
100
AcDbLine
 10
472.979953
 20
73.8062
 30
0.0
 11
480.8799529999999
 21
65.813
 31
0.0
  0
LINE
  5
289
330
1E
100
AcDbEntity
  8
0
100
AcDbLine
 10
480.8799529999999
 20
65.813
 30
0.0
 11
481.279953
 21
65.30719999999999
 31
0.0
  0
LINE
  5
28A
330
1E
100
AcDbEntity
  8
0
100
AcDbLine
 10
481.279953
 20
65.30719999999999
 30
0.0
 11
486.1799529999999
 21
56.386
 31
0.0
  0
LINE
  5
28B
330
1E
100
AcDbEntity
  8
0
100
AcDbLine
 10
487.979953
 20
37.435
 30
0.0
 11
487.979953
 21
39.203
 31
0.0
  0
LINE
  5
28C
330
1E
100
AcDbEntity
  8
0
100
AcDbLine
 10
487.9096513758701
 20
39.5565
 30
0.0
 11
487.979953
 21
39.203
 31
0.0
  0
LINE
  5
28D
330
1E
100
AcDbEntity
  8
0
100
AcDbLine
 10
487.979953
 20
39.203
 30
0.0
 11
487.979953
 21
37.435
 31
0.0
  0
LINE
  5
28E
330
1E
100
AcDbEntity
  8
0
100
AcDbLine
 10
487.979953
 20
47.335
 30
0.0
 11
487.979953
 21
39.90999999999999
 31
0.0
  0
LINE
  5
28F
330
1E
100
AcDbEntity
  8
0
100
AcDbLine
 10
487.979953
 20
39.90999999999999
 30
0.0
 11
487.979953
 21
47.335
 31
0.0
  0
LINE
  5
290
330
1E
100
AcDbEntity
  8
0
100
AcDbLine
 10
486.1799529999999
 20
56.386
 30
0.0
 11
487.979953
 21
47.335
 31
0.0
  0
LINE
  5
291
330
1E
100
AcDbEntity
  8
0
100
AcDbLine
 10
454.351953
 20
84.8224
 30
0.0
 11
458.1070260967201
 21
81.65434135843979
 31
0.0
  0
LINE
  5
292
330
1E
100
AcDbEntity
  8
0
100
AcDbLine
 10
452.4453064560449
 20
87.30938072595311
 30
0.0
 11
454.351953
 21
84.8224
 31
0.0
  0
LINE
  5
293
330
1E
100
AcDbEntity
  8
0
100
AcDbLine
 10
462.879953
 20
9.29200000000003
 30
0.0
 11
473.279953
 21
14.949
 31
0.0
  0
LINE
  5
294
330
1E
100
AcDbEntity
  8
0
100
AcDbLine
 10
449.979953
 20
93.96680000000001
 30
0.0
 11
449.979953
 21
118.746
 31
0.0
  0
LINE
  5
295
330
1E
100
AcDbEntity
  8
0
100
AcDbLine
 10
449.979953
 20
93.96680000000001
 30
0.0
 11
451.474774638189
 21
89.06536303696121
 31
0.0
  0
LINE
  5
296
330
1E
100
AcDbEntity
  8
0
100
AcDbLine
 10
449.979953
 20
118.746
 30
0.0
 11
449.979953
 21
128.1733999999999
 31
0.0
  0
LINE
  5
297
330
1E
100
AcDbEntity
  8
0
100
AcDbLine
 10
449.979953
 20
128.1733999999999
 30
0.0
 11
449.979953
 21
137.7168
 31
0.0
  0
LINE
  5
298
330
1E
100
AcDbEntity
  8
0
100
AcDbLine
 10
449.979953
 20
128.1733999999999
 30
0.0
 11
449.979953
 21
118.746
 31
0.0
  0
LINE
  5
299
330
1E
100
AcDbEntity
  8
0
100
AcDbLine
 10
449.979953
 20
118.746
 30
0.0
 11
449.979953
 21
93.96680000000001
 31
0.0
  0
LINE
  5
29A
330
1E
100
AcDbEntity
  8
0
100
AcDbLine
 10
425.979953
 20
128.1733999999999
 30
0.0
 11
425.979953
 21
137.7168
 31
0.0
  0
LINE
  5
29B
330
1E
100
AcDbEntity
  8
0
100
AcDbLine
 10
425.979953
 20
128.1733999999999
 30
0.0
 11
425.979953
 21
118.746
 31
0.0
  0
LINE
  5
29C
330
1E
100
AcDbEntity
  8
0
100
AcDbLine
 10
425.179953
 20
5.827000000000049
 30
0.0
 11
437.979953
 21
4.554999999999999
 31
0.0
  0
LINE
  5
29D
330
1E
100
AcDbEntity
  8
0
100
AcDbLine
 10
413.379953
 20
79.8826
 30
0.0
 11
416.6475725499339
 21
80.86585143566422
 31
0.0
  0
LINE
  5
29E
330
1E
100
AcDbEntity
  8
0
100
AcDbLine
 10
413.379953
 20
79.8826
 30
0.0
 11
416.6475725499339
 21
80.86585143566422
 31
0.0
  0
LINE
  5
29F
330
1E
100
AcDbEntity
  8
0
100
AcDbLine
 10
212.6859529999999
 20
136.3360999999999
 30
0.0
 11
218.2449529999999
 21
143.6449
 31
0.0
  0
LINE
  5
2A0
330
1E
100
AcDbEntity
  8
0
100
AcDbLine
 10
204.920953
 20
144.1007999999999
 30
0.0
 11
208.732953
 21
149.1125999999999
 31
0.0
  0
LINE
  5
2A1
330
1E
100
AcDbEntity
  8
0
100
AcDbLine
 10
204.920953
 20
177.9832
 30
0.0
 11
208.732953
 21
172.9713999999999
 31
0.0
  0
LINE
  5
2A2
330
1E
100
AcDbEntity
  8
0
100
AcDbLine
 10
208.732953
 20
172.9713999999999
 30
0.0
 11
211.1329529999999
 21
167.1832
 31
0.0
  0
LINE
  5
2A3
330
1E
100
AcDbEntity
  8
0
100
AcDbLine
 10
211.1329529999999
 20
167.1832
 30
0.0
 11
211.9799529999999
 21
161.0419999999999
 31
0.0
  0
LINE
  5
2A4
330
1E
100
AcDbEntity
  8
0
100
AcDbLine
 10
208.732953
 20
149.1125999999999
 30
0.0
 11
211.1329529999999
 21
154.9008
 31
0.0
  0
LINE
  5
2A5
330
1E
100
AcDbEntity
  8
0
100
AcDbLine
 10
211.1329529999999
 20
154.9008
 30
0.0
 11
211.9799529999999
 21
161.0419999999999
 31
0.0
  0
LINE
  5
2A6
330
1E
100
AcDbEntity
  8
0
100
AcDbLine
 10
205.376953
 20
191.3067
 30
0.0
 11
212.6859529999999
 21
185.7478999999999
 31
0.0
  0
LINE
  5
2A7
330
1E
100
AcDbEntity
  8
0
100
AcDbLine
 10
212.6859529999999
 20
185.7478999999999
 30
0.0
 11
218.2449529999999
 21
178.4391
 31
0.0
  0
LINE
  5
2A8
330
1E
100
AcDbEntity
  8
0
100
AcDbLine
 10
218.2449529999999
 20
178.4391
 30
0.0
 11
221.7449529999999
 21
169.9978999999999
 31
0.0
  0
LINE
  5
2A9
330
1E
100
AcDbEntity
  8
0
100
AcDbLine
 10
221.7449529999999
 20
169.9978999999999
 30
0.0
 11
222.9799529999999
 21
161.0419999999999
 31
0.0
  0
LINE
  5
2AA
330
1E
100
AcDbEntity
  8
0
100
AcDbLine
 10
218.2449529999999
 20
143.6449
 30
0.0
 11
221.7449529999999
 21
152.0861
 31
0.0
  0
LINE
  5
37A
330
1E
100
AcDbEntity
  8
0
100
AcDbLine
 10
425.083953
 20
138.4739999999999
 30
0.0
 11
425.979953
 21
138.1156
 31
0.0
  0
LINE
  5
37C
330
1E
100
AcDbEntity
  8
0
100
AcDbLine
 10
425.979953
 20
137.7168
 30
0.0
 11
425.979953
 21
154.148186346154
 31
0.0
  0
LINE
  5
37D
330
1E
100
AcDbEntity
  8
0
100
AcDbLine
 10
425.979953
 20
137.7168
 30
0.0
 11
425.979953
 21
128.1733999999999
 31
0.0
  0
LINE
  5
37E
330
1E
100
AcDbEntity
  8
0
100
AcDbLine
 10
419.5719529999999
 20
142.6339999999999
 30
0.0
 11
425.083953
 21
138.4739999999999
 31
0.0
  0
LINE
  5
380
330
1E
100
AcDbEntity
  8
0
100
AcDbLine
 10
415.411953
 20
148.146
 30
0.0
 11
419.5719529999999
 21
142.6339999999999
 31
0.0
  0
LINE
  5
381
330
1E
100
AcDbEntity
  8
0
100
AcDbLine
 10
412.8979529999999
 20
154.3891
 30
0.0
 11
415.411953
 21
148.146
 31
0.0
  0
LINE
  5
384
330
1E
100
AcDbEntity
  8
0
100
AcDbLine
 10
425.447953
 20
155.4067499999999
 30
0.0
 11
425.979953
 21
154.148186346154
 31
0.0
  0
LINE
  5
385
330
1E
100
AcDbEntity
  8
0
100
AcDbLine
 10
424.979953
 20
158.556
 30
0.0
 11
425.447953
 21
161.705248
 31
0.0
  0
LINE
  5
386
330
1E
100
AcDbEntity
  8
0
100
AcDbLine
 10
424.979953
 20
158.556
 30
0.0
 11
425.447953
 21
155.4067499999999
 31
0.0
  0
LINE
  5
387
330
1E
100
AcDbEntity
  8
0
100
AcDbLine
 10
424.979953
 20
158.556
 30
0.0
 11
424.979953
 21
161.02787
 31
0.0
  0
LINE
  5
388
330
1E
100
AcDbEntity
  8
0
100
AcDbLine
 10
425.979953
 20
154.95241
 30
0.0
 11
425.979953
 21
158.3493499999999
 31
0.0
  0
LINE
  5
389
330
1E
100
AcDbEntity
  8
0
100
AcDbLine
 10
425.979953
 20
158.3493499999999
 30
0.0
 11
425.979953
 21
154.95241
 31
0.0
  0
LINE
  5
38A
330
1E
100
AcDbEntity
  8
0
100
AcDbLine
 10
425.979953
 20
154.148186346154
 30
0.0
 11
425.979953
 21
137.7168
 31
0.0
  0
LINE
  5
38B
330
1E
100
AcDbEntity
  8
0
100
AcDbLine
 10
425.979953
 20
146.3494999999999
 30
0.0
 11
425.979953
 21
139.91
 31
0.0
  0
LINE
  5
38C
330
1E
100
AcDbEntity
  8
0
100
AcDbLine
 10
425.979953
 20
139.91
 30
0.0
 11
425.979953
 21
146.3494999999999
 31
0.0
  0
LINE
  5
38D
330
1E
100
AcDbEntity
  8
0
100
AcDbLine
 10
449.979953
 20
138.1156
 30
0.0
 11
450.875953
 21
138.4739999999999
 31
0.0
  0
LINE
  5
38F
330
1E
100
AcDbEntity
  8
0
100
AcDbLine
 10
450.875953
 20
138.4739999999999
 30
0.0
 11
456.387953
 21
142.6339999999999
 31
0.0
  0
LINE
  5
390
330
1E
100
AcDbEntity
  8
0
100
AcDbLine
 10
456.387953
 20
142.6339999999999
 30
0.0
 11
460.547953
 21
148.146
 31
0.0
  0
LINE
  5
393
330
1E
100
AcDbEntity
  8
0
100
AcDbLine
 10
449.979953
 20
137.7168
 30
0.0
 11
449.979953
 21
128.1733999999999
 31
0.0
  0
LINE
  5
394
330
1E
100
AcDbEntity
  8
0
100
AcDbLine
 10
449.979953
 20
154.148186346154
 30
0.0
 11
450.5119529999999
 21
155.4067499999999
 31
0.0
  0
LINE
  5
395
330
1E
100
AcDbEntity
  8
0
100
AcDbLine
 10
449.979953
 20
160.585342
 30
0.0
 11
449.979953
 21
153.6591
 31
0.0
  0
LINE
  5
396
330
1E
100
AcDbEntity
  8
0
100
AcDbLine
 10
460.547953
 20
148.146
 30
0.0
 11
463.061953
 21
154.3891
 31
0.0
  0
LINE
  5
398
330
1E
100
AcDbEntity
  8
0
100
AcDbLine
 10
450.5119529999999
 20
155.4067499999999
 30
0.0
 11
450.979953
 21
158.556
 31
0.0
  0
LINE
  5
399
330
1E
100
AcDbEntity
  8
0
100
AcDbLine
 10
450.979953
 20
158.556
 30
0.0
 11
450.979953
 21
161.02787
 31
0.0
  0
LINE
  5
39A
330
1E
100
AcDbEntity
  8
0
100
AcDbLine
 10
463.061953
 20
154.3891
 30
0.0
 11
463.979953
 21
161.0419999999999
 31
0.0
  0
LINE
  5
39B
330
1E
100
AcDbEntity
  8
0
100
AcDbLine
 10
449.979953
 20
153.6591
 30
0.0
 11
449.979953
 21
137.7168
 31
0.0
  0
LINE
  5
39C
330
1E
100
AcDbEntity
  8
0
100
AcDbLine
 10
449.979953
 20
153.6591
 30
0.0
 11
449.979953
 21
160.585342
 31
0.0
  0
LINE
  5
39D
330
1E
100
AcDbEntity
  8
0
100
AcDbLine
 10
449.979953
 20
137.7168
 30
0.0
 11
449.979953
 21
153.6591
 31
0.0
  0
LINE
  5
39E
330
1E
100
AcDbEntity
  8
0
100
AcDbLine
 10
425.979953
 20
153.6591
 30
0.0
 11
425.979953
 21
160.585342
 31
0.0
  0
LINE
  5
39F
330
1E
100
AcDbEntity
  8
0
100
AcDbLine
 10
424.979953
 20
161.0419999999999
 30
0.0
 11
425.0776027341999
 21
161.736398109864
 31
0.0
  0
LINE
  5
3A0
330
1E
100
AcDbEntity
  8
0
100
AcDbLine
 10
411.9799529999999
 20
161.0419999999999
 30
0.0
 11
413.372844020055
 21
168.840227550137
 31
0.0
  0
LINE
  5
3A1
330
1E
100
AcDbEntity
  8
0
100
AcDbLine
 10
411.9799529999999
 20
161.0419999999999
 30
0.0
 11
412.8979529999999
 21
154.3891
 31
0.0
  0
LINE
  5
3A2
330
1E
100
AcDbEntity
  8
0
100
AcDbLine
 10
424.979953
 20
161.02787
 30
0.0
 11
424.979953
 21
158.556
 31
0.0
  0
LINE
  5
3A3
330
1E
100
AcDbEntity
  8
0
100
AcDbLine
 10
424.979953
 20
161.02787
 30
0.0
 11
425.447953
 21
164.4235899999999
 31
0.0
  0
LINE
  5
3A4
330
1E
100
AcDbEntity
  8
0
100
AcDbLine
 10
450.5119529999999
 20
161.705248
 30
0.0
 11
450.979953
 21
158.556
 31
0.0
  0
LINE
  5
3A5
330
1E
100
AcDbEntity
  8
0
100
AcDbLine
 10
450.979953
 20
161.02787
 30
0.0
 11
450.979953
 21
158.556
 31
0.0
  0
LINE
  5
3A6
330
1E
100
AcDbEntity
  8
0
100
AcDbLine
 10
450.8823032658
 20
161.736398109864
 30
0.0
 11
450.979953
 21
161.0419999999999
 31
0.0
  0
LINE
  5
3A7
330
1E
100
AcDbEntity
  8
0
100
AcDbLine
 10
425.447953
 20
161.705248
 30
0.0
 11
426.695953
 21
164.6576699999999
 31
0.0
  0
LINE
  5
3A8
330
1E
100
AcDbEntity
  8
0
100
AcDbLine
 10
425.979953
 20
160.585342
 30
0.0
 11
425.979953
 21
153.6591
 31
0.0
  0
LINE
  5
3A9
330
1E
100
AcDbEntity
  8
0
100
AcDbLine
 10
425.979953
 20
160.585342
 30
0.0
 11
425.979953
 21
162.09023
 31
0.0
  0
LINE
  5
3AB
330
1E
100
AcDbEntity
  8
0
100
AcDbLine
 10
425.979953
 20
162.09023
 30
0.0
 11
425.979953
 21
160.585342
 31
0.0
  0
LINE
  5
3AC
330
1E
100
AcDbEntity
  8
0
100
AcDbLine
 10
425.979953
 20
162.09023
 30
0.0
 11
426.411953
 21
163.53339
 31
0.0
  0
LINE
  5
441
330
1E
100
AcDbEntity
  8
0
100
AcDbLine
 10
449.5479529999999
 20
163.53339
 30
0.0
 11
449.979953
 21
162.09023
 31
0.0
  0
LINE
  5
442
330
1E
100
AcDbEntity
  8
0
100
AcDbLine
 10
426.411953
 20
163.53339
 30
0.0
 11
427.563953
 21
164.88647
 31
0.0
  0
LINE
  5
444
330
1E
100
AcDbEntity
  8
0
100
AcDbLine
 10
449.2639529999999
 20
164.6576699999999
 30
0.0
 11
450.5119529999999
 21
161.705248
 31
0.0
  0
LINE
  5
445
330
1E
100
AcDbEntity
  8
0
100
AcDbLine
 10
450.5119529999999
 20
164.4235899999999
 30
0.0
 11
450.979953
 21
161.02787
 31
0.0
  0
LINE
  5
446
330
1E
100
AcDbEntity
  8
0
100
AcDbLine
 10
426.695953
 20
164.6576699999999
 30
0.0
 11
428.775953
 21
167.2656399999999
 31
0.0
  0
LINE
  5
44E
330
1E
100
AcDbEntity
  8
0
100
AcDbLine
 10
448.3959529999999
 20
164.88647
 30
0.0
 11
449.5479529999999
 21
163.53339
 31
0.0
  0
LINE
  5
44F
330
1E
100
AcDbEntity
  8
0
100
AcDbLine
 10
427.563953
 20
164.88647
 30
0.0
 11
429.483953
 21
166.08118
 31
0.0
  0
LINE
  5
451
330
1E
100
AcDbEntity
  8
0
100
AcDbLine
 10
426.0550728257079
 20
165.88779956427
 30
0.0
 11
426.695953
 21
167.49
 31
0.0
  0
LINE
  5
452
330
1E
100
AcDbEntity
  8
0
100
AcDbLine
 10
426.695953
 20
167.49
 30
0.0
 11
428.775953
 21
170.2459999999999
 31
0.0
  0
LINE
  5
453
330
1E
100
AcDbEntity
  8
0
100
AcDbLine
 10
415.411953
 20
173.9379999999999
 30
0.0
 11
419.5719529999999
 21
179.45
 31
0.0
  0
LINE
  5
454
330
1E
100
AcDbEntity
  8
0
100
AcDbLine
 10
413.372844020055
 20
168.840227550137
 30
0.0
 11
415.411953
 21
173.9379999999999
 31
0.0
  0
LINE
  5
455
330
1E
100
AcDbEntity
  8
0
100
AcDbLine
 10
419.5719529999999
 20
179.45
 30
0.0
 11
425.083953
 21
183.61
 31
0.0
  0
LINE
  5
456
330
1E
100
AcDbEntity
  8
0
100
AcDbLine
 10
428.775953
 20
170.2459999999999
 30
0.0
 11
431.0048313943339
 21
171.928172373082
 31
0.0
  0
LINE
  5
458
330
1E
100
AcDbEntity
  8
0
100
AcDbLine
 10
425.083953
 20
183.61
 30
0.0
 11
431.326953
 21
186.1244
 31
0.0
  0
LINE
  5
459
330
1E
100
AcDbEntity
  8
0
100
AcDbLine
 10
425.083953
 20
183.61
 30
0.0
 11
431.326953
 21
186.1244
 31
0.0
  0
LINE
  5
45D
330
1E
100
AcDbEntity
  8
0
100
AcDbLine
 10
428.775953
 20
167.2656399999999
 30
0.0
 11
431.531953
 21
169.2339199999999
 31
0.0
  0
LINE
  5
45E
330
1E
100
AcDbEntity
  8
0
100
AcDbLine
 10
429.483953
 20
166.08118
 30
0.0
 11
429.723953
 21
166.17356
 31
0.0
  0
LINE
  5
45F
330
1E
100
AcDbEntity
  8
0
100
AcDbLine
 10
446.235953
 20
166.17356
 30
0.0
 11
446.475953
 21
166.08118
 31
0.0
  0
LINE
  5
460
330
1E
100
AcDbEntity
  8
0
100
AcDbLine
 10
446.475953
 20
166.08118
 30
0.0
 11
448.3959529999999
 21
164.88647
 31
0.0
  0
LINE
  5
461
330
1E
100
AcDbEntity
  8
0
100
AcDbLine
 10
431.326953
 20
186.1244
 30
0.0
 11
437.979953
 21
187.042
 31
0.0
  0
LINE
  5
462
330
1E
100
AcDbEntity
  8
0
100
AcDbLine
 10
431.531953
 20
172.3341
 30
0.0
 11
434.6519530000001
 21
173.574
 31
0.0
  0
LINE
  5
463
330
1E
100
AcDbEntity
  8
0
100
AcDbLine
 10
431.531953
 20
169.2339199999999
 30
0.0
 11
434.6519530000001
 21
170.4148899999999
 31
0.0
  0
LINE
  5
464
330
1E
100
AcDbEntity
  8
0
100
AcDbLine
 10
441.003953
 20
167.5949399999999
 30
0.0
 11
443.787953
 21
167.05351
 31
0.0
  0
LINE
  5
465
330
1E
100
AcDbEntity
  8
0
100
AcDbLine
 10
447.183953
 20
167.2656399999999
 30
0.0
 11
449.2639529999999
 21
164.6576699999999
 31
0.0
  0
LINE
  5
466
330
1E
100
AcDbEntity
  8
0
100
AcDbLine
 10
449.2639529999999
 20
167.49
 30
0.0
 11
449.9048331742919
 21
165.88779956427
 31
0.0
  0
LINE
  5
467
330
1E
100
AcDbEntity
  8
0
100
AcDbLine
 10
443.787953
 20
167.05351
 30
0.0
 11
446.235953
 21
166.17356
 31
0.0
  0
LINE
  5
468
330
1E
100
AcDbEntity
  8
0
100
AcDbLine
 10
437.979953
 20
170.85775
 30
0.0
 11
441.307953
 21
170.4148899999999
 31
0.0
  0
LINE
  5
469
330
1E
100
AcDbEntity
  8
0
100
AcDbLine
 10
437.979953
 20
174.042
 30
0.0
 11
441.307953
 21
173.574
 31
0.0
  0
LINE
  5
46A
330
1E
100
AcDbEntity
  8
0
100
AcDbLine
 10
437.979953
 20
187.042
 30
0.0
 11
444.632953
 21
186.1244
 31
0.0
  0
LINE
  5
46B
330
1E
100
AcDbEntity
  8
0
100
AcDbLine
 10
434.6519530000001
 20
173.574
 30
0.0
 11
437.979953
 21
174.042
 31
0.0
  0
LINE
  5
46C
330
1E
100
AcDbEntity
  8
0
100
AcDbLine
 10
434.6519530000001
 20
170.4148899999999
 30
0.0
 11
437.979953
 21
170.85775
 31
0.0
  0
LINE
  5
46D
330
1E
100
AcDbEntity
  8
0
100
AcDbLine
 10
444.427953
 20
169.2339199999999
 30
0.0
 11
447.183953
 21
167.2656399999999
 31
0.0
  0
LINE
  5
46E
330
1E
100
AcDbEntity
  8
0
100
AcDbLine
 10
441.307953
 20
170.4148899999999
 30
0.0
 11
444.427953
 21
169.2339199999999
 31
0.0
  0
LINE
  5
46F
330
1E
100
AcDbEntity
  8
0
100
AcDbLine
 10
441.307953
 20
173.574
 30
0.0
 11
444.427953
 21
172.3341
 31
0.0
  0
LINE
  5
470
330
1E
100
AcDbEntity
  8
0
100
AcDbLine
 10
460.547953
 20
173.9379999999999
 30
0.0
 11
462.587061979949
 21
168.8402275501269
 31
0.0
  0
LINE
  5
471
330
1E
100
AcDbEntity
  8
0
100
AcDbLine
 10
444.9550746056659
 20
171.928172373082
 30
0.0
 11
447.183953
 21
170.2459999999999
 31
0.0
  0
LINE
  5
472
330
1E
100
AcDbEntity
  8
0
100
AcDbLine
 10
447.183953
 20
170.2459999999999
 30
0.0
 11
449.2639529999999
 21
167.49
 31
0.0
  0
LINE
  5
473
330
1E
100
AcDbEntity
  8
0
100
AcDbLine
 10
463.061953
 20
167.6949
 30
0.0
 11
463.979953
 21
161.0419999999999
 31
0.0
  0
LINE
  5
474
330
1E
100
AcDbEntity
  8
0
100
AcDbLine
 10
444.632953
 20
186.1244
 30
0.0
 11
450.875953
 21
183.61
 31
0.0
  0
LINE
  5
475
330
1E
100
AcDbEntity
  8
0
100
AcDbLine
 10
444.632953
 20
186.1244
 30
0.0
 11
450.875953
 21
183.61
 31
0.0
  0
LINE
  5
476
330
1E
100
AcDbEntity
  8
0
100
AcDbLine
 10
450.875953
 20
183.61
 30
0.0
 11
456.387953
 21
179.45
 31
0.0
  0
LINE
  5
479
330
1E
100
AcDbEntity
  8
0
100
AcDbLine
 10
456.387953
 20
179.45
 30
0.0
 11
460.547953
 21
173.9379999999999
 31
0.0
  0
LINE
  5
47C
330
1E
100
AcDbEntity
  8
0
100
AcDbLine
 10
437.979953
 20
167.79785
 30
0.0
 11
441.003953
 21
167.5949399999999
 31
0.0
  0
LINE
  5
47D
330
1E
100
AcDbEntity
  8
0
100
AcDbLine
 10
434.955953
 20
167.5949399999999
 30
0.0
 11
437.979953
 21
167.79785
 31
0.0
  0
LINE
  5
47E
330
1E
100
AcDbEntity
  8
0
100
AcDbLine
 10
432.171953
 20
167.05351
 30
0.0
 11
434.955953
 21
167.5949399999999
 31
0.0
  0
LINE
  5
47F
330
1E
100
AcDbEntity
  8
0
100
AcDbLine
 10
429.723953
 20
166.17356
 30
0.0
 11
432.171953
 21
167.05351
 31
0.0
  0
LINE
  5
484
330
1E
100
AcDbEntity
  8
0
100
AcDbLine
 10
221.7449529999999
 20
152.0861
 30
0.0
 11
222.9799529999999
 21
161.0419999999999
 31
0.0
  0
LINE
  5
485
330
1E
100
AcDbEntity
  8
0
100
AcDbLine
 10
205.376953
 20
130.7773
 30
0.0
 11
212.6859529999999
 21
136.3360999999999
 31
0.0
  0
LINE
  5
486
330
1E
100
AcDbEntity
  8
0
100
AcDbLine
 10
201.9799529999999
 20
129.368758358014
 30
0.0
 11
205.376953
 21
130.7773
 31
0.0
  0
LINE
  5
48B
330
1E
100
AcDbEntity
  8
0
100
AcDbLine
 10
416.6475725499339
 20
80.86585143566422
 30
0.0
 11
417.8528799032799
 21
81.65434135843979
 31
0.0
  0
LINE
  5
48C
330
1E
100
AcDbEntity
  8
0
100
AcDbLine
 10
423.514599543955
 20
87.30938072595328
 30
0.0
 11
424.4851313618109
 21
89.065363036961
 31
0.0
  0
LINE
  5
48D
330
1E
100
AcDbEntity
  8
0
100
AcDbLine
 10
459.3123334500659
 20
80.86585143566422
 30
0.0
 11
458.1070260967201
 21
81.65434135843979
 31
0.0
  0
LINE
  5
48E
330
1E
100
AcDbEntity
  8
0
100
AcDbLine
 10
452.4453064560449
 20
87.30938072595311
 30
0.0
 11
451.474774638189
 21
89.06536303696121
 31
0.0
  0
LINE
  5
48F
330
1E
100
AcDbEntity
  8
0
100
AcDbLine
 10
450.5119529999999
 20
164.4235899999999
 30
0.0
 11
449.9048331742919
 21
165.88779956427
 31
0.0
  0
LINE
  5
490
330
1E
100
AcDbEntity
  8
0
100
AcDbLine
 10
449.979953
 20
160.585342
 30
0.0
 11
449.979953
 21
162.09023
 31
0.0
  0
LINE
  5
491
330
1E
100
AcDbEntity
  8
0
100
AcDbLine
 10
425.447953
 20
164.4235899999999
 30
0.0
 11
426.0550728257079
 21
165.88779956427
 31
0.0
  0
LINE
  5
492
330
1E
100
AcDbEntity
  8
0
100
AcDbLine
 10
431.0048313943339
 20
171.928172373082
 30
0.0
 11
431.531953
 21
172.3341
 31
0.0
  0
LINE
  5
493
330
1E
100
AcDbEntity
  8
0
100
AcDbLine
 10
444.427953
 20
172.3341
 30
0.0
 11
444.9550746056659
 21
171.928172373082
 31
0.0
  0
LINE
  5
494
330
1E
100
AcDbEntity
  8
0
100
AcDbLine
 10
287.0788469999999
 20
175.9538
 30
0.0
 11
284.078847
 21
168.7185
 31
0.0
  0
LINE
  5
495
330
1E
100
AcDbEntity
  8
0
100
AcDbLine
 10
287.0788469999999
 20
146.1302
 30
0.0
 11
284.078847
 21
153.3654999999999
 31
0.0
  0
LINE
  5
496
330
1E
100
AcDbEntity
  8
0
100
AcDbLine
 10
297.8200469999999
 20
156.9949
 30
0.0
 11
297.255347
 21
161.0419999999999
 31
0.0
  0
LINE
  5
497
330
1E
100
AcDbEntity
  8
0
100
AcDbLine
 10
373.916147
 20
159.0772899999999
 30
0.0
 11
373.808147
 21
160.03023
 31
0.0
  0
LINE
  5
498
330
1E
100
AcDbEntity
  8
0
100
AcDbLine
 10
375.940677
 20
160.0537699999999
 30
0.0
 11
375.835941
 21
159.13612
 31
0.0
  0
LINE
  5
499
330
1E
100
AcDbEntity
  8
0
100
AcDbLine
 10
374.763407
 20
157.042
 30
0.0
 11
328.4683262310887
 21
157.042
 31
0.0
  0
LINE
  5
49A
330
1E
100
AcDbEntity
  8
0
100
AcDbLine
 10
374.763407
 20
157.042
 30
0.0
 11
328.4683262310887
 21
157.042
 31
0.0
  0
LINE
  5
49B
330
1E
100
AcDbEntity
  8
0
100
AcDbLine
 10
375.048161
 20
157.18318
 30
0.0
 11
374.763407
 21
157.042
 31
0.0
  0
LINE
  5
49C
330
1E
100
AcDbEntity
  8
0
100
AcDbLine
 10
375.1468
 20
157.242
 30
0.0
 11
374.865317
 21
157.10082
 31
0.0
  0
LINE
  5
49D
330
1E
100
AcDbEntity
  8
0
100
AcDbLine
 10
375.1468
 20
157.242
 30
0.0
 11
375.048161
 21
157.18318
 31
0.0
  0
LINE
  5
49E
330
1E
100
AcDbEntity
  8
0
100
AcDbLine
 10
375.411913
 20
157.63023
 30
0.0
 11
375.1468
 21
157.242
 31
0.0
  0
LINE
  5
49F
330
1E
100
AcDbEntity
  8
0
100
AcDbLine
 10
375.64102
 20
158.25376
 30
0.0
 11
375.411913
 21
157.63023
 31
0.0
  0
LINE
  5
4A0
330
1E
100
AcDbEntity
  8
0
100
AcDbLine
 10
375.669017
 20
158.3361199999999
 30
0.0
 11
375.64102
 21
158.25376
 31
0.0
  0
LINE
  5
4A1
330
1E
100
AcDbEntity
  8
0
100
AcDbLine
 10
375.835941
 20
159.13612
 30
0.0
 11
375.669017
 21
158.3361199999999
 31
0.0
  0
LINE
  5
4A2
330
1E
100
AcDbEntity
  8
0
100
AcDbLine
 10
374.583837
 20
157.242
 30
0.0
 11
374.318727
 21
157.63023
 31
0.0
  0
LINE
  5
4A3
330
1E
100
AcDbEntity
  8
0
100
AcDbLine
 10
374.318727
 20
157.63023
 30
0.0
 11
374.089617
 21
158.25376
 31
0.0
  0
LINE
  5
4A4
330
1E
100
AcDbEntity
  8
0
100
AcDbLine
 10
374.089617
 20
158.25376
 30
0.0
 11
373.916147
 21
159.0772899999999
 31
0.0
  0
LINE
  5
4A5
330
1E
100
AcDbEntity
  8
0
100
AcDbLine
 10
374.865317
 20
157.10082
 30
0.0
 11
374.583837
 21
157.242
 31
0.0
  0
LINE
  5
4A6
330
1E
100
AcDbEntity
  8
0
100
AcDbLine
 10
327.931847
 20
135.1007999999999
 30
0.0
 11
320.696547
 21
132.1007999999999
 31
0.0
  0
LINE
  5
4A7
330
1E
100
AcDbEntity
  8
0
100
AcDbLine
 10
324.172947
 20
149.8891
 30
0.0
 11
320.878847
 21
147.3949
 31
0.0
  0
LINE
  5
4A8
330
1E
100
AcDbEntity
  8
0
100
AcDbLine
 10
338.961247
 20
146.1302
 30
0.0
 11
334.196547
 21
139.8654999999999
 31
0.0
  0
LINE
  5
4A9
330
1E
100
AcDbEntity
  8
0
100
AcDbLine
 10
334.196547
 20
139.8654999999999
 30
0.0
 11
327.931847
 21
135.1007999999999
 31
0.0
  0
LINE
  5
4AA
330
1E
100
AcDbEntity
  8
0
100
AcDbLine
 10
341.961247
 20
153.3654999999999
 30
0.0
 11
338.961247
 21
146.1302
 31
0.0
  0
LINE
  5
4AB
330
1E
100
AcDbEntity
  8
0
100
AcDbLine
 10
342.4683372364359
 20
157.042
 30
0.0
 11
341.961247
 21
153.3654999999999
 31
0.0
  0
LINE
  5
4AC
330
1E
100
AcDbEntity
  8
0
100
AcDbLine
 10
326.6671469999999
 20
153.1832
 30
0.0
 11
324.172947
 21
149.8891
 31
0.0
  0
LINE
  5
4AD
330
1E
100
AcDbEntity
  8
0
100
AcDbLine
 10
328.4683262310887
 20
157.042
 30
0.0
 11
326.6671469999999
 21
153.1832
 31
0.0
  0
LINE
  5
4AE
330
1E
100
AcDbEntity
  8
0
100
AcDbLine
 10
291.843547
 20
139.8654999999999
 30
0.0
 11
287.0788469999999
 21
146.1302
 31
0.0
  0
LINE
  5
4AF
330
1E
100
AcDbEntity
  8
0
100
AcDbLine
 10
305.343547
 20
132.1007999999999
 30
0.0
 11
298.108247
 21
135.1007999999999
 31
0.0
  0
LINE
  5
4B0
330
1E
100
AcDbEntity
  8
0
100
AcDbLine
 10
320.696547
 20
132.1007999999999
 30
0.0
 11
313.0200469999999
 21
131.042
 31
0.0
  0
LINE
  5
4B1
330
1E
100
AcDbEntity
  8
0
100
AcDbLine
 10
313.0200469999999
 20
131.042
 30
0.0
 11
305.343547
 21
132.1007999999999
 31
0.0
  0
LINE
  5
4B2
330
1E
100
AcDbEntity
  8
0
100
AcDbLine
 10
298.108247
 20
135.1007999999999
 30
0.0
 11
291.843547
 21
139.8654999999999
 31
0.0
  0
LINE
  5
4B3
330
1E
100
AcDbEntity
  8
0
100
AcDbLine
 10
305.161247
 20
147.3949
 30
0.0
 11
301.867147
 21
149.8891
 31
0.0
  0
LINE
  5
4B4
330
1E
100
AcDbEntity
  8
0
100
AcDbLine
 10
317.0671469999999
 20
145.842
 30
0.0
 11
313.0200469999999
 21
145.2773
 31
0.0
  0
LINE
  5
4B5
330
1E
100
AcDbEntity
  8
0
100
AcDbLine
 10
320.878847
 20
147.3949
 30
0.0
 11
317.0671469999999
 21
145.842
 31
0.0
  0
LINE
  5
4B6
330
1E
100
AcDbEntity
  8
0
100
AcDbLine
 10
308.9729469999999
 20
145.842
 30
0.0
 11
305.161247
 21
147.3949
 31
0.0
  0
LINE
  5
4B7
330
1E
100
AcDbEntity
  8
0
100
AcDbLine
 10
313.0200469999999
 20
145.2773
 30
0.0
 11
308.9729469999999
 21
145.842
 31
0.0
  0
LINE
  5
4B8
330
1E
100
AcDbEntity
  8
0
100
AcDbLine
 10
301.867147
 20
149.8891
 30
0.0
 11
299.372947
 21
153.1832
 31
0.0
  0
LINE
  5
4B9
330
1E
100
AcDbEntity
  8
0
100
AcDbLine
 10
299.372947
 20
153.1832
 30
0.0
 11
297.8200469999999
 21
156.9949
 31
0.0
  0
LINE
  5
4BA
330
1E
100
AcDbEntity
  8
0
100
AcDbLine
 10
374.763407
 20
165.0419999999999
 30
0.0
 11
328.4683262310887
 21
165.0419999999999
 31
0.0
  0
LINE
  5
4BB
330
1E
100
AcDbEntity
  8
0
100
AcDbLine
 10
374.763407
 20
165.0419999999999
 30
0.0
 11
328.4683262310887
 21
165.0419999999999
 31
0.0
  0
LINE
  5
4BC
330
1E
100
AcDbEntity
  8
0
100
AcDbLine
 10
374.089617
 20
163.83023
 30
0.0
 11
373.916147
 21
163.0067099999999
 31
0.0
  0
LINE
  5
4BD
330
1E
100
AcDbEntity
  8
0
100
AcDbLine
 10
375.835941
 20
162.94788
 30
0.0
 11
375.669017
 21
163.74788
 31
0.0
  0
LINE
  5
4BE
330
1E
100
AcDbEntity
  8
0
100
AcDbLine
 10
375.940677
 20
162.03023
 30
0.0
 11
375.835941
 21
162.94788
 31
0.0
  0
LINE
  5
4BF
330
1E
100
AcDbEntity
  8
0
100
AcDbLine
 10
375.979953
 20
161.0419999999999
 30
0.0
 11
375.940677
 21
160.0537699999999
 31
0.0
  0
LINE
  5
4C0
330
1E
100
AcDbEntity
  8
0
100
AcDbLine
 10
375.979953
 20
161.0419999999999
 30
0.0
 11
375.940677
 21
162.03023
 31
0.0
  0
LINE
  5
4C1
330
1E
100
AcDbEntity
  8
0
100
AcDbLine
 10
373.808147
 20
162.0537699999999
 30
0.0
 11
373.768867
 21
161.0419999999999
 31
0.0
  0
LINE
  5
4C2
330
1E
100
AcDbEntity
  8
0
100
AcDbLine
 10
373.916147
 20
163.0067099999999
 30
0.0
 11
373.808147
 21
162.0537699999999
 31
0.0
  0
LINE
  5
4C3
330
1E
100
AcDbEntity
  8
0
100
AcDbLine
 10
373.808147
 20
160.03023
 30
0.0
 11
373.768867
 21
161.0419999999999
 31
0.0
  0
LINE
  5
4C4
330
1E
100
AcDbEntity
  8
0
100
AcDbLine
 10
375.048161
 20
164.9008199999999
 30
0.0
 11
374.763407
 21
165.0419999999999
 31
0.0
  0
LINE
  5
4C5
330
1E
100
AcDbEntity
  8
0
100
AcDbLine
 10
375.1468
 20
164.842
 30
0.0
 11
374.865317
 21
164.98318
 31
0.0
  0
LINE
  5
4C6
330
1E
100
AcDbEntity
  8
0
100
AcDbLine
 10
375.1468
 20
164.842
 30
0.0
 11
375.048161
 21
164.9008199999999
 31
0.0
  0
LINE
  5
4C7
330
1E
100
AcDbEntity
  8
0
100
AcDbLine
 10
375.411913
 20
164.4537699999999
 30
0.0
 11
375.1468
 21
164.842
 31
0.0
  0
LINE
  5
4C8
330
1E
100
AcDbEntity
  8
0
100
AcDbLine
 10
375.64102
 20
163.83023
 30
0.0
 11
375.411913
 21
164.4537699999999
 31
0.0
  0
LINE
  5
4C9
330
1E
100
AcDbEntity
  8
0
100
AcDbLine
 10
375.669017
 20
163.74788
 30
0.0
 11
375.64102
 21
163.83023
 31
0.0
  0
LINE
  5
4CA
330
1E
100
AcDbEntity
  8
0
100
AcDbLine
 10
374.583837
 20
164.842
 30
0.0
 11
374.318727
 21
164.4537699999999
 31
0.0
  0
LINE
  5
4CB
330
1E
100
AcDbEntity
  8
0
100
AcDbLine
 10
374.318727
 20
164.4537699999999
 30
0.0
 11
374.089617
 21
163.83023
 31
0.0
  0
LINE
  5
4CC
330
1E
100
AcDbEntity
  8
0
100
AcDbLine
 10
374.865317
 20
164.98318
 30
0.0
 11
374.583837
 21
164.842
 31
0.0
  0
LINE
  5
4CD
330
1E
100
AcDbEntity
  8
0
100
AcDbLine
 10
305.343547
 20
189.9832
 30
0.0
 11
298.108247
 21
186.9832
 31
0.0
  0
LINE
  5
4CE
330
1E
100
AcDbEntity
  8
0
100
AcDbLine
 10
327.931847
 20
186.9832
 30
0.0
 11
320.696547
 21
189.9832
 31
0.0
  0
LINE
  5
4CF
330
1E
100
AcDbEntity
  8
0
100
AcDbLine
 10
324.172947
 20
172.1948999999999
 30
0.0
 11
320.878847
 21
174.6890999999999
 31
0.0
  0
LINE
  5
4D0
330
1E
100
AcDbEntity
  8
0
100
AcDbLine
 10
341.961247
 20
168.7185
 30
0.0
 11
338.961247
 21
175.9538
 31
0.0
  0
LINE
  5
4D1
330
1E
100
AcDbEntity
  8
0
100
AcDbLine
 10
342.4683372364359
 20
165.0419999999999
 30
0.0
 11
341.961247
 21
168.7185
 31
0.0
  0
LINE
  5
4D2
330
1E
100
AcDbEntity
  8
0
100
AcDbLine
 10
328.4683262310887
 20
165.0419999999999
 30
0.0
 11
326.6671469999999
 21
168.9008199999999
 31
0.0
  0
LINE
  5
4D3
330
1E
100
AcDbEntity
  8
0
100
AcDbLine
 10
326.6671469999999
 20
168.9008199999999
 30
0.0
 11
324.172947
 21
172.1948999999999
 31
0.0
  0
LINE
  5
4D4
330
1E
100
AcDbEntity
  8
0
100
AcDbLine
 10
334.196547
 20
182.2185
 30
0.0
 11
327.931847
 21
186.9832
 31
0.0
  0
LINE
  5
4D5
330
1E
100
AcDbEntity
  8
0
100
AcDbLine
 10
338.961247
 20
175.9538
 30
0.0
 11
334.196547
 21
182.2185
 31
0.0
  0
LINE
  5
4D6
330
1E
100
AcDbEntity
  8
0
100
AcDbLine
 10
305.161247
 20
174.6890999999999
 30
0.0
 11
301.867147
 21
172.1948999999999
 31
0.0
  0
LINE
  5
4D7
330
1E
100
AcDbEntity
  8
0
100
AcDbLine
 10
299.372947
 20
168.9008199999999
 30
0.0
 11
297.8200469999999
 21
165.0891
 31
0.0
  0
LINE
  5
4D8
330
1E
100
AcDbEntity
  8
0
100
AcDbLine
 10
297.8200469999999
 20
165.0891
 30
0.0
 11
297.255347
 21
161.0419999999999
 31
0.0
  0
LINE
  5
4D9
330
1E
100
AcDbEntity
  8
0
100
AcDbLine
 10
301.867147
 20
172.1948999999999
 30
0.0
 11
299.372947
 21
168.9008199999999
 31
0.0
  0
LINE
  5
4DA
330
1E
100
AcDbEntity
  8
0
100
AcDbLine
 10
317.0671469999999
 20
176.242
 30
0.0
 11
313.0200469999999
 21
176.8067
 31
0.0
  0
LINE
  5
4DB
330
1E
100
AcDbEntity
  8
0
100
AcDbLine
 10
320.878847
 20
174.6890999999999
 30
0.0
 11
317.0671469999999
 21
176.242
 31
0.0
  0
LINE
  5
4DC
330
1E
100
AcDbEntity
  8
0
100
AcDbLine
 10
308.9729469999999
 20
176.242
 30
0.0
 11
305.161247
 21
174.6890999999999
 31
0.0
  0
LINE
  5
4DD
330
1E
100
AcDbEntity
  8
0
100
AcDbLine
 10
313.0200469999999
 20
176.8067
 30
0.0
 11
308.9729469999999
 21
176.242
 31
0.0
  0
LINE
  5
4DE
330
1E
100
AcDbEntity
  8
0
100
AcDbLine
 10
298.108247
 20
186.9832
 30
0.0
 11
291.843547
 21
182.2185
 31
0.0
  0
LINE
  5
4DF
330
1E
100
AcDbEntity
  8
0
100
AcDbLine
 10
291.843547
 20
182.2185
 30
0.0
 11
287.0788469999999
 21
175.9538
 31
0.0
  0
LINE
  5
4E0
330
1E
100
AcDbEntity
  8
0
100
AcDbLine
 10
320.696547
 20
189.9832
 30
0.0
 11
313.0200469999999
 21
191.042
 31
0.0
  0
LINE
  5
4E1
330
1E
100
AcDbEntity
  8
0
100
AcDbLine
 10
313.0200469999999
 20
191.042
 30
0.0
 11
305.343547
 21
189.9832
 31
0.0
  0
LINE
  5
4E2
330
1E
100
AcDbEntity
  8
0
100
AcDbLine
 10
284.078847
 20
153.3654999999999
 30
0.0
 11
283.0200469999999
 21
161.0419999999999
 31
0.0
  0
LINE
  5
53E
330
1E
100
AcDbEntity
  8
0
100
AcDbLine
 10
284.078847
 20
168.7185
 30
0.0
 11
283.0200469999999
 21
161.0419999999999
 31
0.0
  0
LINE
  5
5FC
330
1E
100
AcDbEntity
  8
0
100
AcDbLine
 10
471.879953
 20
9.929000000000051
 30
0.0
 11
474.5818486726379
 21
12.4101823767822
 31
0.0
  0
LINE
  5
5FD
330
1E
100
AcDbEntity
  8
0
100
AcDbLine
 10
404.079953
 20
9.929000000000051
 30
0.0
 11
401.3780573273609
 21
12.41018237678299
 31
0.0
  0
ENDSEC
  0
SECTION
  2
OBJECTS
  0
DICTIONARY
  5
C
330
0
100
AcDbDictionary
  3
ACAD_GROUP
350
D
  3
ACAD_LAYOUT
350
19
  3
ACAD_MLINESTYLE
350
16
  3
ACAD_PLOTSETTINGS
350
18
  3
ACAD_PLOTSTYLENAME
350
E
  3
ACDBHEADERROUNDTRIPXREC
350
626
  3
ACDBVARIABLEDICTIONARY
350
5B0
  0
DICTIONARY
  5
648
330
1E
100
AcDbDictionary
280
     1
  3
ACAD_LAYOUTSELFREF
360
649
  0
DICTIONARY
  5
646
330
1A
100
AcDbDictionary
280
     1
  3
ACAD_LAYOUTSELFREF
360
647
  0
DICTIONARY
  5
D
102
{ACAD_REACTORS
330
C
102
}
330
C
100
AcDbDictionary
  0
DICTIONARY
  5
19
102
{ACAD_REACTORS
330
C
102
}
330
C
100
AcDbDictionary
  0
DICTIONARY
  5
16
102
{ACAD_REACTORS
330
C
102
}
330
C
100
AcDbDictionary
  3
STANDARD
350
17
  0
DICTIONARY
  5
18
102
{ACAD_REACTORS
330
C
102
}
330
C
100
AcDbDictionary
  0
ACDBDICTIONARYWDFLT
  5
E
102
{ACAD_REACTORS
330
C
102
}
330
C
100
AcDbDictionary
281
     1
  3
Normal
350
F
100
AcDbDictionaryWithDefault
340
F
  0
DICTIONARY
  5
626
102
{ACAD_REACTORS
330
C
102
}
330
C
100
AcDbDictionary
  3
CEPSNTYPE
350
630
  3
FINGERPRINTGUID
350
631
  3
HYPERLINKBASE
350
629
  3
INSUNITS
350
62F
  3
LAYOUTDICT
350
62B
  3
LWETCUNION
350
62E
  3
PLOTSETDICT
350
62C
  3
PLOTSTYLNAMDICT
350
62D
  3
PSVPSCALE
350
633
  3
PUCSBASE
350
636
  3
PUCSORGBACK
350
63C
  3
PUCSORGBOTTOM
350
638
  3
PUCSORGFRONT
350
63B
  3
PUCSORGLEFT
350
639
  3
PUCSORGRIGHT
350
63A
  3
PUCSORGTOP
350
637
  3
PUCSORTHOREF
350
634
  3
PUCSORTHOVIEW
350
635
  3
STYLESHEET
350
62A
  3
TSTACKALIGN
350
627
  3
TSTACKSIZE
350
628
  3
UCSBASE
350
63F
  3
UCSORGBACK
350
645
  3
UCSORGBOTTOM
350
641
  3
UCSORGFRONT
350
644
  3
UCSORGLEFT
350
642
  3
UCSORGRIGHT
350
643
  3
UCSORGTOP
350
640
  3
UCSORTHOREF
350
63D
  3
UCSORTHOVIEW
350
63E
  3
VERSIONGUID
350
632
  0
DICTIONARY
  5
5B0
102
{ACAD_REACTORS
330
C
102
}
330
C
100
AcDbDictionary
  3
DIMASSOC
350
5B1
  0
XRECORD
  5
649
102
{ACAD_REACTORS
330
648
102
}
330
648
100
AcDbXrecord
340
1E
  0
XRECORD
  5
647
102
{ACAD_REACTORS
330
646
102
}
330
646
100
AcDbXrecord
340
1A
  0
MLINESTYLE
  5
17
102
{ACAD_REACTORS
330
16
102
}
330
16
100
AcDbMlineStyle
  2
STANDARD
 70
     0
  3

 62
   256
 51
90.0
 52
90.0
 71
     2
 49
0.5
 62
   256
  6
BYLAYER
 49
-0.5
 62
   256
  6
BYLAYER
  0
ACDBPLACEHOLDER
  5
F
102
{ACAD_REACTORS
330
E
102
}
330
E
100
AcDbPlaceHolder
280
     0
  0
XRECORD
  5
630
102
{ACAD_REACTORS
330
626
102
}
330
626
100
AcDbXrecord
 90
        0
  0
XRECORD
  5
631
102
{ACAD_REACTORS
330
626
102
}
330
626
100
AcDbXrecord
  1
{6798B8BF-BF25-4B89-BDE4-05212B149D52}
  0
XRECORD
  5
629
102
{ACAD_REACTORS
330
626
102
}
330
626
100
AcDbXrecord
  1

  0
XRECORD
  5
62F
102
{ACAD_REACTORS
330
626
102
}
330
626
100
AcDbXrecord
 90
        0
  0
XRECORD
  5
62B
102
{ACAD_REACTORS
330
626
102
}
330
626
100
AcDbXrecord
340
19
  0
XRECORD
  5
62E
102
{ACAD_REACTORS
330
626
102
}
330
626
100
AcDbXrecord
 90
    10781
  0
XRECORD
  5
62C
102
{ACAD_REACTORS
330
626
102
}
330
626
100
AcDbXrecord
340
18
  0
XRECORD
  5
62D
102
{ACAD_REACTORS
330
626
102
}
330
626
100
AcDbXrecord
340
E
  0
XRECORD
  5
633
102
{ACAD_REACTORS
330
626
102
}
330
626
100
AcDbXrecord
 40
0.0
  0
XRECORD
  5
636
102
{ACAD_REACTORS
330
626
102
}
330
626
100
AcDbXrecord
340
0
  0
XRECORD
  5
63C
102
{ACAD_REACTORS
330
626
102
}
330
626
100
AcDbXrecord
 10
0.0
 20
0.0
 30
0.0
  0
XRECORD
  5
638
102
{ACAD_REACTORS
330
626
102
}
330
626
100
AcDbXrecord
 10
0.0
 20
0.0
 30
0.0
  0
XRECORD
  5
63B
102
{ACAD_REACTORS
330
626
102
}
330
626
100
AcDbXrecord
 10
0.0
 20
0.0
 30
0.0
  0
XRECORD
  5
639
102
{ACAD_REACTORS
330
626
102
}
330
626
100
AcDbXrecord
 10
0.0
 20
0.0
 30
0.0
  0
XRECORD
  5
63A
102
{ACAD_REACTORS
330
626
102
}
330
626
100
AcDbXrecord
 10
0.0
 20
0.0
 30
0.0
  0
XRECORD
  5
637
102
{ACAD_REACTORS
330
626
102
}
330
626
100
AcDbXrecord
 10
0.0
 20
0.0
 30
0.0
  0
XRECORD
  5
634
102
{ACAD_REACTORS
330
626
102
}
330
626
100
AcDbXrecord
340
0
  0
XRECORD
  5
635
102
{ACAD_REACTORS
330
626
102
}
330
626
100
AcDbXrecord
 70
     0
  0
XRECORD
  5
62A
102
{ACAD_REACTORS
330
626
102
}
330
626
100
AcDbXrecord
  1

  0
XRECORD
  5
627
102
{ACAD_REACTORS
330
626
102
}
330
626
100
AcDbXrecord
 90
        1
  0
XRECORD
  5
628
102
{ACAD_REACTORS
330
626
102
}
330
626
100
AcDbXrecord
 90
       70
  0
XRECORD
  5
63F
102
{ACAD_REACTORS
330
626
102
}
330
626
100
AcDbXrecord
340
0
  0
XRECORD
  5
645
102
{ACAD_REACTORS
330
626
102
}
330
626
100
AcDbXrecord
 10
0.0
 20
0.0
 30
0.0
  0
XRECORD
  5
641
102
{ACAD_REACTORS
330
626
102
}
330
626
100
AcDbXrecord
 10
0.0
 20
0.0
 30
0.0
  0
XRECORD
  5
644
102
{ACAD_REACTORS
330
626
102
}
330
626
100
AcDbXrecord
 10
0.0
 20
0.0
 30
0.0
  0
XRECORD
  5
642
102
{ACAD_REACTORS
330
626
102
}
330
626
100
AcDbXrecord
 10
0.0
 20
0.0
 30
0.0
  0
XRECORD
  5
643
102
{ACAD_REACTORS
330
626
102
}
330
626
100
AcDbXrecord
 10
0.0
 20
0.0
 30
0.0
  0
XRECORD
  5
640
102
{ACAD_REACTORS
330
626
102
}
330
626
100
AcDbXrecord
 10
0.0
 20
0.0
 30
0.0
  0
XRECORD
  5
63D
102
{ACAD_REACTORS
330
626
102
}
330
626
100
AcDbXrecord
340
0
  0
XRECORD
  5
63E
102
{ACAD_REACTORS
330
626
102
}
330
626
100
AcDbXrecord
 70
     1
  0
XRECORD
  5
632
102
{ACAD_REACTORS
330
626
102
}
330
626
100
AcDbXrecord
  1
{F30BA8D3-C424-4314-BB4E-D7F7B28EC768}
  0
DICTIONARYVAR
  5
5B1
102
{ACAD_REACTORS
330
5B0
102
}
330
5B0
100
DictionaryVariables
280
     0
  1
1
  0
ENDSEC
  0
EOF
