  0
SECTION
  2
HEADER
  9
$ACADVER
  1
AC1014
  9
$ACADMAINTVER
 70
     9
  9
$DWGCODEPAGE
  3
ANSI_1252
  9
$INSBASE
 10
0.0
 20
0.0
 30
0.0
  9
$EXTMIN
 10
-0.0419999999999798
 20
213.8259999999999
 30
0.0
  9
$EXTMAX
 10
196.042
 20
463.8259999999999
 30
0.0
  9
$LIMMIN
 10
0.0
 20
0.0
  9
$LIMMAX
 10
12.0
 20
9.0
  9
$ORTHOMODE
 70
     0
  9
$REGENMODE
 70
     1
  9
$FILLMODE
 70
     1
  9
$QTEXTMODE
 70
     0
  9
$MIRRTEXT
 70
     1
  9
$DRAGMODE
 70
     2
  9
$LTSCALE
 40
1.0
  9
$OSMODE
 70
    37
  9
$ATTMODE
 70
     1
  9
$TEXTSIZE
 40
0.2
  9
$TRACEWID
 40
0.05
  9
$TEXTSTYLE
  7
STANDARD
  9
$CLAYER
  8
0
  9
$CELTYPE
  6
CONTINUOUS
  9
$CECOLOR
 62
   256
  9
$CELTSCALE
 40
1.0
  9
$DELOBJ
 70
     1
  9
$DISPSILH
 70
     0
  9
$DIMSCALE
 40
1.0
  9
$DIMASZ
 40
0.18
  9
$DIMEXO
 40
0.0625
  9
$DIMDLI
 40
0.38
  9
$DIMRND
 40
0.0
  9
$DIMDLE
 40
0.0
  9
$DIMEXE
 40
0.18
  9
$DIMTP
 40
0.0
  9
$DIMTM
 40
0.0
  9
$DIMTXT
 40
0.18
  9
$DIMCEN
 40
0.09
  9
$DIMTSZ
 40
0.0
  9
$DIMTOL
 70
     0
  9
$DIMLIM
 70
     0
  9
$DIMTIH
 70
     1
  9
$DIMTOH
 70
     1
  9
$DIMSE1
 70
     0
  9
$DIMSE2
 70
     0
  9
$DIMTAD
 70
     0
  9
$DIMZIN
 70
     0
  9
$DIMBLK
  1

  9
$DIMASO
 70
     1
  9
$DIMSHO
 70
     1
  9
$DIMPOST
  1

  9
$DIMAPOST
  1

  9
$DIMALT
 70
     0
  9
$DIMALTD
 70
     2
  9
$DIMALTF
 40
25.4
  9
$DIMLFAC
 40
1.0
  9
$DIMTOFL
 70
     0
  9
$DIMTVP
 40
0.0
  9
$DIMTIX
 70
     0
  9
$DIMSOXD
 70
     0
  9
$DIMSAH
 70
     0
  9
$DIMBLK1
  1

  9
$DIMBLK2
  1

  9
$DIMSTYLE
  2
STANDARD
  9
$DIMCLRD
 70
     0
  9
$DIMCLRE
 70
     0
  9
$DIMCLRT
 70
     0
  9
$DIMTFAC
 40
1.0
  9
$DIMGAP
 40
0.09
  9
$DIMJUST
 70
     0
  9
$DIMSD1
 70
     0
  9
$DIMSD2
 70
     0
  9
$DIMTOLJ
 70
     1
  9
$DIMTZIN
 70
     0
  9
$DIMALTZ
 70
     0
  9
$DIMALTTZ
 70
     0
  9
$DIMFIT
 70
     3
  9
$DIMUPT
 70
     0
  9
$DIMUNIT
 70
     2
  9
$DIMDEC
 70
     4
  9
$DIMTDEC
 70
     4
  9
$DIMALTU
 70
     2
  9
$DIMALTTD
 70
     2
  9
$DIMTXSTY
  7
STANDARD
  9
$DIMAUNIT
 70
     0
  9
$LUNITS
 70
     2
  9
$LUPREC
 70
     4
  9
$SKETCHINC
 40
0.1
  9
$FILLETRAD
 40
0.0
  9
$AUNITS
 70
     0
  9
$AUPREC
 70
     0
  9
$MENU
  1
.
  9
$ELEVATION
 40
0.0
  9
$PELEVATION
 40
0.0
  9
$THICKNESS
 40
0.0
  9
$LIMCHECK
 70
     0
  9
$BLIPMODE
 70
     0
  9
$CHAMFERA
 40
0.0
  9
$CHAMFERB
 40
0.0
  9
$CHAMFERC
 40
0.0
  9
$CHAMFERD
 40
0.0
  9
$SKPOLY
 70
     0
  9
$TDCREATE
 40
2455238.838399699
  9
$TDUPDATE
 40
2455238.841001690
  9
$TDINDWG
 40
0.0026021759
  9
$TDUSRTIMER
 40
0.0026021759
  9
$USRTIMER
 70
     1
  9
$ANGBASE
 50
0.0
  9
$ANGDIR
 70
     0
  9
$PDMODE
 70
     0
  9
$PDSIZE
 40
0.0
  9
$PLINEWID
 40
0.0
  9
$COORDS
 70
     1
  9
$SPLFRAME
 70
     0
  9
$SPLINETYPE
 70
     6
  9
$SPLINESEGS
 70
     8
  9
$ATTDIA
 70
     0
  9
$ATTREQ
 70
     1
  9
$HANDLING
 70
 22529
  9
$HANDSEED
  5
72D
  9
$SURFTAB1
 70
     6
  9
$SURFTAB2
 70
     6
  9
$SURFTYPE
 70
     6
  9
$SURFU
 70
     6
  9
$SURFV
 70
     6
  9
$UCSNAME
  2

  9
$UCSORG
 10
0.0
 20
0.0
 30
0.0
  9
$UCSXDIR
 10
1.0
 20
0.0
 30
0.0
  9
$UCSYDIR
 10
0.0
 20
1.0
 30
0.0
  9
$PUCSNAME
  2

  9
$PUCSORG
 10
0.0
 20
0.0
 30
0.0
  9
$PUCSXDIR
 10
1.0
 20
0.0
 30
0.0
  9
$PUCSYDIR
 10
0.0
 20
1.0
 30
0.0
  9
$USERI1
 70
     0
  9
$USERI2
 70
     0
  9
$USERI3
 70
     0
  9
$USERI4
 70
     0
  9
$USERI5
 70
     0
  9
$USERR1
 40
0.0
  9
$USERR2
 40
0.0
  9
$USERR3
 40
0.0
  9
$USERR4
 40
0.0
  9
$USERR5
 40
0.0
  9
$WORLDVIEW
 70
     1
  9
$SHADEDGE
 70
     3
  9
$SHADEDIF
 70
    70
  9
$TILEMODE
 70
     1
  9
$MAXACTVP
 70
    64
  9
$PINSBASE
 10
0.0
 20
0.0
 30
0.0
  9
$PLIMCHECK
 70
     0
  9
$PEXTMIN
 10
1.000000000000000E+20
 20
1.000000000000000E+20
 30
1.000000000000000E+20
  9
$PEXTMAX
 10
-1.000000000000000E+20
 20
-1.000000000000000E+20
 30
-1.000000000000000E+20
  9
$PLIMMIN
 10
0.0
 20
0.0
  9
$PLIMMAX
 10
12.0
 20
9.0
  9
$UNITMODE
 70
     0
  9
$VISRETAIN
 70
     1
  9
$PLINEGEN
 70
     0
  9
$PSLTSCALE
 70
     1
  9
$TREEDEPTH
 70
  3020
  9
$PICKSTYLE
 70
     1
  9
$CMLSTYLE
  2
STANDARD
  9
$CMLJUST
 70
     0
  9
$CMLSCALE
 40
1.0
  9
$PROXYGRAPHICS
 70
     1
  9
$MEASUREMENT
 70
     0
  0
ENDSEC
  0
SECTION
  2
CLASSES
  0
CLASS
  1
ACDBDICTIONARYWDFLT
  2
AcDbDictionaryWithDefault
  3
AutoCAD 2000
 90
        0
280
     0
281
     0
  0
CLASS
  1
ACDBPLACEHOLDER
  2
AcDbPlaceHolder
  3
AutoCAD 2000
 90
        0
280
     0
281
     0
  0
CLASS
  1
LAYOUT
  2
AcDbLayout
  3
AutoCAD 2000
 90
        0
280
     0
281
     0
  0
CLASS
  1
DICTIONARYVAR
  2
AcDbDictionaryVar
  3
AutoCAD 2000
 90
        0
280
     0
281
     0
  0
CLASS
  1
LONG_TRANSACTION
  2
AcDbLongTransaction
  3
AutoCAD 2000
 90
        0
280
     0
281
     0
  0
CLASS
  1
LWPOLYLINE
  2
AcDbPolyline
  3
AutoCAD 2000
 90
        0
280
     0
281
     1
  0
CLASS
  1
HATCH
  2
AcDbHatch
  3
AutoCAD 2000
 90
        0
280
     0
281
     1
  0
CLASS
  1
XRECORD
  2
AcDbXrecord
  3
AutoCAD 2000
 90
        0
280
     0
281
     0
  0
ENDSEC
  0
SECTION
  2
TABLES
  0
TABLE
  2
VPORT
  5
8
330
0
100
AcDbSymbolTable
 70
     8
  0
VPORT
  5
708
330
8
100
AcDbSymbolTableRecord
100
AcDbViewportTableRecord
  2
*ACTIVE
 70
     0
 10
0.0
 20
0.0
 11
1.0
 21
1.0
 12
98.00000000000002
 22
338.8259999999999
 13
0.0
 23
0.0
 14
1.0
 24
1.0
 15
0.0
 25
0.0
 16
0.0
 26
0.0
 36
1.0
 17
0.0
 27
0.0
 37
0.0
 40
251.6411378555798
 41
2.041621029572836
 42
50.0
 43
0.0
 44
0.0
 50
0.0
 51
0.0
 71
     0
 72
   100
 73
     1
 74
     3
 75
     0
 76
     0
 77
     0
 78
     0
  0
ENDTAB
  0
TABLE
  2
LTYPE
  5
5
330
0
100
AcDbSymbolTable
 70
     1
  0
LTYPE
  5
13
330
5
100
AcDbSymbolTableRecord
100
AcDbLinetypeTableRecord
  2
BYBLOCK
 70
     0
  3

 72
    65
 73
     0
 40
0.0
  0
LTYPE
  5
14
330
5
100
AcDbSymbolTableRecord
100
AcDbLinetypeTableRecord
  2
BYLAYER
 70
     0
  3

 72
    65
 73
     0
 40
0.0
  0
LTYPE
  5
15
330
5
100
AcDbSymbolTableRecord
100
AcDbLinetypeTableRecord
  2
CONTINUOUS
 70
     0
  3
Solid line
 72
    65
 73
     0
 40
0.0
  0
ENDTAB
  0
TABLE
  2
LAYER
  5
2
330
0
100
AcDbSymbolTable
 70
     1
  0
LAYER
  5
10
330
2
100
AcDbSymbolTableRecord
100
AcDbLayerTableRecord
  2
0
 70
     0
 62
     7
  6
CONTINUOUS
  0
ENDTAB
  0
TABLE
  2
STYLE
  5
3
330
0
100
AcDbSymbolTable
 70
     1
  0
STYLE
  5
11
330
3
100
AcDbSymbolTableRecord
100
AcDbTextStyleTableRecord
  2
STANDARD
 70
     0
 40
0.0
 41
1.0
 50
0.0
 71
     0
 42
0.2
  3
txt
  4

  0
ENDTAB
  0
TABLE
  2
VIEW
  5
6
330
0
100
AcDbSymbolTable
 70
     0
  0
ENDTAB
  0
TABLE
  2
UCS
  5
7
330
0
100
AcDbSymbolTable
 70
     0
  0
ENDTAB
  0
TABLE
  2
APPID
  5
9
330
0
100
AcDbSymbolTable
 70
     1
  0
APPID
  5
12
330
9
100
AcDbSymbolTableRecord
100
AcDbRegAppTableRecord
  2
ACAD
 70
     0
  0
ENDTAB
  0
TABLE
  2
DIMSTYLE
  5
A
330
0
100
AcDbSymbolTable
 70
     1
  0
DIMSTYLE
105
6B1
330
A
100
AcDbSymbolTableRecord
100
AcDbDimStyleTableRecord
  2
STANDARD
 70
     0
  3

  4

  5

  6

  7

 40
1.0
 41
0.18
 42
0.0625
 43
0.38
 44
0.18
 45
0.0
 46
0.0
 47
0.0
 48
0.0
140
0.18
141
0.09
142
0.0
143
25.4
144
1.0
145
0.0
146
1.0
147
0.09
 71
     0
 72
     0
 73
     1
 74
     1
 75
     0
 76
     0
 77
     0
 78
     0
170
     0
171
     2
172
     0
173
     0
174
     0
175
     0
176
     0
177
     0
178
     0
270
     2
271
     4
272
     4
273
     2
274
     2
340
11
275
     0
280
     0
281
     0
282
     0
283
     1
284
     0
285
     0
286
     0
287
     3
288
     0
  0
ENDTAB
  0
TABLE
  2
BLOCK_RECORD
  5
1
330
0
100
AcDbSymbolTable
 70
     0
  0
BLOCK_RECORD
  5
1E
102
{ACAD_XDICTIONARY
360
72B
102
}
330
1
100
AcDbSymbolTableRecord
100
AcDbBlockTableRecord
  2
*MODEL_SPACE
  0
BLOCK_RECORD
  5
1A
102
{ACAD_XDICTIONARY
360
729
102
}
330
1
100
AcDbSymbolTableRecord
100
AcDbBlockTableRecord
  2
*PAPER_SPACE
  0
ENDTAB
  0
ENDSEC
  0
SECTION
  2
BLOCKS
  0
BLOCK
  5
1F
330
1E
100
AcDbEntity
  8
0
100
AcDbBlockBegin
  2
*MODEL_SPACE
 70
     0
 10
0.0
 20
0.0
 30
0.0
  3
*MODEL_SPACE
  1

  0
ENDBLK
  5
20
330
1E
100
AcDbEntity
  8
0
100
AcDbBlockEnd
  0
BLOCK
  5
1B
330
1A
100
AcDbEntity
 67
     1
  8
0
100
AcDbBlockBegin
  2
*PAPER_SPACE
 70
     0
 10
0.0
 20
0.0
 30
0.0
  3
*PAPER_SPACE
  1

  0
ENDBLK
  5
1C
330
1A
100
AcDbEntity
 67
     1
  8
0
100
AcDbBlockEnd
  0
ENDSEC
  0
SECTION
  2
ENTITIES
  0
LINE
  5
22
330
1E
100
AcDbEntity
  8
0
100
AcDbLine
 10
59.18899999999999
 20
367.276
 30
0.0
 11
59.95924935216099
 21
368.0457050063289
 31
0.0
  0
LINE
  5
23
330
1E
100
AcDbEntity
  8
0
100
AcDbLine
 10
59.61899999999999
 20
366.846
 30
0.0
 11
60.3546296329566
 21
367.5821498802219
 31
0.0
  0
LINE
  5
24
330
1E
100
AcDbEntity
  8
0
100
AcDbLine
 10
59.40699999999999
 20
367.059
 30
0.0
 11
59.61899999999999
 21
366.846
 31
0.0
  0
LINE
  5
25
330
1E
100
AcDbEntity
  8
0
100
AcDbLine
 10
59.40699999999999
 20
367.059
 30
0.0
 11
60.1301966823393
 21
367.782196682339
 31
0.0
  0
LINE
  5
26
330
1E
100
AcDbEntity
  8
0
100
AcDbLine
 10
58.894
 20
367.5709999999999
 30
0.0
 11
59.18899999999999
 21
367.276
 31
0.0
  0
LINE
  5
27
330
1E
100
AcDbEntity
  8
0
100
AcDbLine
 10
58.894
 20
367.5709999999999
 30
0.0
 11
59.6456917286
 21
368.322160497696
 31
0.0
  0
LINE
  5
28
330
1E
100
AcDbEntity
  8
0
100
AcDbLine
 10
58.74459282050839
 20
367.7206923076969
 30
0.0
 11
58.894
 21
367.5709999999999
 31
0.0
  0
LINE
  5
29
330
1E
100
AcDbEntity
  8
0
100
AcDbLine
 10
58.7445928205083
 20
367.7206923076969
 30
0.0
 11
58.894
 21
367.5709999999999
 31
0.0
  0
LINE
  5
2A
330
1E
100
AcDbEntity
  8
0
100
AcDbLine
 10
58.7312815198567
 20
367.7339740932689
 30
0.0
 11
58.8424590163812
 21
367.622639344275
 31
0.0
  0
LINE
  5
2B
330
1E
100
AcDbEntity
  8
0
100
AcDbLine
 10
57.545
 20
368.92
 30
0.0
 11
57.913
 21
368.5519999999999
 31
0.0
  0
LINE
  5
2C
330
1E
100
AcDbEntity
  8
0
100
AcDbLine
 10
57.545
 20
368.92
 30
0.0
 11
58.342
 21
369.7169999999999
 31
0.0
  0
LINE
  5
2D
330
1E
100
AcDbEntity
  8
0
100
AcDbLine
 10
57.007
 20
369.458
 30
0.0
 11
57.545
 21
368.92
 31
0.0
  0
LINE
  5
2E
330
1E
100
AcDbEntity
  8
0
100
AcDbLine
 10
57.007
 20
369.458
 30
0.0
 11
57.80371827500889
 21
370.2552817249909
 31
0.0
  0
LINE
  5
2F
330
1E
100
AcDbEntity
  8
0
100
AcDbLine
 10
56.615
 20
369.851
 30
0.0
 11
57.007
 21
369.458
 31
0.0
  0
LINE
  5
30
330
1E
100
AcDbEntity
  8
0
100
AcDbLine
 10
56.615
 20
369.851
 30
0.0
 11
57.2473437789799
 21
370.4833437789799
 31
0.0
  0
LINE
  5
31
330
1E
100
AcDbEntity
  8
0
100
AcDbLine
 10
56.584
 20
369.8809999999999
 30
0.0
 11
56.953
 21
369.5119999999999
 31
0.0
  0
LINE
  5
32
330
1E
100
AcDbEntity
  8
0
100
AcDbLine
 10
56.584
 20
369.8809999999999
 30
0.0
 11
57.1327388149208
 21
370.429351013638
 31
0.0
  0
LINE
  5
33
330
1E
100
AcDbEntity
  8
0
100
AcDbLine
 10
56.584
 20
369.8809999999999
 30
0.0
 11
57.2154126612795
 21
370.5119664332499
 31
0.0
  0
LINE
  5
34
330
1E
100
AcDbEntity
  8
0
100
AcDbLine
 10
58.36999999999999
 20
368.096
 30
0.0
 11
58.894
 21
367.5709999999999
 31
0.0
  0
LINE
  5
35
330
1E
100
AcDbEntity
  8
0
100
AcDbLine
 10
58.36999999999999
 20
368.096
 30
0.0
 11
59.0881969059556
 21
368.813688987352
 31
0.0
  0
LINE
  5
36
330
1E
100
AcDbEntity
  8
0
100
AcDbLine
 10
57.92
 20
368.5459999999999
 30
0.0
 11
58.36999999999999
 21
368.096
 31
0.0
  0
LINE
  5
37
330
1E
100
AcDbEntity
  8
0
100
AcDbLine
 10
57.92
 20
368.5459999999999
 30
0.0
 11
58.60962936938539
 21
369.2356293693849
 31
0.0
  0
LINE
  5
38
330
1E
100
AcDbEntity
  8
0
100
AcDbLine
 10
57.92
 20
368.5459999999999
 30
0.0
 11
58.60962936938539
 21
369.2356293693849
 31
0.0
  0
LINE
  5
39
330
1E
100
AcDbEntity
  8
0
100
AcDbLine
 10
58.092
 20
368.374
 30
0.0
 11
58.61600000000001
 21
367.849
 31
0.0
  0
LINE
  5
3A
330
1E
100
AcDbEntity
  8
0
100
AcDbLine
 10
58.61600000000001
 20
367.849
 30
0.0
 11
58.74459282050839
 21
367.7206923076969
 31
0.0
  0
LINE
  5
3B
330
1E
100
AcDbEntity
  8
0
100
AcDbLine
 10
58.61600000000001
 20
367.849
 30
0.0
 11
58.7445928205083
 21
367.7206923076969
 31
0.0
  0
LINE
  5
3C
330
1E
100
AcDbEntity
  8
0
100
AcDbLine
 10
58.493
 20
367.9719999999999
 30
0.0
 11
58.61600000000001
 21
367.849
 31
0.0
  0
LINE
  5
3D
330
1E
100
AcDbEntity
  8
0
100
AcDbLine
 10
57.9135
 20
368.5525
 30
0.0
 11
58.092
 21
368.374
 31
0.0
  0
LINE
  5
3E
330
1E
100
AcDbEntity
  8
0
100
AcDbLine
 10
57.913
 20
368.5519999999999
 30
0.0
 11
58.71
 21
369.349
 31
0.0
  0
LINE
  5
3F
330
1E
100
AcDbEntity
  8
0
100
AcDbLine
 10
58.7312815198566
 20
367.7339740932689
 30
0.0
 11
58.8424590163815
 21
367.6226393442739
 31
0.0
  0
LINE
  5
40
330
1E
100
AcDbEntity
  8
0
100
AcDbLine
 10
58.912
 20
367.553
 30
0.0
 11
59.61899999999999
 21
366.846
 31
0.0
  0
LINE
  5
41
330
1E
100
AcDbEntity
  8
0
100
AcDbLine
 10
59.1892801799934
 20
367.276279981986
 30
0.0
 11
59.40699999999999
 21
367.059
 31
0.0
  0
LINE
  5
42
330
1E
100
AcDbEntity
  8
0
100
AcDbLine
 10
72.31950000000001
 20
357.8959999999999
 30
0.0
 11
75.26430000000001
 21
356.438
 31
0.0
  0
LINE
  5
43
330
1E
100
AcDbEntity
  8
0
100
AcDbLine
 10
69.7852
 20
359.683
 30
0.0
 11
72.31950000000001
 21
357.8959999999999
 31
0.0
  0
LINE
  5
44
330
1E
100
AcDbEntity
  8
0
100
AcDbLine
 10
67.4585
 20
361.4269999999999
 30
0.0
 11
69.7852
 21
359.683
 31
0.0
  0
LINE
  5
45
330
1E
100
AcDbEntity
  8
0
100
AcDbLine
 10
64.6335
 20
363.837
 30
0.0
 11
67.4585
 21
361.4269999999999
 31
0.0
  0
LINE
  5
46
330
1E
100
AcDbEntity
  8
0
100
AcDbLine
 10
62.177579239584
 20
366.2321302813079
 30
0.0
 11
64.6335
 21
363.837
 31
0.0
  0
LINE
  5
48
330
1E
100
AcDbEntity
  8
0
100
AcDbLine
 10
61.4767
 20
366.582
 30
0.0
 11
62.177579239584
 21
366.2321302813079
 31
0.0
  0
LINE
  5
49
330
1E
100
AcDbEntity
  8
0
100
AcDbLine
 10
60.3512598013875
 20
367.578777665462
 30
0.0
 11
61.4767
 21
366.582
 31
0.0
  0
LINE
  5
4A
330
1E
100
AcDbEntity
  8
0
100
AcDbLine
 10
55.39899999999999
 20
371.0669999999999
 30
0.0
 11
55.83
 21
370.635
 31
0.0
  0
LINE
  5
4B
330
1E
100
AcDbEntity
  8
0
100
AcDbLine
 10
55.39899999999999
 20
371.0669999999999
 30
0.0
 11
56.12285061579701
 21
371.7908506157969
 31
0.0
  0
LINE
  5
4C
330
1E
100
AcDbEntity
  8
0
100
AcDbLine
 10
55.57100000000001
 20
370.894
 30
0.0
 11
55.68195092837971
 21
370.7833925729469
 31
0.0
  0
LINE
  5
4D
330
1E
100
AcDbEntity
  8
0
100
AcDbLine
 10
55.57100000000001
 20
370.894
 30
0.0
 11
55.68195092837971
 21
370.7833925729469
 31
0.0
  0
LINE
  5
4E
330
1E
100
AcDbEntity
  8
0
100
AcDbLine
 10
53.60199999999999
 20
372.365
 30
0.0
 11
54.285544280372
 21
373.0480612102089
 31
0.0
  0
LINE
  5
4F
330
1E
100
AcDbEntity
  8
0
100
AcDbLine
 10
53.348
 20
372.619
 30
0.0
 11
53.60199999999999
 21
372.365
 31
0.0
  0
LINE
  5
50
330
1E
100
AcDbEntity
  8
0
100
AcDbLine
 10
53.348
 20
372.619
 30
0.0
 11
54.0153151294139
 21
373.2863151294139
 31
0.0
  0
LINE
  5
51
330
1E
100
AcDbEntity
  8
0
100
AcDbLine
 10
54.7530490716177
 20
371.7126074270559
 30
0.0
 11
55.036
 21
371.429
 31
0.0
  0
LINE
  5
52
330
1E
100
AcDbEntity
  8
0
100
AcDbLine
 10
54.86399999999999
 20
371.6019999999999
 30
0.0
 11
55.39899999999999
 21
371.0669999999999
 31
0.0
  0
LINE
  5
53
330
1E
100
AcDbEntity
  8
0
100
AcDbLine
 10
54.86399999999999
 20
371.6019999999999
 30
0.0
 11
55.5584390224951
 21
372.2964390224949
 31
0.0
  0
LINE
  5
54
330
1E
100
AcDbEntity
  8
0
100
AcDbLine
 10
54.541
 20
371.924
 30
0.0
 11
55.0359999999715
 21
371.4290000000289
 31
0.0
  0
LINE
  5
55
330
1E
100
AcDbEntity
  8
0
100
AcDbLine
 10
54.541
 20
371.924
 30
0.0
 11
55.0359999999715
 21
371.4290000000289
 31
0.0
  0
LINE
  5
56
330
1E
100
AcDbEntity
  8
0
100
AcDbLine
 10
54.541
 20
371.924
 30
0.0
 11
54.96551411164639
 21
372.3488143337899
 31
0.0
  0
LINE
  5
57
330
1E
100
AcDbEntity
  8
0
100
AcDbLine
 10
54.541
 20
371.924
 30
0.0
 11
55.217
 21
371.248
 31
0.0
  0
LINE
  5
58
330
1E
100
AcDbEntity
  8
0
100
AcDbLine
 10
54.541
 20
371.924
 30
0.0
 11
54.86399999999999
 21
371.6019999999999
 31
0.0
  0
LINE
  5
59
330
1E
100
AcDbEntity
  8
0
100
AcDbLine
 10
54.541
 20
371.924
 30
0.0
 11
55.21795706777229
 21
372.601435821003
 31
0.0
  0
LINE
  5
5A
330
1E
100
AcDbEntity
  8
0
100
AcDbLine
 10
55.036
 20
371.429
 30
0.0
 11
55.57100000000001
 21
370.894
 31
0.0
  0
LINE
  5
5B
330
1E
100
AcDbEntity
  8
0
100
AcDbLine
 10
55.217
 20
371.248
 30
0.0
 11
55.83
 21
370.635
 31
0.0
  0
LINE
  5
5C
330
1E
100
AcDbEntity
  8
0
100
AcDbLine
 10
55.894
 20
370.5719999999999
 30
0.0
 11
56.645063211469
 21
371.323063211469
 31
0.0
  0
LINE
  5
5D
330
1E
100
AcDbEntity
  8
0
100
AcDbLine
 10
55.68195092837971
 20
370.7833925729469
 30
0.0
 11
55.83
 21
370.635
 31
0.0
  0
LINE
  5
5E
330
1E
100
AcDbEntity
  8
0
100
AcDbLine
 10
55.83
 20
370.635
 30
0.0
 11
55.894
 21
370.5719999999999
 31
0.0
  0
LINE
  5
5F
330
1E
100
AcDbEntity
  8
0
100
AcDbLine
 10
55.83
 20
370.635
 30
0.0
 11
56.577793341191
 21
371.3833221907959
 31
0.0
  0
LINE
  5
60
330
1E
100
AcDbEntity
  8
0
100
AcDbLine
 10
55.68195092837971
 20
370.7833925729469
 30
0.0
 11
55.83
 21
370.635
 31
0.0
  0
LINE
  5
61
330
1E
100
AcDbEntity
  8
0
100
AcDbLine
 10
52.918
 20
373.05
 30
0.0
 11
53.6114730074458
 21
373.742492833584
 31
0.0
  0
LINE
  5
62
330
1E
100
AcDbEntity
  8
0
100
AcDbLine
 10
52.898
 20
373.069
 30
0.0
 11
53.348
 21
372.619
 31
0.0
  0
LINE
  5
63
330
1E
100
AcDbEntity
  8
0
100
AcDbLine
 10
52.898
 20
373.069
 30
0.0
 11
53.60199999999999
 21
372.365
 31
0.0
  0
LINE
  5
64
330
1E
100
AcDbEntity
  8
0
100
AcDbLine
 10
52.898
 20
373.069
 30
0.0
 11
53.348
 21
372.619
 31
0.0
  0
LINE
  5
65
330
1E
100
AcDbEntity
  8
0
100
AcDbLine
 10
54.234077963561
 20
372.996631265354
 30
0.0
 11
54.96551411164639
 21
372.3488143337899
 31
0.0
  0
LINE
  5
67
330
1E
100
AcDbEntity
  8
0
100
AcDbLine
 10
56.4001705957223
 20
371.078170595722
 30
0.0
 11
57.1327388149208
 21
370.429351013638
 31
0.0
  0
LINE
  5
69
330
1E
100
AcDbEntity
  8
0
100
AcDbLine
 10
73.99250000000001
 20
369.623
 30
0.0
 11
75.2654
 21
368.351
 31
0.0
  0
LINE
  5
6A
330
1E
100
AcDbEntity
  8
0
100
AcDbLine
 10
29.11599999999999
 20
396.851
 30
0.0
 11
29.628
 21
396.34
 31
0.0
  0
LINE
  5
6B
330
1E
100
AcDbEntity
  8
0
100
AcDbLine
 10
29.11599999999999
 20
396.851
 30
0.0
 11
29.6394206595731
 21
397.3744206595729
 31
0.0
  0
LINE
  5
6C
330
1E
100
AcDbEntity
  8
0
100
AcDbLine
 10
28.555
 20
396.2519999999999
 30
0.0
 11
29.1205
 21
396.8175
 31
0.0
  0
LINE
  5
6D
330
1E
100
AcDbEntity
  8
0
100
AcDbLine
 10
28.399
 20
396.4069999999999
 30
0.0
 11
28.555
 21
396.2519999999999
 31
0.0
  0
LINE
  5
6E
330
1E
100
AcDbEntity
  8
0
100
AcDbLine
 10
28.399
 20
396.4069999999999
 30
0.0
 11
28.9647999293037
 21
396.973200070696
 31
0.0
  0
LINE
  5
6F
330
1E
100
AcDbEntity
  8
0
100
AcDbLine
 10
26.638
 20
398.168
 30
0.0
 11
27.204
 21
398.734
 31
0.0
  0
LINE
  5
70
330
1E
100
AcDbEntity
  8
0
100
AcDbLine
 10
26.515
 20
398.291
 30
0.0
 11
26.638
 21
398.168
 31
0.0
  0
LINE
  5
71
330
1E
100
AcDbEntity
  8
0
100
AcDbLine
 10
26.515
 20
398.291
 30
0.0
 11
27.08099999999999
 21
398.8569999999999
 31
0.0
  0
LINE
  5
72
330
1E
100
AcDbEntity
  8
0
100
AcDbLine
 10
27.16
 20
397.6459999999999
 30
0.0
 11
27.403
 21
397.403
 31
0.0
  0
LINE
  5
73
330
1E
100
AcDbEntity
  8
0
100
AcDbLine
 10
27.16
 20
397.6459999999999
 30
0.0
 11
27.7257999293036
 21
398.212200070696
 31
0.0
  0
LINE
  5
74
330
1E
100
AcDbEntity
  8
0
100
AcDbLine
 10
28.473
 20
397.495
 30
0.0
 11
28.641
 21
397.3259999999999
 31
0.0
  0
LINE
  5
75
330
1E
100
AcDbEntity
  8
0
100
AcDbLine
 10
28.473
 20
397.495
 30
0.0
 11
29.0560135483445
 21
398.0780135483439
 31
0.0
  0
LINE
  5
76
330
1E
100
AcDbEntity
  8
0
100
AcDbLine
 10
28.641
 20
397.3259999999999
 30
0.0
 11
29.11599999999999
 21
396.851
 31
0.0
  0
LINE
  5
77
330
1E
100
AcDbEntity
  8
0
100
AcDbLine
 10
28.641
 20
397.3259999999999
 30
0.0
 11
29.2089602208629
 21
397.893558835548
 31
0.0
  0
LINE
  5
78
330
1E
100
AcDbEntity
  8
0
100
AcDbLine
 10
27.403
 20
397.403
 30
0.0
 11
27.918
 21
396.888
 31
0.0
  0
LINE
  5
79
330
1E
100
AcDbEntity
  8
0
100
AcDbLine
 10
27.403
 20
397.403
 30
0.0
 11
27.9687999293037
 21
397.969200070696
 31
0.0
  0
LINE
  5
7A
330
1E
100
AcDbEntity
  8
0
100
AcDbLine
 10
27.403
 20
397.403
 30
0.0
 11
27.9687999293037
 21
397.969200070696
 31
0.0
  0
LINE
  5
7B
330
1E
100
AcDbEntity
  8
0
100
AcDbLine
 10
27.918
 20
396.888
 30
0.0
 11
28.399
 21
396.4069999999999
 31
0.0
  0
LINE
  5
7C
330
1E
100
AcDbEntity
  8
0
100
AcDbLine
 10
27.918
 20
396.888
 30
0.0
 11
28.484
 21
397.454
 31
0.0
  0
LINE
  5
7D
330
1E
100
AcDbEntity
  8
0
100
AcDbLine
 10
29.233
 20
396.705
 30
0.0
 11
30.36441710851889
 21
395.573582891481
 31
0.0
  0
LINE
  5
7E
330
1E
100
AcDbEntity
  8
0
100
AcDbLine
 10
29.1775601173138
 20
396.7895601172899
 30
0.0
 11
29.239
 21
396.728
 31
0.0
  0
LINE
  5
7F
330
1E
100
AcDbEntity
  8
0
100
AcDbLine
 10
29.239
 20
396.728
 30
0.0
 11
29.7139999999808
 21
396.254000000019
 31
0.0
  0
LINE
  5
80
330
1E
100
AcDbEntity
  8
0
100
AcDbLine
 10
29.239
 20
396.728
 30
0.0
 11
29.7139999999808
 21
396.254000000019
 31
0.0
  0
LINE
  5
81
330
1E
100
AcDbEntity
  8
0
100
AcDbLine
 10
29.1775601173137
 20
396.7895601172899
 30
0.0
 11
29.239
 21
396.728
 31
0.0
  0
LINE
  5
82
330
1E
100
AcDbEntity
  8
0
100
AcDbLine
 10
29.628
 20
396.34
 30
0.0
 11
29.88199999999999
 21
396.086
 31
0.0
  0
LINE
  5
83
330
1E
100
AcDbEntity
  8
0
100
AcDbLine
 10
29.628
 20
396.34
 30
0.0
 11
30.1031545172163
 21
396.815154517216
 31
0.0
  0
LINE
  5
84
330
1E
100
AcDbEntity
  8
0
100
AcDbLine
 10
29.7980000000001
 20
395.008
 30
0.0
 11
30.364
 21
395.574
 31
0.0
  0
LINE
  5
85
330
1E
100
AcDbEntity
  8
0
100
AcDbLine
 10
29.7980000000001
 20
395.008
 30
0.0
 11
30.01
 21
394.796
 31
0.0
  0
LINE
  5
86
330
1E
100
AcDbEntity
  8
0
100
AcDbLine
 10
29.657
 20
394.8659999999999
 30
0.0
 11
29.8690000000001
 21
394.654
 31
0.0
  0
LINE
  5
87
330
1E
100
AcDbEntity
  8
0
100
AcDbLine
 10
29.657
 20
394.8659999999999
 30
0.0
 11
29.798449982326
 21
395.007550017674
 31
0.0
  0
LINE
  5
88
330
1E
100
AcDbEntity
  8
0
100
AcDbLine
 10
30.01
 20
394.796
 30
0.0
 11
30.50499999999999
 21
394.301
 31
0.0
  0
LINE
  5
89
330
1E
100
AcDbEntity
  8
0
100
AcDbLine
 10
30.01
 20
394.796
 30
0.0
 11
30.1675
 21
394.9535
 31
0.0
  0
LINE
  5
8A
330
1E
100
AcDbEntity
  8
0
100
AcDbLine
 10
30.079
 20
395.0419999999999
 30
0.0
 11
30.24700000000009
 21
394.874
 31
0.0
  0
LINE
  5
8B
330
1E
100
AcDbEntity
  8
0
100
AcDbLine
 10
30.079
 20
395.0419999999999
 30
0.0
 11
30.2529384941676
 21
395.2160615058319
 31
0.0
  0
LINE
  5
8C
330
1E
100
AcDbEntity
  8
0
100
AcDbLine
 10
30.50499999999999
 20
394.301
 30
0.0
 11
31.0
 21
393.806
 31
0.0
  0
LINE
  5
8D
330
1E
100
AcDbEntity
  8
0
100
AcDbLine
 10
30.50499999999999
 20
394.301
 30
0.0
 11
30.6625556733828
 21
394.4584443266169
 31
0.0
  0
LINE
  5
8E
330
1E
100
AcDbEntity
  8
0
100
AcDbLine
 10
30.24700000000009
 20
394.874
 30
0.0
 11
30.722
 21
394.3989999999999
 31
0.0
  0
LINE
  5
8F
330
1E
100
AcDbEntity
  8
0
100
AcDbLine
 10
30.24700000000009
 20
394.874
 30
0.0
 11
30.42114147497399
 21
395.0480184067939
 31
0.0
  0
LINE
  5
90
330
1E
100
AcDbEntity
  8
0
100
AcDbLine
 10
30.12999999999999
 20
395.339
 30
0.0
 11
30.342
 21
395.1269999999999
 31
0.0
  0
LINE
  5
91
330
1E
100
AcDbEntity
  8
0
100
AcDbLine
 10
30.12999999999999
 20
395.339
 30
0.0
 11
30.71821392290969
 21
395.927629915783
 31
0.0
  0
LINE
  5
92
330
1E
100
AcDbEntity
  8
0
100
AcDbLine
 10
30.342
 20
395.1269999999999
 30
0.0
 11
30.8370000000001
 21
394.633
 31
0.0
  0
LINE
  5
93
330
1E
100
AcDbEntity
  8
0
100
AcDbLine
 10
30.342
 20
395.1269999999999
 30
0.0
 11
30.8398239660658
 21
395.6251760339339
 31
0.0
  0
LINE
  5
94
330
1E
100
AcDbEntity
  8
0
100
AcDbLine
 10
30.628
 20
395.837
 30
0.0
 11
30.84
 21
395.625
 31
0.0
  0
LINE
  5
95
330
1E
100
AcDbEntity
  8
0
100
AcDbLine
 10
30.628
 20
395.837
 30
0.0
 11
31.4254533077788
 21
396.6344533077789
 31
0.0
  0
LINE
  5
96
330
1E
100
AcDbEntity
  8
0
100
AcDbLine
 10
29.88199999999999
 20
396.086
 30
0.0
 11
30.3334348688124
 21
396.5374348688119
 31
0.0
  0
LINE
  5
97
330
1E
100
AcDbEntity
  8
0
100
AcDbLine
 10
29.8690000000001
 20
394.654
 30
0.0
 11
30.364
 21
394.16
 31
0.0
  0
LINE
  5
98
330
1E
100
AcDbEntity
  8
0
100
AcDbLine
 10
29.8690000000001
 20
394.654
 30
0.0
 11
30.0104499823259
 21
394.795550017674
 31
0.0
  0
LINE
  5
99
330
1E
100
AcDbEntity
  8
0
100
AcDbLine
 10
30.364
 20
394.16
 30
0.0
 11
30.859
 21
393.664
 31
0.0
  0
LINE
  5
9A
330
1E
100
AcDbEntity
  8
0
100
AcDbLine
 10
29.1205
 20
396.8175
 30
0.0
 11
29.233
 21
396.705
 31
0.0
  0
LINE
  5
9B
330
1E
100
AcDbEntity
  8
0
100
AcDbLine
 10
18.9330000000001
 20
407.0339999999999
 30
0.0
 11
18.9993049932533
 21
406.967928475033
 31
0.0
  0
LINE
  5
9C
330
1E
100
AcDbEntity
  8
0
100
AcDbLine
 10
18.649
 20
407.319
 30
0.0
 11
19.10599999999999
 21
406.8609999999999
 31
0.0
  0
LINE
  5
9D
330
1E
100
AcDbEntity
  8
0
100
AcDbLine
 10
18.649
 20
407.319
 30
0.0
 11
19.2047437345718
 21
407.874743734572
 31
0.0
  0
LINE
  5
9E
330
1E
100
AcDbEntity
  8
0
100
AcDbLine
 10
19.21699999999999
 20
406.7509999999999
 30
0.0
 11
19.3619107151276
 21
406.895910715128
 31
0.0
  0
LINE
  5
9F
330
1E
100
AcDbEntity
  8
0
100
AcDbLine
 10
19.21699999999999
 20
406.7509999999999
 30
0.0
 11
19.7391166896783
 21
407.273116689678
 31
0.0
  0
LINE
  5
A0
330
1E
100
AcDbEntity
  8
0
100
AcDbLine
 10
19.10599999999999
 20
406.8609999999999
 30
0.0
 11
19.21699999999999
 21
406.7509999999999
 31
0.0
  0
LINE
  5
A1
330
1E
100
AcDbEntity
  8
0
100
AcDbLine
 10
19.10599999999999
 20
406.8609999999999
 30
0.0
 11
19.6351585707711
 21
407.390158570771
 31
0.0
  0
LINE
  5
A2
330
1E
100
AcDbEntity
  8
0
100
AcDbLine
 10
17.45
 20
408.0199999999999
 30
0.0
 11
17.9475
 21
408.5174999999999
 31
0.0
  0
LINE
  5
A3
330
1E
100
AcDbEntity
  8
0
100
AcDbLine
 10
17.948
 20
408.0189999999999
 30
0.0
 11
18.40599999998989
 21
407.56200000001
 31
0.0
  0
LINE
  5
A4
330
1E
100
AcDbEntity
  8
0
100
AcDbLine
 10
17.948
 20
408.0189999999999
 30
0.0
 11
18.40599999998989
 21
407.56200000001
 31
0.0
  0
LINE
  5
A5
330
1E
100
AcDbEntity
  8
0
100
AcDbLine
 10
18.12199999999999
 20
407.8459999999999
 30
0.0
 11
18.649
 21
407.319
 31
0.0
  0
LINE
  5
A6
330
1E
100
AcDbEntity
  8
0
100
AcDbLine
 10
18.12199999999999
 20
407.8459999999999
 30
0.0
 11
18.70894347516839
 21
408.4329434751679
 31
0.0
  0
LINE
  5
A7
330
1E
100
AcDbEntity
  8
0
100
AcDbLine
 10
17.38599999999999
 20
408.083
 30
0.0
 11
17.45
 21
408.0199999999999
 31
0.0
  0
LINE
  5
A8
330
1E
100
AcDbEntity
  8
0
100
AcDbLine
 10
17.12699999999999
 20
408.342
 30
0.0
 11
17.45
 21
408.0199999999999
 31
0.0
  0
LINE
  5
A9
330
1E
100
AcDbEntity
  8
0
100
AcDbLine
 10
17.12699999999999
 20
408.342
 30
0.0
 11
17.625
 21
408.84
 31
0.0
  0
LINE
  5
AA
330
1E
100
AcDbEntity
  8
0
100
AcDbLine
 10
18.222
 20
408.243
 30
0.0
 11
18.916452563768
 21
408.936961784571
 31
0.0
  0
LINE
  5
AB
330
1E
100
AcDbEntity
  8
0
100
AcDbLine
 10
18.222
 20
408.243
 30
0.0
 11
18.916452563768
 21
408.936961784571
 31
0.0
  0
LINE
  5
AC
330
1E
100
AcDbEntity
  8
0
100
AcDbLine
 10
18.159
 20
408.3069999999999
 30
0.0
 11
18.222
 21
408.243
 31
0.0
  0
LINE
  5
AD
330
1E
100
AcDbEntity
  8
0
100
AcDbLine
 10
18.159
 20
408.3069999999999
 30
0.0
 11
18.85719261988949
 21
409.00519261989
 31
0.0
  0
LINE
  5
AE
330
1E
100
AcDbEntity
  8
0
100
AcDbLine
 10
17.838
 20
408.129
 30
0.0
 11
18.02928883010699
 21
408.320424112165
 31
0.0
  0
LINE
  5
AF
330
1E
100
AcDbEntity
  8
0
100
AcDbLine
 10
17.838
 20
408.129
 30
0.0
 11
18.12199999999999
 21
407.8459999999999
 31
0.0
  0
LINE
  5
B0
330
1E
100
AcDbEntity
  8
0
100
AcDbLine
 10
17.838
 20
408.129
 30
0.0
 11
17.948
 21
408.0189999999999
 31
0.0
  0
LINE
  5
B1
330
1E
100
AcDbEntity
  8
0
100
AcDbLine
 10
17.838
 20
408.129
 30
0.0
 11
18.08691198303289
 21
408.378088016967
 31
0.0
  0
LINE
  5
B2
330
1E
100
AcDbEntity
  8
0
100
AcDbLine
 10
18.40600000001169
 20
407.5619999999879
 30
0.0
 11
18.9330000000001
 21
407.0339999999999
 31
0.0
  0
LINE
  5
B3
330
1E
100
AcDbEntity
  8
0
100
AcDbLine
 10
18.40600000001169
 20
407.5619999999879
 30
0.0
 11
18.9330000000001
 21
407.0339999999999
 31
0.0
  0
LINE
  5
B4
330
1E
100
AcDbEntity
  8
0
100
AcDbLine
 10
18.527
 20
407.4399999999999
 30
0.0
 11
19.10599999999999
 21
406.8609999999999
 31
0.0
  0
LINE
  5
B5
330
1E
100
AcDbEntity
  8
0
100
AcDbLine
 10
18.527
 20
407.4399999999999
 30
0.0
 11
18.9330000000001
 21
407.0339999999999
 31
0.0
  0
LINE
  5
B6
330
1E
100
AcDbEntity
  8
0
100
AcDbLine
 10
20.90699999999999
 20
404.2149999999999
 30
0.0
 11
21.08053195876289
 21
404.3885319587629
 31
0.0
  0
LINE
  5
B7
330
1E
100
AcDbEntity
  8
0
100
AcDbLine
 10
21.09599999999999
 20
404.373
 30
0.0
 11
21.3453968581953
 21
404.622220605999
 31
0.0
  0
LINE
  5
B8
330
1E
100
AcDbEntity
  8
0
100
AcDbLine
 10
19.59099999999999
 20
405.5299999999999
 30
0.0
 11
19.76529581993569
 21
405.7042958199359
 31
0.0
  0
LINE
  5
B9
330
1E
100
AcDbEntity
  8
0
100
AcDbLine
 10
19.59099999999999
 20
405.5299999999999
 30
0.0
 11
19.76529581993569
 21
405.7042958199359
 31
0.0
  0
LINE
  5
BA
330
1E
100
AcDbEntity
  8
0
100
AcDbLine
 10
19.608
 20
405.513
 30
0.0
 11
20.009
 21
405.1109999999999
 31
0.0
  0
LINE
  5
BB
330
1E
100
AcDbEntity
  8
0
100
AcDbLine
 10
19.608
 20
405.513
 30
0.0
 11
19.78224115755629
 21
405.6872411575559
 31
0.0
  0
LINE
  5
BC
330
1E
100
AcDbEntity
  8
0
100
AcDbLine
 10
19.85699999999999
 20
405.6119999999999
 30
0.0
 11
19.944
 21
405.525
 31
0.0
  0
LINE
  5
BD
330
1E
100
AcDbEntity
  8
0
100
AcDbLine
 10
19.85699999999999
 20
405.6119999999999
 30
0.0
 11
19.943999999996
 21
405.5250000000039
 31
0.0
  0
LINE
  5
BE
330
1E
100
AcDbEntity
  8
0
100
AcDbLine
 10
20.009
 20
405.1109999999999
 30
0.0
 11
20.548
 21
404.574
 31
0.0
  0
LINE
  5
BF
330
1E
100
AcDbEntity
  8
0
100
AcDbLine
 10
20.009
 20
405.1109999999999
 30
0.0
 11
20.18349999999999
 21
405.2855
 31
0.0
  0
LINE
  5
C0
330
1E
100
AcDbEntity
  8
0
100
AcDbLine
 10
19.944
 20
405.525
 30
0.0
 11
20.46
 21
405.0089999999999
 31
0.0
  0
LINE
  5
C1
330
1E
100
AcDbEntity
  8
0
100
AcDbLine
 10
19.944
 20
405.525
 30
0.0
 11
20.53199999999999
 21
406.113
 31
0.0
  0
LINE
  5
C2
330
1E
100
AcDbEntity
  8
0
100
AcDbLine
 10
19.702
 20
405.768
 30
0.0
 11
19.944
 21
405.525
 31
0.0
  0
LINE
  5
C3
330
1E
100
AcDbEntity
  8
0
100
AcDbLine
 10
19.702
 20
405.768
 30
0.0
 11
19.85699999999999
 21
405.6119999999999
 31
0.0
  0
LINE
  5
C4
330
1E
100
AcDbEntity
  8
0
100
AcDbLine
 10
19.702
 20
405.768
 30
0.0
 11
20.2892923294451
 21
406.3557076705549
 31
0.0
  0
LINE
  5
C5
330
1E
100
AcDbEntity
  8
0
100
AcDbLine
 10
19.458
 20
405.663
 30
0.0
 11
19.5911854951186
 21
405.530185495119
 31
0.0
  0
LINE
  5
C6
330
1E
100
AcDbEntity
  8
0
100
AcDbLine
 10
19.458
 20
405.663
 30
0.0
 11
20.0187633978642
 21
406.2237633978639
 31
0.0
  0
LINE
  5
C7
330
1E
100
AcDbEntity
  8
0
100
AcDbLine
 10
19.475
 20
405.6459999999999
 30
0.0
 11
19.59099999999999
 21
405.5299999999999
 31
0.0
  0
LINE
  5
C8
330
1E
100
AcDbEntity
  8
0
100
AcDbLine
 10
20.548
 20
404.574
 30
0.0
 11
20.90699999999999
 21
404.2149999999999
 31
0.0
  0
LINE
  5
C9
330
1E
100
AcDbEntity
  8
0
100
AcDbLine
 10
20.548
 20
404.574
 30
0.0
 11
20.7218336451034
 21
404.747710707589
 31
0.0
  0
LINE
  5
CA
330
1E
100
AcDbEntity
  8
0
100
AcDbLine
 10
20.8831203319487
 20
404.586759336101
 30
0.0
 11
21.09599999999999
 21
404.373
 31
0.0
  0
LINE
  5
CB
330
1E
100
AcDbEntity
  8
0
100
AcDbLine
 10
20.941
 20
404.5289999999999
 30
0.0
 11
21.09599999999999
 21
404.373
 31
0.0
  0
LINE
  5
CC
330
1E
100
AcDbEntity
  8
0
100
AcDbLine
 10
20.941
 20
404.5289999999999
 30
0.0
 11
21.1899119830329
 21
404.7780880169669
 31
0.0
  0
LINE
  5
CD
330
1E
100
AcDbEntity
  8
0
100
AcDbLine
 10
20.488
 20
404.633
 30
0.0
 11
20.88999999999999
 21
404.2309999999999
 31
0.0
  0
LINE
  5
CE
330
1E
100
AcDbEntity
  8
0
100
AcDbLine
 10
20.8831203319487
 20
404.586759336101
 30
0.0
 11
21.09599999999999
 21
404.373
 31
0.0
  0
LINE
  5
CF
330
1E
100
AcDbEntity
  8
0
100
AcDbLine
 10
20.355
 20
404.7659999999999
 30
0.0
 11
20.756
 21
404.365
 31
0.0
  0
LINE
  5
D0
330
1E
100
AcDbEntity
  8
0
100
AcDbLine
 10
20.2785000000057
 20
404.8424999999939
 30
0.0
 11
20.488
 21
404.633
 31
0.0
  0
LINE
  5
D1
330
1E
100
AcDbEntity
  8
0
100
AcDbLine
 10
20.2785000000057
 20
404.8424999999939
 30
0.0
 11
20.488
 21
404.633
 31
0.0
  0
LINE
  5
D2
330
1E
100
AcDbEntity
  8
0
100
AcDbLine
 10
20.46
 20
405.0089999999999
 30
0.0
 11
20.941
 21
404.5289999999999
 31
0.0
  0
LINE
  5
D3
330
1E
100
AcDbEntity
  8
0
100
AcDbLine
 10
20.46
 20
405.0089999999999
 30
0.0
 11
21.048
 21
405.597
 31
0.0
  0
LINE
  5
D4
330
1E
100
AcDbEntity
  8
0
100
AcDbLine
 10
21.1920000000201
 20
404.77599999998
 30
0.0
 11
21.5930000000001
 21
404.374
 31
0.0
  0
LINE
  5
D5
330
1E
100
AcDbEntity
  8
0
100
AcDbLine
 10
21.1920000000201
 20
404.77599999998
 30
0.0
 11
21.5930000000001
 21
404.374
 31
0.0
  0
LINE
  5
D6
330
1E
100
AcDbEntity
  8
0
100
AcDbLine
 10
21.175
 20
404.793
 30
0.0
 11
21.534
 21
404.434
 31
0.0
  0
LINE
  5
D7
330
1E
100
AcDbEntity
  8
0
100
AcDbLine
 10
21.175
 20
404.793
 30
0.0
 11
21.42349999999999
 21
405.0415
 31
0.0
  0
LINE
  5
D8
330
1E
100
AcDbEntity
  8
0
100
AcDbLine
 10
21.175
 20
404.793
 30
0.0
 11
21.42349999999999
 21
405.0415
 31
0.0
  0
LINE
  5
D9
330
1E
100
AcDbEntity
  8
0
100
AcDbLine
 10
21.238
 20
405.227
 30
0.0
 11
21.60699999999999
 21
404.858
 31
0.0
  0
LINE
  5
DA
330
1E
100
AcDbEntity
  8
0
100
AcDbLine
 10
21.238
 20
405.227
 30
0.0
 11
22.0351009084137
 21
406.0235375862169
 31
0.0
  0
LINE
  5
DB
330
1E
100
AcDbEntity
  8
0
100
AcDbLine
 10
21.2690000000001
 20
405.1969999999999
 30
0.0
 11
21.66099999999999
 21
404.8049999999999
 31
0.0
  0
LINE
  5
DC
330
1E
100
AcDbEntity
  8
0
100
AcDbLine
 10
21.2690000000001
 20
405.1969999999999
 30
0.0
 11
22.0653214056139
 21
405.993321405614
 31
0.0
  0
LINE
  5
DD
330
1E
100
AcDbEntity
  8
0
100
AcDbLine
 10
20.27850000000219
 20
404.842499999998
 30
0.0
 11
20.414
 21
404.7069999999999
 31
0.0
  0
LINE
  5
DE
330
1E
100
AcDbEntity
  8
0
100
AcDbLine
 10
22.32699999999999
 20
402.794
 30
0.0
 11
22.8270000000001
 21
402.294
 31
0.0
  0
LINE
  5
DF
330
1E
100
AcDbEntity
  8
0
100
AcDbLine
 10
22.32699999999999
 20
402.794
 30
0.0
 11
22.89205463467489
 21
403.3586553027779
 31
0.0
  0
LINE
  5
E0
330
1E
100
AcDbEntity
  8
0
100
AcDbLine
 10
21.627
 20
403.494
 30
0.0
 11
21.827
 21
403.294
 31
0.0
  0
LINE
  5
E1
330
1E
100
AcDbEntity
  8
0
100
AcDbLine
 10
21.627
 20
403.494
 30
0.0
 11
22.05
 21
403.9169999999999
 31
0.0
  0
LINE
  5
E2
330
1E
100
AcDbEntity
  8
0
100
AcDbLine
 10
21.827
 20
403.294
 30
0.0
 11
22.32699999999999
 21
402.794
 31
0.0
  0
LINE
  5
E3
330
1E
100
AcDbEntity
  8
0
100
AcDbLine
 10
21.827
 20
403.294
 30
0.0
 11
22.2501659693166
 21
403.717165969317
 31
0.0
  0
LINE
  5
E4
330
1E
100
AcDbEntity
  8
0
100
AcDbLine
 10
21.83199999999999
 20
404.1349999999999
 30
0.0
 11
22.473
 21
403.494
 31
0.0
  0
LINE
  5
E5
330
1E
100
AcDbEntity
  8
0
100
AcDbLine
 10
22.473
 20
403.494
 30
0.0
 11
23.09958184353369
 21
404.120581843534
 31
0.0
  0
LINE
  5
E6
330
1E
100
AcDbEntity
  8
0
100
AcDbLine
 10
22.131
 20
403.8359999999999
 30
0.0
 11
22.2925500000081
 21
403.6748999999919
 31
0.0
  0
LINE
  5
E7
330
1E
100
AcDbEntity
  8
0
100
AcDbLine
 10
22.131
 20
403.8359999999999
 30
0.0
 11
22.2925500000082
 21
403.6748999999919
 31
0.0
  0
LINE
  5
E8
330
1E
100
AcDbEntity
  8
0
100
AcDbLine
 10
22.49
 20
403.478
 30
0.0
 11
23.11512617020059
 21
404.102684384921
 31
0.0
  0
LINE
  5
E9
330
1E
100
AcDbEntity
  8
0
100
AcDbLine
 10
22.07199999999999
 20
403.8959999999999
 30
0.0
 11
22.473
 21
403.494
 31
0.0
  0
LINE
  5
EA
330
1E
100
AcDbEntity
  8
0
100
AcDbLine
 10
22.07199999999999
 20
403.8959999999999
 30
0.0
 11
22.3205
 21
404.1445
 31
0.0
  0
LINE
  5
EB
330
1E
100
AcDbEntity
  8
0
100
AcDbLine
 10
22.56699999999999
 20
403.898
 30
0.0
 11
23.36391414898939
 21
404.694914148989
 31
0.0
  0
LINE
  5
EC
330
1E
100
AcDbEntity
  8
0
100
AcDbLine
 10
22.199
 20
404.2659999999999
 30
0.0
 11
22.56699999999999
 21
403.898
 31
0.0
  0
LINE
  5
ED
330
1E
100
AcDbEntity
  8
0
100
AcDbLine
 10
22.199
 20
404.2659999999999
 30
0.0
 11
22.99560615968709
 21
405.0631695303799
 31
0.0
  0
LINE
  5
EE
330
1E
100
AcDbEntity
  8
0
100
AcDbLine
 10
22.0270000000001
 20
403.094
 30
0.0
 11
22.22699999999999
 21
402.893
 31
0.0
  0
LINE
  5
EF
330
1E
100
AcDbEntity
  8
0
100
AcDbLine
 10
22.22699999999999
 20
402.893
 30
0.0
 11
22.72699999999999
 21
402.394
 31
0.0
  0
LINE
  5
F0
330
1E
100
AcDbEntity
  8
0
100
AcDbLine
 10
23.427
 20
401.6939999999999
 30
0.0
 11
23.8411240143435
 21
402.1078313471959
 31
0.0
  0
LINE
  5
F1
330
1E
100
AcDbEntity
  8
0
100
AcDbLine
 10
23.02699999999999
 20
402.094
 30
0.0
 11
23.5588512440798
 21
402.6258512440799
 31
0.0
  0
LINE
  5
F2
330
1E
100
AcDbEntity
  8
0
100
AcDbLine
 10
22.8270000000001
 20
402.294
 30
0.0
 11
23.02699999999999
 21
402.094
 31
0.0
  0
LINE
  5
F3
330
1E
100
AcDbEntity
  8
0
100
AcDbLine
 10
22.8270000000001
 20
402.294
 30
0.0
 11
23.3682835701421
 21
402.8352835701419
 31
0.0
  0
LINE
  5
F4
330
1E
100
AcDbEntity
  8
0
100
AcDbLine
 10
23.22699999999999
 20
401.8939999999999
 30
0.0
 11
23.427
 21
401.6939999999999
 31
0.0
  0
LINE
  5
F5
330
1E
100
AcDbEntity
  8
0
100
AcDbLine
 10
23.22699999999999
 20
401.8939999999999
 30
0.0
 11
23.64779201584799
 21
402.3144946363309
 31
0.0
  0
LINE
  5
F6
330
1E
100
AcDbEntity
  8
0
100
AcDbLine
 10
22.72699999999999
 20
402.394
 30
0.0
 11
23.22699999999999
 21
401.8939999999999
 31
0.0
  0
LINE
  5
F7
330
1E
100
AcDbEntity
  8
0
100
AcDbLine
 10
21.534
 20
404.434
 30
0.0
 11
22.07199999999999
 21
403.8959999999999
 31
0.0
  0
LINE
  5
F8
330
1E
100
AcDbEntity
  8
0
100
AcDbLine
 10
21.534
 20
404.434
 30
0.0
 11
21.78249999999999
 21
404.6825
 31
0.0
  0
LINE
  5
F9
330
1E
100
AcDbEntity
  8
0
100
AcDbLine
 10
21.60699999999999
 20
404.858
 30
0.0
 11
22.145
 21
404.3199999999999
 31
0.0
  0
LINE
  5
FA
330
1E
100
AcDbEntity
  8
0
100
AcDbLine
 10
21.66099999999999
 20
404.8049999999999
 30
0.0
 11
22.199
 21
404.2659999999999
 31
0.0
  0
LINE
  5
FB
330
1E
100
AcDbEntity
  8
0
100
AcDbLine
 10
21.66099999999999
 20
404.8049999999999
 30
0.0
 11
22.45734940361399
 21
405.601349403614
 31
0.0
  0
LINE
  5
FC
330
1E
100
AcDbEntity
  8
0
100
AcDbLine
 10
21.5930000000001
 20
404.374
 30
0.0
 11
22.05
 21
403.9169999999999
 31
0.0
  0
LINE
  5
FD
330
1E
100
AcDbEntity
  8
0
100
AcDbLine
 10
21.5930000000001
 20
404.374
 30
0.0
 11
22.131
 21
403.8359999999999
 31
0.0
  0
LINE
  5
FE
330
1E
100
AcDbEntity
  8
0
100
AcDbLine
 10
21.3453968581953
 20
404.622220605999
 30
0.0
 11
21.5930000000001
 21
404.374
 31
0.0
  0
LINE
  5
FF
330
1E
100
AcDbEntity
  8
0
100
AcDbLine
 10
19.3619107151276
 20
406.895910715128
 30
0.0
 11
20.0713212666306
 21
406.1375824556449
 31
0.0
  0
LINE
  5
100
330
1E
100
AcDbEntity
  8
0
100
AcDbLine
 10
14.272
 20
411.198
 30
0.0
 11
14.722
 21
410.7469999999999
 31
0.0
  0
LINE
  5
101
330
1E
100
AcDbEntity
  8
0
100
AcDbLine
 10
14.2720000000011
 20
411.197999999999
 30
0.0
 11
14.722
 21
410.7469999999999
 31
0.0
  0
LINE
  5
102
330
1E
100
AcDbEntity
  8
0
100
AcDbLine
 10
13.55599999999999
 20
412.4119999999999
 30
0.0
 11
13.84
 21
412.128
 31
0.0
  0
LINE
  5
103
330
1E
100
AcDbEntity
  8
0
100
AcDbLine
 10
13.55599999999999
 20
412.4119999999999
 30
0.0
 11
13.804859521332
 21
412.660859521332
 31
0.0
  0
LINE
  5
104
330
1E
100
AcDbEntity
  8
0
100
AcDbLine
 10
13.84
 20
412.128
 30
0.0
 11
14.0885639958377
 21
412.376563995838
 31
0.0
  0
LINE
  5
105
330
1E
100
AcDbEntity
  8
0
100
AcDbLine
 10
13.729
 20
412.238
 30
0.0
 11
13.84
 21
412.128
 31
0.0
  0
LINE
  5
106
330
1E
100
AcDbEntity
  8
0
100
AcDbLine
 10
13.272
 20
412.6949999999999
 30
0.0
 11
13.729
 21
412.238
 31
0.0
  0
LINE
  5
107
330
1E
100
AcDbEntity
  8
0
100
AcDbLine
 10
14.373886390421
 20
412.227886390421
 30
0.0
 11
14.70352133125919
 21
411.8755213312589
 31
0.0
  0
LINE
  5
108
330
1E
100
AcDbEntity
  8
0
100
AcDbLine
 10
14.306
 20
412.1599999999999
 30
0.0
 11
15.10240035760729
 21
412.9564003576069
 31
0.0
  0
LINE
  5
109
330
1E
100
AcDbEntity
  8
0
100
AcDbLine
 10
14.306
 20
412.1599999999999
 30
0.0
 11
15.10240035760729
 21
412.9564003576069
 31
0.0
  0
LINE
  5
10A
330
1E
100
AcDbEntity
  8
0
100
AcDbLine
 10
14.15
 20
412.3149999999999
 30
0.0
 11
14.306
 21
412.1599999999999
 31
0.0
  0
LINE
  5
10B
330
1E
100
AcDbEntity
  8
0
100
AcDbLine
 10
14.15
 20
412.3149999999999
 30
0.0
 11
14.9469256339402
 21
413.1119256339399
 31
0.0
  0
LINE
  5
10C
330
1E
100
AcDbEntity
  8
0
100
AcDbLine
 10
14.0884432132964
 20
412.376443213296
 30
0.0
 11
14.15
 21
412.3149999999999
 31
0.0
  0
LINE
  5
10D
330
1E
100
AcDbEntity
  8
0
100
AcDbLine
 10
14.149
 20
411.3209999999999
 30
0.0
 11
14.2720000000011
 21
411.197999999999
 31
0.0
  0
LINE
  5
10E
330
1E
100
AcDbEntity
  8
0
100
AcDbLine
 10
14.149
 20
411.3209999999999
 30
0.0
 11
14.724312722485
 21
411.896312722485
 31
0.0
  0
LINE
  5
10F
330
1E
100
AcDbEntity
  8
0
100
AcDbLine
 10
14.149
 20
411.3209999999999
 30
0.0
 11
14.444
 21
411.026
 31
0.0
  0
LINE
  5
110
330
1E
100
AcDbEntity
  8
0
100
AcDbLine
 10
14.149
 20
411.3209999999999
 30
0.0
 11
14.725008815427
 21
411.8970088154269
 31
0.0
  0
LINE
  5
111
330
1E
100
AcDbEntity
  8
0
100
AcDbLine
 10
16.09799999999999
 20
409.3719999999999
 30
0.0
 11
16.42
 21
409.049
 31
0.0
  0
LINE
  5
112
330
1E
100
AcDbEntity
  8
0
100
AcDbLine
 10
16.09799999999999
 20
409.3719999999999
 30
0.0
 11
16.58756385235469
 21
409.8615638523549
 31
0.0
  0
LINE
  5
113
330
1E
100
AcDbEntity
  8
0
100
AcDbLine
 10
16.09799999999999
 20
409.3719999999999
 30
0.0
 11
16.162
 21
409.308
 31
0.0
  0
LINE
  5
114
330
1E
100
AcDbEntity
  8
0
100
AcDbLine
 10
16.09799999999999
 20
409.3719999999999
 30
0.0
 11
16.6851069471452
 21
409.959106947145
 31
0.0
  0
LINE
  5
115
330
1E
100
AcDbEntity
  8
0
100
AcDbLine
 10
16.59300000000009
 20
408.8769999999999
 30
0.0
 11
17.12699999999999
 21
408.342
 31
0.0
  0
LINE
  5
116
330
1E
100
AcDbEntity
  8
0
100
AcDbLine
 10
16.59300000000009
 20
408.8769999999999
 30
0.0
 11
17.09049999999999
 21
409.3745
 31
0.0
  0
LINE
  5
117
330
1E
100
AcDbEntity
  8
0
100
AcDbLine
 10
17.9
 20
408.565
 30
0.0
 11
18.222
 21
408.243
 31
0.0
  0
LINE
  5
118
330
1E
100
AcDbEntity
  8
0
100
AcDbLine
 10
17.727
 20
408.738
 30
0.0
 11
18.159
 21
408.3069999999999
 31
0.0
  0
LINE
  5
119
330
1E
100
AcDbEntity
  8
0
100
AcDbLine
 10
17.727
 20
408.738
 30
0.0
 11
18.45629469488439
 21
409.466779292273
 31
0.0
  0
LINE
  5
11A
330
1E
100
AcDbEntity
  8
0
100
AcDbLine
 10
17.54599999999999
 20
408.919
 30
0.0
 11
17.727
 21
408.738
 31
0.0
  0
LINE
  5
11B
330
1E
100
AcDbEntity
  8
0
100
AcDbLine
 10
16.955
 20
408.5139999999999
 30
0.0
 11
17.38599999999999
 21
408.083
 31
0.0
  0
LINE
  5
11C
330
1E
100
AcDbEntity
  8
0
100
AcDbLine
 10
16.162
 20
409.308
 30
0.0
 11
16.59300000000009
 21
408.8769999999999
 31
0.0
  0
LINE
  5
11D
330
1E
100
AcDbEntity
  8
0
100
AcDbLine
 10
16.162
 20
409.308
 30
0.0
 11
16.74911826056219
 21
409.8951182605619
 31
0.0
  0
LINE
  5
11E
330
1E
100
AcDbEntity
  8
0
100
AcDbLine
 10
16.934
 20
409.531
 30
0.0
 11
17.36499999999999
 21
409.1
 31
0.0
  0
LINE
  5
11F
330
1E
100
AcDbEntity
  8
0
100
AcDbLine
 10
16.304
 20
409.6639999999999
 30
0.0
 11
16.837995123438
 21
410.197995123438
 31
0.0
  0
LINE
  5
120
330
1E
100
AcDbEntity
  8
0
100
AcDbLine
 10
16.87
 20
409.595
 30
0.0
 11
17.19299999999999
 21
409.273
 31
0.0
  0
LINE
  5
121
330
1E
100
AcDbEntity
  8
0
100
AcDbLine
 10
16.87
 20
409.595
 30
0.0
 11
16.934
 21
409.531
 31
0.0
  0
LINE
  5
122
330
1E
100
AcDbEntity
  8
0
100
AcDbLine
 10
16.87
 20
409.595
 30
0.0
 11
17.6541330516513
 21
410.379133051651
 31
0.0
  0
LINE
  5
123
330
1E
100
AcDbEntity
  8
0
100
AcDbLine
 10
17.36499999999999
 20
409.1
 30
0.0
 11
17.9
 21
408.565
 31
0.0
  0
LINE
  5
124
330
1E
100
AcDbEntity
  8
0
100
AcDbLine
 10
17.19299999999999
 20
409.273
 30
0.0
 11
17.727
 21
408.738
 31
0.0
  0
LINE
  5
125
330
1E
100
AcDbEntity
  8
0
100
AcDbLine
 10
17.19299999999999
 20
409.273
 30
0.0
 11
17.9594171714837
 21
410.0388751508529
 31
0.0
  0
LINE
  5
126
330
1E
100
AcDbEntity
  8
0
100
AcDbLine
 10
16.42
 20
409.049
 30
0.0
 11
16.955
 21
408.5139999999999
 31
0.0
  0
LINE
  5
127
330
1E
100
AcDbEntity
  8
0
100
AcDbLine
 10
16.104
 20
409.864
 30
0.0
 11
16.304
 21
409.6639999999999
 31
0.0
  0
LINE
  5
128
330
1E
100
AcDbEntity
  8
0
100
AcDbLine
 10
16.104
 20
409.864
 30
0.0
 11
16.6550679078519
 21
410.415457630559
 31
0.0
  0
LINE
  5
129
330
1E
100
AcDbEntity
  8
0
100
AcDbLine
 10
14.444
 20
411.026
 30
0.0
 11
14.9680000000001
 21
410.5019999999999
 31
0.0
  0
LINE
  5
12A
330
1E
100
AcDbEntity
  8
0
100
AcDbLine
 10
14.444
 20
411.026
 30
0.0
 11
15.0313089837997
 21
411.6133089837999
 31
0.0
  0
LINE
  5
12B
330
1E
100
AcDbEntity
  8
0
100
AcDbLine
 10
15.541
 20
409.928
 30
0.0
 11
15.790588193708
 21
410.177411806292
 31
0.0
  0
LINE
  5
12C
330
1E
100
AcDbEntity
  8
0
100
AcDbLine
 10
15.419
 20
410.0509999999999
 30
0.0
 11
15.541
 21
409.928
 31
0.0
  0
LINE
  5
12D
330
1E
100
AcDbEntity
  8
0
100
AcDbLine
 10
15.419
 20
410.0509999999999
 30
0.0
 11
15.66799999999999
 21
410.2999999999999
 31
0.0
  0
LINE
  5
12E
330
1E
100
AcDbEntity
  8
0
100
AcDbLine
 10
15.790588193708
 20
410.177411806292
 30
0.0
 11
16.104
 21
409.864
 31
0.0
  0
LINE
  5
12F
330
1E
100
AcDbEntity
  8
0
100
AcDbLine
 10
15.2470000000164
 20
410.2229999999839
 30
0.0
 11
15.541
 21
409.928
 31
0.0
  0
LINE
  5
130
330
1E
100
AcDbEntity
  8
0
100
AcDbLine
 10
14.9680000000001
 20
410.5019999999999
 30
0.0
 11
15.419
 21
410.0509999999999
 31
0.0
  0
LINE
  5
131
330
1E
100
AcDbEntity
  8
0
100
AcDbLine
 10
14.9680000000001
 20
410.5019999999999
 30
0.0
 11
15.21670141697759
 21
410.750525531958
 31
0.0
  0
LINE
  5
132
330
1E
100
AcDbEntity
  8
0
100
AcDbLine
 10
14.904
 20
411.064
 30
0.0
 11
15.10299999999999
 21
410.864
 31
0.0
  0
LINE
  5
133
330
1E
100
AcDbEntity
  8
0
100
AcDbLine
 10
14.904
 20
411.064
 30
0.0
 11
15.55875099055169
 21
411.7187509905519
 31
0.0
  0
LINE
  5
134
330
1E
100
AcDbEntity
  8
0
100
AcDbLine
 10
15.10299999999999
 20
410.864
 30
0.0
 11
15.604
 21
410.364
 31
0.0
  0
LINE
  5
135
330
1E
100
AcDbEntity
  8
0
100
AcDbLine
 10
15.10299999999999
 20
410.864
 30
0.0
 11
15.7412493564048
 21
411.501798296789
 31
0.0
  0
LINE
  5
136
330
1E
100
AcDbEntity
  8
0
100
AcDbLine
 10
15.604
 20
410.364
 30
0.0
 11
16.104
 21
409.864
 31
0.0
  0
LINE
  5
137
330
1E
100
AcDbEntity
  8
0
100
AcDbLine
 10
15.604
 20
410.364
 30
0.0
 11
16.1983730569948
 21
410.958373056995
 31
0.0
  0
LINE
  5
138
330
1E
100
AcDbEntity
  8
0
100
AcDbLine
 10
15.604
 20
410.364
 30
0.0
 11
16.1983730569948
 21
410.958373056995
 31
0.0
  0
LINE
  5
139
330
1E
100
AcDbEntity
  8
0
100
AcDbLine
 10
15.2470000000164
 20
410.2229999999839
 30
0.0
 11
15.541
 21
409.928
 31
0.0
  0
LINE
  5
13A
330
1E
100
AcDbEntity
  8
0
100
AcDbLine
 10
14.722
 20
410.7469999999999
 30
0.0
 11
15.2469999999709
 21
410.223000000029
 31
0.0
  0
LINE
  5
13B
330
1E
100
AcDbEntity
  8
0
100
AcDbLine
 10
14.722
 20
410.7469999999999
 30
0.0
 11
15.2469999999709
 21
410.223000000029
 31
0.0
  0
LINE
  5
13C
330
1E
100
AcDbEntity
  8
0
100
AcDbLine
 10
16.5459969829822
 20
409.905996982982
 30
0.0
 11
16.58756385235469
 21
409.8615638523549
 31
0.0
  0
LINE
  5
13D
330
1E
100
AcDbEntity
  8
0
100
AcDbLine
 10
14.373886390421
 20
412.227886390421
 30
0.0
 11
14.70352133125919
 21
411.8755213312589
 31
0.0
  0
LINE
  5
13E
330
1E
100
AcDbEntity
  8
0
100
AcDbLine
 10
17.8945035591383
 20
408.464503559138
 30
0.0
 11
18.02928883010699
 21
408.320424112165
 31
0.0
  0
LINE
  5
13F
330
1E
100
AcDbEntity
  8
0
100
AcDbLine
 10
25.146
 20
399.66
 30
0.0
 11
25.59699999999999
 21
399.209
 31
0.0
  0
LINE
  5
140
330
1E
100
AcDbEntity
  8
0
100
AcDbLine
 10
25.146
 20
399.66
 30
0.0
 11
25.3035556733828
 21
399.8174443266169
 31
0.0
  0
LINE
  5
141
330
1E
100
AcDbEntity
  8
0
100
AcDbLine
 10
24.896
 20
400.225
 30
0.0
 11
25.2379999999845
 21
399.883000000016
 31
0.0
  0
LINE
  5
142
330
1E
100
AcDbEntity
  8
0
100
AcDbLine
 10
24.896
 20
400.225
 30
0.0
 11
25.23799999998439
 21
399.883000000016
 31
0.0
  0
LINE
  5
143
330
1E
100
AcDbEntity
  8
0
100
AcDbLine
 10
24.879
 20
400.243
 30
0.0
 11
25.238
 21
399.883
 31
0.0
  0
LINE
  5
144
330
1E
100
AcDbEntity
  8
0
100
AcDbLine
 10
24.879
 20
400.243
 30
0.0
 11
25.05251069767449
 21
400.416510697674
 31
0.0
  0
LINE
  5
145
330
1E
100
AcDbEntity
  8
0
100
AcDbLine
 10
24.64900000001049
 20
400.82099999999
 30
0.0
 11
25.041
 21
400.428
 31
0.0
  0
LINE
  5
146
330
1E
100
AcDbEntity
  8
0
100
AcDbLine
 10
24.283
 20
401.6549999999999
 30
0.0
 11
24.85255223880599
 21
401.0845522388059
 31
0.0
  0
LINE
  5
147
330
1E
100
AcDbEntity
  8
0
100
AcDbLine
 10
24.649
 20
400.821
 30
0.0
 11
25.041
 21
400.428
 31
0.0
  0
LINE
  5
148
330
1E
100
AcDbEntity
  8
0
100
AcDbLine
 10
24.649
 20
400.821
 30
0.0
 11
24.8978996458088
 21
401.0698996458089
 31
0.0
  0
LINE
  5
149
330
1E
100
AcDbEntity
  8
0
100
AcDbLine
 10
24.736
 20
401.2319999999999
 30
0.0
 11
24.813
 21
401.1549999999999
 31
0.0
  0
LINE
  5
14A
330
1E
100
AcDbEntity
  8
0
100
AcDbLine
 10
24.736
 20
401.2319999999999
 30
0.0
 11
25.4990233444994
 21
401.9944837240299
 31
0.0
  0
LINE
  5
14B
330
1E
100
AcDbEntity
  8
0
100
AcDbLine
 10
24.813
 20
401.1549999999999
 30
0.0
 11
25.236
 21
400.731
 31
0.0
  0
LINE
  5
14C
330
1E
100
AcDbEntity
  8
0
100
AcDbLine
 10
24.813
 20
401.1549999999999
 30
0.0
 11
25.5579087171053
 21
401.8999087171049
 31
0.0
  0
LINE
  5
14D
330
1E
100
AcDbEntity
  8
0
100
AcDbLine
 10
24.61899999999999
 20
400.851
 30
0.0
 11
24.8679350649351
 21
401.0999350649349
 31
0.0
  0
LINE
  5
14E
330
1E
100
AcDbEntity
  8
0
100
AcDbLine
 10
24.64900000001049
 20
400.82099999999
 30
0.0
 11
25.041
 21
400.428
 31
0.0
  0
LINE
  5
14F
330
1E
100
AcDbEntity
  8
0
100
AcDbLine
 10
25.041
 20
400.428
 30
0.0
 11
25.579
 21
399.8909999999999
 31
0.0
  0
LINE
  5
150
330
1E
100
AcDbEntity
  8
0
100
AcDbLine
 10
25.041
 20
400.428
 30
0.0
 11
25.28999999999999
 21
400.6769999999999
 31
0.0
  0
LINE
  5
151
330
1E
100
AcDbEntity
  8
0
100
AcDbLine
 10
25.023
 20
399.783
 30
0.0
 11
25.146
 21
399.66
 31
0.0
  0
LINE
  5
152
330
1E
100
AcDbEntity
  8
0
100
AcDbLine
 10
25.023
 20
399.783
 30
0.0
 11
25.1805556733829
 21
399.9404443266169
 31
0.0
  0
LINE
  5
153
330
1E
100
AcDbEntity
  8
0
100
AcDbLine
 10
26.065
 20
398.7419999999999
 30
0.0
 11
26.515
 21
398.291
 31
0.0
  0
LINE
  5
154
330
1E
100
AcDbEntity
  8
0
100
AcDbLine
 10
26.065
 20
398.7419999999999
 30
0.0
 11
26.6305
 21
399.3075
 31
0.0
  0
LINE
  5
155
330
1E
100
AcDbEntity
  8
0
100
AcDbLine
 10
26.0150000000041
 20
399.105999999996
 30
0.0
 11
26.194
 21
398.9259999999999
 31
0.0
  0
LINE
  5
156
330
1E
100
AcDbEntity
  8
0
100
AcDbLine
 10
25.819
 20
398.9869999999999
 30
0.0
 11
26.1937692307651
 21
398.612944615389
 31
0.0
  0
LINE
  5
157
330
1E
100
AcDbEntity
  8
0
100
AcDbLine
 10
25.819
 20
398.9869999999999
 30
0.0
 11
26.1937692307651
 21
398.612944615389
 31
0.0
  0
LINE
  5
158
330
1E
100
AcDbEntity
  8
0
100
AcDbLine
 10
26.194
 20
398.9259999999999
 30
0.0
 11
26.7371662457609
 21
399.469166245761
 31
0.0
  0
LINE
  5
159
330
1E
100
AcDbEntity
  8
0
100
AcDbLine
 10
26.178
 20
398.943
 30
0.0
 11
26.7215079731583
 21
399.486507973158
 31
0.0
  0
LINE
  5
15A
330
1E
100
AcDbEntity
  8
0
100
AcDbLine
 10
26.178
 20
398.943
 30
0.0
 11
26.72150797315819
 21
399.486507973158
 31
0.0
  0
LINE
  5
15B
330
1E
100
AcDbEntity
  8
0
100
AcDbLine
 10
26.12099999999999
 20
398.685
 30
0.0
 11
26.27701342282319
 21
398.529515436237
 31
0.0
  0
LINE
  5
15C
330
1E
100
AcDbEntity
  8
0
100
AcDbLine
 10
26.12099999999999
 20
398.685
 30
0.0
 11
26.27701342282319
 21
398.529515436237
 31
0.0
  0
LINE
  5
15D
330
1E
100
AcDbEntity
  8
0
100
AcDbLine
 10
25.238
 20
399.883
 30
0.0
 11
25.776
 21
399.345
 31
0.0
  0
LINE
  5
15E
330
1E
100
AcDbEntity
  8
0
100
AcDbLine
 10
25.238
 20
399.883
 30
0.0
 11
25.4122834311464
 21
400.057406686755
 31
0.0
  0
LINE
  5
15F
330
1E
100
AcDbEntity
  8
0
100
AcDbLine
 10
25.776
 20
399.345
 30
0.0
 11
26.178
 21
398.943
 31
0.0
  0
LINE
  5
160
330
1E
100
AcDbEntity
  8
0
100
AcDbLine
 10
25.776
 20
399.345
 30
0.0
 11
26.3400155133848
 21
399.9090155133849
 31
0.0
  0
LINE
  5
161
330
1E
100
AcDbEntity
  8
0
100
AcDbLine
 10
25.53700000002
 20
399.58399999998
 30
0.0
 11
26.194
 21
398.9259999999999
 31
0.0
  0
LINE
  5
162
330
1E
100
AcDbEntity
  8
0
100
AcDbLine
 10
25.53700000002
 20
399.58399999998
 30
0.0
 11
26.194
 21
398.9259999999999
 31
0.0
  0
LINE
  5
163
330
1E
100
AcDbEntity
  8
0
100
AcDbLine
 10
25.36900000000009
 20
399.4369999999999
 30
0.0
 11
25.819
 21
398.9869999999999
 31
0.0
  0
LINE
  5
164
330
1E
100
AcDbEntity
  8
0
100
AcDbLine
 10
25.24599999999999
 20
399.5609999999999
 30
0.0
 11
25.541
 21
399.2659999999999
 31
0.0
  0
LINE
  5
165
330
1E
100
AcDbEntity
  8
0
100
AcDbLine
 10
25.24599999999999
 20
399.5609999999999
 30
0.0
 11
25.36900000000009
 21
399.4369999999999
 31
0.0
  0
LINE
  5
166
330
1E
100
AcDbEntity
  8
0
100
AcDbLine
 10
25.24599999999999
 20
399.5609999999999
 30
0.0
 11
25.403
 21
399.718
 31
0.0
  0
LINE
  5
167
330
1E
100
AcDbEntity
  8
0
100
AcDbLine
 10
25.541
 20
399.2659999999999
 30
0.0
 11
26.065
 21
398.7419999999999
 31
0.0
  0
LINE
  5
168
330
1E
100
AcDbEntity
  8
0
100
AcDbLine
 10
25.541
 20
399.2659999999999
 30
0.0
 11
25.698
 21
399.4229999999999
 31
0.0
  0
LINE
  5
169
330
1E
100
AcDbEntity
  8
0
100
AcDbLine
 10
25.948
 20
399.522
 30
0.0
 11
26.4455
 21
400.0194999999999
 31
0.0
  0
LINE
  5
16A
330
1E
100
AcDbEntity
  8
0
100
AcDbLine
 10
25.5477612903237
 20
399.92218064516
 30
0.0
 11
25.91699999999999
 21
399.5519999999999
 31
0.0
  0
LINE
  5
16B
330
1E
100
AcDbEntity
  8
0
100
AcDbLine
 10
25.5477612903237
 20
399.92218064516
 30
0.0
 11
25.91699999999999
 21
399.5519999999999
 31
0.0
  0
LINE
  5
16C
330
1E
100
AcDbEntity
  8
0
100
AcDbLine
 10
25.579
 20
399.8909999999999
 30
0.0
 11
25.948
 21
399.522
 31
0.0
  0
LINE
  5
16D
330
1E
100
AcDbEntity
  8
0
100
AcDbLine
 10
25.579
 20
399.8909999999999
 30
0.0
 11
25.82758796992489
 21
400.1395879699249
 31
0.0
  0
LINE
  5
16E
330
1E
100
AcDbEntity
  8
0
100
AcDbLine
 10
26.10199999999999
 20
399.866
 30
0.0
 11
26.35066829935519
 21
400.114492437757
 31
0.0
  0
LINE
  5
16F
330
1E
100
AcDbEntity
  8
0
100
AcDbLine
 10
26.025
 20
399.9419999999999
 30
0.0
 11
26.10199999999999
 21
399.866
 31
0.0
  0
LINE
  5
170
330
1E
100
AcDbEntity
  8
0
100
AcDbLine
 10
26.603
 20
399.3349999999999
 30
0.0
 11
27.536
 21
398.402
 31
0.0
  0
LINE
  5
171
330
1E
100
AcDbEntity
  8
0
100
AcDbLine
 10
26.546
 20
399.919
 30
0.0
 11
26.669
 21
399.7959999999999
 31
0.0
  0
LINE
  5
172
330
1E
100
AcDbEntity
  8
0
100
AcDbLine
 10
25.8817619047529
 20
400.085576719586
 30
0.0
 11
26.025
 21
399.9419999999999
 31
0.0
  0
LINE
  5
173
330
1E
100
AcDbEntity
  8
0
100
AcDbLine
 10
25.7690000000001
 20
400.198
 30
0.0
 11
26.10199999999999
 21
399.866
 31
0.0
  0
LINE
  5
174
330
1E
100
AcDbEntity
  8
0
100
AcDbLine
 10
25.7690000000001
 20
400.198
 30
0.0
 11
26.018449500555
 21
400.4474495005549
 31
0.0
  0
LINE
  5
175
330
1E
100
AcDbEntity
  8
0
100
AcDbLine
 10
25.236
 20
400.731
 30
0.0
 11
25.7690000000001
 21
400.198
 31
0.0
  0
LINE
  5
176
330
1E
100
AcDbEntity
  8
0
100
AcDbLine
 10
25.236
 20
400.731
 30
0.0
 11
25.8827415990297
 21
401.37819898347
 31
0.0
  0
LINE
  5
177
330
1E
100
AcDbEntity
  8
0
100
AcDbLine
 10
25.85
 20
400.6159999999999
 30
0.0
 11
25.973
 21
400.493
 31
0.0
  0
LINE
  5
178
330
1E
100
AcDbEntity
  8
0
100
AcDbLine
 10
25.85
 20
400.6159999999999
 30
0.0
 11
25.9730000000109
 21
400.492999999989
 31
0.0
  0
LINE
  5
179
330
1E
100
AcDbEntity
  8
0
100
AcDbLine
 10
25.85
 20
400.6159999999999
 30
0.0
 11
26.64663749917389
 21
401.4126374991739
 31
0.0
  0
LINE
  5
17A
330
1E
100
AcDbEntity
  8
0
100
AcDbLine
 10
25.973
 20
400.493
 30
0.0
 11
26.4230000000001
 21
400.042
 31
0.0
  0
LINE
  5
17B
330
1E
100
AcDbEntity
  8
0
100
AcDbLine
 10
25.973
 20
400.493
 30
0.0
 11
26.7699274457599
 21
401.2893638478489
 31
0.0
  0
LINE
  5
17C
330
1E
100
AcDbEntity
  8
0
100
AcDbLine
 10
26.4230000000001
 20
400.042
 30
0.0
 11
26.948
 21
399.5169999999999
 31
0.0
  0
LINE
  5
17D
330
1E
100
AcDbEntity
  8
0
100
AcDbLine
 10
26.4230000000001
 20
400.042
 30
0.0
 11
27.2204572071158
 21
400.8388936331179
 31
0.0
  0
LINE
  5
17E
330
1E
100
AcDbEntity
  8
0
100
AcDbLine
 10
27.24199999999999
 20
399.223
 30
0.0
 11
28.03951135353839
 21
400.019947741274
 31
0.0
  0
LINE
  5
17F
330
1E
100
AcDbEntity
  8
0
100
AcDbLine
 10
26.948
 20
399.5169999999999
 30
0.0
 11
27.24199999999999
 21
399.223
 31
0.0
  0
LINE
  5
180
330
1E
100
AcDbEntity
  8
0
100
AcDbLine
 10
26.948
 20
399.5169999999999
 30
0.0
 11
27.7449282805988
 21
400.3144918791
 31
0.0
  0
LINE
  5
181
330
1E
100
AcDbEntity
  8
0
100
AcDbLine
 10
25.59699999999999
 20
399.209
 30
0.0
 11
26.12099999999999
 21
398.685
 31
0.0
  0
LINE
  5
182
330
1E
100
AcDbEntity
  8
0
100
AcDbLine
 10
23.45431400556269
 20
402.521314005563
 30
0.0
 11
24.0
 21
401.938
 31
0.0
  0
LINE
  5
184
330
1E
100
AcDbEntity
  8
0
100
AcDbLine
 10
24.283
 20
401.6549999999999
 30
0.0
 11
24.85255223880599
 21
401.0845522388059
 31
0.0
  0
LINE
  5
185
330
1E
100
AcDbEntity
  8
0
100
AcDbLine
 10
23.45431400556269
 20
402.521314005563
 30
0.0
 11
24.0
 21
401.938
 31
0.0
  0
LINE
  5
186
330
1E
100
AcDbEntity
  8
0
100
AcDbLine
 10
27.536
 20
398.402
 30
0.0
 11
27.7257999293036
 21
398.212200070696
 31
0.0
  0
LINE
  5
187
330
1E
100
AcDbEntity
  8
0
100
AcDbLine
 10
27.536
 20
398.402
 30
0.0
 11
29.233
 21
396.705
 31
0.0
  0
LINE
  5
188
330
1E
100
AcDbEntity
  8
0
100
AcDbLine
 10
37.055
 20
388.415
 30
0.0
 11
37.3036757425743
 21
388.663324257426
 31
0.0
  0
LINE
  5
189
330
1E
100
AcDbEntity
  8
0
100
AcDbLine
 10
37.898
 20
387.223
 30
0.0
 11
38.098
 21
387.023
 31
0.0
  0
LINE
  5
18A
330
1E
100
AcDbEntity
  8
0
100
AcDbLine
 10
37.898
 20
387.223
 30
0.0
 11
38.31146589355579
 21
387.6364658935559
 31
0.0
  0
LINE
  5
18B
330
1E
100
AcDbEntity
  8
0
100
AcDbLine
 10
38.098
 20
387.023
 30
0.0
 11
38.298
 21
386.823
 31
0.0
  0
LINE
  5
18C
330
1E
100
AcDbEntity
  8
0
100
AcDbLine
 10
38.098
 20
387.023
 30
0.0
 11
38.51813161740439
 21
387.443131617404
 31
0.0
  0
LINE
  5
18D
330
1E
100
AcDbEntity
  8
0
100
AcDbLine
 10
37.436
 20
388.531
 30
0.0
 11
38.19933015774189
 21
389.294869995194
 31
0.0
  0
LINE
  5
18E
330
1E
100
AcDbEntity
  8
0
100
AcDbLine
 10
37.359
 20
388.609
 30
0.0
 11
37.436
 21
388.531
 31
0.0
  0
LINE
  5
18F
330
1E
100
AcDbEntity
  8
0
100
AcDbLine
 10
37.359
 20
388.609
 30
0.0
 11
38.1041292550567
 21
389.3541292550569
 31
0.0
  0
LINE
  5
190
330
1E
100
AcDbEntity
  8
0
100
AcDbLine
 10
37.025
 20
388.444
 30
0.0
 11
37.274
 21
388.693
 31
0.0
  0
LINE
  5
191
330
1E
100
AcDbEntity
  8
0
100
AcDbLine
 10
44.22399999999999
 20
381.2459999999999
 30
0.0
 11
44.54600000000001
 21
380.9229999999999
 31
0.0
  0
LINE
  5
192
330
1E
100
AcDbEntity
  8
0
100
AcDbLine
 10
44.22399999999999
 20
381.2459999999999
 30
0.0
 11
44.72175550405561
 21
381.743755504056
 31
0.0
  0
LINE
  5
193
330
1E
100
AcDbEntity
  8
0
100
AcDbLine
 10
45.57599999999999
 20
379.8939999999999
 30
0.0
 11
46.16360078082389
 21
380.481185221573
 31
0.0
  0
LINE
  5
194
330
1E
100
AcDbEntity
  8
0
100
AcDbLine
 10
45.512
 20
379.958
 30
0.0
 11
45.57599999999999
 21
379.8939999999999
 31
0.0
  0
LINE
  5
195
330
1E
100
AcDbEntity
  8
0
100
AcDbLine
 10
45.512
 20
379.958
 30
0.0
 11
46.099797128815
 21
380.5449663201519
 31
0.0
  0
LINE
  5
196
330
1E
100
AcDbEntity
  8
0
100
AcDbLine
 10
45.25399999998029
 20
380.2160000000199
 30
0.0
 11
45.512
 21
379.958
 31
0.0
  0
LINE
  5
197
330
1E
100
AcDbEntity
  8
0
100
AcDbLine
 10
44.6418126294069
 20
380.82736645962
 30
0.0
 11
44.71899999999999
 21
380.75
 31
0.0
  0
LINE
  5
198
330
1E
100
AcDbEntity
  8
0
100
AcDbLine
 10
44.71899999999999
 20
380.75
 30
0.0
 11
45.25399999998029
 21
380.2160000000199
 31
0.0
  0
LINE
  5
199
330
1E
100
AcDbEntity
  8
0
100
AcDbLine
 10
44.71899999999999
 20
380.75
 30
0.0
 11
44.9
 21
380.569
 31
0.0
  0
LINE
  5
19A
330
1E
100
AcDbEntity
  8
0
100
AcDbLine
 10
44.71899999999999
 20
380.75
 30
0.0
 11
45.25399999998029
 21
380.2160000000199
 31
0.0
  0
LINE
  5
19B
330
1E
100
AcDbEntity
  8
0
100
AcDbLine
 10
45.8
 20
380.665
 30
0.0
 11
46.584373020979
 21
381.4499277402299
 31
0.0
  0
LINE
  5
19C
330
1E
100
AcDbEntity
  8
0
100
AcDbLine
 10
45.47699999999999
 20
380.988
 30
0.0
 11
45.8
 21
380.665
 31
0.0
  0
LINE
  5
19D
330
1E
100
AcDbEntity
  8
0
100
AcDbLine
 10
45.47699999999999
 20
380.988
 30
0.0
 11
46.2441456030276
 21
381.755145603028
 31
0.0
  0
LINE
  5
19E
330
1E
100
AcDbEntity
  8
0
100
AcDbLine
 10
44.942
 20
381.523
 30
0.0
 11
45.47699999999999
 21
380.988
 31
0.0
  0
LINE
  5
19F
330
1E
100
AcDbEntity
  8
0
100
AcDbLine
 10
44.942
 20
381.523
 30
0.0
 11
45.671475550244
 21
382.252475550244
 31
0.0
  0
LINE
  5
1A0
330
1E
100
AcDbEntity
  8
0
100
AcDbLine
 10
45.081
 20
380.3889999999999
 30
0.0
 11
45.512
 21
379.958
 31
0.0
  0
LINE
  5
1A1
330
1E
100
AcDbEntity
  8
0
100
AcDbLine
 10
45.081
 20
380.3889999999999
 30
0.0
 11
45.5785
 21
380.8865
 31
0.0
  0
LINE
  5
1A2
330
1E
100
AcDbEntity
  8
0
100
AcDbLine
 10
44.71899999999999
 20
380.75
 30
0.0
 11
44.9
 21
380.569
 31
0.0
  0
LINE
  5
1A3
330
1E
100
AcDbEntity
  8
0
100
AcDbLine
 10
45.25399999998029
 20
380.2160000000199
 30
0.0
 11
45.512
 21
379.958
 31
0.0
  0
LINE
  5
1A4
330
1E
100
AcDbEntity
  8
0
100
AcDbLine
 10
44.54600000000001
 20
380.9229999999999
 30
0.0
 11
44.6418126294069
 21
380.82736645962
 31
0.0
  0
LINE
  5
1A5
330
1E
100
AcDbEntity
  8
0
100
AcDbLine
 10
44.54600000000001
 20
380.9229999999999
 30
0.0
 11
44.9
 21
380.569
 31
0.0
  0
LINE
  5
1A6
330
1E
100
AcDbEntity
  8
0
100
AcDbLine
 10
44.54600000000001
 20
380.9229999999999
 30
0.0
 11
45.081
 21
380.3889999999999
 31
0.0
  0
LINE
  5
1A7
330
1E
100
AcDbEntity
  8
0
100
AcDbLine
 10
44.54600000000001
 20
380.9229999999999
 30
0.0
 11
45.04399999999999
 21
381.421
 31
0.0
  0
LINE
  5
1A8
330
1E
100
AcDbEntity
  8
0
100
AcDbLine
 10
45.868
 20
380.099
 30
0.0
 11
46.068
 21
379.8989999999999
 31
0.0
  0
LINE
  5
1A9
330
1E
100
AcDbEntity
  8
0
100
AcDbLine
 10
45.868
 20
380.099
 30
0.0
 11
46.1099969829821
 21
380.340996982982
 31
0.0
  0
LINE
  5
1AA
330
1E
100
AcDbEntity
  8
0
100
AcDbLine
 10
45.868
 20
380.099
 30
0.0
 11
46.401995123438
 21
380.632995123438
 31
0.0
  0
LINE
  5
1AB
330
1E
100
AcDbEntity
  8
0
100
AcDbLine
 10
44.33399999999999
 20
381.634
 30
0.0
 11
44.5243542167539
 21
381.824354216754
 31
0.0
  0
LINE
  5
1AC
330
1E
100
AcDbEntity
  8
0
100
AcDbLine
 10
44.33399999999999
 20
381.634
 30
0.0
 11
44.5827100775194
 21
381.882710077519
 31
0.0
  0
LINE
  5
1AD
330
1E
100
AcDbEntity
  8
0
100
AcDbLine
 10
44.22399999999999
 20
381.743
 30
0.0
 11
44.33399999999999
 21
381.634
 31
0.0
  0
LINE
  5
1AE
330
1E
100
AcDbEntity
  8
0
100
AcDbLine
 10
47.525
 20
377.944
 30
0.0
 11
48.1008299605013
 21
378.5198299605009
 31
0.0
  0
LINE
  5
1AF
330
1E
100
AcDbEntity
  8
0
100
AcDbLine
 10
47.525
 20
377.944
 30
0.0
 11
48.1008299605013
 21
378.5198299605009
 31
0.0
  0
LINE
  5
1B0
330
1E
100
AcDbEntity
  8
0
100
AcDbLine
 10
47.525
 20
377.944
 30
0.0
 11
48.113
 21
378.532
 31
0.0
  0
LINE
  5
1B1
330
1E
100
AcDbEntity
  8
0
100
AcDbLine
 10
47.22999999999999
 20
378.239
 30
0.0
 11
47.525
 21
377.944
 31
0.0
  0
LINE
  5
1B2
330
1E
100
AcDbEntity
  8
0
100
AcDbLine
 10
47.22999999999999
 20
378.239
 30
0.0
 11
47.818
 21
378.827
 31
0.0
  0
LINE
  5
1B3
330
1E
100
AcDbEntity
  8
0
100
AcDbLine
 10
48.332
 20
377.6359999999999
 30
0.0
 11
48.442
 21
377.5249999999999
 31
0.0
  0
LINE
  5
1B4
330
1E
100
AcDbEntity
  8
0
100
AcDbLine
 10
48.332
 20
377.6359999999999
 30
0.0
 11
48.61600000000001
 21
377.3509999999999
 31
0.0
  0
LINE
  5
1B5
330
1E
100
AcDbEntity
  8
0
100
AcDbLine
 10
48.332
 20
377.6359999999999
 30
0.0
 11
48.5805
 21
377.8845
 31
0.0
  0
LINE
  5
1B6
330
1E
100
AcDbEntity
  8
0
100
AcDbLine
 10
48.442
 20
377.5249999999999
 30
0.0
 11
48.61600000000001
 21
377.3509999999999
 31
0.0
  0
LINE
  5
1B7
330
1E
100
AcDbEntity
  8
0
100
AcDbLine
 10
48.364
 20
378.101
 30
0.0
 11
48.5805
 21
377.8845
 31
0.0
  0
LINE
  5
1B8
330
1E
100
AcDbEntity
  8
0
100
AcDbLine
 10
48.364
 20
378.101
 30
0.0
 11
48.519
 21
377.9459999999999
 31
0.0
  0
LINE
  5
1B9
330
1E
100
AcDbEntity
  8
0
100
AcDbLine
 10
48.364
 20
378.101
 30
0.0
 11
48.607
 21
377.858
 31
0.0
  0
LINE
  5
1BA
330
1E
100
AcDbEntity
  8
0
100
AcDbLine
 10
48.364
 20
378.101
 30
0.0
 11
49.16071827500879
 21
378.898281724991
 31
0.0
  0
LINE
  5
1BB
330
1E
100
AcDbEntity
  8
0
100
AcDbLine
 10
46.255
 20
379.2139999999999
 30
0.0
 11
46.706
 21
378.763
 31
0.0
  0
LINE
  5
1BC
330
1E
100
AcDbEntity
  8
0
100
AcDbLine
 10
46.255
 20
379.2139999999999
 30
0.0
 11
46.5040880169671
 21
379.462911983033
 31
0.0
  0
LINE
  5
1BD
330
1E
100
AcDbEntity
  8
0
100
AcDbLine
 10
46.568
 20
379.3989999999999
 30
0.0
 11
47.068
 21
378.899
 31
0.0
  0
LINE
  5
1BE
330
1E
100
AcDbEntity
  8
0
100
AcDbLine
 10
46.568
 20
379.3989999999999
 30
0.0
 11
47.1623730569948
 21
379.993373056995
 31
0.0
  0
LINE
  5
1BF
330
1E
100
AcDbEntity
  8
0
100
AcDbLine
 10
46.13199999999999
 20
379.3369999999999
 30
0.0
 11
46.255
 21
379.2139999999999
 31
0.0
  0
LINE
  5
1C0
330
1E
100
AcDbEntity
  8
0
100
AcDbLine
 10
46.13199999999999
 20
379.3369999999999
 30
0.0
 11
46.3810880169671
 21
379.5859119830329
 31
0.0
  0
LINE
  5
1C1
330
1E
100
AcDbEntity
  8
0
100
AcDbLine
 10
47.26799999999999
 20
378.6999999999999
 30
0.0
 11
47.92245924573999
 21
379.353996403275
 31
0.0
  0
LINE
  5
1C2
330
1E
100
AcDbEntity
  8
0
100
AcDbLine
 10
47.068
 20
378.899
 30
0.0
 11
47.26799999999999
 21
378.6999999999999
 31
0.0
  0
LINE
  5
1C3
330
1E
100
AcDbEntity
  8
0
100
AcDbLine
 10
47.068
 20
378.899
 30
0.0
 11
47.70550015239259
 21
379.536500152393
 31
0.0
  0
LINE
  5
1C4
330
1E
100
AcDbEntity
  8
0
100
AcDbLine
 10
46.706
 20
378.763
 30
0.0
 11
47.22999999999999
 21
378.239
 31
0.0
  0
LINE
  5
1C5
330
1E
100
AcDbEntity
  8
0
100
AcDbLine
 10
46.706
 20
378.763
 30
0.0
 11
46.95491198303289
 21
379.012088016967
 31
0.0
  0
LINE
  5
1C6
330
1E
100
AcDbEntity
  8
0
100
AcDbLine
 10
46.068
 20
379.8989999999999
 30
0.0
 11
46.3810880169671
 21
379.5859119830329
 31
0.0
  0
LINE
  5
1C7
330
1E
100
AcDbEntity
  8
0
100
AcDbLine
 10
46.068
 20
379.8989999999999
 30
0.0
 11
46.568
 21
379.3989999999999
 31
0.0
  0
LINE
  5
1C8
330
1E
100
AcDbEntity
  8
0
100
AcDbLine
 10
46.068
 20
379.8989999999999
 30
0.0
 11
46.61924596159709
 21
380.4502459615969
 31
0.0
  0
LINE
  5
1C9
330
1E
100
AcDbEntity
  8
0
100
AcDbLine
 10
48.07952133125909
 20
378.498521331259
 30
0.0
 11
48.4318615943363
 21
378.1689095869769
 31
0.0
  0
LINE
  5
1CA
330
1E
100
AcDbEntity
  8
0
100
AcDbLine
 10
46.06522594729979
 20
380.3828799600669
 30
0.0
 11
46.1099969829821
 21
380.340996982982
 31
0.0
  0
LINE
  5
1CB
330
1E
100
AcDbEntity
  8
0
100
AcDbLine
 10
39.698
 20
385.423
 30
0.0
 11
40.12101953488371
 21
385.846019534884
 31
0.0
  0
LINE
  5
1CC
330
1E
100
AcDbEntity
  8
0
100
AcDbLine
 10
39.498
 20
385.623
 30
0.0
 11
39.698
 21
385.423
 31
0.0
  0
LINE
  5
1CD
330
1E
100
AcDbEntity
  8
0
100
AcDbLine
 10
39.498
 20
385.623
 30
0.0
 11
39.921
 21
386.046
 31
0.0
  0
LINE
  5
1CE
330
1E
100
AcDbEntity
  8
0
100
AcDbLine
 10
41.375
 20
383.745
 30
0.0
 11
41.73399999999999
 21
383.3869999999999
 31
0.0
  0
LINE
  5
1CF
330
1E
100
AcDbEntity
  8
0
100
AcDbLine
 10
41.729
 20
383.74
 30
0.0
 11
41.972
 21
383.4969999999999
 31
0.0
  0
LINE
  5
1D0
330
1E
100
AcDbEntity
  8
0
100
AcDbLine
 10
41.729
 20
383.74
 30
0.0
 11
42.3167166110741
 21
384.3277166110739
 31
0.0
  0
LINE
  5
1D1
330
1E
100
AcDbEntity
  8
0
100
AcDbLine
 10
41.73399999999999
 20
383.3869999999999
 30
0.0
 11
41.908
 21
383.5609999999999
 31
0.0
  0
LINE
  5
1D2
330
1E
100
AcDbEntity
  8
0
100
AcDbLine
 10
41.717
 20
383.4039999999999
 30
0.0
 11
41.8910615058325
 21
383.5779384941679
 31
0.0
  0
LINE
  5
1D3
330
1E
100
AcDbEntity
  8
0
100
AcDbLine
 10
41.214
 20
384.255
 30
0.0
 11
41.729
 21
383.74
 31
0.0
  0
LINE
  5
1D4
330
1E
100
AcDbEntity
  8
0
100
AcDbLine
 10
41.214
 20
384.255
 30
0.0
 11
41.801577579849
 21
384.842993122692
 31
0.0
  0
LINE
  5
1D5
330
1E
100
AcDbEntity
  8
0
100
AcDbLine
 10
40.83700000002529
 20
384.2839999999749
 30
0.0
 11
41.375
 21
383.745
 31
0.0
  0
LINE
  5
1D6
330
1E
100
AcDbEntity
  8
0
100
AcDbLine
 10
40.83699999999999
 20
384.2839999999999
 30
0.0
 11
41.375
 21
383.745
 31
0.0
  0
LINE
  5
1D7
330
1E
100
AcDbEntity
  8
0
100
AcDbLine
 10
41.316
 20
383.8049999999999
 30
0.0
 11
41.717
 21
383.4039999999999
 31
0.0
  0
LINE
  5
1D8
330
1E
100
AcDbEntity
  8
0
100
AcDbLine
 10
41.316
 20
383.8049999999999
 30
0.0
 11
41.48993849416759
 21
383.9790615058319
 31
0.0
  0
LINE
  5
1D9
330
1E
100
AcDbEntity
  8
0
100
AcDbLine
 10
41.316
 20
383.8049999999999
 30
0.0
 11
41.48993849416759
 21
383.9790615058319
 31
0.0
  0
LINE
  5
1DA
330
1E
100
AcDbEntity
  8
0
100
AcDbLine
 10
40.77799999999999
 20
384.343
 30
0.0
 11
41.316
 21
383.8049999999999
 31
0.0
  0
LINE
  5
1DB
330
1E
100
AcDbEntity
  8
0
100
AcDbLine
 10
40.77799999999999
 20
384.343
 30
0.0
 11
40.952
 21
384.5169999999999
 31
0.0
  0
LINE
  5
1DC
330
1E
100
AcDbEntity
  8
0
100
AcDbLine
 10
40.733
 20
384.736
 30
0.0
 11
41.214
 21
384.255
 31
0.0
  0
LINE
  5
1DD
330
1E
100
AcDbEntity
  8
0
100
AcDbLine
 10
40.733
 20
384.736
 30
0.0
 11
40.98206060606059
 21
384.985060606061
 31
0.0
  0
LINE
  5
1DE
330
1E
100
AcDbEntity
  8
0
100
AcDbLine
 10
40.419
 20
384.702
 30
0.0
 11
40.77799999999999
 21
384.343
 31
0.0
  0
LINE
  5
1DF
330
1E
100
AcDbEntity
  8
0
100
AcDbLine
 10
40.419
 20
384.702
 30
0.0
 11
40.59338869402529
 21
384.876512024078
 31
0.0
  0
LINE
  5
1E0
330
1E
100
AcDbEntity
  8
0
100
AcDbLine
 10
40.552
 20
384.569
 30
0.0
 11
40.8370000000233
 21
384.283999999977
 31
0.0
  0
LINE
  5
1E1
330
1E
100
AcDbEntity
  8
0
100
AcDbLine
 10
41.972
 20
383.4969999999999
 30
0.0
 11
42.5596841894597
 21
384.08468418946
 31
0.0
  0
LINE
  5
1E2
330
1E
100
AcDbEntity
  8
0
100
AcDbLine
 10
41.868
 20
383.254
 30
0.0
 11
42.428485660273
 21
383.8140892772029
 31
0.0
  0
LINE
  5
1E3
330
1E
100
AcDbEntity
  8
0
100
AcDbLine
 10
41.7343138075314
 20
383.3873138075309
 30
0.0
 11
41.868
 21
383.254
 31
0.0
  0
LINE
  5
1E4
330
1E
100
AcDbEntity
  8
0
100
AcDbLine
 10
40.60419595314729
 20
385.3637412140519
 30
0.0
 11
40.97999999999999
 21
384.9869999999999
 31
0.0
  0
LINE
  5
1E5
330
1E
100
AcDbEntity
  8
0
100
AcDbLine
 10
40.6041959531474
 20
385.3637412140519
 30
0.0
 11
40.97999999999999
 21
384.9869999999999
 31
0.0
  0
LINE
  5
1E6
330
1E
100
AcDbEntity
  8
0
100
AcDbLine
 10
40.339
 20
385.628
 30
0.0
 11
40.97999999999999
 21
384.9869999999999
 31
0.0
  0
LINE
  5
1E7
330
1E
100
AcDbEntity
  8
0
100
AcDbLine
 10
40.997
 20
384.9709999999999
 30
0.0
 11
41.245698089172
 21
385.2196980891719
 31
0.0
  0
LINE
  5
1E8
330
1E
100
AcDbEntity
  8
0
100
AcDbLine
 10
41.431
 20
385.034
 30
0.0
 11
42.2283192629098
 21
385.83131926291
 31
0.0
  0
LINE
  5
1E9
330
1E
100
AcDbEntity
  8
0
100
AcDbLine
 10
41.401
 20
385.064
 30
0.0
 11
42.19832140561389
 21
385.861321405614
 31
0.0
  0
LINE
  5
1EA
330
1E
100
AcDbEntity
  8
0
100
AcDbLine
 10
41.00899999999999
 20
385.4569999999999
 30
0.0
 11
41.401
 21
385.064
 31
0.0
  0
LINE
  5
1EB
330
1E
100
AcDbEntity
  8
0
100
AcDbLine
 10
41.00899999999999
 20
385.4569999999999
 30
0.0
 11
41.80584943932579
 21
386.253849439326
 31
0.0
  0
LINE
  5
1EC
330
1E
100
AcDbEntity
  8
0
100
AcDbLine
 10
40.638
 20
385.3299999999999
 30
0.0
 11
40.997
 21
384.9709999999999
 31
0.0
  0
LINE
  5
1ED
330
1E
100
AcDbEntity
  8
0
100
AcDbLine
 10
40.638
 20
385.3299999999999
 30
0.0
 11
40.88708807923589
 21
385.578911920764
 31
0.0
  0
LINE
  5
1EE
330
1E
100
AcDbEntity
  8
0
100
AcDbLine
 10
40.578
 20
384.892
 30
0.0
 11
40.8265
 21
385.1404999999999
 31
0.0
  0
LINE
  5
1EF
330
1E
100
AcDbEntity
  8
0
100
AcDbLine
 10
40.578
 20
384.892
 30
0.0
 11
40.733
 21
384.736
 31
0.0
  0
LINE
  5
1F0
330
1E
100
AcDbEntity
  8
0
100
AcDbLine
 10
40.578
 20
384.892
 30
0.0
 11
40.82669115815689
 21
385.140691158157
 31
0.0
  0
LINE
  5
1F1
330
1E
100
AcDbEntity
  8
0
100
AcDbLine
 10
40.2076000000161
 20
385.759599999984
 30
0.0
 11
40.25380622010679
 21
385.713479665061
 31
0.0
  0
LINE
  5
1F2
330
1E
100
AcDbEntity
  8
0
100
AcDbLine
 10
38.298
 20
386.823
 30
0.0
 11
38.498
 21
386.623
 31
0.0
  0
LINE
  5
1F3
330
1E
100
AcDbEntity
  8
0
100
AcDbLine
 10
38.298
 20
386.823
 30
0.0
 11
38.83017567877489
 21
387.354799582889
 31
0.0
  0
LINE
  5
1F4
330
1E
100
AcDbEntity
  8
0
100
AcDbLine
 10
38.498
 20
386.623
 30
0.0
 11
38.998
 21
386.123
 31
0.0
  0
LINE
  5
1F5
330
1E
100
AcDbEntity
  8
0
100
AcDbLine
 10
38.498
 20
386.623
 30
0.0
 11
39.03938443065839
 21
387.164384430658
 31
0.0
  0
LINE
  5
1F6
330
1E
100
AcDbEntity
  8
0
100
AcDbLine
 10
38.998
 20
386.123
 30
0.0
 11
39.498
 21
385.623
 31
0.0
  0
LINE
  5
1F7
330
1E
100
AcDbEntity
  8
0
100
AcDbLine
 10
38.998
 20
386.123
 30
0.0
 11
39.5628985391235
 21
386.687898539124
 31
0.0
  0
LINE
  5
1F8
330
1E
100
AcDbEntity
  8
0
100
AcDbLine
 10
40.525
 20
385.941
 30
0.0
 11
41.00899999999999
 21
385.4569999999999
 31
0.0
  0
LINE
  5
1F9
330
1E
100
AcDbEntity
  8
0
100
AcDbLine
 10
40.47099999999999
 20
385.9949999999999
 30
0.0
 11
41.00899999999999
 21
385.4569999999999
 31
0.0
  0
LINE
  5
1FA
330
1E
100
AcDbEntity
  8
0
100
AcDbLine
 10
40.47099999999999
 20
385.9949999999999
 30
0.0
 11
41.2678878651525
 21
386.7918878651519
 31
0.0
  0
LINE
  5
1FB
330
1E
100
AcDbEntity
  8
0
100
AcDbLine
 10
40.1
 20
385.8669999999999
 30
0.0
 11
40.638
 21
385.3299999999999
 31
0.0
  0
LINE
  5
1FC
330
1E
100
AcDbEntity
  8
0
100
AcDbLine
 10
40.1
 20
385.8669999999999
 30
0.0
 11
40.3491882062315
 21
386.116364435515
 31
0.0
  0
LINE
  5
1FD
330
1E
100
AcDbEntity
  8
0
100
AcDbLine
 10
40.132
 20
386.333
 30
0.0
 11
40.525
 21
385.941
 31
0.0
  0
LINE
  5
1FE
330
1E
100
AcDbEntity
  8
0
100
AcDbLine
 10
40.102
 20
386.363
 30
0.0
 11
40.47099999999999
 21
385.9949999999999
 31
0.0
  0
LINE
  5
1FF
330
1E
100
AcDbEntity
  8
0
100
AcDbLine
 10
40.102
 20
386.363
 30
0.0
 11
40.89969603595959
 21
387.160132293178
 31
0.0
  0
LINE
  5
200
330
1E
100
AcDbEntity
  8
0
100
AcDbLine
 10
39.68199999999999
 20
386.2859999999999
 30
0.0
 11
40.30710925206649
 21
386.911109252067
 31
0.0
  0
LINE
  5
201
330
1E
100
AcDbEntity
  8
0
100
AcDbLine
 10
39.698
 20
386.269
 30
0.0
 11
40.1
 21
385.8669999999999
 31
0.0
  0
LINE
  5
202
330
1E
100
AcDbEntity
  8
0
100
AcDbLine
 10
39.698
 20
386.269
 30
0.0
 11
40.3250081965742
 21
386.8955650812409
 31
0.0
  0
LINE
  5
203
330
1E
100
AcDbEntity
  8
0
100
AcDbLine
 10
40.207600000016
 20
385.759599999984
 30
0.0
 11
40.25380622010679
 21
385.713479665061
 31
0.0
  0
LINE
  5
204
330
1E
100
AcDbEntity
  8
0
100
AcDbLine
 10
43.239
 20
382.728
 30
0.0
 11
43.766
 21
382.2009999999999
 31
0.0
  0
LINE
  5
205
330
1E
100
AcDbEntity
  8
0
100
AcDbLine
 10
43.523
 20
382.445
 30
0.0
 11
44.05
 21
381.9169999999999
 31
0.0
  0
LINE
  5
206
330
1E
100
AcDbEntity
  8
0
100
AcDbLine
 10
43.523
 20
382.445
 30
0.0
 11
44.078540125523
 21
383.000540125523
 31
0.0
  0
LINE
  5
207
330
1E
100
AcDbEntity
  8
0
100
AcDbLine
 10
43.0650000000092
 20
382.901999999991
 30
0.0
 11
43.239
 21
382.728
 31
0.0
  0
LINE
  5
208
330
1E
100
AcDbEntity
  8
0
100
AcDbLine
 10
43.06499999999999
 20
382.9019999999999
 30
0.0
 11
43.239
 21
382.728
 31
0.0
  0
LINE
  5
209
330
1E
100
AcDbEntity
  8
0
100
AcDbLine
 10
43.766
 20
382.2009999999999
 30
0.0
 11
44.0499999999956
 21
381.9170000000039
 31
0.0
  0
LINE
  5
20A
330
1E
100
AcDbEntity
  8
0
100
AcDbLine
 10
43.766
 20
382.2009999999999
 30
0.0
 11
44.0499999999966
 21
381.9170000000029
 31
0.0
  0
LINE
  5
20B
330
1E
100
AcDbEntity
  8
0
100
AcDbLine
 10
43.766
 20
382.2009999999999
 30
0.0
 11
44.22399999999999
 21
381.743
 31
0.0
  0
LINE
  5
20C
330
1E
100
AcDbEntity
  8
0
100
AcDbLine
 10
44.447
 20
382.018
 30
0.0
 11
44.6590490716147
 21
381.8066074270589
 31
0.0
  0
LINE
  5
20D
330
1E
100
AcDbEntity
  8
0
100
AcDbLine
 10
44.447
 20
382.018
 30
0.0
 11
45.123
 21
381.3419999999999
 31
0.0
  0
LINE
  5
20E
330
1E
100
AcDbEntity
  8
0
100
AcDbLine
 10
44.447
 20
382.018
 30
0.0
 11
44.511
 21
381.9549999999999
 31
0.0
  0
LINE
  5
20F
330
1E
100
AcDbEntity
  8
0
100
AcDbLine
 10
44.447
 20
382.018
 30
0.0
 11
45.14162195000499
 21
382.712621950005
 31
0.0
  0
LINE
  5
210
330
1E
100
AcDbEntity
  8
0
100
AcDbLine
 10
44.447
 20
382.018
 30
0.0
 11
44.6590490716147
 21
381.8066074270589
 31
0.0
  0
LINE
  5
211
330
1E
100
AcDbEntity
  8
0
100
AcDbLine
 10
44.511
 20
381.9549999999999
 30
0.0
 11
44.942
 21
381.523
 31
0.0
  0
LINE
  5
212
330
1E
100
AcDbEntity
  8
0
100
AcDbLine
 10
44.511
 20
381.9549999999999
 30
0.0
 11
45.2095930684195
 21
382.653593068419
 31
0.0
  0
LINE
  5
213
330
1E
100
AcDbEntity
  8
0
100
AcDbLine
 10
44.511
 20
381.9549999999999
 30
0.0
 11
45.2095930684195
 21
382.653593068419
 31
0.0
  0
LINE
  5
214
330
1E
100
AcDbEntity
  8
0
100
AcDbLine
 10
44.05000000000239
 20
381.916999999998
 30
0.0
 11
44.22399999999999
 21
381.743
 31
0.0
  0
LINE
  5
215
330
1E
100
AcDbEntity
  8
0
100
AcDbLine
 10
44.05
 20
381.9169999999999
 30
0.0
 11
44.22399999999999
 21
381.743
 31
0.0
  0
LINE
  5
216
330
1E
100
AcDbEntity
  8
0
100
AcDbLine
 10
44.05
 20
381.9169999999999
 30
0.0
 11
44.33399999999999
 21
381.634
 31
0.0
  0
LINE
  5
217
330
1E
100
AcDbEntity
  8
0
100
AcDbLine
 10
44.05
 20
381.9169999999999
 30
0.0
 11
44.63724870292889
 21
382.5042487029289
 31
0.0
  0
LINE
  5
218
330
1E
100
AcDbEntity
  8
0
100
AcDbLine
 10
42.95499999999999
 20
383.0119999999999
 30
0.0
 11
43.09985778524939
 21
383.156960230642
 31
0.0
  0
LINE
  5
219
330
1E
100
AcDbEntity
  8
0
100
AcDbLine
 10
42.95499999999999
 20
383.0119999999999
 30
0.0
 11
43.06499999999999
 21
382.9019999999999
 31
0.0
  0
LINE
  5
21A
330
1E
100
AcDbEntity
  8
0
100
AcDbLine
 10
42.95499999999999
 20
383.0119999999999
 30
0.0
 11
43.47726941677049
 21
383.534638772794
 31
0.0
  0
LINE
  5
21B
330
1E
100
AcDbEntity
  8
0
100
AcDbLine
 10
42.95499999999999
 20
383.0119999999999
 30
0.0
 11
43.47726941677049
 21
383.534638772794
 31
0.0
  0
LINE
  5
21C
330
1E
100
AcDbEntity
  8
0
100
AcDbLine
 10
43.06499999999999
 20
382.9019999999999
 30
0.0
 11
43.523
 21
382.445
 31
0.0
  0
LINE
  5
21D
330
1E
100
AcDbEntity
  8
0
100
AcDbLine
 10
43.06499999999999
 20
382.9019999999999
 30
0.0
 11
43.79583457857
 21
383.632318087702
 31
0.0
  0
LINE
  5
21E
330
1E
100
AcDbEntity
  8
0
100
AcDbLine
 10
42.3414475086032
 20
383.8664475086029
 30
0.0
 11
43.09985778524939
 21
383.156960230642
 31
0.0
  0
LINE
  5
21F
330
1E
100
AcDbEntity
  8
0
100
AcDbLine
 10
44.5243542167539
 20
381.824354216754
 30
0.0
 11
44.6679868948286
 21
381.689986894829
 31
0.0
  0
LINE
  5
220
330
1E
100
AcDbEntity
  8
0
100
AcDbLine
 10
38.14199999999999
 20
387.795
 30
0.0
 11
38.72495323630539
 21
387.2496515025689
 31
0.0
  0
LINE
  5
221
330
1E
100
AcDbEntity
  8
0
100
AcDbLine
 10
38.14199999999999
 20
387.795
 30
0.0
 11
38.72495323630539
 21
387.2496515025689
 31
0.0
  0
LINE
  5
222
330
1E
100
AcDbEntity
  8
0
100
AcDbLine
 10
30.7835601173193
 20
394.337560117285
 30
0.0
 11
30.845
 21
394.276
 31
0.0
  0
LINE
  5
223
330
1E
100
AcDbEntity
  8
0
100
AcDbLine
 10
30.7835601173193
 20
394.337560117285
 30
0.0
 11
30.845
 21
394.276
 31
0.0
  0
LINE
  5
224
330
1E
100
AcDbEntity
  8
0
100
AcDbLine
 10
30.722
 20
394.3989999999999
 30
0.0
 11
31.234
 21
393.888
 31
0.0
  0
LINE
  5
225
330
1E
100
AcDbEntity
  8
0
100
AcDbLine
 10
30.722
 20
394.3989999999999
 30
0.0
 11
30.8964399596368
 21
394.5734399596369
 31
0.0
  0
LINE
  5
226
330
1E
100
AcDbEntity
  8
0
100
AcDbLine
 10
30.845
 20
394.276
 30
0.0
 11
31.32
 21
393.8009999999999
 31
0.0
  0
LINE
  5
227
330
1E
100
AcDbEntity
  8
0
100
AcDbLine
 10
30.8370000000001
 20
394.633
 30
0.0
 11
31.3320000000001
 21
394.1369999999999
 31
0.0
  0
LINE
  5
228
330
1E
100
AcDbEntity
  8
0
100
AcDbLine
 10
30.8370000000001
 20
394.633
 30
0.0
 11
31.335
 21
395.1309999999999
 31
0.0
  0
LINE
  5
229
330
1E
100
AcDbEntity
  8
0
100
AcDbLine
 10
30.84
 20
395.625
 30
0.0
 11
31.335
 21
395.1309999999999
 31
0.0
  0
LINE
  5
22A
330
1E
100
AcDbEntity
  8
0
100
AcDbLine
 10
30.84
 20
395.625
 30
0.0
 11
31.6374673187496
 21
396.42246731875
 31
0.0
  0
LINE
  5
22B
330
1E
100
AcDbEntity
  8
0
100
AcDbLine
 10
35.0408560533834
 20
389.7658560533849
 30
0.0
 11
35.414
 21
389.3919999999999
 31
0.0
  0
LINE
  5
22C
330
1E
100
AcDbEntity
  8
0
100
AcDbLine
 10
33.63724066389189
 20
391.168879668058
 30
0.0
 11
33.695
 21
391.1109999999999
 31
0.0
  0
LINE
  5
22D
330
1E
100
AcDbEntity
  8
0
100
AcDbLine
 10
33.608
 20
391.198
 30
0.0
 11
33.85099999999999
 21
390.9559999999999
 31
0.0
  0
LINE
  5
22E
330
1E
100
AcDbEntity
  8
0
100
AcDbLine
 10
33.608
 20
391.198
 30
0.0
 11
34.1741275405007
 21
391.764127540501
 31
0.0
  0
LINE
  5
22F
330
1E
100
AcDbEntity
  8
0
100
AcDbLine
 10
33.63724066389189
 20
391.168879668058
 30
0.0
 11
33.695
 21
391.1109999999999
 31
0.0
  0
LINE
  5
230
330
1E
100
AcDbEntity
  8
0
100
AcDbLine
 10
34.495
 20
390.3109999999999
 30
0.0
 11
34.946
 21
389.861
 31
0.0
  0
LINE
  5
231
330
1E
100
AcDbEntity
  8
0
100
AcDbLine
 10
34.495
 20
390.3109999999999
 30
0.0
 11
35.06115291343889
 21
390.877152913439
 31
0.0
  0
LINE
  5
232
330
1E
100
AcDbEntity
  8
0
100
AcDbLine
 10
33.85099999999999
 20
390.9559999999999
 30
0.0
 11
34.4165561119293
 21
391.521556111929
 31
0.0
  0
LINE
  5
233
330
1E
100
AcDbEntity
  8
0
100
AcDbLine
 10
34.372
 20
390.434
 30
0.0
 11
34.495
 21
390.3109999999999
 31
0.0
  0
LINE
  5
234
330
1E
100
AcDbEntity
  8
0
100
AcDbLine
 10
34.372
 20
390.434
 30
0.0
 11
34.93831166287669
 21
390.99991144262
 31
0.0
  0
LINE
  5
235
330
1E
100
AcDbEntity
  8
0
100
AcDbLine
 10
34.4950000000089
 20
390.310999999991
 30
0.0
 11
34.667
 21
390.139
 31
0.0
  0
LINE
  5
236
330
1E
100
AcDbEntity
  8
0
100
AcDbLine
 10
34.607
 20
391.3309999999999
 30
0.0
 11
35.189551678699
 21
390.748840611994
 31
0.0
  0
LINE
  5
237
330
1E
100
AcDbEntity
  8
0
100
AcDbLine
 10
34.78099999999999
 20
390.3399999999999
 30
0.0
 11
35.14
 21
389.981
 31
0.0
  0
LINE
  5
238
330
1E
100
AcDbEntity
  8
0
100
AcDbLine
 10
34.78099999999999
 20
390.3399999999999
 30
0.0
 11
35.3059434492867
 21
390.8653146964219
 31
0.0
  0
LINE
  5
239
330
1E
100
AcDbEntity
  8
0
100
AcDbLine
 10
34.798
 20
390.324
 30
0.0
 11
35.19899999999999
 21
389.9219999999999
 31
0.0
  0
LINE
  5
23A
330
1E
100
AcDbEntity
  8
0
100
AcDbLine
 10
34.798
 20
390.324
 30
0.0
 11
35.32367435479899
 21
390.8493025907569
 31
0.0
  0
LINE
  5
23B
330
1E
100
AcDbEntity
  8
0
100
AcDbLine
 10
34.4950000000089
 20
390.310999999991
 30
0.0
 11
34.667
 21
390.139
 31
0.0
  0
LINE
  5
23C
330
1E
100
AcDbEntity
  8
0
100
AcDbLine
 10
34.667
 20
390.139
 30
0.0
 11
35.0688827454629
 21
389.737882745481
 31
0.0
  0
LINE
  5
23D
330
1E
100
AcDbEntity
  8
0
100
AcDbLine
 10
33.695
 20
391.1109999999999
 30
0.0
 11
33.85099999999999
 21
390.9559999999999
 31
0.0
  0
LINE
  5
23E
330
1E
100
AcDbEntity
  8
0
100
AcDbLine
 10
32.69899999999999
 20
392.1069999999999
 30
0.0
 11
33.15394083414719
 21
391.6529408341359
 31
0.0
  0
LINE
  5
23F
330
1E
100
AcDbEntity
  8
0
100
AcDbLine
 10
32.69899999999999
 20
392.1069999999999
 30
0.0
 11
33.1539408341471
 21
391.6529408341359
 31
0.0
  0
LINE
  5
240
330
1E
100
AcDbEntity
  8
0
100
AcDbLine
 10
32.61199999999999
 20
392.1949999999999
 30
0.0
 11
33.093
 21
391.714
 31
0.0
  0
LINE
  5
241
330
1E
100
AcDbEntity
  8
0
100
AcDbLine
 10
32.61199999999999
 20
392.1949999999999
 30
0.0
 11
33.1779210603829
 21
392.760921060383
 31
0.0
  0
LINE
  5
242
330
1E
100
AcDbEntity
  8
0
100
AcDbLine
 10
32.994
 20
392.973
 30
0.0
 11
33.444
 21
392.523
 31
0.0
  0
LINE
  5
243
330
1E
100
AcDbEntity
  8
0
100
AcDbLine
 10
33.093
 20
391.714
 30
0.0
 11
33.608
 21
391.198
 31
0.0
  0
LINE
  5
244
330
1E
100
AcDbEntity
  8
0
100
AcDbLine
 10
33.093
 20
391.714
 30
0.0
 11
33.6587793814433
 21
392.279779381443
 31
0.0
  0
LINE
  5
245
330
1E
100
AcDbEntity
  8
0
100
AcDbLine
 10
33.69899999999999
 20
392.269
 30
0.0
 11
34.2821701030928
 21
392.852170103093
 31
0.0
  0
LINE
  5
246
330
1E
100
AcDbEntity
  8
0
100
AcDbLine
 10
33.53
 20
392.4369999999999
 30
0.0
 11
33.69899999999999
 21
392.269
 31
0.0
  0
LINE
  5
247
330
1E
100
AcDbEntity
  8
0
100
AcDbLine
 10
33.53
 20
392.4369999999999
 30
0.0
 11
34.097924729051
 21
393.0049247290509
 31
0.0
  0
LINE
  5
248
330
1E
100
AcDbEntity
  8
0
100
AcDbLine
 10
33.056
 20
392.911
 30
0.0
 11
33.53
 21
392.4369999999999
 31
0.0
  0
LINE
  5
249
330
1E
100
AcDbEntity
  8
0
100
AcDbLine
 10
33.056
 20
392.911
 30
0.0
 11
33.57942972039
 21
393.434799896996
 31
0.0
  0
LINE
  5
24A
330
1E
100
AcDbEntity
  8
0
100
AcDbLine
 10
32.544
 20
393.4229999999999
 30
0.0
 11
33.056
 21
392.911
 31
0.0
  0
LINE
  5
24B
330
1E
100
AcDbEntity
  8
0
100
AcDbLine
 10
32.544
 20
393.4229999999999
 30
0.0
 11
33.0197885937087
 21
393.898788593709
 31
0.0
  0
LINE
  5
24C
330
1E
100
AcDbEntity
  8
0
100
AcDbLine
 10
32.45599999999999
 20
392.35
 30
0.0
 11
32.69899999999999
 21
392.1069999999999
 31
0.0
  0
LINE
  5
24D
330
1E
100
AcDbEntity
  8
0
100
AcDbLine
 10
32.45599999999999
 20
392.35
 30
0.0
 11
33.02246686303389
 21
392.9164668630339
 31
0.0
  0
LINE
  5
24E
330
1E
100
AcDbEntity
  8
0
100
AcDbLine
 10
32.45599999999999
 20
392.35
 30
0.0
 11
32.61199999999999
 21
392.1949999999999
 31
0.0
  0
LINE
  5
24F
330
1E
100
AcDbEntity
  8
0
100
AcDbLine
 10
33.15394083414719
 20
391.6529408341359
 30
0.0
 11
33.608
 21
391.198
 31
0.0
  0
LINE
  5
250
330
1E
100
AcDbEntity
  8
0
100
AcDbLine
 10
34.946
 20
389.861
 30
0.0
 11
35.47
 21
389.336
 31
0.0
  0
LINE
  5
251
330
1E
100
AcDbEntity
  8
0
100
AcDbLine
 10
34.946
 20
389.861
 30
0.0
 11
35.103
 21
390.018
 31
0.0
  0
LINE
  5
252
330
1E
100
AcDbEntity
  8
0
100
AcDbLine
 10
35.14
 20
389.981
 30
0.0
 11
35.678
 21
389.443
 31
0.0
  0
LINE
  5
253
330
1E
100
AcDbEntity
  8
0
100
AcDbLine
 10
34.93676923076449
 20
389.869744615389
 30
0.0
 11
35.16799999999999
 21
389.638
 31
0.0
  0
LINE
  5
254
330
1E
100
AcDbEntity
  8
0
100
AcDbLine
 10
34.93676923076449
 20
389.869744615389
 30
0.0
 11
35.16799999999999
 21
389.638
 31
0.0
  0
LINE
  5
255
330
1E
100
AcDbEntity
  8
0
100
AcDbLine
 10
35.0408560533834
 20
389.7658560533849
 30
0.0
 11
35.414
 21
389.3919999999999
 31
0.0
  0
LINE
  5
256
330
1E
100
AcDbEntity
  8
0
100
AcDbLine
 10
35.765
 20
389.041
 30
0.0
 11
35.9224443266172
 21
389.198555673383
 31
0.0
  0
LINE
  5
257
330
1E
100
AcDbEntity
  8
0
100
AcDbLine
 10
37.103
 20
388.864
 30
0.0
 11
37.436
 21
388.531
 31
0.0
  0
LINE
  5
258
330
1E
100
AcDbEntity
  8
0
100
AcDbLine
 10
36.633
 20
388.837
 30
0.0
 11
37.025
 21
388.444
 31
0.0
  0
LINE
  5
259
330
1E
100
AcDbEntity
  8
0
100
AcDbLine
 10
36.633
 20
388.837
 30
0.0
 11
36.8817075913777
 21
389.085707591378
 31
0.0
  0
LINE
  5
25A
330
1E
100
AcDbEntity
  8
0
100
AcDbLine
 10
36.93599999999999
 20
389.032
 30
0.0
 11
37.359
 21
388.609
 31
0.0
  0
LINE
  5
25B
330
1E
100
AcDbEntity
  8
0
100
AcDbLine
 10
36.93599999999999
 20
389.032
 30
0.0
 11
37.5827005426739
 21
389.678700542674
 31
0.0
  0
LINE
  5
25C
330
1E
100
AcDbEntity
  8
0
100
AcDbLine
 10
36.097
 20
389.024
 30
0.0
 11
36.2715
 21
389.1985
 31
0.0
  0
LINE
  5
25D
330
1E
100
AcDbEntity
  8
0
100
AcDbLine
 10
35.98699999999999
 20
388.819
 30
0.0
 11
36.31906069080779
 21
389.150826018942
 31
0.0
  0
LINE
  5
25E
330
1E
100
AcDbEntity
  8
0
100
AcDbLine
 10
35.865
 20
388.9419999999999
 30
0.0
 11
35.98699999999999
 21
388.819
 31
0.0
  0
LINE
  5
25F
330
1E
100
AcDbEntity
  8
0
100
AcDbLine
 10
35.865
 20
388.9419999999999
 30
0.0
 11
36.02199999999999
 21
389.099
 31
0.0
  0
LINE
  5
260
330
1E
100
AcDbEntity
  8
0
100
AcDbLine
 10
35.19899999999999
 20
389.9219999999999
 30
0.0
 11
35.738
 21
389.383
 31
0.0
  0
LINE
  5
261
330
1E
100
AcDbEntity
  8
0
100
AcDbLine
 10
35.19899999999999
 20
389.9219999999999
 30
0.0
 11
35.745633587384
 21
390.468247273895
 31
0.0
  0
LINE
  5
262
330
1E
100
AcDbEntity
  8
0
100
AcDbLine
 10
36.3909999999977
 20
389.079000000002
 30
0.0
 11
36.633
 21
388.837
 31
0.0
  0
LINE
  5
263
330
1E
100
AcDbEntity
  8
0
100
AcDbLine
 10
35.42699999999999
 20
391.038
 30
0.0
 11
35.722
 21
390.743
 31
0.0
  0
LINE
  5
264
330
1E
100
AcDbEntity
  8
0
100
AcDbLine
 10
35.42699999999999
 20
391.038
 30
0.0
 11
36.2245
 21
391.8355
 31
0.0
  0
LINE
  5
265
330
1E
100
AcDbEntity
  8
0
100
AcDbLine
 10
36.095
 20
389.375
 30
0.0
 11
36.633
 21
388.837
 31
0.0
  0
LINE
  5
266
330
1E
100
AcDbEntity
  8
0
100
AcDbLine
 10
36.095
 20
389.375
 30
0.0
 11
36.34349999999999
 21
389.6234999999999
 31
0.0
  0
LINE
  5
267
330
1E
100
AcDbEntity
  8
0
100
AcDbLine
 10
35.756
 20
389.713
 30
0.0
 11
36.149
 21
389.3209999999999
 31
0.0
  0
LINE
  5
268
330
1E
100
AcDbEntity
  8
0
100
AcDbLine
 10
35.756
 20
389.713
 30
0.0
 11
36.391
 21
389.0789999999999
 31
0.0
  0
LINE
  5
269
330
1E
100
AcDbEntity
  8
0
100
AcDbLine
 10
36.07
 20
389.8969999999999
 30
0.0
 11
36.40299999999999
 21
389.564
 31
0.0
  0
LINE
  5
26A
330
1E
100
AcDbEntity
  8
0
100
AcDbLine
 10
36.07
 20
389.8969999999999
 30
0.0
 11
36.31891198303289
 21
390.1460880169669
 31
0.0
  0
LINE
  5
26B
330
1E
100
AcDbEntity
  8
0
100
AcDbLine
 10
35.72699999999999
 20
389.744
 30
0.0
 11
36.095
 21
389.375
 31
0.0
  0
LINE
  5
26C
330
1E
100
AcDbEntity
  8
0
100
AcDbLine
 10
35.72699999999999
 20
389.744
 30
0.0
 11
36.22417580474
 21
390.2408241952599
 31
0.0
  0
LINE
  5
26D
330
1E
100
AcDbEntity
  8
0
100
AcDbLine
 10
35.678
 20
389.443
 30
0.0
 11
36.08
 21
389.041
 31
0.0
  0
LINE
  5
26E
330
1E
100
AcDbEntity
  8
0
100
AcDbLine
 10
35.738
 20
389.383
 30
0.0
 11
36.097
 21
389.024
 31
0.0
  0
LINE
  5
26F
330
1E
100
AcDbEntity
  8
0
100
AcDbLine
 10
35.738
 20
389.383
 30
0.0
 11
35.912137071623
 21
389.5572602237249
 31
0.0
  0
LINE
  5
270
330
1E
100
AcDbEntity
  8
0
100
AcDbLine
 10
36.246
 20
390.219
 30
0.0
 11
36.69699999999999
 21
389.768
 31
0.0
  0
LINE
  5
271
330
1E
100
AcDbEntity
  8
0
100
AcDbLine
 10
36.246
 20
390.219
 30
0.0
 11
37.0437819017321
 21
391.016218098268
 31
0.0
  0
LINE
  5
272
330
1E
100
AcDbEntity
  8
0
100
AcDbLine
 10
35.722
 20
390.743
 30
0.0
 11
36.246
 21
390.219
 31
0.0
  0
LINE
  5
273
330
1E
100
AcDbEntity
  8
0
100
AcDbLine
 10
35.722
 20
390.743
 30
0.0
 11
36.5195
 21
391.5405
 31
0.0
  0
LINE
  5
274
330
1E
100
AcDbEntity
  8
0
100
AcDbLine
 10
35.47
 20
389.336
 30
0.0
 11
35.765
 21
389.041
 31
0.0
  0
LINE
  5
275
330
1E
100
AcDbEntity
  8
0
100
AcDbLine
 10
35.47
 20
389.336
 30
0.0
 11
35.62749999999999
 21
389.4934999999999
 31
0.0
  0
LINE
  5
276
330
1E
100
AcDbEntity
  8
0
100
AcDbLine
 10
36.31906069080779
 20
389.150826018942
 30
0.0
 11
36.391
 21
389.0789999999999
 31
0.0
  0
LINE
  5
277
330
1E
100
AcDbEntity
  8
0
100
AcDbLine
 10
36.3909999999977
 20
389.079000000002
 30
0.0
 11
36.633
 21
388.837
 31
0.0
  0
LINE
  5
278
330
1E
100
AcDbEntity
  8
0
100
AcDbLine
 10
36.40299999999999
 20
389.564
 30
0.0
 11
36.93599999999999
 21
389.032
 31
0.0
  0
LINE
  5
279
330
1E
100
AcDbEntity
  8
0
100
AcDbLine
 10
36.40299999999999
 20
389.564
 30
0.0
 11
36.65191198303289
 21
389.813088016967
 31
0.0
  0
LINE
  5
27A
330
1E
100
AcDbEntity
  8
0
100
AcDbLine
 10
36.7530000000084
 20
389.214656660404
 30
0.0
 11
37.103
 21
388.864
 31
0.0
  0
LINE
  5
27B
330
1E
100
AcDbEntity
  8
0
100
AcDbLine
 10
36.7530000000084
 20
389.214656660404
 30
0.0
 11
37.103
 21
388.864
 31
0.0
  0
LINE
  5
27C
330
1E
100
AcDbEntity
  8
0
100
AcDbLine
 10
36.82
 20
389.6449999999999
 30
0.0
 11
37.6172180982679
 21
390.442781901732
 31
0.0
  0
LINE
  5
27D
330
1E
100
AcDbEntity
  8
0
100
AcDbLine
 10
36.69699999999999
 20
389.768
 30
0.0
 11
36.82
 21
389.6449999999999
 31
0.0
  0
LINE
  5
27E
330
1E
100
AcDbEntity
  8
0
100
AcDbLine
 10
36.69699999999999
 20
389.768
 30
0.0
 11
37.4945
 21
390.5654999999999
 31
0.0
  0
LINE
  5
27F
330
1E
100
AcDbEntity
  8
0
100
AcDbLine
 10
35.76538942929
 20
389.0413897047
 30
0.0
 11
35.865
 21
388.9419999999999
 31
0.0
  0
LINE
  5
280
330
1E
100
AcDbEntity
  8
0
100
AcDbLine
 10
35.76537677701229
 20
389.0413770434739
 30
0.0
 11
35.98699999999999
 21
388.819
 31
0.0
  0
LINE
  5
281
330
1E
100
AcDbEntity
  8
0
100
AcDbLine
 10
35.16799999999999
 20
389.638
 30
0.0
 11
35.2911172545326
 21
389.515117254524
 31
0.0
  0
LINE
  5
282
330
1E
100
AcDbEntity
  8
0
100
AcDbLine
 10
35.16799999999999
 20
389.638
 30
0.0
 11
35.2911172545326
 21
389.515117254524
 31
0.0
  0
LINE
  5
283
330
1E
100
AcDbEntity
  8
0
100
AcDbLine
 10
31.0
 20
393.806
 30
0.0
 11
31.213
 21
393.594
 31
0.0
  0
LINE
  5
284
330
1E
100
AcDbEntity
  8
0
100
AcDbLine
 10
31.0
 20
393.806
 30
0.0
 11
31.1575
 21
393.9634999999999
 31
0.0
  0
LINE
  5
285
330
1E
100
AcDbEntity
  8
0
100
AcDbLine
 10
31.213
 20
393.594
 30
0.0
 11
31.37
 21
393.7509999999999
 31
0.0
  0
LINE
  5
286
330
1E
100
AcDbEntity
  8
0
100
AcDbLine
 10
31.32
 20
393.8009999999999
 30
0.0
 11
31.488
 21
393.633
 31
0.0
  0
LINE
  5
287
330
1E
100
AcDbEntity
  8
0
100
AcDbLine
 10
31.234
 20
393.888
 30
0.0
 11
31.488
 21
393.633
 31
0.0
  0
LINE
  5
288
330
1E
100
AcDbEntity
  8
0
100
AcDbLine
 10
31.234
 20
393.888
 30
0.0
 11
31.4075
 21
394.0615
 31
0.0
  0
LINE
  5
289
330
1E
100
AcDbEntity
  8
0
100
AcDbLine
 10
31.37
 20
393.7509999999999
 30
0.0
 11
31.421
 21
393.6999999999999
 31
0.0
  0
LINE
  5
28A
330
1E
100
AcDbEntity
  8
0
100
AcDbLine
 10
31.37
 20
393.7509999999999
 30
0.0
 11
31.421
 21
393.6999999999999
 31
0.0
  0
LINE
  5
28B
330
1E
100
AcDbEntity
  8
0
100
AcDbLine
 10
31.488
 20
393.633
 30
0.0
 11
31.9609822119103
 21
394.10598221191
 31
0.0
  0
LINE
  5
28C
330
1E
100
AcDbEntity
  8
0
100
AcDbLine
 10
31.544
 20
393.925
 30
0.0
 11
32.0418239660658
 21
394.423176033934
 31
0.0
  0
LINE
  5
28D
330
1E
100
AcDbEntity
  8
0
100
AcDbLine
 10
31.3320000000001
 20
394.1369999999999
 30
0.0
 11
31.544
 21
393.925
 31
0.0
  0
LINE
  5
28E
330
1E
100
AcDbEntity
  8
0
100
AcDbLine
 10
31.3320000000001
 20
394.1369999999999
 30
0.0
 11
31.8298241436357
 21
394.6351762116299
 31
0.0
  0
LINE
  5
28F
330
1E
100
AcDbEntity
  8
0
100
AcDbLine
 10
31.335
 20
395.1309999999999
 30
0.0
 11
31.82999999999999
 21
394.6349999999999
 31
0.0
  0
LINE
  5
290
330
1E
100
AcDbEntity
  8
0
100
AcDbLine
 10
31.335
 20
395.1309999999999
 30
0.0
 11
32.13200000000009
 21
395.928
 31
0.0
  0
LINE
  5
291
330
1E
100
AcDbEntity
  8
0
100
AcDbLine
 10
31.8967245036715
 20
394.041724503671
 30
0.0
 11
32.90999999999999
 21
393.0289999999999
 31
0.0
  0
LINE
  5
293
330
1E
100
AcDbEntity
  8
0
100
AcDbLine
 10
32.458
 20
393.509
 30
0.0
 11
32.51403566529869
 21
393.453082304523
 31
0.0
  0
LINE
  5
294
330
1E
100
AcDbEntity
  8
0
100
AcDbLine
 10
32.458
 20
393.509
 30
0.0
 11
32.994
 21
392.973
 31
0.0
  0
LINE
  5
295
330
1E
100
AcDbEntity
  8
0
100
AcDbLine
 10
32.458
 20
393.509
 30
0.0
 11
32.51403566529869
 21
393.453082304523
 31
0.0
  0
LINE
  5
296
330
1E
100
AcDbEntity
  8
0
100
AcDbLine
 10
32.29
 20
393.678
 30
0.0
 11
32.544
 21
393.4229999999999
 31
0.0
  0
LINE
  5
297
330
1E
100
AcDbEntity
  8
0
100
AcDbLine
 10
32.29
 20
393.678
 30
0.0
 11
32.458
 21
393.509
 31
0.0
  0
LINE
  5
298
330
1E
100
AcDbEntity
  8
0
100
AcDbLine
 10
32.29
 20
393.678
 30
0.0
 11
32.7415070050225
 21
394.1295070050229
 31
0.0
  0
LINE
  5
299
330
1E
100
AcDbEntity
  8
0
100
AcDbLine
 10
32.042
 20
394.423
 30
0.0
 11
32.8395
 21
395.2205
 31
0.0
  0
LINE
  5
29A
330
1E
100
AcDbEntity
  8
0
100
AcDbLine
 10
31.82999999999999
 20
394.6349999999999
 30
0.0
 11
32.042
 21
394.423
 31
0.0
  0
LINE
  5
29B
330
1E
100
AcDbEntity
  8
0
100
AcDbLine
 10
31.82999999999999
 20
394.6349999999999
 30
0.0
 11
32.6275
 21
395.4325
 31
0.0
  0
LINE
  5
29D
330
1E
100
AcDbEntity
  8
0
100
AcDbLine
 10
31.07099999999999
 20
393.452
 30
0.0
 11
31.21294968752239
 21
393.594050076269
 31
0.0
  0
LINE
  5
29E
330
1E
100
AcDbEntity
  8
0
100
AcDbLine
 10
30.859
 20
393.664
 30
0.0
 11
31.07099999999999
 21
393.452
 31
0.0
  0
LINE
  5
29F
330
1E
100
AcDbEntity
  8
0
100
AcDbLine
 10
30.859
 20
393.664
 30
0.0
 11
31.0004510407327
 21
393.8055510768289
 31
0.0
  0
LINE
  5
2A0
330
1E
100
AcDbEntity
  8
0
100
AcDbLine
 10
37.2891654879774
 20
388.648834512023
 30
0.0
 11
37.859
 21
388.079
 31
0.0
  0
LINE
  5
2A1
330
1E
100
AcDbEntity
  8
0
100
AcDbLine
 10
48.519
 20
377.9459999999999
 30
0.0
 11
49.0
 21
377.4649999999999
 31
0.0
  0
LINE
  5
2A2
330
1E
100
AcDbEntity
  8
0
100
AcDbLine
 10
48.519
 20
377.9459999999999
 30
0.0
 11
49.3162817249912
 21
378.7427182750089
 31
0.0
  0
LINE
  5
2A3
330
1E
100
AcDbEntity
  8
0
100
AcDbLine
 10
48.61600000000001
 20
377.3509999999999
 30
0.0
 11
49.143
 21
376.824
 31
0.0
  0
LINE
  5
2A4
330
1E
100
AcDbEntity
  8
0
100
AcDbLine
 10
48.61600000000001
 20
377.3509999999999
 30
0.0
 11
48.86491198303289
 21
377.6000880169669
 31
0.0
  0
LINE
  5
2A5
330
1E
100
AcDbEntity
  8
0
100
AcDbLine
 10
48.9
 20
377.0669999999999
 30
0.0
 11
49.427
 21
376.54
 31
0.0
  0
LINE
  5
2A8
330
1E
100
AcDbEntity
  8
0
100
AcDbLine
 10
49.711
 20
376.2559999999999
 30
0.0
 11
50.3851179233225
 21
376.930594668671
 31
0.0
  0
LINE
  5
2A9
330
1E
100
AcDbEntity
  8
0
100
AcDbLine
 10
49.601
 20
376.3669999999999
 30
0.0
 11
49.711
 21
376.2559999999999
 31
0.0
  0
LINE
  5
2AA
330
1E
100
AcDbEntity
  8
0
100
AcDbLine
 10
49.601
 20
376.3669999999999
 30
0.0
 11
50.2687946695676
 21
377.034794669568
 31
0.0
  0
LINE
  5
2AB
330
1E
100
AcDbEntity
  8
0
100
AcDbLine
 10
49.00000000003821
 20
377.464999999962
 30
0.0
 11
49.122
 21
377.343
 31
0.0
  0
LINE
  5
2AC
330
1E
100
AcDbEntity
  8
0
100
AcDbLine
 10
49.0000000000381
 20
377.464999999962
 30
0.0
 11
49.122
 21
377.343
 31
0.0
  0
LINE
  5
2AD
330
1E
100
AcDbEntity
  8
0
100
AcDbLine
 10
49.122
 20
377.343
 30
0.0
 11
49.603
 21
376.8619999999999
 31
0.0
  0
LINE
  5
2AE
330
1E
100
AcDbEntity
  8
0
100
AcDbLine
 10
49.0
 20
377.4649999999999
 30
0.0
 11
49.516
 21
376.9499999999999
 31
0.0
  0
LINE
  5
2AF
330
1E
100
AcDbEntity
  8
0
100
AcDbLine
 10
49.0
 20
377.4649999999999
 30
0.0
 11
49.7967182750089
 21
378.2622817249909
 31
0.0
  0
LINE
  5
2B0
330
1E
100
AcDbEntity
  8
0
100
AcDbLine
 10
49.758
 20
376.7069999999999
 30
0.0
 11
50.5552817249912
 21
377.503718275009
 31
0.0
  0
LINE
  5
2B1
330
1E
100
AcDbEntity
  8
0
100
AcDbLine
 10
49.603
 20
376.8619999999999
 30
0.0
 11
49.758
 21
376.7069999999999
 31
0.0
  0
LINE
  5
2B2
330
1E
100
AcDbEntity
  8
0
100
AcDbLine
 10
49.516
 20
376.9499999999999
 30
0.0
 11
49.758
 21
376.7069999999999
 31
0.0
  0
LINE
  5
2B3
330
1E
100
AcDbEntity
  8
0
100
AcDbLine
 10
49.516
 20
376.9499999999999
 30
0.0
 11
50.3125
 21
377.7465
 31
0.0
  0
LINE
  5
2B4
330
1E
100
AcDbEntity
  8
0
100
AcDbLine
 10
49.143
 20
376.824
 30
0.0
 11
49.601
 21
376.3669999999999
 31
0.0
  0
LINE
  5
2B5
330
1E
100
AcDbEntity
  8
0
100
AcDbLine
 10
49.143
 20
376.824
 30
0.0
 11
49.39199999999999
 21
377.073
 31
0.0
  0
LINE
  5
2B6
330
1E
100
AcDbEntity
  8
0
100
AcDbLine
 10
49.427
 20
376.54
 30
0.0
 11
49.711
 21
376.2559999999999
 31
0.0
  0
LINE
  5
2B7
330
1E
100
AcDbEntity
  8
0
100
AcDbLine
 10
52.418
 20
373.549
 30
0.0
 11
52.841
 21
373.1259999999999
 31
0.0
  0
LINE
  5
2B8
330
1E
100
AcDbEntity
  8
0
100
AcDbLine
 10
52.193
 20
373.773
 30
0.0
 11
52.898
 21
373.069
 31
0.0
  0
LINE
  5
2B9
330
1E
100
AcDbEntity
  8
0
100
AcDbLine
 10
52.193
 20
373.773
 30
0.0
 11
52.448
 21
373.519
 31
0.0
  0
LINE
  5
2BA
330
1E
100
AcDbEntity
  8
0
100
AcDbLine
 10
52.193
 20
373.773
 30
0.0
 11
52.44799999999259
 21
373.5190000000069
 31
0.0
  0
LINE
  5
2BB
330
1E
100
AcDbEntity
  8
0
100
AcDbLine
 10
52.193
 20
373.773
 30
0.0
 11
52.2774999999972
 21
373.6895000000029
 31
0.0
  0
LINE
  5
2BC
330
1E
100
AcDbEntity
  8
0
100
AcDbLine
 10
52.193
 20
373.773
 30
0.0
 11
52.27749999999709
 21
373.6895000000029
 31
0.0
  0
LINE
  5
2BD
330
1E
100
AcDbEntity
  8
0
100
AcDbLine
 10
52.585
 20
373.3819999999999
 30
0.0
 11
52.918
 21
373.05
 31
0.0
  0
LINE
  5
2BE
330
1E
100
AcDbEntity
  8
0
100
AcDbLine
 10
52.585
 20
373.3819999999999
 30
0.0
 11
52.834
 21
373.6309999999999
 31
0.0
  0
LINE
  5
2BF
330
1E
100
AcDbEntity
  8
0
100
AcDbLine
 10
52.448
 20
373.519
 30
0.0
 11
52.898
 21
373.069
 31
0.0
  0
LINE
  5
2C0
330
1E
100
AcDbEntity
  8
0
100
AcDbLine
 10
52.8410000000015
 20
373.125999999999
 30
0.0
 11
53.348
 21
372.619
 31
0.0
  0
LINE
  5
2C1
330
1E
100
AcDbEntity
  8
0
100
AcDbLine
 10
53.158
 20
373.308
 30
0.0
 11
53.9545
 21
374.1044999999999
 31
0.0
  0
LINE
  5
2C2
330
1E
100
AcDbEntity
  8
0
100
AcDbLine
 10
53.002
 20
373.463
 30
0.0
 11
53.158
 21
373.308
 31
0.0
  0
LINE
  5
2C3
330
1E
100
AcDbEntity
  8
0
100
AcDbLine
 10
53.002
 20
373.463
 30
0.0
 11
53.799
 21
374.2599999999999
 31
0.0
  0
LINE
  5
2C4
330
1E
100
AcDbEntity
  8
0
100
AcDbLine
 10
52.841
 20
373.1259999999999
 30
0.0
 11
52.898
 21
373.069
 31
0.0
  0
LINE
  5
2C5
330
1E
100
AcDbEntity
  8
0
100
AcDbLine
 10
52.841
 20
373.1259999999999
 30
0.0
 11
52.918
 21
373.05
 31
0.0
  0
LINE
  5
2C6
330
1E
100
AcDbEntity
  8
0
100
AcDbLine
 10
52.44799999999259
 20
373.5190000000069
 30
0.0
 11
52.841
 21
373.1259999999999
 31
0.0
  0
LINE
  5
2C7
330
1E
100
AcDbEntity
  8
0
100
AcDbLine
 10
52.44799999999259
 20
373.5190000000069
 30
0.0
 11
52.841
 21
373.1259999999999
 31
0.0
  0
LINE
  5
2C8
330
1E
100
AcDbEntity
  8
0
100
AcDbLine
 10
51.169
 20
374.798
 30
0.0
 11
51.5550542797502
 21
374.4129060542789
 31
0.0
  0
LINE
  5
2C9
330
1E
100
AcDbEntity
  8
0
100
AcDbLine
 10
51.169
 20
374.798
 30
0.0
 11
51.571
 21
374.397
 31
0.0
  0
LINE
  5
2CA
330
1E
100
AcDbEntity
  8
0
100
AcDbLine
 10
51.169
 20
374.798
 30
0.0
 11
51.8416792152176
 21
375.4706792152179
 31
0.0
  0
LINE
  5
2CB
330
1E
100
AcDbEntity
  8
0
100
AcDbLine
 10
50.272
 20
375.6949999999999
 30
0.0
 11
50.631
 21
375.336
 31
0.0
  0
LINE
  5
2CC
330
1E
100
AcDbEntity
  8
0
100
AcDbLine
 10
50.272
 20
375.6949999999999
 30
0.0
 11
50.7019549983501
 21
376.1249549983499
 31
0.0
  0
LINE
  5
2CD
330
1E
100
AcDbEntity
  8
0
100
AcDbLine
 10
50.272
 20
375.6949999999999
 30
0.0
 11
50.88152026690569
 21
376.3045202669059
 31
0.0
  0
LINE
  5
2CE
330
1E
100
AcDbEntity
  8
0
100
AcDbLine
 10
50.631
 20
375.336
 30
0.0
 11
51.169
 21
374.798
 31
0.0
  0
LINE
  5
2CF
330
1E
100
AcDbEntity
  8
0
100
AcDbLine
 10
50.631
 20
375.336
 30
0.0
 11
51.2657979284932
 21
375.9707979284929
 31
0.0
  0
LINE
  5
2D0
330
1E
100
AcDbEntity
  8
0
100
AcDbLine
 10
52.521
 20
373.944
 30
0.0
 11
53.002
 21
373.463
 31
0.0
  0
LINE
  5
2D1
330
1E
100
AcDbEntity
  8
0
100
AcDbLine
 10
52.521
 20
373.944
 30
0.0
 11
53.31800000000001
 21
374.7409999999999
 31
0.0
  0
LINE
  5
2D2
330
1E
100
AcDbEntity
  8
0
100
AcDbLine
 10
51.76300000000001
 20
374.702
 30
0.0
 11
52.006
 21
374.459
 31
0.0
  0
LINE
  5
2D3
330
1E
100
AcDbEntity
  8
0
100
AcDbLine
 10
51.76300000000001
 20
374.702
 30
0.0
 11
52.53498628466929
 21
375.473986284669
 31
0.0
  0
LINE
  5
2D5
330
1E
100
AcDbEntity
  8
0
100
AcDbLine
 10
52.006
 20
374.459
 30
0.0
 11
52.521
 21
373.944
 31
0.0
  0
LINE
  5
2D6
330
1E
100
AcDbEntity
  8
0
100
AcDbLine
 10
52.006
 20
374.459
 30
0.0
 11
52.7986415939614
 21
375.25220216086
 31
0.0
  0
LINE
  5
2D7
330
1E
100
AcDbEntity
  8
0
100
AcDbLine
 10
51.588
 20
374.38
 30
0.0
 11
51.8365
 21
374.6284999999999
 31
0.0
  0
LINE
  5
2D8
330
1E
100
AcDbEntity
  8
0
100
AcDbLine
 10
51.571
 20
374.397
 30
0.0
 11
51.8195
 21
374.6455
 31
0.0
  0
LINE
  5
2D9
330
1E
100
AcDbEntity
  8
0
100
AcDbLine
 10
51.629
 20
374.338
 30
0.0
 11
52.052
 21
373.915
 31
0.0
  0
LINE
  5
2DA
330
1E
100
AcDbEntity
  8
0
100
AcDbLine
 10
51.629
 20
374.338
 30
0.0
 11
51.8779119830329
 21
374.587088016967
 31
0.0
  0
LINE
  5
2DB
330
1E
100
AcDbEntity
  8
0
100
AcDbLine
 10
51.5550542797502
 20
374.4129060542789
 30
0.0
 11
51.629
 21
374.338
 31
0.0
  0
LINE
  5
2DC
330
1E
100
AcDbEntity
  8
0
100
AcDbLine
 10
52.052
 20
373.915
 30
0.0
 11
52.1935
 21
373.7735
 31
0.0
  0
LINE
  5
2DD
330
1E
100
AcDbEntity
  8
0
100
AcDbLine
 10
52.052
 20
373.915
 30
0.0
 11
52.585
 21
373.3819999999999
 31
0.0
  0
LINE
  5
2DE
330
1E
100
AcDbEntity
  8
0
100
AcDbLine
 10
52.052
 20
373.915
 30
0.0
 11
52.301
 21
374.1639999999999
 31
0.0
  0
LINE
  5
2DF
330
1E
100
AcDbEntity
  8
0
100
AcDbLine
 10
50.10679511958139
 20
376.652075031264
 30
0.0
 11
50.7019549983501
 21
376.1249549983499
 31
0.0
  0
LINE
  5
2E1
330
1E
100
AcDbEntity
  8
0
100
AcDbLine
 10
57.51699999999999
 20
386.0979999999999
 30
0.0
 11
64.8708
 21
378.745
 31
0.0
  0
LINE
  5
2E2
330
1E
100
AcDbEntity
  8
0
100
AcDbLine
 10
48.961
 20
394.6549999999999
 30
0.0
 11
57.51699999999999
 21
386.0979999999999
 31
0.0
  0
LINE
  5
2E3
330
1E
100
AcDbEntity
  8
0
100
AcDbLine
 10
39.90999999999999
 20
403.7049999999999
 30
0.0
 11
48.961
 21
394.6549999999999
 31
0.0
  0
LINE
  5
2E5
330
1E
100
AcDbEntity
  8
0
100
AcDbLine
 10
10.601
 20
415.3669999999999
 30
0.0
 11
11.003
 21
414.9649999999999
 31
0.0
  0
LINE
  5
2E6
330
1E
100
AcDbEntity
  8
0
100
AcDbLine
 10
10.601
 20
415.3669999999999
 30
0.0
 11
10.8498167202573
 21
415.615816720257
 31
0.0
  0
LINE
  5
2E7
330
1E
100
AcDbEntity
  8
0
100
AcDbLine
 10
10.601
 20
415.3669999999999
 30
0.0
 11
10.8498167202573
 21
415.615816720257
 31
0.0
  0
LINE
  5
2E8
330
1E
100
AcDbEntity
  8
0
100
AcDbLine
 10
11.9
 20
414.068
 30
0.0
 11
12.5087250634929
 21
414.6767250634929
 31
0.0
  0
LINE
  5
2E9
330
1E
100
AcDbEntity
  8
0
100
AcDbLine
 10
11.54099999999999
 20
414.426
 30
0.0
 11
11.9
 21
414.068
 31
0.0
  0
LINE
  5
2EA
330
1E
100
AcDbEntity
  8
0
100
AcDbLine
 10
11.54099999999999
 20
414.426
 30
0.0
 11
12.1752781482536
 21
415.060726718373
 31
0.0
  0
LINE
  5
2EB
330
1E
100
AcDbEntity
  8
0
100
AcDbLine
 10
11.003
 20
414.9649999999999
 30
0.0
 11
11.54099999999999
 21
414.426
 31
0.0
  0
LINE
  5
2EC
330
1E
100
AcDbEntity
  8
0
100
AcDbLine
 10
11.003
 20
414.9649999999999
 30
0.0
 11
11.6749318261043
 21
415.636931826104
 31
0.0
  0
LINE
  5
2ED
330
1E
100
AcDbEntity
  8
0
100
AcDbLine
 10
11.24199999998489
 20
414.725555762097
 30
0.0
 11
11.54099999999999
 21
414.426
 31
0.0
  0
LINE
  5
2EE
330
1E
100
AcDbEntity
  8
0
100
AcDbLine
 10
10.943
 20
415.024
 30
0.0
 11
11.24199999998489
 21
414.725555762097
 31
0.0
  0
LINE
  5
2EF
330
1E
100
AcDbEntity
  8
0
100
AcDbLine
 10
10.943
 20
415.024
 30
0.0
 11
11.24199999998489
 21
414.725555762097
 31
0.0
  0
LINE
  5
2F0
330
1E
100
AcDbEntity
  8
0
100
AcDbLine
 10
10.584
 20
415.383
 30
0.0
 11
10.943
 21
415.024
 31
0.0
  0
LINE
  5
2F1
330
1E
100
AcDbEntity
  8
0
100
AcDbLine
 10
10.584
 20
415.383
 30
0.0
 11
10.8331752722148
 21
415.632351492351
 31
0.0
  0
LINE
  5
2F2
330
1E
100
AcDbEntity
  8
0
100
AcDbLine
 10
13.66999999999999
 20
412.7959999999999
 30
0.0
 11
14.15
 21
412.3149999999999
 31
0.0
  0
LINE
  5
2F3
330
1E
100
AcDbEntity
  8
0
100
AcDbLine
 10
13.66999999999999
 20
412.7959999999999
 30
0.0
 11
14.46650373862159
 21
413.5925037386219
 31
0.0
  0
LINE
  5
2F4
330
1E
100
AcDbEntity
  8
0
100
AcDbLine
 10
13.608
 20
412.856
 30
0.0
 11
14.15
 21
412.3149999999999
 31
0.0
  0
LINE
  5
2F5
330
1E
100
AcDbEntity
  8
0
100
AcDbLine
 10
13.1504999999955
 20
412.816730550289
 30
0.0
 11
13.272
 21
412.6949999999999
 31
0.0
  0
LINE
  5
2F6
330
1E
100
AcDbEntity
  8
0
100
AcDbLine
 10
13.1504999999955
 20
412.816730550289
 30
0.0
 11
13.272
 21
412.6949999999999
 31
0.0
  0
LINE
  5
2F7
330
1E
100
AcDbEntity
  8
0
100
AcDbLine
 10
13.02900000000009
 20
412.938
 30
0.0
 11
13.1504999999955
 21
412.816730550289
 31
0.0
  0
LINE
  5
2F8
330
1E
100
AcDbEntity
  8
0
100
AcDbLine
 10
13.02900000000009
 20
412.938
 30
0.0
 11
13.15
 21
412.8169999999999
 31
0.0
  0
LINE
  5
2F9
330
1E
100
AcDbEntity
  8
0
100
AcDbLine
 10
13.02900000000009
 20
412.938
 30
0.0
 11
13.15049999999559
 21
412.816730550289
 31
0.0
  0
LINE
  5
2FA
330
1E
100
AcDbEntity
  8
0
100
AcDbLine
 10
13.02900000000009
 20
412.938
 30
0.0
 11
13.55599999999999
 21
412.4119999999999
 31
0.0
  0
LINE
  5
2FB
330
1E
100
AcDbEntity
  8
0
100
AcDbLine
 10
13.02900000000009
 20
412.938
 30
0.0
 11
13.27803212671859
 21
413.18720824562
 31
0.0
  0
LINE
  5
2FC
330
1E
100
AcDbEntity
  8
0
100
AcDbLine
 10
12.46099999999999
 20
413.5069999999999
 30
0.0
 11
12.571
 21
413.3969999999999
 31
0.0
  0
LINE
  5
2FD
330
1E
100
AcDbEntity
  8
0
100
AcDbLine
 10
12.46099999999999
 20
413.5069999999999
 30
0.0
 11
12.8570484184186
 21
413.902768327599
 31
0.0
  0
LINE
  5
2FE
330
1E
100
AcDbEntity
  8
0
100
AcDbLine
 10
12.46099999999999
 20
413.5069999999999
 30
0.0
 11
13.1353704386064
 21
414.180893514675
 31
0.0
  0
LINE
  5
2FF
330
1E
100
AcDbEntity
  8
0
100
AcDbLine
 10
12.911
 20
413.554
 30
0.0
 11
13.154
 21
413.311
 31
0.0
  0
LINE
  5
300
330
1E
100
AcDbEntity
  8
0
100
AcDbLine
 10
12.911
 20
413.554
 30
0.0
 11
13.7081270318596
 21
414.35112703186
 31
0.0
  0
LINE
  5
301
330
1E
100
AcDbEntity
  8
0
100
AcDbLine
 10
13.154
 20
413.311
 30
0.0
 11
13.66999999999999
 21
412.7959999999999
 31
0.0
  0
LINE
  5
302
330
1E
100
AcDbEntity
  8
0
100
AcDbLine
 10
13.154
 20
413.311
 30
0.0
 11
13.9510875325098
 21
414.10808753251
 31
0.0
  0
LINE
  5
303
330
1E
100
AcDbEntity
  8
0
100
AcDbLine
 10
12.571
 20
413.3969999999999
 30
0.0
 11
13.02900000000009
 21
412.938
 31
0.0
  0
LINE
  5
304
330
1E
100
AcDbEntity
  8
0
100
AcDbLine
 10
12.571
 20
413.3969999999999
 30
0.0
 11
13.2391018727174
 21
414.065101872717
 31
0.0
  0
LINE
  5
305
330
1E
100
AcDbEntity
  8
0
100
AcDbLine
 10
13.02900000000009
 20
412.938
 30
0.0
 11
13.15
 21
412.8169999999999
 31
0.0
  0
LINE
  5
306
330
1E
100
AcDbEntity
  8
0
100
AcDbLine
 10
12.3299124882147
 20
414.497912488215
 30
0.0
 11
12.8570484184186
 21
413.902768327599
 31
0.0
  0
LINE
  5
307
330
1E
100
AcDbEntity
  8
0
100
AcDbLine
 10
12.3299124882147
 20
414.497912488215
 30
0.0
 11
12.8570484184186
 21
413.902768327599
 31
0.0
  0
LINE
  5
308
330
1E
100
AcDbEntity
  8
0
100
AcDbLine
 10
30.859
 20
412.7559999999999
 30
0.0
 11
39.90999999999999
 21
403.7049999999999
 31
0.0
  0
LINE
  5
309
330
1E
100
AcDbEntity
  8
0
100
AcDbLine
 10
8.82400000000003
 20
417.1429999999999
 30
0.0
 11
9.274000000000018
 21
416.693
 31
0.0
  0
LINE
  5
30A
330
1E
100
AcDbEntity
  8
0
100
AcDbLine
 10
8.82400000000003
 20
417.1429999999999
 30
0.0
 11
9.329999999999859
 21
416.6369999999999
 31
0.0
  0
LINE
  5
30B
330
1E
100
AcDbEntity
  8
0
100
AcDbLine
 10
8.82400000000003
 20
417.1429999999999
 30
0.0
 11
9.491277894122928
 21
417.8107498021099
 31
0.0
  0
LINE
  5
30C
330
1E
100
AcDbEntity
  8
0
100
AcDbLine
 10
8.82400000000003
 20
417.1429999999999
 30
0.0
 11
9.329999999999859
 21
416.6369999999999
 31
0.0
  0
LINE
  5
30D
330
1E
100
AcDbEntity
  8
0
100
AcDbLine
 10
8.82400000000003
 20
417.1429999999999
 30
0.0
 11
9.491277894122928
 21
417.8107498021099
 31
0.0
  0
LINE
  5
30E
330
1E
100
AcDbEntity
  8
0
100
AcDbLine
 10
8.82400000000003
 20
417.1429999999999
 30
0.0
 11
9.211999999989117
 21
416.7550000000109
 31
0.0
  0
LINE
  5
30F
330
1E
100
AcDbEntity
  8
0
100
AcDbLine
 10
8.82400000000003
 20
417.1429999999999
 30
0.0
 11
9.211999999992189
 21
416.755000000008
 31
0.0
  0
LINE
  5
310
330
1E
100
AcDbEntity
  8
0
100
AcDbLine
 10
8.82400000000003
 20
417.1429999999999
 30
0.0
 11
9.211999999992119
 21
416.755000000008
 31
0.0
  0
LINE
  5
311
330
1E
100
AcDbEntity
  8
0
100
AcDbLine
 10
8.82400000000003
 20
417.1429999999999
 30
0.0
 11
9.211999999989117
 21
416.7550000000109
 31
0.0
  0
LINE
  5
312
330
1E
100
AcDbEntity
  8
0
100
AcDbLine
 10
8.569000000000059
 20
417.398
 30
0.0
 11
8.82400000000003
 21
417.1429999999999
 31
0.0
  0
LINE
  5
313
330
1E
100
AcDbEntity
  8
0
100
AcDbLine
 10
8.56900000000005
 20
417.398
 30
0.0
 11
8.82400000000003
 21
417.1429999999999
 31
0.0
  0
LINE
  5
314
330
1E
100
AcDbEntity
  8
0
100
AcDbLine
 10
8.56900000000005
 20
417.398
 30
0.0
 11
9.25277277497714
 21
418.0812895433339
 31
0.0
  0
LINE
  5
315
330
1E
100
AcDbEntity
  8
0
100
AcDbLine
 10
8.56900000000005
 20
417.398
 30
0.0
 11
9.201444958213
 21
418.0299980006449
 31
0.0
  0
LINE
  5
316
330
1E
100
AcDbEntity
  8
0
100
AcDbLine
 10
9.25400000000001
 20
416.7139999999999
 30
0.0
 11
9.58700000000001
 21
416.3809999999999
 31
0.0
  0
LINE
  5
317
330
1E
100
AcDbEntity
  8
0
100
AcDbLine
 10
9.25400000000001
 20
416.7139999999999
 30
0.0
 11
9.33000000000003
 21
416.6369999999999
 31
0.0
  0
LINE
  5
318
330
1E
100
AcDbEntity
  8
0
100
AcDbLine
 10
9.25400000000001
 20
416.7139999999999
 30
0.0
 11
9.89397020235714
 21
417.3539702023569
 31
0.0
  0
LINE
  5
319
330
1E
100
AcDbEntity
  8
0
100
AcDbLine
 10
10.12
 20
415.8479999999999
 30
0.0
 11
10.543
 21
415.425
 31
0.0
  0
LINE
  5
31A
330
1E
100
AcDbEntity
  8
0
100
AcDbLine
 10
10.12
 20
415.8479999999999
 30
0.0
 11
10.3684121597738
 21
416.096587840226
 31
0.0
  0
LINE
  5
31B
330
1E
100
AcDbEntity
  8
0
100
AcDbLine
 10
10.543
 20
415.425
 30
0.0
 11
10.58449982325909
 21
415.383500176741
 31
0.0
  0
LINE
  5
31C
330
1E
100
AcDbEntity
  8
0
100
AcDbLine
 10
10.543
 20
415.425
 30
0.0
 11
10.79163022508039
 21
415.6736302250799
 31
0.0
  0
LINE
  5
31D
330
1E
100
AcDbEntity
  8
0
100
AcDbLine
 10
10.6640000000134
 20
415.800999999987
 30
0.0
 11
10.75099999999999
 21
415.714
 31
0.0
  0
LINE
  5
31E
330
1E
100
AcDbEntity
  8
0
100
AcDbLine
 10
10.907
 20
415.559
 30
0.0
 11
11.6792357992469
 21
416.3306896636039
 31
0.0
  0
LINE
  5
31F
330
1E
100
AcDbEntity
  8
0
100
AcDbLine
 10
10.75099999999999
 20
415.714
 30
0.0
 11
10.907
 21
415.559
 31
0.0
  0
LINE
  5
320
330
1E
100
AcDbEntity
  8
0
100
AcDbLine
 10
10.664
 20
415.8009999999999
 30
0.0
 11
10.907
 21
415.559
 31
0.0
  0
LINE
  5
321
330
1E
100
AcDbEntity
  8
0
100
AcDbLine
 10
10.664
 20
415.8009999999999
 30
0.0
 11
11.45740292593719
 21
416.5944029259369
 31
0.0
  0
LINE
  5
322
330
1E
100
AcDbEntity
  8
0
100
AcDbLine
 10
10.6640000000134
 20
415.800999999987
 30
0.0
 11
10.75099999999999
 21
415.714
 31
0.0
  0
LINE
  5
323
330
1E
100
AcDbEntity
  8
0
100
AcDbLine
 10
9.97850000000003
 20
415.9895
 30
0.0
 11
10.12
 21
415.8479999999999
 31
0.0
  0
LINE
  5
324
330
1E
100
AcDbEntity
  8
0
100
AcDbLine
 10
9.58700000000001
 20
416.3809999999999
 30
0.0
 11
10.12
 21
415.8479999999999
 31
0.0
  0
LINE
  5
325
330
1E
100
AcDbEntity
  8
0
100
AcDbLine
 10
9.58700000000001
 20
416.3809999999999
 30
0.0
 11
9.83550000000001
 21
416.6294999999999
 31
0.0
  0
LINE
  5
326
330
1E
100
AcDbEntity
  8
0
100
AcDbLine
 10
10.26999999999999
 20
416.195
 30
0.0
 11
10.6639999999716
 21
415.8010000000279
 31
0.0
  0
LINE
  5
327
330
1E
100
AcDbEntity
  8
0
100
AcDbLine
 10
10.26999999999999
 20
416.195
 30
0.0
 11
10.6639999999717
 21
415.8010000000279
 31
0.0
  0
LINE
  5
328
330
1E
100
AcDbEntity
  8
0
100
AcDbLine
 10
10.14899999999999
 20
416.3169999999999
 30
0.0
 11
10.664
 21
415.8009999999999
 31
0.0
  0
LINE
  5
329
330
1E
100
AcDbEntity
  8
0
100
AcDbLine
 10
10.14899999999999
 20
416.3169999999999
 30
0.0
 11
10.945949855352
 21
417.113949855352
 31
0.0
  0
LINE
  5
32A
330
1E
100
AcDbEntity
  8
0
100
AcDbLine
 10
9.724000000000009
 20
416.243
 30
0.0
 11
9.978000000000038
 21
415.989
 31
0.0
  0
LINE
  5
32B
330
1E
100
AcDbEntity
  8
0
100
AcDbLine
 10
9.810000000000039
 20
416.157
 30
0.0
 11
9.978000000000038
 21
415.989
 31
0.0
  0
LINE
  5
32C
330
1E
100
AcDbEntity
  8
0
100
AcDbLine
 10
9.335000000000039
 20
416.6319999999999
 30
0.0
 11
9.810000000000039
 21
416.157
 31
0.0
  0
LINE
  5
32D
330
1E
100
AcDbEntity
  8
0
100
AcDbLine
 10
9.33000000000003
 20
416.6369999999999
 30
0.0
 11
9.754000000000029
 21
416.2139999999999
 31
0.0
  0
LINE
  5
32E
330
1E
100
AcDbEntity
  8
0
100
AcDbLine
 10
9.33000000000003
 20
416.6369999999999
 30
0.0
 11
9.75399999998174
 21
416.214000000018
 31
0.0
  0
LINE
  5
32F
330
1E
100
AcDbEntity
  8
0
100
AcDbLine
 10
9.274000000000018
 20
416.693
 30
0.0
 11
9.810000000000039
 21
416.157
 31
0.0
  0
LINE
  5
330
330
1E
100
AcDbEntity
  8
0
100
AcDbLine
 10
9.274000000000018
 20
416.693
 30
0.0
 11
9.978000000000038
 21
415.989
 31
0.0
  0
LINE
  5
331
330
1E
100
AcDbEntity
  8
0
100
AcDbLine
 10
9.274000000000018
 20
416.693
 30
0.0
 11
9.724000000000009
 21
416.243
 31
0.0
  0
LINE
  5
332
330
1E
100
AcDbEntity
  8
0
100
AcDbLine
 10
9.755000000000018
 20
416.7099999999999
 30
0.0
 11
10.26999999999999
 21
416.195
 31
0.0
  0
LINE
  5
333
330
1E
100
AcDbEntity
  8
0
100
AcDbLine
 10
9.512000000000018
 20
416.9529999999999
 30
0.0
 11
9.66800000000004
 21
416.798
 31
0.0
  0
LINE
  5
334
330
1E
100
AcDbEntity
  8
0
100
AcDbLine
 10
9.512000000000018
 20
416.9529999999999
 30
0.0
 11
9.755000000000018
 21
416.7099999999999
 31
0.0
  0
LINE
  5
335
330
1E
100
AcDbEntity
  8
0
100
AcDbLine
 10
9.512000000000018
 20
416.9529999999999
 30
0.0
 11
10.3093816564878
 21
417.750381656488
 31
0.0
  0
LINE
  5
336
330
1E
100
AcDbEntity
  8
0
100
AcDbLine
 10
9.66800000000004
 20
416.798
 30
0.0
 11
10.14899999999999
 21
416.3169999999999
 31
0.0
  0
LINE
  5
337
330
1E
100
AcDbEntity
  8
0
100
AcDbLine
 10
9.66800000000004
 20
416.798
 30
0.0
 11
10.4651802363443
 21
417.5946164596569
 31
0.0
  0
LINE
  5
338
330
1E
100
AcDbEntity
  8
0
100
AcDbLine
 10
9.66800000000004
 20
416.798
 30
0.0
 11
10.4651802363443
 21
417.5946164596569
 31
0.0
  0
LINE
  5
339
330
1E
100
AcDbEntity
  8
0
100
AcDbLine
 10
9.21200000000001
 20
416.755
 30
0.0
 11
9.274000000000018
 21
416.693
 31
0.0
  0
LINE
  5
33A
330
1E
100
AcDbEntity
  8
0
100
AcDbLine
 10
9.21200000000001
 20
416.755
 30
0.0
 11
9.724000000000009
 21
416.243
 31
0.0
  0
LINE
  5
33C
330
1E
100
AcDbEntity
  8
0
100
AcDbLine
 10
7.806000000022799
 20
418.658999999977
 30
0.0
 11
8.065000000000029
 21
418.4
 31
0.0
  0
LINE
  5
33D
330
1E
100
AcDbEntity
  8
0
100
AcDbLine
 10
8.129000000000049
 20
418.337
 30
0.0
 11
8.80581707980423
 21
419.013817079804
 31
0.0
  0
LINE
  5
33E
330
1E
100
AcDbEntity
  8
0
100
AcDbLine
 10
8.065000000000029
 20
418.4
 30
0.0
 11
8.129000000000049
 21
418.337
 31
0.0
  0
LINE
  5
33F
330
1E
100
AcDbEntity
  8
0
100
AcDbLine
 10
7.806000000000029
 20
418.6589999999999
 30
0.0
 11
8.129000000000049
 21
418.337
 31
0.0
  0
LINE
  5
340
330
1E
100
AcDbEntity
  8
0
100
AcDbLine
 10
7.806000000000029
 20
418.6589999999999
 30
0.0
 11
8.50080246765801
 21
419.354293841397
 31
0.0
  0
LINE
  5
341
330
1E
100
AcDbEntity
  8
0
100
AcDbLine
 10
7.806000000022799
 20
418.658999999977
 30
0.0
 11
8.065000000000029
 21
418.4
 31
0.0
  0
LINE
  5
342
330
1E
100
AcDbEntity
  8
0
100
AcDbLine
 10
5.663000000000049
 20
420.803
 30
0.0
 11
6.055000000000009
 21
420.41
 31
0.0
  0
LINE
  5
343
330
1E
100
AcDbEntity
  8
0
100
AcDbLine
 10
5.663000000000049
 20
420.803
 30
0.0
 11
6.459549577513429
 21
421.5995495775129
 31
0.0
  0
LINE
  5
344
330
1E
100
AcDbEntity
  8
0
100
AcDbLine
 10
6.63385008999745
 20
420.928850089997
 30
0.0
 11
7.28250698551475
 21
420.1965069855149
 31
0.0
  0
LINE
  5
345
330
1E
100
AcDbEntity
  8
0
100
AcDbLine
 10
6.084999999999999
 20
420.38
 30
0.0
 11
6.63385008999745
 21
420.928850089997
 31
0.0
  0
LINE
  5
346
330
1E
100
AcDbEntity
  8
0
100
AcDbLine
 10
6.084999999999999
 20
420.38
 30
0.0
 11
6.716470170015499
 21
421.011470170016
 31
0.0
  0
LINE
  5
347
330
1E
100
AcDbEntity
  8
0
100
AcDbLine
 10
6.055000000000009
 20
420.41
 30
0.0
 11
6.687900039096889
 21
421.043347634598
 31
0.0
  0
LINE
  5
348
330
1E
100
AcDbEntity
  8
0
100
AcDbLine
 10
5.17900000000004
 20
421.286
 30
0.0
 11
5.68576129032711
 21
420.780180645157
 31
0.0
  0
LINE
  5
349
330
1E
100
AcDbEntity
  8
0
100
AcDbLine
 10
5.17900000000004
 20
421.286
 30
0.0
 11
5.685761290327129
 21
420.780180645157
 31
0.0
  0
LINE
  5
34A
330
1E
100
AcDbEntity
  8
0
100
AcDbLine
 10
6.84000000000004
 20
419.6259999999999
 30
0.0
 11
7.271000000000049
 21
419.194
 31
0.0
  0
LINE
  5
34B
330
1E
100
AcDbEntity
  8
0
100
AcDbLine
 10
6.84000000000004
 20
419.6259999999999
 30
0.0
 11
7.58788237760157
 21
420.3733534650289
 31
0.0
  0
LINE
  5
34C
330
1E
100
AcDbEntity
  8
0
100
AcDbLine
 10
6.84000000001453
 20
419.6259999999859
 30
0.0
 11
7.271000000000049
 21
419.194
 31
0.0
  0
LINE
  5
34D
330
1E
100
AcDbEntity
  8
0
100
AcDbLine
 10
6.77600000000005
 20
419.69
 30
0.0
 11
6.84000000001454
 21
419.6259999999859
 31
0.0
  0
LINE
  5
34E
330
1E
100
AcDbEntity
  8
0
100
AcDbLine
 10
6.77600000000005
 20
419.69
 30
0.0
 11
6.84000000001451
 21
419.6259999999859
 31
0.0
  0
LINE
  5
34F
330
1E
100
AcDbEntity
  8
0
100
AcDbLine
 10
6.77600000000005
 20
419.69
 30
0.0
 11
6.84000000000004
 21
419.6259999999999
 31
0.0
  0
LINE
  5
350
330
1E
100
AcDbEntity
  8
0
100
AcDbLine
 10
6.77600000000005
 20
419.69
 30
0.0
 11
7.52714849638673
 21
420.441148496387
 31
0.0
  0
LINE
  5
352
330
1E
100
AcDbEntity
  8
0
100
AcDbLine
 10
6.84000000001454
 20
419.6259999999859
 30
0.0
 11
7.271000000000049
 21
419.194
 31
0.0
  0
LINE
  5
353
330
1E
100
AcDbEntity
  8
0
100
AcDbLine
 10
7.271000000000049
 20
419.194
 30
0.0
 11
7.806000000000029
 21
418.6589999999999
 31
0.0
  0
LINE
  5
354
330
1E
100
AcDbEntity
  8
0
100
AcDbLine
 10
7.271000000000049
 20
419.194
 30
0.0
 11
7.99542660657399
 21
419.918426606574
 31
0.0
  0
LINE
  5
355
330
1E
100
AcDbEntity
  8
0
100
AcDbLine
 10
6.63385008999745
 20
420.928850089997
 30
0.0
 11
7.28250698551475
 21
420.1965069855149
 31
0.0
  0
LINE
  5
356
330
1E
100
AcDbEntity
  8
0
100
AcDbLine
 10
8.553517528070671
 20
418.761517528071
 30
0.0
 11
9.201444958213
 21
418.0299980006449
 31
0.0
  0
LINE
  5
357
330
1E
100
AcDbEntity
  8
0
100
AcDbLine
 10
8.553517528070671
 20
418.761517528071
 30
0.0
 11
9.201444958213
 21
418.0299980006449
 31
0.0
  0
LINE
  5
359
330
1E
100
AcDbEntity
  8
0
100
AcDbLine
 10
3.48000000000002
 20
422.9849999999999
 30
0.0
 11
3.603000000000029
 21
422.8619999999999
 31
0.0
  0
LINE
  5
35A
330
1E
100
AcDbEntity
  8
0
100
AcDbLine
 10
3.48000000000002
 20
422.9849999999999
 30
0.0
 11
3.775000000000039
 21
422.6899999999999
 31
0.0
  0
LINE
  5
35B
330
1E
100
AcDbEntity
  8
0
100
AcDbLine
 10
3.48000000000002
 20
422.9849999999999
 30
0.0
 11
4.250471203024289
 21
423.755471203024
 31
0.0
  0
LINE
  5
35C
330
1E
100
AcDbEntity
  8
0
100
AcDbLine
 10
3.48000000000002
 20
422.9849999999999
 30
0.0
 11
4.250471203024289
 21
423.755471203024
 31
0.0
  0
LINE
  5
35D
330
1E
100
AcDbEntity
  8
0
100
AcDbLine
 10
3.603000000000039
 20
422.8619999999999
 30
0.0
 11
3.775000000000039
 21
422.6899999999999
 31
0.0
  0
LINE
  5
35E
330
1E
100
AcDbEntity
  8
0
100
AcDbLine
 10
4.299000000000069
 20
422.1659999999999
 30
0.0
 11
4.464999999994089
 21
422.000000000006
 31
0.0
  0
LINE
  5
35F
330
1E
100
AcDbEntity
  8
0
100
AcDbLine
 10
4.299000000000069
 20
422.1659999999999
 30
0.0
 11
4.464999999994099
 21
422.000000000006
 31
0.0
  0
LINE
  5
360
330
1E
100
AcDbEntity
  8
0
100
AcDbLine
 10
4.299000000000069
 20
422.1659999999999
 30
0.0
 11
4.75000000000003
 21
421.715
 31
0.0
  0
LINE
  5
361
330
1E
100
AcDbEntity
  8
0
100
AcDbLine
 10
4.299000000000069
 20
422.1659999999999
 30
0.0
 11
5.018168973902249
 21
422.884660727278
 31
0.0
  0
LINE
  5
362
330
1E
100
AcDbEntity
  8
0
100
AcDbLine
 10
3.775000000000039
 20
422.6899999999999
 30
0.0
 11
4.299000000000069
 21
422.1659999999999
 31
0.0
  0
LINE
  5
363
330
1E
100
AcDbEntity
  8
0
100
AcDbLine
 10
3.775000000000039
 20
422.6899999999999
 30
0.0
 11
4.52690660440299
 21
423.441906604403
 31
0.0
  0
LINE
  5
364
330
1E
100
AcDbEntity
  8
0
100
AcDbLine
 10
4.46500000000005
 20
422.0
 30
0.0
 11
4.577999999959369
 21
421.887000000041
 31
0.0
  0
LINE
  5
365
330
1E
100
AcDbEntity
  8
0
100
AcDbLine
 10
4.75000000000003
 20
421.715
 30
0.0
 11
4.87300000000004
 21
421.5919999999999
 31
0.0
  0
LINE
  5
366
330
1E
100
AcDbEntity
  8
0
100
AcDbLine
 10
4.75000000000003
 20
421.715
 30
0.0
 11
5.440549032688499
 21
422.4055490326889
 31
0.0
  0
LINE
  5
367
330
1E
100
AcDbEntity
  8
0
100
AcDbLine
 10
4.75600000000003
 20
421.7089999999999
 30
0.0
 11
5.12500000000003
 21
421.34
 31
0.0
  0
LINE
  5
368
330
1E
100
AcDbEntity
  8
0
100
AcDbLine
 10
4.75600000000003
 20
421.7089999999999
 30
0.0
 11
5.553205897568589
 21
422.5062058975689
 31
0.0
  0
LINE
  5
369
330
1E
100
AcDbEntity
  8
0
100
AcDbLine
 10
5.125000000037849
 20
421.3399999999619
 30
0.0
 11
5.17900000000004
 21
421.286
 31
0.0
  0
LINE
  5
36A
330
1E
100
AcDbEntity
  8
0
100
AcDbLine
 10
5.125000000037879
 20
421.3399999999619
 30
0.0
 11
5.17900000000004
 21
421.286
 31
0.0
  0
LINE
  5
36B
330
1E
100
AcDbEntity
  8
0
100
AcDbLine
 10
5.12500000000003
 20
421.34
 30
0.0
 11
5.663000000000049
 21
420.803
 31
0.0
  0
LINE
  5
36C
330
1E
100
AcDbEntity
  8
0
100
AcDbLine
 10
5.12500000000003
 20
421.34
 30
0.0
 11
5.922142265907989
 21
422.1371422659079
 31
0.0
  0
LINE
  5
36D
330
1E
100
AcDbEntity
  8
0
100
AcDbLine
 10
4.873000000000059
 20
421.5919999999999
 30
0.0
 11
5.12500000000003
 21
421.34
 31
0.0
  0
LINE
  5
36E
330
1E
100
AcDbEntity
  8
0
100
AcDbLine
 10
4.578000000000019
 20
421.8869999999999
 30
0.0
 11
4.87300000000004
 21
421.5919999999999
 31
0.0
  0
LINE
  5
36F
330
1E
100
AcDbEntity
  8
0
100
AcDbLine
 10
22.30300000000009
 20
421.313
 30
0.0
 11
30.859
 21
412.7559999999999
 31
0.0
  0
LINE
  5
370
330
1E
100
AcDbEntity
  8
0
100
AcDbLine
 10
57.23399999999999
 20
421.03
 30
0.0
 11
60.699
 21
417.424
 31
0.0
  0
LINE
  5
371
330
1E
100
AcDbEntity
  8
0
100
AcDbLine
 10
60.699
 20
417.424
 30
0.0
 11
64.093
 21
413.7459999999999
 31
0.0
  0
LINE
  5
374
330
1E
100
AcDbEntity
  8
0
100
AcDbLine
 10
65.73584627076421
 20
411.6621167014109
 30
0.0
 11
67.2508
 21
410.0959999999999
 31
0.0
  0
LINE
  5
376
330
1E
100
AcDbEntity
  8
0
100
AcDbLine
 10
73.81759999999999
 20
403.2119999999999
 30
0.0
 11
98.63179999999999
 21
372.5459999999999
 31
0.0
  0
LINE
  5
377
330
1E
100
AcDbEntity
  8
0
100
AcDbLine
 10
67.2508
 20
410.0959999999999
 30
0.0
 11
67.62915893950401
 21
409.658647308589
 31
0.0
  0
LINE
  5
378
330
1E
100
AcDbEntity
  8
0
100
AcDbLine
 10
67.2508
 20
410.0959999999999
 30
0.0
 11
73.81759999999999
 21
403.2119999999999
 31
0.0
  0
LINE
  5
379
330
1E
100
AcDbEntity
  8
0
100
AcDbLine
 10
67.2508
 20
410.0959999999999
 30
0.0
 11
67.62915893950401
 21
409.658647308589
 31
0.0
  0
LINE
  5
37A
330
1E
100
AcDbEntity
  8
0
100
AcDbLine
 10
64.8708
 20
378.745
 30
0.0
 11
70.5278
 21
373.088
 31
0.0
  0
LINE
  5
37B
330
1E
100
AcDbEntity
  8
0
100
AcDbLine
 10
64.093
 20
413.7459999999999
 30
0.0
 11
66.3314196034045
 21
411.0105334648169
 31
0.0
  0
LINE
  5
37C
330
1E
100
AcDbEntity
  8
0
100
AcDbLine
 10
70.5278
 20
373.088
 30
0.0
 11
73.99250000000001
 21
369.623
 31
0.0
  0
LINE
  5
381
330
1E
100
AcDbEntity
  8
0
100
AcDbLine
 10
0.6660000000000221
 20
434.4649999999999
 30
0.0
 11
2.08
 21
436.586
 31
0.0
  0
LINE
  5
382
330
1E
100
AcDbEntity
  8
0
100
AcDbLine
 10
-0.0419999999999798
 20
431.6359999999999
 30
0.0
 11
0.6660000000000221
 21
428.808
 31
0.0
  0
LINE
  5
383
330
1E
100
AcDbEntity
  8
0
100
AcDbLine
 10
-0.0419999999999798
 20
431.6359999999999
 30
0.0
 11
0.6660000000000221
 21
434.4649999999999
 31
0.0
  0
LINE
  5
384
330
1E
100
AcDbEntity
  8
0
100
AcDbLine
 10
2.08
 20
436.586
 30
0.0
 11
3.84800000000005
 21
438.354
 31
0.0
  0
LINE
  5
385
330
1E
100
AcDbEntity
  8
0
100
AcDbLine
 10
0.6660000000000221
 20
428.808
 30
0.0
 11
2.08
 21
426.686
 31
0.0
  0
LINE
  5
386
330
1E
100
AcDbEntity
  8
0
100
AcDbLine
 10
2.08
 20
426.686
 30
0.0
 11
2.787000000000039
 21
425.272
 31
0.0
  0
LINE
  5
388
330
1E
100
AcDbEntity
  8
0
100
AcDbLine
 10
3.051000000000009
 20
423.415
 30
0.0
 11
3.26300000000006
 21
423.2029999999999
 31
0.0
  0
LINE
  5
389
330
1E
100
AcDbEntity
  8
0
100
AcDbLine
 10
3.051000000000009
 20
423.415
 30
0.0
 11
3.480500000000029
 21
422.9854999999999
 31
0.0
  0
LINE
  5
38A
330
1E
100
AcDbEntity
  8
0
100
AcDbLine
 10
3.051000000000009
 20
423.415
 30
0.0
 11
3.78655766886129
 21
424.1505576688609
 31
0.0
  0
LINE
  5
38B
330
1E
100
AcDbEntity
  8
0
100
AcDbLine
 10
3.26300000000006
 20
423.2029999999999
 30
0.0
 11
3.48050000000004
 21
422.9854999999999
 31
0.0
  0
LINE
  5
38C
330
1E
100
AcDbEntity
  8
0
100
AcDbLine
 10
3.26300000000006
 20
423.2029999999999
 30
0.0
 11
3.98637494919941
 21
423.9263749491989
 31
0.0
  0
LINE
  5
38D
330
1E
100
AcDbEntity
  8
0
100
AcDbLine
 10
2.787000000000039
 20
425.272
 30
0.0
 11
3.783235536127569
 21
424.1472355361279
 31
0.0
  0
LINE
  5
38E
330
1E
100
AcDbEntity
  8
0
100
AcDbLine
 10
2.787000000000039
 20
425.272
 30
0.0
 11
3.783235536127569
 21
424.1472355361279
 31
0.0
  0
LINE
  5
38F
330
1E
100
AcDbEntity
  8
0
100
AcDbLine
 10
3.84800000000005
 20
438.354
 30
0.0
 11
4.90800000000005
 21
438.0
 31
0.0
  0
LINE
  5
395
330
1E
100
AcDbEntity
  8
0
100
AcDbLine
 10
14.949
 20
428.6669999999999
 30
0.0
 11
22.30300000000009
 21
421.313
 31
0.0
  0
LINE
  5
398
330
1E
100
AcDbEntity
  8
0
100
AcDbLine
 10
9.29200000000003
 20
434.323
 30
0.0
 11
14.949
 21
428.6669999999999
 31
0.0
  0
LINE
  5
399
330
1E
100
AcDbEntity
  8
0
100
AcDbLine
 10
5.827000000000049
 20
437.788
 30
0.0
 11
9.29200000000003
 21
434.323
 31
0.0
  0
LINE
  5
39A
330
1E
100
AcDbEntity
  8
0
100
AcDbLine
 10
4.554999999999999
 20
439.0609999999999
 30
0.0
 11
11.979
 21
446.485
 31
0.0
  0
LINE
  5
39B
330
1E
100
AcDbEntity
  8
0
100
AcDbLine
 10
4.554999999999999
 20
439.0609999999999
 30
0.0
 11
4.90800000000005
 21
438.0
 31
0.0
  0
LINE
  5
39C
330
1E
100
AcDbEntity
  8
0
100
AcDbLine
 10
4.554999999999999
 20
439.0609999999999
 30
0.0
 11
5.827000000000049
 21
437.788
 31
0.0
  0
LINE
  5
39D
330
1E
100
AcDbEntity
  8
0
100
AcDbLine
 10
53.628
 20
424.495
 30
0.0
 11
57.23399999999999
 21
421.03
 31
0.0
  0
LINE
  5
39E
330
1E
100
AcDbEntity
  8
0
100
AcDbLine
 10
49.951
 20
427.889
 30
0.0
 11
53.628
 21
424.495
 31
0.0
  0
LINE
  5
39F
330
1E
100
AcDbEntity
  8
0
100
AcDbLine
 10
44.506
 20
432.343
 30
0.0
 11
49.951
 21
427.889
 31
0.0
  0
LINE
  5
3A0
330
1E
100
AcDbEntity
  8
0
100
AcDbLine
 10
39.556
 20
435.8789999999999
 30
0.0
 11
44.506
 21
432.343
 31
0.0
  0
LINE
  5
3A1
330
1E
100
AcDbEntity
  8
0
100
AcDbLine
 10
35.314
 20
438.707
 30
0.0
 11
39.556
 21
435.8789999999999
 31
0.0
  0
LINE
  5
3A2
330
1E
100
AcDbEntity
  8
0
100
AcDbLine
 10
28.94999999999999
 20
442.243
 30
0.0
 11
35.314
 21
438.707
 31
0.0
  0
LINE
  5
3A3
330
1E
100
AcDbEntity
  8
0
100
AcDbLine
 10
22.58599999999999
 20
445.0709999999999
 30
0.0
 11
28.94999999999999
 21
442.243
 31
0.0
  0
LINE
  5
3A4
330
1E
100
AcDbEntity
  8
0
100
AcDbLine
 10
17.636
 20
446.4859999999999
 30
0.0
 11
22.58599999999999
 21
445.0709999999999
 31
0.0
  0
LINE
  5
3A5
330
1E
100
AcDbEntity
  8
0
100
AcDbLine
 10
13.04
 20
446.839
 30
0.0
 11
17.636
 21
446.4859999999999
 31
0.0
  0
LINE
  5
3A6
330
1E
100
AcDbEntity
  8
0
100
AcDbLine
 10
11.979
 20
446.485
 30
0.0
 11
13.04
 21
446.839
 31
0.0
  0
LINE
  5
3A7
330
1E
100
AcDbEntity
  8
0
100
AcDbLine
 10
67.4408
 20
440.3519999999999
 30
0.0
 11
72.6156
 21
446.2519999999999
 31
0.0
  0
LINE
  5
3A8
330
1E
100
AcDbEntity
  8
0
100
AcDbLine
 10
72.6156
 20
446.2519999999999
 30
0.0
 11
78.5163
 21
451.4269999999999
 31
0.0
  0
LINE
  5
3A9
330
1E
100
AcDbEntity
  8
0
100
AcDbLine
 10
54.972616988791
 20
423.2029595490399
 30
0.0
 11
67.4408
 21
440.3519999999999
 31
0.0
  0
LINE
  5
3AA
330
1E
100
AcDbEntity
  8
0
100
AcDbLine
 10
75.26430000000001
 20
356.438
 30
0.0
 11
78.1372
 21
355.9709999999999
 31
0.0
  0
LINE
  5
3AB
330
1E
100
AcDbEntity
  8
0
100
AcDbLine
 10
82.6143
 20
357.643
 30
0.0
 11
83.1244
 21
358.7309999999999
 31
0.0
  0
LINE
  5
3AC
330
1E
100
AcDbEntity
  8
0
100
AcDbLine
 10
82.00279999999999
 20
360.268
 30
0.0
 11
83.1244
 21
358.7309999999999
 31
0.0
  0
LINE
  5
3AD
330
1E
100
AcDbEntity
  8
0
100
AcDbLine
 10
80.7432
 20
356.306
 30
0.0
 11
82.6143
 21
357.643
 31
0.0
  0
LINE
  5
3AF
330
1E
100
AcDbEntity
  8
0
100
AcDbLine
 10
78.1372
 20
355.9709999999999
 30
0.0
 11
80.7432
 21
356.306
 31
0.0
  0
LINE
  5
3B2
330
1E
100
AcDbEntity
  8
0
100
AcDbLine
 10
76.0146
 20
368.283
 30
0.0
 11
83.37299999999999
 21
358.9859999999999
 31
0.0
  0
LINE
  5
3B3
330
1E
100
AcDbEntity
  8
0
100
AcDbLine
 10
83.37299999999999
 20
358.9859999999999
 30
0.0
 11
90.32189999999999
 21
349.628
 31
0.0
  0
LINE
  5
3B8
330
1E
100
AcDbEntity
  8
0
100
AcDbLine
 10
75.5695545239298
 20
368.7516716530639
 30
0.0
 11
76.0146
 21
368.283
 31
0.0
  0
LINE
  5
3BB
330
1E
100
AcDbEntity
  8
0
100
AcDbLine
 10
75.2654
 20
368.351
 30
0.0
 11
75.6116414553767
 21
368.7073504481659
 31
0.0
  0
LINE
  5
3BE
330
1E
100
AcDbEntity
  8
0
100
AcDbLine
 10
90.32189999999999
 20
349.628
 30
0.0
 11
97.04299999999999
 21
339.705
 31
0.0
  0
LINE
  5
3BF
330
1E
100
AcDbEntity
  8
0
100
AcDbLine
 10
89.65470000000001
 20
423.306
 30
0.0
 11
92.4146
 21
426.453
 31
0.0
  0
LINE
  5
3C0
330
1E
100
AcDbEntity
  8
0
100
AcDbLine
 10
92.4146
 20
426.453
 30
0.0
 11
95.5616
 21
429.213
 31
0.0
  0
LINE
  5
3C1
330
1E
100
AcDbEntity
  8
0
100
AcDbLine
 10
98.63179999999999
 20
372.5459999999999
 30
0.0
 11
106.1098
 21
362.568
 31
0.0
  0
LINE
  5
3C2
330
1E
100
AcDbEntity
  8
0
100
AcDbLine
 10
97.04299999999999
 20
339.705
 30
0.0
 11
105.2346
 21
326.438
 31
0.0
  0
LINE
  5
3C3
330
1E
100
AcDbEntity
  8
0
100
AcDbLine
 10
95.5616
 20
429.213
 30
0.0
 11
99.04200000000001
 21
431.5389999999999
 31
0.0
  0
LINE
  5
3C4
330
1E
100
AcDbEntity
  8
0
100
AcDbLine
 10
78.5163
 20
451.4269999999999
 30
0.0
 11
85.042
 21
455.7879999999999
 31
0.0
  0
LINE
  5
3C5
330
1E
100
AcDbEntity
  8
0
100
AcDbLine
 10
99.04200000000001
 20
431.5389999999999
 30
0.0
 11
102.7960999999999
 21
433.3899999999999
 31
0.0
  0
LINE
  5
3C6
330
1E
100
AcDbEntity
  8
0
100
AcDbLine
 10
85.042
 20
455.7879999999999
 30
0.0
 11
92.08099999999999
 21
459.259
 31
0.0
  0
LINE
  5
3C7
330
1E
100
AcDbEntity
  8
0
100
AcDbLine
 10
106.1098
 20
362.568
 30
0.0
 11
113.976
 21
351.838
 31
0.0
  0
LINE
  5
3C8
330
1E
100
AcDbEntity
  8
0
100
AcDbLine
 10
105.2346
 20
326.438
 30
0.0
 11
113.2306
 21
311.9001
 31
0.0
  0
LINE
  5
3C9
330
1E
100
AcDbEntity
  8
0
100
AcDbLine
 10
106.7598
 20
434.736
 30
0.0
 11
110.8651999999999
 21
435.5519999999999
 31
0.0
  0
LINE
  5
3CA
330
1E
100
AcDbEntity
  8
0
100
AcDbLine
 10
102.7960999999999
 20
433.3899999999999
 30
0.0
 11
106.7598
 21
434.736
 31
0.0
  0
LINE
  5
3CB
330
1E
100
AcDbEntity
  8
0
100
AcDbLine
 10
99.5129
 20
461.782
 30
0.0
 11
107.2104
 21
463.313
 31
0.0
  0
LINE
  5
3CC
330
1E
100
AcDbEntity
  8
0
100
AcDbLine
 10
92.08099999999999
 20
459.259
 30
0.0
 11
99.5129
 21
461.782
 31
0.0
  0
LINE
  5
3CD
330
1E
100
AcDbEntity
  8
0
100
AcDbLine
 10
113.976
 20
351.838
 30
0.0
 11
123.9176
 21
337.669
 31
0.0
  0
LINE
  5
3CE
330
1E
100
AcDbEntity
  8
0
100
AcDbLine
 10
113.2306
 20
311.9001
 30
0.0
 11
120.8802
 21
296.2155
 31
0.0
  0
LINE
  5
3CF
330
1E
100
AcDbEntity
  8
0
100
AcDbLine
 10
110.8651999999999
 20
435.5519999999999
 30
0.0
 11
115.0419999999999
 21
435.8259999999999
 31
0.0
  0
LINE
  5
3D0
330
1E
100
AcDbEntity
  8
0
100
AcDbLine
 10
107.2104
 20
463.313
 30
0.0
 11
115.0419999999999
 21
463.8259999999999
 31
0.0
  0
LINE
  5
3D1
330
1E
100
AcDbEntity
  8
0
100
AcDbLine
 10
123.9176
 20
337.669
 30
0.0
 11
133.4570999999999
 21
322.93
 31
0.0
  0
LINE
  5
3D2
330
1E
100
AcDbEntity
  8
0
100
AcDbLine
 10
120.8802
 20
296.2155
 30
0.0
 11
129.051
 21
277.2847
 31
0.0
  0
LINE
  5
3D3
330
1E
100
AcDbEntity
  8
0
100
AcDbLine
 10
123.3242
 20
434.736
 30
0.0
 11
127.2878999999999
 21
433.3899999999999
 31
0.0
  0
LINE
  5
3D4
330
1E
100
AcDbEntity
  8
0
100
AcDbLine
 10
119.2188
 20
435.5519999999999
 30
0.0
 11
123.3242
 21
434.736
 31
0.0
  0
LINE
  5
3D5
330
1E
100
AcDbEntity
  8
0
100
AcDbLine
 10
122.8736
 20
463.313
 30
0.0
 11
130.5711
 21
461.782
 31
0.0
  0
LINE
  5
3D6
330
1E
100
AcDbEntity
  8
0
100
AcDbLine
 10
115.0419999999999
 20
435.8259999999999
 30
0.0
 11
119.2188
 21
435.5519999999999
 31
0.0
  0
LINE
  5
3D7
330
1E
100
AcDbEntity
  8
0
100
AcDbLine
 10
115.0419999999999
 20
463.8259999999999
 30
0.0
 11
122.8736
 21
463.313
 31
0.0
  0
LINE
  5
3D8
330
1E
100
AcDbEntity
  8
0
100
AcDbLine
 10
74.47360306349891
 20
402.4166863920889
 30
0.0
 11
89.65470000000001
 21
423.306
 31
0.0
  0
LINE
  5
3D9
330
1E
100
AcDbEntity
  8
0
100
AcDbLine
 10
126.042
 20
221.36446
 30
0.0
 11
126.042
 21
213.8259999999999
 31
0.0
  0
LINE
  5
3DA
330
1E
100
AcDbEntity
  8
0
100
AcDbLine
 10
126.042
 20
221.36446
 30
0.0
 11
127.2772999999999
 21
221.36446
 31
0.0
  0
LINE
  5
3DB
330
1E
100
AcDbEntity
  8
0
100
AcDbLine
 10
126.042
 20
221.36446
 30
0.0
 11
126.5567
 21
221.6721499999999
 31
0.0
  0
LINE
  5
3E0
330
1E
100
AcDbEntity
  8
0
100
AcDbLine
 10
135.0419999999999
 20
213.8259999999999
 30
0.0
 11
135.9596
 21
213.8259999999999
 31
0.0
  0
LINE
  5
3E1
330
1E
100
AcDbEntity
  8
0
100
AcDbLine
 10
135.0419999999999
 20
213.8259999999999
 30
0.0
 11
135.0419999999999
 21
217.59523
 31
0.0
  0
LINE
  5
3F0
330
1E
100
AcDbEntity
  8
0
100
AcDbLine
 10
136.942
 20
213.8259999999999
 30
0.0
 11
139.342
 21
213.8259999999999
 31
0.0
  0
LINE
  5
3F2
330
1E
100
AcDbEntity
  8
0
100
AcDbLine
 10
136.0419999999999
 20
213.8259999999999
 30
0.0
 11
136.942
 21
213.8259999999999
 31
0.0
  0
LINE
  5
420
330
1E
100
AcDbEntity
  8
0
100
AcDbLine
 10
139.342
 20
213.8259999999999
 30
0.0
 11
143.342
 21
213.8259999999999
 31
0.0
  0
LINE
  5
421
330
1E
100
AcDbEntity
  8
0
100
AcDbLine
 10
143.342
 20
213.8259999999999
 30
0.0
 11
148.642
 21
213.8259999999999
 31
0.0
  0
LINE
  5
431
330
1E
100
AcDbEntity
  8
0
100
AcDbLine
 10
142.6890999999999
 20
213.8259999999999
 30
0.0
 11
148.1185
 21
213.8259999999999
 31
0.0
  0
LINE
  5
49C
330
1E
100
AcDbEntity
  8
0
100
AcDbLine
 10
148.642
 20
213.8259999999999
 30
0.0
 11
154.6419999999999
 21
213.8259999999999
 31
0.0
  0
LINE
  5
528
330
1E
100
AcDbEntity
  8
0
100
AcDbLine
 10
154.6419999999999
 20
213.8259999999999
 30
0.0
 11
161.0419999999999
 21
213.8259999999999
 31
0.0
  0
LINE
  5
529
330
1E
100
AcDbEntity
  8
0
100
AcDbLine
 10
167.442
 20
213.8259999999999
 30
0.0
 11
173.442
 21
213.8259999999999
 31
0.0
  0
LINE
  5
58D
330
1E
100
AcDbEntity
  8
0
100
AcDbLine
 10
173.442
 20
213.8259999999999
 30
0.0
 11
178.742
 21
213.8259999999999
 31
0.0
  0
LINE
  5
5A5
330
1E
100
AcDbEntity
  8
0
100
AcDbLine
 10
178.742
 20
213.8259999999999
 30
0.0
 11
182.742
 21
213.8259999999999
 31
0.0
  0
LINE
  5
5C4
330
1E
100
AcDbEntity
  8
0
100
AcDbLine
 10
185.142
 20
213.8259999999999
 30
0.0
 11
186.0419999999999
 21
213.8259999999999
 31
0.0
  0
LINE
  5
5C5
330
1E
100
AcDbEntity
  8
0
100
AcDbLine
 10
182.742
 20
213.8259999999999
 30
0.0
 11
185.142
 21
213.8259999999999
 31
0.0
  0
LINE
  5
5CA
330
1E
100
AcDbEntity
  8
0
100
AcDbLine
 10
179.3949
 20
213.8259999999999
 30
0.0
 11
183.5244
 21
213.8259999999999
 31
0.0
  0
LINE
  5
5CB
330
1E
100
AcDbEntity
  8
0
100
AcDbLine
 10
183.5244
 20
213.8259999999999
 30
0.0
 11
186.1244
 21
213.8259999999999
 31
0.0
  0
LINE
  5
5CE
330
1E
100
AcDbEntity
  8
0
100
AcDbLine
 10
187.042
 20
213.8259999999999
 30
0.0
 11
187.042
 21
217.59523
 31
0.0
  0
LINE
  5
5CF
330
1E
100
AcDbEntity
  8
0
100
AcDbLine
 10
186.1244
 20
213.8259999999999
 30
0.0
 11
187.042
 21
213.8259999999999
 31
0.0
  0
LINE
  5
5D0
330
1E
100
AcDbEntity
  8
0
100
AcDbLine
 10
173.9654999999999
 20
213.8259999999999
 30
0.0
 11
179.3949
 21
213.8259999999999
 31
0.0
  0
LINE
  5
5D1
330
1E
100
AcDbEntity
  8
0
100
AcDbLine
 10
167.6949
 20
213.8259999999999
 30
0.0
 11
173.9654999999999
 21
213.8259999999999
 31
0.0
  0
LINE
  5
5D2
330
1E
100
AcDbEntity
  8
0
100
AcDbLine
 10
161.0419999999999
 20
213.8259999999999
 30
0.0
 11
167.6949
 21
213.8259999999999
 31
0.0
  0
LINE
  5
5D3
330
1E
100
AcDbEntity
  8
0
100
AcDbLine
 10
161.0419999999999
 20
213.8259999999999
 30
0.0
 11
167.442
 21
213.8259999999999
 31
0.0
  0
LINE
  5
5D4
330
1E
100
AcDbEntity
  8
0
100
AcDbLine
 10
148.1185
 20
213.8259999999999
 30
0.0
 11
154.3891
 21
213.8259999999999
 31
0.0
  0
LINE
  5
5D5
330
1E
100
AcDbEntity
  8
0
100
AcDbLine
 10
154.3891
 20
213.8259999999999
 30
0.0
 11
161.0419999999999
 21
213.8259999999999
 31
0.0
  0
LINE
  5
5D6
330
1E
100
AcDbEntity
  8
0
100
AcDbLine
 10
138.5596999999999
 20
213.8259999999999
 30
0.0
 11
142.6890999999999
 21
213.8259999999999
 31
0.0
  0
LINE
  5
5D7
330
1E
100
AcDbEntity
  8
0
100
AcDbLine
 10
135.9596
 20
213.8259999999999
 30
0.0
 11
138.5596999999999
 21
213.8259999999999
 31
0.0
  0
LINE
  5
5D8
330
1E
100
AcDbEntity
  8
0
100
AcDbLine
 10
135.9596
 20
213.8259999999999
 30
0.0
 11
136.0419999999999
 21
213.8259999999999
 31
0.0
  0
LINE
  5
5D9
330
1E
100
AcDbEntity
  8
0
100
AcDbLine
 10
135.1007999999999
 20
213.8259999999999
 30
0.0
 11
136.0419999999999
 21
213.8259999999999
 31
0.0
  0
LINE
  5
5DA
330
1E
100
AcDbEntity
  8
0
100
AcDbLine
 10
132.1007999999999
 20
213.8259999999999
 30
0.0
 11
135.1007999999999
 21
213.8259999999999
 31
0.0
  0
LINE
  5
5DB
330
1E
100
AcDbEntity
  8
0
100
AcDbLine
 10
131.042
 20
213.8259999999999
 30
0.0
 11
132.1007999999999
 21
213.8259999999999
 31
0.0
  0
LINE
  5
5DC
330
1E
100
AcDbEntity
  8
0
100
AcDbLine
 10
131.042
 20
213.8259999999999
 30
0.0
 11
131.042
 21
221.36446
 31
0.0
  0
LINE
  5
5DD
330
1E
100
AcDbEntity
  8
0
100
AcDbLine
 10
186.9832
 20
213.8259999999999
 30
0.0
 11
189.9832
 21
213.8259999999999
 31
0.0
  0
LINE
  5
5DE
330
1E
100
AcDbEntity
  8
0
100
AcDbLine
 10
191.042
 20
213.8259999999999
 30
0.0
 11
191.042
 21
221.36446
 31
0.0
  0
LINE
  5
5DF
330
1E
100
AcDbEntity
  8
0
100
AcDbLine
 10
189.9832
 20
213.8259999999999
 30
0.0
 11
191.042
 21
213.8259999999999
 31
0.0
  0
LINE
  5
5E0
330
1E
100
AcDbEntity
  8
0
100
AcDbLine
 10
186.0419999999999
 20
213.8259999999999
 30
0.0
 11
191.3067
 21
213.8259999999999
 31
0.0
  0
LINE
  5
5E1
330
1E
100
AcDbEntity
  8
0
100
AcDbLine
 10
186.0419999999999
 20
213.8259999999999
 30
0.0
 11
186.9832
 21
213.8259999999999
 31
0.0
  0
LINE
  5
5E2
330
1E
100
AcDbEntity
  8
0
100
AcDbLine
 10
186.0419999999999
 20
213.8259999999999
 30
0.0
 11
186.1244
 21
213.8259999999999
 31
0.0
  0
LINE
  5
5E4
330
1E
100
AcDbEntity
  8
0
100
AcDbLine
 10
196.042
 20
213.8259999999999
 30
0.0
 11
196.042
 21
221.36446
 31
0.0
  0
LINE
  5
5E5
330
1E
100
AcDbEntity
  8
0
100
AcDbLine
 10
191.3067
 20
213.8259999999999
 30
0.0
 11
194.8067
 21
213.8259999999999
 31
0.0
  0
LINE
  5
5E6
330
1E
100
AcDbEntity
  8
0
100
AcDbLine
 10
194.8067
 20
213.8259999999999
 30
0.0
 11
196.042
 21
213.8259999999999
 31
0.0
  0
LINE
  5
5E7
330
1E
100
AcDbEntity
  8
0
100
AcDbLine
 10
130.7773
 20
213.8259999999999
 30
0.0
 11
136.0419999999999
 21
213.8259999999999
 31
0.0
  0
LINE
  5
5E8
330
1E
100
AcDbEntity
  8
0
100
AcDbLine
 10
126.5567
 20
221.6721499999999
 30
0.0
 11
127.5861
 21
221.8259999999999
 31
0.0
  0
LINE
  5
5E9
330
1E
100
AcDbEntity
  8
0
100
AcDbLine
 10
142.6890999999999
 20
217.59523
 30
0.0
 11
148.1185
 21
217.59523
 31
0.0
  0
LINE
  5
5EA
330
1E
100
AcDbEntity
  8
0
100
AcDbLine
 10
148.1185
 20
217.59523
 30
0.0
 11
154.3891
 21
217.59523
 31
0.0
  0
LINE
  5
5EB
330
1E
100
AcDbEntity
  8
0
100
AcDbLine
 10
173.9654999999999
 20
217.59523
 30
0.0
 11
179.3949
 21
217.59523
 31
0.0
  0
LINE
  5
5EC
330
1E
100
AcDbEntity
  8
0
100
AcDbLine
 10
167.6949
 20
217.59523
 30
0.0
 11
173.9654999999999
 21
217.59523
 31
0.0
  0
LINE
  5
5ED
330
1E
100
AcDbEntity
  8
0
100
AcDbLine
 10
161.0419999999999
 20
217.59523
 30
0.0
 11
167.6949
 21
217.59523
 31
0.0
  0
LINE
  5
5EE
330
1E
100
AcDbEntity
  8
0
100
AcDbLine
 10
154.3891
 20
217.59523
 30
0.0
 11
161.0419999999999
 21
217.59523
 31
0.0
  0
LINE
  5
5EF
330
1E
100
AcDbEntity
  8
0
100
AcDbLine
 10
138.5596999999999
 20
217.59523
 30
0.0
 11
142.6890999999999
 21
217.59523
 31
0.0
  0
LINE
  5
5F0
330
1E
100
AcDbEntity
  8
0
100
AcDbLine
 10
135.9596
 20
217.59523
 30
0.0
 11
138.5596999999999
 21
217.59523
 31
0.0
  0
LINE
  5
5F1
330
1E
100
AcDbEntity
  8
0
100
AcDbLine
 10
148.042
 20
217.8259999999999
 30
0.0
 11
148.0623999999999
 21
229.0526999999999
 31
0.0
  0
LINE
  5
5F2
330
1E
100
AcDbEntity
  8
0
100
AcDbLine
 10
143.4538
 20
217.8259999999999
 30
0.0
 11
148.6537999999999
 21
217.8259999999999
 31
0.0
  0
LINE
  5
5F3
330
1E
100
AcDbEntity
  8
0
100
AcDbLine
 10
148.6537999999999
 20
217.8259999999999
 30
0.0
 11
154.6185
 21
217.8259999999999
 31
0.0
  0
LINE
  5
5F4
330
1E
100
AcDbEntity
  8
0
100
AcDbLine
 10
174.042
 20
217.8259999999999
 30
0.0
 11
174.042
 21
232.8259999999999
 31
0.0
  0
LINE
  5
5F5
330
1E
100
AcDbEntity
  8
0
100
AcDbLine
 10
173.4302
 20
217.8259999999999
 30
0.0
 11
178.6302
 21
217.8259999999999
 31
0.0
  0
LINE
  5
5F6
330
1E
100
AcDbEntity
  8
0
100
AcDbLine
 10
167.4655
 20
217.8259999999999
 30
0.0
 11
173.4302
 21
217.8259999999999
 31
0.0
  0
LINE
  5
5F7
330
1E
100
AcDbEntity
  8
0
100
AcDbLine
 10
161.0419999999999
 20
217.8259999999999
 30
0.0
 11
167.4655
 21
217.8259999999999
 31
0.0
  0
LINE
  5
5F8
330
1E
100
AcDbEntity
  8
0
100
AcDbLine
 10
154.6185
 20
217.8259999999999
 30
0.0
 11
161.0419999999999
 21
217.8259999999999
 31
0.0
  0
LINE
  5
5F9
330
1E
100
AcDbEntity
  8
0
100
AcDbLine
 10
139.5537999999999
 20
217.8259999999999
 30
0.0
 11
143.4538
 21
217.8259999999999
 31
0.0
  0
LINE
  5
5FA
330
1E
100
AcDbEntity
  8
0
100
AcDbLine
 10
137.1066999999999
 20
217.8259999999999
 30
0.0
 11
139.5537999999999
 21
217.8259999999999
 31
0.0
  0
LINE
  5
5FB
330
1E
100
AcDbEntity
  8
0
100
AcDbLine
 10
136.1890999999999
 20
217.8259999999999
 30
0.0
 11
137.1066999999999
 21
217.8259999999999
 31
0.0
  0
LINE
  5
5FC
330
1E
100
AcDbEntity
  8
0
100
AcDbLine
 10
135.4244
 20
217.74908
 30
0.0
 11
136.1890999999999
 21
217.8259999999999
 31
0.0
  0
LINE
  5
5FD
330
1E
100
AcDbEntity
  8
0
100
AcDbLine
 10
135.0419999999999
 20
217.59523
 30
0.0
 11
135.0419999999999
 21
213.8259999999999
 31
0.0
  0
LINE
  5
5FE
330
1E
100
AcDbEntity
  8
0
100
AcDbLine
 10
135.0419999999999
 20
217.59523
 30
0.0
 11
135.9596
 21
217.59523
 31
0.0
  0
LINE
  5
5FF
330
1E
100
AcDbEntity
  8
0
100
AcDbLine
 10
135.0419999999999
 20
217.59523
 30
0.0
 11
135.4244
 21
217.74908
 31
0.0
  0
LINE
  5
600
330
1E
100
AcDbEntity
  8
0
100
AcDbLine
 10
179.3949
 20
217.59523
 30
0.0
 11
183.5244
 21
217.59523
 31
0.0
  0
LINE
  5
601
330
1E
100
AcDbEntity
  8
0
100
AcDbLine
 10
178.6302
 20
217.8259999999999
 30
0.0
 11
182.5302
 21
217.8259999999999
 31
0.0
  0
LINE
  5
602
330
1E
100
AcDbEntity
  8
0
100
AcDbLine
 10
182.5302
 20
217.8259999999999
 30
0.0
 11
184.9773
 21
217.8259999999999
 31
0.0
  0
LINE
  5
603
330
1E
100
AcDbEntity
  8
0
100
AcDbLine
 10
185.8949
 20
217.8259999999999
 30
0.0
 11
186.6596
 21
217.74908
 31
0.0
  0
LINE
  5
604
330
1E
100
AcDbEntity
  8
0
100
AcDbLine
 10
184.9773
 20
217.8259999999999
 30
0.0
 11
185.8949
 21
217.8259999999999
 31
0.0
  0
LINE
  5
605
330
1E
100
AcDbEntity
  8
0
100
AcDbLine
 10
183.5244
 20
217.59523
 30
0.0
 11
186.1244
 21
217.59523
 31
0.0
  0
LINE
  5
606
330
1E
100
AcDbEntity
  8
0
100
AcDbLine
 10
186.6596
 20
217.74908
 30
0.0
 11
187.042
 21
217.59523
 31
0.0
  0
LINE
  5
607
330
1E
100
AcDbEntity
  8
0
100
AcDbLine
 10
186.1244
 20
217.59523
 30
0.0
 11
187.042
 21
217.59523
 31
0.0
  0
LINE
  5
608
330
1E
100
AcDbEntity
  8
0
100
AcDbLine
 10
175.9538
 20
221.36446
 30
0.0
 11
182.2185
 21
221.36446
 31
0.0
  0
LINE
  5
609
330
1E
100
AcDbEntity
  8
0
100
AcDbLine
 10
174.042
 20
221.36446
 30
0.0
 11
175.9538
 21
221.36446
 31
0.0
  0
LINE
  5
60A
330
1E
100
AcDbEntity
  8
0
100
AcDbLine
 10
182.2185
 20
221.36446
 30
0.0
 11
186.9832
 21
221.36446
 31
0.0
  0
LINE
  5
60B
330
1E
100
AcDbEntity
  8
0
100
AcDbLine
 10
187.042
 20
217.59523
 30
0.0
 11
187.042
 21
213.8259999999999
 31
0.0
  0
LINE
  5
60C
330
1E
100
AcDbEntity
  8
0
100
AcDbLine
 10
186.9832
 20
221.36446
 30
0.0
 11
189.9832
 21
221.36446
 31
0.0
  0
LINE
  5
60D
330
1E
100
AcDbEntity
  8
0
100
AcDbLine
 10
189.9832
 20
221.36446
 30
0.0
 11
191.042
 21
221.36446
 31
0.0
  0
LINE
  5
60E
330
1E
100
AcDbEntity
  8
0
100
AcDbLine
 10
191.042
 20
221.36446
 30
0.0
 11
191.3067
 21
221.36446
 31
0.0
  0
LINE
  5
60F
330
1E
100
AcDbEntity
  8
0
100
AcDbLine
 10
191.042
 20
221.36446
 30
0.0
 11
191.042
 21
213.8259999999999
 31
0.0
  0
LINE
  5
610
330
1E
100
AcDbEntity
  8
0
100
AcDbLine
 10
139.8654999999999
 20
221.36446
 30
0.0
 11
146.1302
 21
221.36446
 31
0.0
  0
LINE
  5
611
330
1E
100
AcDbEntity
  8
0
100
AcDbLine
 10
146.1302
 20
221.36446
 30
0.0
 11
148.0484297241399
 21
221.36446
 31
0.0
  0
LINE
  5
612
330
1E
100
AcDbEntity
  8
0
100
AcDbLine
 10
135.1007999999999
 20
221.36446
 30
0.0
 11
139.8654999999999
 21
221.36446
 31
0.0
  0
LINE
  5
613
330
1E
100
AcDbEntity
  8
0
100
AcDbLine
 10
132.1007999999999
 20
221.36446
 30
0.0
 11
135.1007999999999
 21
221.36446
 31
0.0
  0
LINE
  5
614
330
1E
100
AcDbEntity
  8
0
100
AcDbLine
 10
131.042
 20
221.36446
 30
0.0
 11
132.1007999999999
 21
221.36446
 31
0.0
  0
LINE
  5
615
330
1E
100
AcDbEntity
  8
0
100
AcDbLine
 10
131.042
 20
221.36446
 30
0.0
 11
131.4832
 21
221.6721499999999
 31
0.0
  0
LINE
  5
616
330
1E
100
AcDbEntity
  8
0
100
AcDbLine
 10
131.042
 20
221.36446
 30
0.0
 11
131.042
 21
213.8259999999999
 31
0.0
  0
LINE
  5
617
330
1E
100
AcDbEntity
  8
0
100
AcDbLine
 10
191.3067
 20
221.36446
 30
0.0
 11
194.8067
 21
221.36446
 31
0.0
  0
LINE
  5
618
330
1E
100
AcDbEntity
  8
0
100
AcDbLine
 10
196.042
 20
221.36446
 30
0.0
 11
196.042
 21
213.8259999999999
 31
0.0
  0
LINE
  5
619
330
1E
100
AcDbEntity
  8
0
100
AcDbLine
 10
194.8067
 20
221.36446
 30
0.0
 11
196.042
 21
221.36446
 31
0.0
  0
LINE
  5
61A
330
1E
100
AcDbEntity
  8
0
100
AcDbLine
 10
127.2878999999999
 20
433.3899999999999
 30
0.0
 11
131.042
 21
431.5389999999999
 31
0.0
  0
LINE
  5
61B
330
1E
100
AcDbEntity
  8
0
100
AcDbLine
 10
131.4832
 20
221.6721499999999
 30
0.0
 11
132.3655
 21
221.8259999999999
 31
0.0
  0
LINE
  5
61C
330
1E
100
AcDbEntity
  8
0
100
AcDbLine
 10
190.6007999999999
 20
221.6721499999999
 30
0.0
 11
191.042
 21
221.36446
 31
0.0
  0
LINE
  5
61D
330
1E
100
AcDbEntity
  8
0
100
AcDbLine
 10
145.042
 20
221.8259999999999
 30
0.0
 11
145.042
 21
239.7129460743619
 31
0.0
  0
LINE
  5
61E
330
1E
100
AcDbEntity
  8
0
100
AcDbLine
 10
177.042
 20
221.8259999999999
 30
0.0
 11
177.042
 21
279.3645
 31
0.0
  0
LINE
  5
61F
330
1E
100
AcDbEntity
  8
0
100
AcDbLine
 10
137.0419999999999
 20
221.8259999999999
 30
0.0
 11
137.0419999999999
 21
258.58033765808
 31
0.0
  0
LINE
  5
620
330
1E
100
AcDbEntity
  8
0
100
AcDbLine
 10
185.0419999999999
 20
221.8259999999999
 30
0.0
 11
185.0419999999999
 21
276.3645
 31
0.0
  0
LINE
  5
621
330
1E
100
AcDbEntity
  8
0
100
AcDbLine
 10
189.7185
 20
221.8259999999999
 30
0.0
 11
189.9685
 21
221.8259999999999
 31
0.0
  0
LINE
  5
622
330
1E
100
AcDbEntity
  8
0
100
AcDbLine
 10
189.7185
 20
221.8259999999999
 30
0.0
 11
190.6007999999999
 21
221.6721499999999
 31
0.0
  0
LINE
  5
623
330
1E
100
AcDbEntity
  8
0
100
AcDbLine
 10
174.042
 20
221.8259999999999
 30
0.0
 11
193.2625999999999
 21
221.8259999999999
 31
0.0
  0
LINE
  5
624
330
1E
100
AcDbEntity
  8
0
100
AcDbLine
 10
194.4979
 20
221.8259999999999
 30
0.0
 11
195.5273
 21
221.6721499999999
 31
0.0
  0
LINE
  5
625
330
1E
100
AcDbEntity
  8
0
100
AcDbLine
 10
193.2625999999999
 20
221.8259999999999
 30
0.0
 11
194.4979
 21
221.8259999999999
 31
0.0
  0
LINE
  5
626
330
1E
100
AcDbEntity
  8
0
100
AcDbLine
 10
195.5273
 20
221.6721499999999
 30
0.0
 11
196.042
 21
221.36446
 31
0.0
  0
LINE
  5
627
330
1E
100
AcDbEntity
  8
0
100
AcDbLine
 10
132.1155
 20
221.8259999999999
 30
0.0
 11
132.3655
 21
221.8259999999999
 31
0.0
  0
LINE
  5
628
330
1E
100
AcDbEntity
  8
0
100
AcDbLine
 10
133.4570999999999
 20
322.93
 30
0.0
 11
143.1823999999999
 21
306.3417999999999
 31
0.0
  0
LINE
  5
629
330
1E
100
AcDbEntity
  8
0
100
AcDbLine
 10
129.051
 20
277.2847
 30
0.0
 11
135.386
 21
262.4311
 31
0.0
  0
LINE
  5
62A
330
1E
100
AcDbEntity
  8
0
100
AcDbLine
 10
135.386
 20
262.4311
 30
0.0
 11
141.791
 21
247.5372999999999
 31
0.0
  0
LINE
  5
62B
330
1E
100
AcDbEntity
  8
0
100
AcDbLine
 10
134.5223999999999
 20
429.213
 30
0.0
 11
137.6694
 21
426.453
 31
0.0
  0
LINE
  5
62C
330
1E
100
AcDbEntity
  8
0
100
AcDbLine
 10
130.5711
 20
461.782
 30
0.0
 11
138.0029999999999
 21
459.259
 31
0.0
  0
LINE
  5
62D
330
1E
100
AcDbEntity
  8
0
100
AcDbLine
 10
131.042
 20
431.5389999999999
 30
0.0
 11
134.5223999999999
 21
429.213
 31
0.0
  0
LINE
  5
62E
330
1E
100
AcDbEntity
  8
0
100
AcDbLine
 10
143.8651320740989
 20
242.9714452658239
 30
0.0
 11
146.875023869263
 21
234.6376893998709
 31
0.0
  0
LINE
  5
62F
330
1E
100
AcDbEntity
  8
0
100
AcDbLine
 10
144.1780999999999
 20
243.0849999999999
 30
0.0
 11
145.2599999999999
 21
243.4791
 31
0.0
  0
LINE
  5
630
330
1E
100
AcDbEntity
  8
0
100
AcDbLine
 10
143.7713
 20
242.9374
 30
0.0
 11
143.8651320740989
 21
242.9714452658239
 31
0.0
  0
LINE
  5
631
330
1E
100
AcDbEntity
  8
0
100
AcDbLine
 10
143.7713
 20
242.9374
 30
0.0
 11
144.1780999999999
 21
243.0849999999999
 31
0.0
  0
LINE
  5
632
330
1E
100
AcDbEntity
  8
0
100
AcDbLine
 10
143.2958999999999
 20
243.4026
 30
0.0
 11
143.7713
 21
242.9374
 31
0.0
  0
LINE
  5
633
330
1E
100
AcDbEntity
  8
0
100
AcDbLine
 10
141.791
 20
247.5372999999999
 30
0.0
 11
143.2958999999999
 21
243.4026
 31
0.0
  0
LINE
  5
634
330
1E
100
AcDbEntity
  8
0
100
AcDbLine
 10
146.2542999999999
 20
234.4256
 30
0.0
 11
148.0623999999999
 21
229.0526999999999
 31
0.0
  0
LINE
  5
635
330
1E
100
AcDbEntity
  8
0
100
AcDbLine
 10
146.2542999999999
 20
234.4256
 30
0.0
 11
146.6971
 21
234.5769
 31
0.0
  0
LINE
  5
636
330
1E
100
AcDbEntity
  8
0
100
AcDbLine
 10
147.8780999999999
 20
234.9804
 30
0.0
 11
149.8464
 21
235.6529
 31
0.0
  0
LINE
  5
637
330
1E
100
AcDbEntity
  8
0
100
AcDbLine
 10
149.8464
 20
235.6529
 30
0.0
 11
152.4543299999999
 21
236.5439999999999
 31
0.0
  0
LINE
  5
638
330
1E
100
AcDbEntity
  8
0
100
AcDbLine
 10
146.6971
 20
234.5769
 30
0.0
 11
146.875023869263
 21
234.6376893998709
 31
0.0
  0
LINE
  5
639
330
1E
100
AcDbEntity
  8
0
100
AcDbLine
 10
146.6971
 20
234.5769
 30
0.0
 11
147.8780999999999
 21
234.9804
 31
0.0
  0
LINE
  5
63A
330
1E
100
AcDbEntity
  8
0
100
AcDbLine
 10
152.4543299999999
 20
236.5439999999999
 30
0.0
 11
155.4067499999999
 21
237.5526999999999
 31
0.0
  0
LINE
  5
63B
330
1E
100
AcDbEntity
  8
0
100
AcDbLine
 10
155.4067499999999
 20
237.5526999999999
 30
0.0
 11
158.556
 21
238.6287999999999
 31
0.0
  0
LINE
  5
63C
330
1E
100
AcDbEntity
  8
0
100
AcDbLine
 10
145.2599999999999
 20
243.4791
 30
0.0
 11
157.869634821858
 21
248.068498932024
 31
0.0
  0
LINE
  5
63E
330
1E
100
AcDbEntity
  8
0
100
AcDbLine
 10
164.6576699999999
 20
240.7136
 30
0.0
 11
167.2656399999999
 21
241.6046
 31
0.0
  0
LINE
  5
63F
330
1E
100
AcDbEntity
  8
0
100
AcDbLine
 10
161.705248
 20
239.7048
 30
0.0
 11
164.6576699999999
 21
240.7136
 31
0.0
  0
LINE
  5
640
330
1E
100
AcDbEntity
  8
0
100
AcDbLine
 10
158.556
 20
238.6287999999999
 30
0.0
 11
161.705248
 21
239.7048
 31
0.0
  0
LINE
  5
641
330
1E
100
AcDbEntity
  8
0
100
AcDbLine
 10
157.869634821858
 20
248.068498932024
 30
0.0
 11
162.2954499999999
 21
249.6790999999999
 31
0.0
  0
LINE
  5
642
330
1E
100
AcDbEntity
  8
0
100
AcDbLine
 10
166.4178014972929
 20
251.180020136523
 30
0.0
 11
169.58935512895
 21
242.3986409125809
 31
0.0
  0
LINE
  5
643
330
1E
100
AcDbEntity
  8
0
100
AcDbLine
 10
166.17356
 20
251.0911999999999
 30
0.0
 11
167.05351
 21
251.4112
 31
0.0
  0
LINE
  5
644
330
1E
100
AcDbEntity
  8
0
100
AcDbLine
 10
165.0233899999999
 20
250.6725
 30
0.0
 11
166.17356
 21
251.0911999999999
 31
0.0
  0
LINE
  5
645
330
1E
100
AcDbEntity
  8
0
100
AcDbLine
 10
163.7158399999999
 20
250.1964
 30
0.0
 11
165.0233899999999
 21
250.6725
 31
0.0
  0
LINE
  5
646
330
1E
100
AcDbEntity
  8
0
100
AcDbLine
 10
162.2954499999999
 20
249.6790999999999
 30
0.0
 11
163.7158399999999
 21
250.1964
 31
0.0
  0
LINE
  5
647
330
1E
100
AcDbEntity
  8
0
100
AcDbLine
 10
167.2656399999999
 20
241.6046
 30
0.0
 11
169.2339199999999
 21
242.2772
 31
0.0
  0
LINE
  5
648
330
1E
100
AcDbEntity
  8
0
100
AcDbLine
 10
169.2339199999999
 20
242.2772
 30
0.0
 11
170.4148899999999
 21
242.6807
 31
0.0
  0
LINE
  5
649
330
1E
100
AcDbEntity
  8
0
100
AcDbLine
 10
174.042
 20
232.8259999999999
 30
0.0
 11
174.042
 21
217.8259999999999
 31
0.0
  0
LINE
  5
64A
330
1E
100
AcDbEntity
  8
0
100
AcDbLine
 10
170.85775
 20
242.8319999999999
 30
0.0
 11
174.042
 21
232.8259999999999
 31
0.0
  0
LINE
  5
64B
330
1E
100
AcDbEntity
  8
0
100
AcDbLine
 10
170.4148899999999
 20
242.6807
 30
0.0
 11
170.85775
 21
242.8319999999999
 31
0.0
  0
LINE
  5
64C
330
1E
100
AcDbEntity
  8
0
100
AcDbLine
 10
169.58935512895
 20
242.3986409125809
 30
0.0
 11
170.4148899999999
 21
242.6807
 31
0.0
  0
LINE
  5
64D
330
1E
100
AcDbEntity
  8
0
100
AcDbLine
 10
167.5949399999999
 20
251.6082
 30
0.0
 11
167.79785
 21
251.6820999999999
 31
0.0
  0
LINE
  5
64E
330
1E
100
AcDbEntity
  8
0
100
AcDbLine
 10
167.7282399999999
 20
252.2950999999999
 30
0.0
 11
167.79785
 21
251.6820999999999
 31
0.0
  0
LINE
  5
64F
330
1E
100
AcDbEntity
  8
0
100
AcDbLine
 10
167.05351
 20
251.4112
 30
0.0
 11
167.5949399999999
 21
251.6082
 31
0.0
  0
LINE
  5
650
330
1E
100
AcDbEntity
  8
0
100
AcDbLine
 10
166.22335
 20
256.4297
 30
0.0
 11
167.7282399999999
 21
252.2950999999999
 31
0.0
  0
LINE
  5
651
330
1E
100
AcDbEntity
  8
0
100
AcDbLine
 10
145.042
 20
239.7129460743619
 30
0.0
 11
145.042
 21
221.8259999999999
 31
0.0
  0
LINE
  5
652
330
1E
100
AcDbEntity
  8
0
100
AcDbLine
 10
159.14184
 20
272.9981
 30
0.0
 11
166.22335
 21
256.4297
 31
0.0
  0
LINE
  5
653
330
1E
100
AcDbEntity
  8
0
100
AcDbLine
 10
177.9832
 20
276.3645
 30
0.0
 11
181.7949
 21
276.3645
 31
0.0
  0
LINE
  5
654
330
1E
100
AcDbEntity
  8
0
100
AcDbLine
 10
181.7949
 20
276.3645
 30
0.0
 11
184.1948999999999
 21
276.3645
 31
0.0
  0
LINE
  5
655
330
1E
100
AcDbEntity
  8
0
100
AcDbLine
 10
185.0419999999999
 20
276.3645
 30
0.0
 11
185.0419999999999
 21
221.8259999999999
 31
0.0
  0
LINE
  5
656
330
1E
100
AcDbEntity
  8
0
100
AcDbLine
 10
184.1948999999999
 20
276.3645
 30
0.0
 11
185.0419999999999
 21
276.3645
 31
0.0
  0
LINE
  5
65A
330
1E
100
AcDbEntity
  8
0
100
AcDbLine
 10
156.288658446413
 20
279.6721999999999
 30
0.0
 11
156.9949
 21
279.6721999999999
 31
0.0
  0
LINE
  5
65B
330
1E
100
AcDbEntity
  8
0
100
AcDbLine
 10
157.042
 20
279.3645
 30
0.0
 11
157.042
 21
292.0083
 31
0.0
  0
LINE
  5
65E
330
1E
100
AcDbEntity
  8
0
100
AcDbLine
 10
168.9008199999999
 20
279.6721999999999
 30
0.0
 11
172.1948999999999
 21
279.6721999999999
 31
0.0
  0
LINE
  5
65F
330
1E
100
AcDbEntity
  8
0
100
AcDbLine
 10
165.0891
 20
279.6721999999999
 30
0.0
 11
168.9008199999999
 21
279.6721999999999
 31
0.0
  0
LINE
  5
660
330
1E
100
AcDbEntity
  8
0
100
AcDbLine
 10
172.1948999999999
 20
279.6721999999999
 30
0.0
 11
174.6890999999999
 21
279.6721999999999
 31
0.0
  0
LINE
  5
661
330
1E
100
AcDbEntity
  8
0
100
AcDbLine
 10
174.6890999999999
 20
279.6721999999999
 30
0.0
 11
176.242
 21
279.6721999999999
 31
0.0
  0
LINE
  5
662
330
1E
100
AcDbEntity
  8
0
100
AcDbLine
 10
176.242
 20
279.6721999999999
 30
0.0
 11
176.8067
 21
279.6721999999999
 31
0.0
  0
LINE
  5
664
330
1E
100
AcDbEntity
  8
0
100
AcDbLine
 10
177.042
 20
279.3645
 30
0.0
 11
177.042
 21
221.8259999999999
 31
0.0
  0
LINE
  5
665
330
1E
100
AcDbEntity
  8
0
100
AcDbLine
 10
176.3360999999999
 20
279.8259999999999
 30
0.0
 11
176.8067
 21
279.6721999999999
 31
0.0
  0
LINE
  5
666
330
1E
100
AcDbEntity
  8
0
100
AcDbLine
 10
176.8067
 20
279.6721999999999
 30
0.0
 11
177.042
 21
279.3645
 31
0.0
  0
LINE
  5
667
330
1E
100
AcDbEntity
  8
0
100
AcDbLine
 10
165.0891
 20
279.6721999999999
 30
0.0
 11
165.0419999999999
 21
292.0083
 31
0.0
  0
LINE
  5
668
330
1E
100
AcDbEntity
  8
0
100
AcDbLine
 10
143.1823999999999
 20
306.3417999999999
 30
0.0
 11
152.57821
 21
288.3516
 31
0.0
  0
LINE
  5
669
330
1E
100
AcDbEntity
  8
0
100
AcDbLine
 10
147.042
 20
403.8259999999999
 30
0.0
 11
147.042
 21
298.951806383697
 31
0.0
  0
LINE
  5
66A
330
1E
100
AcDbEntity
  8
0
100
AcDbLine
 10
144.6061
 20
416.0719999999999
 30
0.0
 11
145.9516
 21
412.108
 31
0.0
  0
LINE
  5
66B
330
1E
100
AcDbEntity
  8
0
100
AcDbLine
 10
142.7547999999999
 20
419.8259999999999
 30
0.0
 11
144.6061
 21
416.0719999999999
 31
0.0
  0
LINE
  5
66C
330
1E
100
AcDbEntity
  8
0
100
AcDbLine
 10
145.9516
 20
412.108
 30
0.0
 11
146.7682
 21
408.003
 31
0.0
  0
LINE
  5
66D
330
1E
100
AcDbEntity
  8
0
100
AcDbLine
 10
146.7682
 20
408.003
 30
0.0
 11
147.042
 21
403.8259999999999
 31
0.0
  0
LINE
  5
66E
330
1E
100
AcDbEntity
  8
0
100
AcDbLine
 10
140.4293
 20
423.306
 30
0.0
 11
142.7547999999999
 21
419.8259999999999
 31
0.0
  0
LINE
  5
66F
330
1E
100
AcDbEntity
  8
0
100
AcDbLine
 10
138.0029999999999
 20
459.259
 30
0.0
 11
145.042
 21
455.7879999999999
 31
0.0
  0
LINE
  5
670
330
1E
100
AcDbEntity
  8
0
100
AcDbLine
 10
145.042
 20
455.7879999999999
 30
0.0
 11
151.56769
 21
451.4269999999999
 31
0.0
  0
LINE
  5
671
330
1E
100
AcDbEntity
  8
0
100
AcDbLine
 10
137.6694
 20
426.453
 30
0.0
 11
140.4293
 21
423.306
 31
0.0
  0
LINE
  5
672
330
1E
100
AcDbEntity
  8
0
100
AcDbLine
 10
152.57821
 20
288.3516
 30
0.0
 11
159.14184
 21
272.9981
 31
0.0
  0
LINE
  5
673
330
1E
100
AcDbEntity
  8
0
100
AcDbLine
 10
157.042
 20
292.0083
 30
0.0
 11
157.042
 21
279.3645
 31
0.0
  0
LINE
  5
674
330
1E
100
AcDbEntity
  8
0
100
AcDbLine
 10
157.042
 20
292.0083
 30
0.0
 11
157.18318
 21
292.9914999999999
 31
0.0
  0
LINE
  5
675
330
1E
100
AcDbEntity
  8
0
100
AcDbLine
 10
158.25376
 20
289.3596999999999
 30
0.0
 11
159.0772899999999
 21
288.7608
 31
0.0
  0
LINE
  5
676
330
1E
100
AcDbEntity
  8
0
100
AcDbLine
 10
159.0772899999999
 20
288.7608
 30
0.0
 11
160.03023
 21
288.3878999999999
 31
0.0
  0
LINE
  5
677
330
1E
100
AcDbEntity
  8
0
100
AcDbLine
 10
160.03023
 20
288.3878999999999
 30
0.0
 11
161.0419999999999
 21
288.2522999999999
 31
0.0
  0
LINE
  5
678
330
1E
100
AcDbEntity
  8
0
100
AcDbLine
 10
157.63023
 20
290.1506999999999
 30
0.0
 11
158.25376
 21
289.3596999999999
 31
0.0
  0
LINE
  5
679
330
1E
100
AcDbEntity
  8
0
100
AcDbLine
 10
157.242
 20
291.0659999999999
 30
0.0
 11
157.63023
 21
290.1506999999999
 31
0.0
  0
LINE
  5
67A
330
1E
100
AcDbEntity
  8
0
100
AcDbLine
 10
157.242
 20
293.0096999999999
 30
0.0
 11
157.63023
 21
293.925
 31
0.0
  0
LINE
  5
67B
330
1E
100
AcDbEntity
  8
0
100
AcDbLine
 10
158.25376
 20
294.716
 30
0.0
 11
159.0772899999999
 21
295.3149
 31
0.0
  0
LINE
  5
67C
330
1E
100
AcDbEntity
  8
0
100
AcDbLine
 10
158.2184699999999
 20
294.7203999999999
 30
0.0
 11
159.0537699999999
 21
295.3305999999999
 31
0.0
  0
LINE
  5
67D
330
1E
100
AcDbEntity
  8
0
100
AcDbLine
 10
159.0772899999999
 20
295.3149
 30
0.0
 11
160.03023
 21
295.6877999999999
 31
0.0
  0
LINE
  5
67E
330
1E
100
AcDbEntity
  8
0
100
AcDbLine
 10
160.03023
 20
295.6877999999999
 30
0.0
 11
161.0419999999999
 21
295.8235
 31
0.0
  0
LINE
  5
67F
330
1E
100
AcDbEntity
  8
0
100
AcDbLine
 10
159.0537699999999
 20
295.3305999999999
 30
0.0
 11
160.0184699999999
 21
295.7148
 31
0.0
  0
LINE
  5
680
330
1E
100
AcDbEntity
  8
0
100
AcDbLine
 10
160.0184699999999
 20
295.7148
 30
0.0
 11
161.0419999999999
 21
295.8503999999999
 31
0.0
  0
LINE
  5
681
330
1E
100
AcDbEntity
  8
0
100
AcDbLine
 10
157.63023
 20
293.925
 30
0.0
 11
158.25376
 21
294.716
 31
0.0
  0
LINE
  5
682
330
1E
100
AcDbEntity
  8
0
100
AcDbLine
 10
157.58318
 20
293.9180999999999
 30
0.0
 11
158.2184699999999
 21
294.7203999999999
 31
0.0
  0
LINE
  5
683
330
1E
100
AcDbEntity
  8
0
100
AcDbLine
 10
157.18318
 20
292.9914999999999
 30
0.0
 11
157.58318
 21
293.9180999999999
 31
0.0
  0
LINE
  5
684
330
1E
100
AcDbEntity
  8
0
100
AcDbLine
 10
157.10082
 20
292.0379
 30
0.0
 11
157.242
 21
291.0659999999999
 31
0.0
  0
LINE
  5
685
330
1E
100
AcDbEntity
  8
0
100
AcDbLine
 10
157.10082
 20
292.0379
 30
0.0
 11
157.242
 21
293.0096999999999
 31
0.0
  0
LINE
  5
686
330
1E
100
AcDbEntity
  8
0
100
AcDbLine
 10
162.0537699999999
 20
288.3878999999999
 30
0.0
 11
163.0067099999999
 21
288.7608
 31
0.0
  0
LINE
  5
687
330
1E
100
AcDbEntity
  8
0
100
AcDbLine
 10
161.0419999999999
 20
288.2522999999999
 30
0.0
 11
162.0537699999999
 21
288.3878999999999
 31
0.0
  0
LINE
  5
688
330
1E
100
AcDbEntity
  8
0
100
AcDbLine
 10
162.0537699999999
 20
295.6877999999999
 30
0.0
 11
163.0067099999999
 21
295.3149
 31
0.0
  0
LINE
  5
689
330
1E
100
AcDbEntity
  8
0
100
AcDbLine
 10
161.0419999999999
 20
295.8235
 30
0.0
 11
162.0537699999999
 21
295.6877999999999
 31
0.0
  0
LINE
  5
68A
330
1E
100
AcDbEntity
  8
0
100
AcDbLine
 10
162.0655299999999
 20
295.7148
 30
0.0
 11
163.03023
 21
295.3305999999999
 31
0.0
  0
LINE
  5
68B
330
1E
100
AcDbEntity
  8
0
100
AcDbLine
 10
161.0419999999999
 20
295.8503999999999
 30
0.0
 11
162.0655299999999
 21
295.7148
 31
0.0
  0
LINE
  5
68C
330
1E
100
AcDbEntity
  8
0
100
AcDbLine
 10
163.0067099999999
 20
288.7608
 30
0.0
 11
163.83023
 21
289.3596999999999
 31
0.0
  0
LINE
  5
68D
330
1E
100
AcDbEntity
  8
0
100
AcDbLine
 10
163.0067099999999
 20
295.3149
 30
0.0
 11
163.83023
 21
294.716
 31
0.0
  0
LINE
  5
68E
330
1E
100
AcDbEntity
  8
0
100
AcDbLine
 10
163.83023
 20
289.3596999999999
 30
0.0
 11
164.4537699999999
 21
290.1506999999999
 31
0.0
  0
LINE
  5
68F
330
1E
100
AcDbEntity
  8
0
100
AcDbLine
 10
164.4537699999999
 20
290.1506999999999
 30
0.0
 11
164.842
 21
291.0659999999999
 31
0.0
  0
LINE
  5
690
330
1E
100
AcDbEntity
  8
0
100
AcDbLine
 10
164.842
 20
291.0659999999999
 30
0.0
 11
164.98318
 21
292.0379
 31
0.0
  0
LINE
  5
691
330
1E
100
AcDbEntity
  8
0
100
AcDbLine
 10
165.0419999999999
 20
292.0083
 30
0.0
 11
165.0891
 21
279.6721999999999
 31
0.0
  0
LINE
  5
692
330
1E
100
AcDbEntity
  8
0
100
AcDbLine
 10
163.83023
 20
294.716
 30
0.0
 11
164.4537699999999
 21
293.925
 31
0.0
  0
LINE
  5
693
330
1E
100
AcDbEntity
  8
0
100
AcDbLine
 10
164.4537699999999
 20
293.925
 30
0.0
 11
164.842
 21
293.0096999999999
 31
0.0
  0
LINE
  5
694
330
1E
100
AcDbEntity
  8
0
100
AcDbLine
 10
163.86553
 20
294.7203999999999
 30
0.0
 11
164.50082
 21
293.9180999999999
 31
0.0
  0
LINE
  5
695
330
1E
100
AcDbEntity
  8
0
100
AcDbLine
 10
164.842
 20
293.0096999999999
 30
0.0
 11
164.98318
 21
292.0379
 31
0.0
  0
LINE
  5
696
330
1E
100
AcDbEntity
  8
0
100
AcDbLine
 10
164.50082
 20
293.9180999999999
 30
0.0
 11
164.9008199999999
 21
292.9914999999999
 31
0.0
  0
LINE
  5
697
330
1E
100
AcDbEntity
  8
0
100
AcDbLine
 10
164.9008199999999
 20
292.9914999999999
 30
0.0
 11
165.0419999999999
 21
292.0083
 31
0.0
  0
LINE
  5
698
330
1E
100
AcDbEntity
  8
0
100
AcDbLine
 10
163.03023
 20
295.3305999999999
 30
0.0
 11
163.86553
 21
294.7203999999999
 31
0.0
  0
LINE
  5
699
330
1E
100
AcDbEntity
  8
0
100
AcDbLine
 10
170.47477
 20
426.787
 30
0.0
 11
172.9976
 21
419.355
 31
0.0
  0
LINE
  5
69A
330
1E
100
AcDbEntity
  8
0
100
AcDbLine
 10
167.00352
 20
433.826
 30
0.0
 11
170.47477
 21
426.787
 31
0.0
  0
LINE
  5
69B
330
1E
100
AcDbEntity
  8
0
100
AcDbLine
 10
172.9976
 20
419.355
 30
0.0
 11
174.5286999999999
 21
411.6579999999999
 31
0.0
  0
LINE
  5
69C
330
1E
100
AcDbEntity
  8
0
100
AcDbLine
 10
174.5286999999999
 20
411.6579999999999
 30
0.0
 11
175.042
 21
403.8259999999999
 31
0.0
  0
LINE
  5
69D
330
1E
100
AcDbEntity
  8
0
100
AcDbLine
 10
162.6432
 20
440.3519999999999
 30
0.0
 11
167.00352
 21
433.826
 31
0.0
  0
LINE
  5
69E
330
1E
100
AcDbEntity
  8
0
100
AcDbLine
 10
151.56769
 20
451.4269999999999
 30
0.0
 11
157.4684099999999
 21
446.2519999999999
 31
0.0
  0
LINE
  5
69F
330
1E
100
AcDbEntity
  8
0
100
AcDbLine
 10
157.4684099999999
 20
446.2519999999999
 30
0.0
 11
162.6432
 21
440.3519999999999
 31
0.0
  0
LINE
  5
6A0
330
1E
100
AcDbEntity
  8
0
100
AcDbLine
 10
147.042
 20
298.951806383697
 30
0.0
 11
147.042
 21
403.8259999999999
 31
0.0
  0
LINE
  5
6A1
330
1E
100
AcDbEntity
  8
0
100
AcDbLine
 10
175.042
 20
279.8259999999999
 30
0.0
 11
175.042
 21
403.8259999999999
 31
0.0
  0
LINE
  5
6A2
330
1E
100
AcDbEntity
  8
0
100
AcDbLine
 10
177.2772999999999
 20
276.8259999999999
 30
0.0
 11
180.8773
 21
276.8259999999999
 31
0.0
  0
LINE
  5
6A3
330
1E
100
AcDbEntity
  8
0
100
AcDbLine
 10
180.8773
 20
276.8259999999999
 30
0.0
 11
183.1361
 21
276.8259999999999
 31
0.0
  0
LINE
  5
6A4
330
1E
100
AcDbEntity
  8
0
100
AcDbLine
 10
183.9832
 20
276.8259999999999
 30
0.0
 11
184.6891
 21
276.6721999999999
 31
0.0
  0
LINE
  5
6A5
330
1E
100
AcDbEntity
  8
0
100
AcDbLine
 10
183.1361
 20
276.8259999999999
 30
0.0
 11
183.9832
 21
276.8259999999999
 31
0.0
  0
LINE
  5
6A6
330
1E
100
AcDbEntity
  8
0
100
AcDbLine
 10
184.6891
 20
276.6721999999999
 30
0.0
 11
185.0419999999999
 21
276.3645
 31
0.0
  0
LINE
  5
6A7
330
1E
100
AcDbEntity
  8
0
100
AcDbLine
 10
177.042
 20
276.8259999999999
 30
0.0
 11
177.2772999999999
 21
276.8259999999999
 31
0.0
  0
LINE
  5
6A8
330
1E
100
AcDbEntity
  8
0
100
AcDbLine
 10
177.042
 20
276.3645
 30
0.0
 11
177.9832
 21
276.3645
 31
0.0
  0
LINE
  5
6A9
330
1E
100
AcDbEntity
  8
0
100
AcDbLine
 10
137.0419999999999
 20
258.58033765808
 30
0.0
 11
137.0419999999999
 21
221.8259999999999
 31
0.0
  0
LINE
  5
6AA
330
1E
100
AcDbEntity
  8
0
100
AcDbLine
 10
128.8214
 20
221.8259999999999
 30
0.0
 11
132.1155
 21
221.8259999999999
 31
0.0
  0
LINE
  5
6AB
330
1E
100
AcDbEntity
  8
0
100
AcDbLine
 10
127.5861
 20
221.8259999999999
 30
0.0
 11
128.8214
 21
221.8259999999999
 31
0.0
  0
LINE
  5
6AC
330
1E
100
AcDbEntity
  8
0
100
AcDbLine
 10
130.7773
 20
221.36446
 30
0.0
 11
131.042
 21
221.36446
 31
0.0
  0
LINE
  5
6AD
330
1E
100
AcDbEntity
  8
0
100
AcDbLine
 10
127.2772999999999
 20
221.36446
 30
0.0
 11
130.7773
 21
221.36446
 31
0.0
  0
LINE
  5
6AE
330
1E
100
AcDbEntity
  8
0
100
AcDbLine
 10
127.2772999999999
 20
213.8259999999999
 30
0.0
 11
130.7773
 21
213.8259999999999
 31
0.0
  0
LINE
  5
6AF
330
1E
100
AcDbEntity
  8
0
100
AcDbLine
 10
126.042
 20
213.8259999999999
 30
0.0
 11
127.2772999999999
 21
213.8259999999999
 31
0.0
  0
LINE
  5
6B0
330
1E
100
AcDbEntity
  8
0
100
AcDbLine
 10
126.042
 20
213.8259999999999
 30
0.0
 11
126.042
 21
221.36446
 31
0.0
  0
LINE
  5
6B6
330
1E
100
AcDbEntity
  8
0
100
AcDbLine
 10
176.3360999999999
 20
279.8259999999999
 30
0.0
 11
175.042
 21
279.8259999999999
 31
0.0
  0
LINE
  5
6DF
330
1E
100
AcDbEntity
  8
0
100
AcDbLine
 10
132.3655
 20
221.8259999999999
 30
0.0
 11
148.0492683869703
 21
221.8259999999999
 31
0.0
  0
ENDSEC
  0
SECTION
  2
OBJECTS
  0
DICTIONARY
  5
C
330
0
100
AcDbDictionary
  3
ACAD_GROUP
350
D
  3
ACAD_LAYOUT
350
19
  3
ACAD_MLINESTYLE
350
16
  3
ACAD_PLOTSETTINGS
350
18
  3
ACAD_PLOTSTYLENAME
350
E
  3
ACDBHEADERROUNDTRIPXREC
350
709
  3
ACDBVARIABLEDICTIONARY
350
6B8
  0
DICTIONARY
  5
72B
330
1E
100
AcDbDictionary
280
     1
  3
ACAD_LAYOUTSELFREF
360
72C
  0
DICTIONARY
  5
729
330
1A
100
AcDbDictionary
280
     1
  3
ACAD_LAYOUTSELFREF
360
72A
  0
DICTIONARY
  5
D
102
{ACAD_REACTORS
330
C
102
}
330
C
100
AcDbDictionary
  0
DICTIONARY
  5
19
102
{ACAD_REACTORS
330
C
102
}
330
C
100
AcDbDictionary
  0
DICTIONARY
  5
16
102
{ACAD_REACTORS
330
C
102
}
330
C
100
AcDbDictionary
  3
STANDARD
350
17
  0
DICTIONARY
  5
18
102
{ACAD_REACTORS
330
C
102
}
330
C
100
AcDbDictionary
  0
ACDBDICTIONARYWDFLT
  5
E
102
{ACAD_REACTORS
330
C
102
}
330
C
100
AcDbDictionary
281
     1
  3
Normal
350
F
100
AcDbDictionaryWithDefault
340
F
  0
DICTIONARY
  5
709
102
{ACAD_REACTORS
330
C
102
}
330
C
100
AcDbDictionary
  3
CEPSNTYPE
350
713
  3
FINGERPRINTGUID
350
714
  3
HYPERLINKBASE
350
70C
  3
INSUNITS
350
712
  3
LAYOUTDICT
350
70E
  3
LWETCUNION
350
711
  3
PLOTSETDICT
350
70F
  3
PLOTSTYLNAMDICT
350
710
  3
PSVPSCALE
350
716
  3
PUCSBASE
350
719
  3
PUCSORGBACK
350
71F
  3
PUCSORGBOTTOM
350
71B
  3
PUCSORGFRONT
350
71E
  3
PUCSORGLEFT
350
71C
  3
PUCSORGRIGHT
350
71D
  3
PUCSORGTOP
350
71A
  3
PUCSORTHOREF
350
717
  3
PUCSORTHOVIEW
350
718
  3
STYLESHEET
350
70D
  3
TSTACKALIGN
350
70A
  3
TSTACKSIZE
350
70B
  3
UCSBASE
350
722
  3
UCSORGBACK
350
728
  3
UCSORGBOTTOM
350
724
  3
UCSORGFRONT
350
727
  3
UCSORGLEFT
350
725
  3
UCSORGRIGHT
350
726
  3
UCSORGTOP
350
723
  3
UCSORTHOREF
350
720
  3
UCSORTHOVIEW
350
721
  3
VERSIONGUID
350
715
  0
DICTIONARY
  5
6B8
102
{ACAD_REACTORS
330
C
102
}
330
C
100
AcDbDictionary
  3
DIMASSOC
350
6B9
  0
XRECORD
  5
72C
102
{ACAD_REACTORS
330
72B
102
}
330
72B
100
AcDbXrecord
340
1E
  0
XRECORD
  5
72A
102
{ACAD_REACTORS
330
729
102
}
330
729
100
AcDbXrecord
340
1A
  0
MLINESTYLE
  5
17
102
{ACAD_REACTORS
330
16
102
}
330
16
100
AcDbMlineStyle
  2
STANDARD
 70
     0
  3

 62
   256
 51
90.0
 52
90.0
 71
     2
 49
0.5
 62
   256
  6
BYLAYER
 49
-0.5
 62
   256
  6
BYLAYER
  0
ACDBPLACEHOLDER
  5
F
102
{ACAD_REACTORS
330
E
102
}
330
E
100
AcDbPlaceHolder
280
     0
  0
XRECORD
  5
713
102
{ACAD_REACTORS
330
709
102
}
330
709
100
AcDbXrecord
 90
        0
  0
XRECORD
  5
714
102
{ACAD_REACTORS
330
709
102
}
330
709
100
AcDbXrecord
  1
{5A7CCC25-1919-4982-B84D-901720CFAF4E}
  0
XRECORD
  5
70C
102
{ACAD_REACTORS
330
709
102
}
330
709
100
AcDbXrecord
  1

  0
XRECORD
  5
712
102
{ACAD_REACTORS
330
709
102
}
330
709
100
AcDbXrecord
 90
        0
  0
XRECORD
  5
70E
102
{ACAD_REACTORS
330
709
102
}
330
709
100
AcDbXrecord
340
19
  0
XRECORD
  5
711
102
{ACAD_REACTORS
330
709
102
}
330
709
100
AcDbXrecord
 90
    10781
  0
XRECORD
  5
70F
102
{ACAD_REACTORS
330
709
102
}
330
709
100
AcDbXrecord
340
18
  0
XRECORD
  5
710
102
{ACAD_REACTORS
330
709
102
}
330
709
100
AcDbXrecord
340
E
  0
XRECORD
  5
716
102
{ACAD_REACTORS
330
709
102
}
330
709
100
AcDbXrecord
 40
0.0
  0
XRECORD
  5
719
102
{ACAD_REACTORS
330
709
102
}
330
709
100
AcDbXrecord
340
0
  0
XRECORD
  5
71F
102
{ACAD_REACTORS
330
709
102
}
330
709
100
AcDbXrecord
 10
0.0
 20
0.0
 30
0.0
  0
XRECORD
  5
71B
102
{ACAD_REACTORS
330
709
102
}
330
709
100
AcDbXrecord
 10
0.0
 20
0.0
 30
0.0
  0
XRECORD
  5
71E
102
{ACAD_REACTORS
330
709
102
}
330
709
100
AcDbXrecord
 10
0.0
 20
0.0
 30
0.0
  0
XRECORD
  5
71C
102
{ACAD_REACTORS
330
709
102
}
330
709
100
AcDbXrecord
 10
0.0
 20
0.0
 30
0.0
  0
XRECORD
  5
71D
102
{ACAD_REACTORS
330
709
102
}
330
709
100
AcDbXrecord
 10
0.0
 20
0.0
 30
0.0
  0
XRECORD
  5
71A
102
{ACAD_REACTORS
330
709
102
}
330
709
100
AcDbXrecord
 10
0.0
 20
0.0
 30
0.0
  0
XRECORD
  5
717
102
{ACAD_REACTORS
330
709
102
}
330
709
100
AcDbXrecord
340
0
  0
XRECORD
  5
718
102
{ACAD_REACTORS
330
709
102
}
330
709
100
AcDbXrecord
 70
     0
  0
XRECORD
  5
70D
102
{ACAD_REACTORS
330
709
102
}
330
709
100
AcDbXrecord
  1

  0
XRECORD
  5
70A
102
{ACAD_REACTORS
330
709
102
}
330
709
100
AcDbXrecord
 90
        1
  0
XRECORD
  5
70B
102
{ACAD_REACTORS
330
709
102
}
330
709
100
AcDbXrecord
 90
       70
  0
XRECORD
  5
722
102
{ACAD_REACTORS
330
709
102
}
330
709
100
AcDbXrecord
340
0
  0
XRECORD
  5
728
102
{ACAD_REACTORS
330
709
102
}
330
709
100
AcDbXrecord
 10
0.0
 20
0.0
 30
0.0
  0
XRECORD
  5
724
102
{ACAD_REACTORS
330
709
102
}
330
709
100
AcDbXrecord
 10
0.0
 20
0.0
 30
0.0
  0
XRECORD
  5
727
102
{ACAD_REACTORS
330
709
102
}
330
709
100
AcDbXrecord
 10
0.0
 20
0.0
 30
0.0
  0
XRECORD
  5
725
102
{ACAD_REACTORS
330
709
102
}
330
709
100
AcDbXrecord
 10
0.0
 20
0.0
 30
0.0
  0
XRECORD
  5
726
102
{ACAD_REACTORS
330
709
102
}
330
709
100
AcDbXrecord
 10
0.0
 20
0.0
 30
0.0
  0
XRECORD
  5
723
102
{ACAD_REACTORS
330
709
102
}
330
709
100
AcDbXrecord
 10
0.0
 20
0.0
 30
0.0
  0
XRECORD
  5
720
102
{ACAD_REACTORS
330
709
102
}
330
709
100
AcDbXrecord
340
0
  0
XRECORD
  5
721
102
{ACAD_REACTORS
330
709
102
}
330
709
100
AcDbXrecord
 70
     1
  0
XRECORD
  5
715
102
{ACAD_REACTORS
330
709
102
}
330
709
100
AcDbXrecord
  1
{B4704665-CEB2-4D44-8EA0-3538C52B3B4D}
  0
DICTIONARYVAR
  5
6B9
102
{ACAD_REACTORS
330
6B8
102
}
330
6B8
100
DictionaryVariables
280
     0
  1
1
  0
ENDSEC
  0
EOF
