  0
SECTION
  2
HEADER
  9
$ACADVER
  1
AC1014
  9
$ACADMAINTVER
 70
     9
  9
$DWGCODEPAGE
  3
ANSI_1252
  9
$INSBASE
 10
0.0
 20
0.0
 30
0.0
  9
$EXTMIN
 10
0.0
 20
-0.0560000000000047
 30
0.0
  9
$EXTMAX
 10
40.0
 20
274.0559999999999
 30
0.0
  9
$LIMMIN
 10
0.0
 20
0.0
  9
$LIMMAX
 10
12.0
 20
9.0
  9
$ORTHOMODE
 70
     0
  9
$REGENMODE
 70
     1
  9
$FILLMODE
 70
     1
  9
$QTEXTMODE
 70
     0
  9
$MIRRTEXT
 70
     1
  9
$DRAGMODE
 70
     2
  9
$LTSCALE
 40
1.0
  9
$OSMODE
 70
    37
  9
$ATTMODE
 70
     1
  9
$TEXTSIZE
 40
0.2
  9
$TRACEWID
 40
0.05
  9
$TEXTSTYLE
  7
STANDARD
  9
$CLAYER
  8
0
  9
$CELTYPE
  6
CONTINUOUS
  9
$CECOLOR
 62
   256
  9
$CELTSCALE
 40
1.0
  9
$DELOBJ
 70
     1
  9
$DISPSILH
 70
     0
  9
$DIMSCALE
 40
1.0
  9
$DIMASZ
 40
0.18
  9
$DIMEXO
 40
0.0625
  9
$DIMDLI
 40
0.38
  9
$DIMRND
 40
0.0
  9
$DIMDLE
 40
0.0
  9
$DIMEXE
 40
0.18
  9
$DIMTP
 40
0.0
  9
$DIMTM
 40
0.0
  9
$DIMTXT
 40
0.18
  9
$DIMCEN
 40
0.09
  9
$DIMTSZ
 40
0.0
  9
$DIMTOL
 70
     0
  9
$DIMLIM
 70
     0
  9
$DIMTIH
 70
     1
  9
$DIMTOH
 70
     1
  9
$DIMSE1
 70
     0
  9
$DIMSE2
 70
     0
  9
$DIMTAD
 70
     0
  9
$DIMZIN
 70
     0
  9
$DIMBLK
  1

  9
$DIMASO
 70
     1
  9
$DIMSHO
 70
     1
  9
$DIMPOST
  1

  9
$DIMAPOST
  1

  9
$DIMALT
 70
     0
  9
$DIMALTD
 70
     2
  9
$DIMALTF
 40
25.4
  9
$DIMLFAC
 40
1.0
  9
$DIMTOFL
 70
     0
  9
$DIMTVP
 40
0.0
  9
$DIMTIX
 70
     0
  9
$DIMSOXD
 70
     0
  9
$DIMSAH
 70
     0
  9
$DIMBLK1
  1

  9
$DIMBLK2
  1

  9
$DIMSTYLE
  2
STANDARD
  9
$DIMCLRD
 70
     0
  9
$DIMCLRE
 70
     0
  9
$DIMCLRT
 70
     0
  9
$DIMTFAC
 40
1.0
  9
$DIMGAP
 40
0.09
  9
$DIMJUST
 70
     0
  9
$DIMSD1
 70
     0
  9
$DIMSD2
 70
     0
  9
$DIMTOLJ
 70
     1
  9
$DIMTZIN
 70
     0
  9
$DIMALTZ
 70
     0
  9
$DIMALTTZ
 70
     0
  9
$DIMFIT
 70
     3
  9
$DIMUPT
 70
     0
  9
$DIMUNIT
 70
     2
  9
$DIMDEC
 70
     4
  9
$DIMTDEC
 70
     4
  9
$DIMALTU
 70
     2
  9
$DIMALTTD
 70
     2
  9
$DIMTXSTY
  7
STANDARD
  9
$DIMAUNIT
 70
     0
  9
$LUNITS
 70
     2
  9
$LUPREC
 70
     4
  9
$SKETCHINC
 40
0.1
  9
$FILLETRAD
 40
0.0
  9
$AUNITS
 70
     0
  9
$AUPREC
 70
     0
  9
$MENU
  1
.
  9
$ELEVATION
 40
0.0
  9
$PELEVATION
 40
0.0
  9
$THICKNESS
 40
0.0
  9
$LIMCHECK
 70
     0
  9
$BLIPMODE
 70
     0
  9
$CHAMFERA
 40
0.0
  9
$CHAMFERB
 40
0.0
  9
$CHAMFERC
 40
0.0
  9
$CHAMFERD
 40
0.0
  9
$SKPOLY
 70
     0
  9
$TDCREATE
 40
2455239.894854780
  9
$TDUPDATE
 40
2455239.896780775
  9
$TDINDWG
 40
0.0019261806
  9
$TDUSRTIMER
 40
0.0019261806
  9
$USRTIMER
 70
     1
  9
$ANGBASE
 50
0.0
  9
$ANGDIR
 70
     0
  9
$PDMODE
 70
     0
  9
$PDSIZE
 40
0.0
  9
$PLINEWID
 40
0.0
  9
$COORDS
 70
     1
  9
$SPLFRAME
 70
     0
  9
$SPLINETYPE
 70
     6
  9
$SPLINESEGS
 70
     8
  9
$ATTDIA
 70
     0
  9
$ATTREQ
 70
     1
  9
$HANDLING
 70
 22529
  9
$HANDSEED
  5
295
  9
$SURFTAB1
 70
     6
  9
$SURFTAB2
 70
     6
  9
$SURFTYPE
 70
     6
  9
$SURFU
 70
     6
  9
$SURFV
 70
     6
  9
$UCSNAME
  2

  9
$UCSORG
 10
0.0
 20
0.0
 30
0.0
  9
$UCSXDIR
 10
1.0
 20
0.0
 30
0.0
  9
$UCSYDIR
 10
0.0
 20
1.0
 30
0.0
  9
$PUCSNAME
  2

  9
$PUCSORG
 10
0.0
 20
0.0
 30
0.0
  9
$PUCSXDIR
 10
1.0
 20
0.0
 30
0.0
  9
$PUCSYDIR
 10
0.0
 20
1.0
 30
0.0
  9
$USERI1
 70
     0
  9
$USERI2
 70
     0
  9
$USERI3
 70
     0
  9
$USERI4
 70
     0
  9
$USERI5
 70
     0
  9
$USERR1
 40
0.0
  9
$USERR2
 40
0.0
  9
$USERR3
 40
0.0
  9
$USERR4
 40
0.0
  9
$USERR5
 40
0.0
  9
$WORLDVIEW
 70
     1
  9
$SHADEDGE
 70
     3
  9
$SHADEDIF
 70
    70
  9
$TILEMODE
 70
     1
  9
$MAXACTVP
 70
    64
  9
$PINSBASE
 10
0.0
 20
0.0
 30
0.0
  9
$PLIMCHECK
 70
     0
  9
$PEXTMIN
 10
1.000000000000000E+20
 20
1.000000000000000E+20
 30
1.000000000000000E+20
  9
$PEXTMAX
 10
-1.000000000000000E+20
 20
-1.000000000000000E+20
 30
-1.000000000000000E+20
  9
$PLIMMIN
 10
0.0
 20
0.0
  9
$PLIMMAX
 10
12.0
 20
9.0
  9
$UNITMODE
 70
     0
  9
$VISRETAIN
 70
     1
  9
$PLINEGEN
 70
     0
  9
$PSLTSCALE
 70
     1
  9
$TREEDEPTH
 70
  3020
  9
$PICKSTYLE
 70
     1
  9
$CMLSTYLE
  2
STANDARD
  9
$CMLJUST
 70
     0
  9
$CMLSCALE
 40
1.0
  9
$PROXYGRAPHICS
 70
     1
  9
$MEASUREMENT
 70
     0
  0
ENDSEC
  0
SECTION
  2
CLASSES
  0
CLASS
  1
ACDBDICTIONARYWDFLT
  2
AcDbDictionaryWithDefault
  3
AutoCAD 2000
 90
        0
280
     0
281
     0
  0
CLASS
  1
ACDBPLACEHOLDER
  2
AcDbPlaceHolder
  3
AutoCAD 2000
 90
        0
280
     0
281
     0
  0
CLASS
  1
LAYOUT
  2
AcDbLayout
  3
AutoCAD 2000
 90
        0
280
     0
281
     0
  0
CLASS
  1
DICTIONARYVAR
  2
AcDbDictionaryVar
  3
AutoCAD 2000
 90
        0
280
     0
281
     0
  0
CLASS
  1
LONG_TRANSACTION
  2
AcDbLongTransaction
  3
AutoCAD 2000
 90
        0
280
     0
281
     0
  0
CLASS
  1
LWPOLYLINE
  2
AcDbPolyline
  3
AutoCAD 2000
 90
        0
280
     0
281
     1
  0
CLASS
  1
HATCH
  2
AcDbHatch
  3
AutoCAD 2000
 90
        0
280
     0
281
     1
  0
CLASS
  1
XRECORD
  2
AcDbXrecord
  3
AutoCAD 2000
 90
        0
280
     0
281
     0
  0
ENDSEC
  0
SECTION
  2
TABLES
  0
TABLE
  2
VPORT
  5
8
330
0
100
AcDbSymbolTable
 70
     3
  0
VPORT
  5
270
330
8
100
AcDbSymbolTableRecord
100
AcDbViewportTableRecord
  2
*ACTIVE
 70
     0
 10
0.0
 20
0.0
 11
1.0
 21
1.0
 12
20.0
 22
136.9999999999999
 13
0.0
 23
0.0
 14
1.0
 24
1.0
 15
0.0
 25
0.0
 16
0.0
 26
0.0
 36
1.0
 17
0.0
 27
0.0
 37
0.0
 40
275.9114223194748
 41
2.041621029572836
 42
50.0
 43
0.0
 44
0.0
 50
0.0
 51
0.0
 71
     0
 72
   100
 73
     1
 74
     3
 75
     0
 76
     0
 77
     0
 78
     0
  0
ENDTAB
  0
TABLE
  2
LTYPE
  5
5
330
0
100
AcDbSymbolTable
 70
     1
  0
LTYPE
  5
13
330
5
100
AcDbSymbolTableRecord
100
AcDbLinetypeTableRecord
  2
BYBLOCK
 70
     0
  3

 72
    65
 73
     0
 40
0.0
  0
LTYPE
  5
14
330
5
100
AcDbSymbolTableRecord
100
AcDbLinetypeTableRecord
  2
BYLAYER
 70
     0
  3

 72
    65
 73
     0
 40
0.0
  0
LTYPE
  5
15
330
5
100
AcDbSymbolTableRecord
100
AcDbLinetypeTableRecord
  2
CONTINUOUS
 70
     0
  3
Solid line
 72
    65
 73
     0
 40
0.0
  0
ENDTAB
  0
TABLE
  2
LAYER
  5
2
330
0
100
AcDbSymbolTable
 70
     1
  0
LAYER
  5
10
330
2
100
AcDbSymbolTableRecord
100
AcDbLayerTableRecord
  2
0
 70
     0
 62
     7
  6
CONTINUOUS
  0
ENDTAB
  0
TABLE
  2
STYLE
  5
3
330
0
100
AcDbSymbolTable
 70
     1
  0
STYLE
  5
11
330
3
100
AcDbSymbolTableRecord
100
AcDbTextStyleTableRecord
  2
STANDARD
 70
     0
 40
0.0
 41
1.0
 50
0.0
 71
     0
 42
0.2
  3
txt
  4

  0
ENDTAB
  0
TABLE
  2
VIEW
  5
6
330
0
100
AcDbSymbolTable
 70
     0
  0
ENDTAB
  0
TABLE
  2
UCS
  5
7
330
0
100
AcDbSymbolTable
 70
     0
  0
ENDTAB
  0
TABLE
  2
APPID
  5
9
330
0
100
AcDbSymbolTable
 70
     1
  0
APPID
  5
12
330
9
100
AcDbSymbolTableRecord
100
AcDbRegAppTableRecord
  2
ACAD
 70
     0
  0
ENDTAB
  0
TABLE
  2
DIMSTYLE
  5
A
330
0
100
AcDbSymbolTable
 70
     1
  0
DIMSTYLE
105
267
330
A
100
AcDbSymbolTableRecord
100
AcDbDimStyleTableRecord
  2
STANDARD
 70
     0
  3

  4

  5

  6

  7

 40
1.0
 41
0.18
 42
0.0625
 43
0.38
 44
0.18
 45
0.0
 46
0.0
 47
0.0
 48
0.0
140
0.18
141
0.09
142
0.0
143
25.4
144
1.0
145
0.0
146
1.0
147
0.09
 71
     0
 72
     0
 73
     1
 74
     1
 75
     0
 76
     0
 77
     0
 78
     0
170
     0
171
     2
172
     0
173
     0
174
     0
175
     0
176
     0
177
     0
178
     0
270
     2
271
     4
272
     4
273
     2
274
     2
340
11
275
     0
280
     0
281
     0
282
     0
283
     1
284
     0
285
     0
286
     0
287
     3
288
     0
  0
ENDTAB
  0
TABLE
  2
BLOCK_RECORD
  5
1
330
0
100
AcDbSymbolTable
 70
     0
  0
BLOCK_RECORD
  5
1E
102
{ACAD_XDICTIONARY
360
293
102
}
330
1
100
AcDbSymbolTableRecord
100
AcDbBlockTableRecord
  2
*MODEL_SPACE
  0
BLOCK_RECORD
  5
1A
102
{ACAD_XDICTIONARY
360
291
102
}
330
1
100
AcDbSymbolTableRecord
100
AcDbBlockTableRecord
  2
*PAPER_SPACE
  0
ENDTAB
  0
ENDSEC
  0
SECTION
  2
BLOCKS
  0
BLOCK
  5
1F
330
1E
100
AcDbEntity
  8
0
100
AcDbBlockBegin
  2
*MODEL_SPACE
 70
     0
 10
0.0
 20
0.0
 30
0.0
  3
*MODEL_SPACE
  1

  0
ENDBLK
  5
20
330
1E
100
AcDbEntity
  8
0
100
AcDbBlockEnd
  0
BLOCK
  5
1B
330
1A
100
AcDbEntity
 67
     1
  8
0
100
AcDbBlockBegin
  2
*PAPER_SPACE
 70
     0
 10
0.0
 20
0.0
 30
0.0
  3
*PAPER_SPACE
  1

  0
ENDBLK
  5
1C
330
1A
100
AcDbEntity
 67
     1
  8
0
100
AcDbBlockEnd
  0
ENDSEC
  0
SECTION
  2
ENTITIES
  0
LINE
  5
23
330
1E
100
AcDbEntity
  8
0
100
AcDbLine
 10
8.496
 20
67.85779999999999
 30
0.0
 11
10.82719999999999
 21
68.0837
 31
0.0
  0
LINE
  5
24
330
1E
100
AcDbEntity
  8
0
100
AcDbLine
 10
7.0879
 20
68.2157
 30
0.0
 11
8.496
 21
67.85779999999999
 31
0.0
  0
LINE
  5
26
330
1E
100
AcDbEntity
  8
0
100
AcDbLine
 10
6.0681
 20
68.6758
 30
0.0
 11
7.0879
 21
68.2157
 31
0.0
  0
LINE
  5
28
330
1E
100
AcDbEntity
  8
0
100
AcDbLine
 10
5.440199999999999
 20
69.0746
 30
0.0
 11
6.0681
 21
68.6758
 31
0.0
  0
LINE
  5
29
330
1E
100
AcDbEntity
  8
0
100
AcDbLine
 10
5.147599999999999
 20
69.3422
 30
0.0
 11
5.440199999999999
 21
69.0746
 31
0.0
  0
LINE
  5
2B
330
1E
100
AcDbEntity
  8
0
100
AcDbLine
 10
5.0
 20
69.5891
 30
0.0
 11
5.147599999999999
 21
69.3422
 31
0.0
  0
LINE
  5
2C
330
1E
100
AcDbEntity
  8
0
100
AcDbLine
 10
5.0
 20
69.5891
 30
0.0
 11
5.0
 21
75.8523
 31
0.0
  0
LINE
  5
2D
330
1E
100
AcDbEntity
  8
0
100
AcDbLine
 10
10.8197960054523
 20
71.1898497668688
 30
0.0
 11
11.82239999999999
 21
71.4731
 31
0.0
  0
LINE
  5
2E
330
1E
100
AcDbEntity
  8
0
100
AcDbLine
 10
5.0
 20
75.8523
 30
0.0
 11
5.0
 21
69.5891
 31
0.0
  0
LINE
  5
2F
330
1E
100
AcDbEntity
  8
0
100
AcDbLine
 10
5.0
 20
75.8523
 30
0.0
 11
5.0
 21
115.8239999999999
 31
0.0
  0
LINE
  5
30
330
1E
100
AcDbEntity
  8
0
100
AcDbLine
 10
5.0
 20
75.8523
 30
0.0
 11
5.0
 21
125.858
 31
0.0
  0
LINE
  5
31
330
1E
100
AcDbEntity
  8
0
100
AcDbLine
 10
11.82239999999999
 20
71.4731
 30
0.0
 11
12.0053213353475
 21
71.50227750329121
 31
0.0
  0
LINE
  5
32
330
1E
100
AcDbEntity
  8
0
100
AcDbLine
 10
12.05969999999999
 20
32.953
 30
0.0
 11
12.07559999999999
 21
-0.0480000000000049
 31
0.0
  0
LINE
  5
33
330
1E
100
AcDbEntity
  8
0
100
AcDbLine
 10
12.05969999999999
 20
32.953
 30
0.0
 11
12.07559999999999
 21
-0.0480000000000051
 31
0.0
  0
LINE
  5
34
330
1E
100
AcDbEntity
  8
0
100
AcDbLine
 10
12.07559999999999
 20
-0.0480000000000051
 30
0.0
 11
12.6498
 21
-0.0530000000000051
 31
0.0
  0
LINE
  5
35
330
1E
100
AcDbEntity
  8
0
100
AcDbLine
 10
12.19999999999999
 20
85.9046
 30
0.0
 11
13.6
 21
85.4129
 31
0.0
  0
LINE
  5
36
330
1E
100
AcDbEntity
  8
0
100
AcDbLine
 10
12.0316
 20
55.9502
 30
0.0
 11
12.05969999999999
 21
32.953
 31
0.0
  0
LINE
  5
37
330
1E
100
AcDbEntity
  8
0
100
AcDbLine
 10
11.98969999999999
 20
80.74720000000001
 30
0.0
 11
12.0316
 21
55.9502
 31
0.0
  0
LINE
  5
38
330
1E
100
AcDbEntity
  8
0
100
AcDbLine
 10
11.3
 20
86.47399999999999
 30
0.0
 11
12.19999999999999
 21
85.9046
 31
0.0
  0
LINE
  5
39
330
1E
100
AcDbEntity
  8
0
100
AcDbLine
 10
8.5205
 20
114.274
 30
0.0
 11
10.7166
 21
114.483
 31
0.0
  0
LINE
  5
3C
330
1E
100
AcDbEntity
  8
0
100
AcDbLine
 10
6.5715
 20
114.745
 30
0.0
 11
8.5205
 21
114.274
 31
0.0
  0
LINE
  5
3D
330
1E
100
AcDbEntity
  8
0
100
AcDbLine
 10
9.4097
 20
114.849
 30
0.0
 11
10.7166
 21
114.483
 31
0.0
  0
LINE
  5
3E
330
1E
100
AcDbEntity
  8
0
100
AcDbLine
 10
10.7166
 20
114.483
 30
0.0
 11
10.82719999999999
 21
68.0837
 31
0.0
  0
LINE
  5
3F
330
1E
100
AcDbEntity
  8
0
100
AcDbLine
 10
5.689
 20
115.107
 30
0.0
 11
6.5715
 21
114.745
 31
0.0
  0
LINE
  5
40
330
1E
100
AcDbEntity
  8
0
100
AcDbLine
 10
5.0
 20
115.8239999999999
 30
0.0
 11
5.0
 21
75.8523
 31
0.0
  0
LINE
  5
41
330
1E
100
AcDbEntity
  8
0
100
AcDbLine
 10
5.0
 20
115.8239999999999
 30
0.0
 11
5.1161
 21
115.585
 31
0.0
  0
LINE
  5
42
330
1E
100
AcDbEntity
  8
0
100
AcDbLine
 10
5.0
 20
115.8239999999999
 30
0.0
 11
5.0
 21
125.858
 31
0.0
  0
LINE
  5
45
330
1E
100
AcDbEntity
  8
0
100
AcDbLine
 10
5.1161
 20
115.585
 30
0.0
 11
5.689
 21
115.107
 31
0.0
  0
LINE
  5
46
330
1E
100
AcDbEntity
  8
0
100
AcDbLine
 10
8.125099999999999
 20
115.84
 30
0.0
 11
8.404299999999999
 21
115.3599999999999
 31
0.0
  0
LINE
  5
47
330
1E
100
AcDbEntity
  8
0
100
AcDbLine
 10
8.125099999999999
 20
115.84
 30
0.0
 11
8.125099999999999
 21
116.2909999999999
 31
0.0
  0
LINE
  5
48
330
1E
100
AcDbEntity
  8
0
100
AcDbLine
 10
1.6474
 20
247.0749999999999
 30
0.0
 11
2.6133
 21
244.077
 31
0.0
  0
LINE
  5
49
330
1E
100
AcDbEntity
  8
0
100
AcDbLine
 10
3.5792
 20
244.077
 30
0.0
 11
5.277499999999999
 21
240.1309999999999
 31
0.0
  0
LINE
  5
4A
330
1E
100
AcDbEntity
  8
0
100
AcDbLine
 10
2.6133
 20
244.077
 30
0.0
 11
4.4115
 21
239.8989999999999
 31
0.0
  0
LINE
  5
4B
330
1E
100
AcDbEntity
  8
0
100
AcDbLine
 10
4.4115
 20
239.8989999999999
 30
0.0
 11
7.272
 21
236.3109999999999
 31
0.0
  0
LINE
  5
4C
330
1E
100
AcDbEntity
  8
0
100
AcDbLine
 10
3.0
 20
248.3119999999999
 30
0.0
 11
3.5792
 21
244.077
 31
0.0
  0
LINE
  5
4D
330
1E
100
AcDbEntity
  8
0
100
AcDbLine
 10
3.0
 20
248.3119999999999
 30
0.0
 11
3.5792
 21
252.5469999999999
 31
0.0
  0
LINE
  5
4E
330
1E
100
AcDbEntity
  8
0
100
AcDbLine
 10
2.0
 20
248.562
 30
0.0
 11
2.6133
 21
244.077
 31
0.0
  0
LINE
  5
4F
330
1E
100
AcDbEntity
  8
0
100
AcDbLine
 10
2.0
 20
248.562
 30
0.0
 11
2.6133
 21
253.046
 31
0.0
  0
LINE
  5
50
330
1E
100
AcDbEntity
  8
0
100
AcDbLine
 10
3.5792
 20
252.5469999999999
 30
0.0
 11
5.277499999999999
 21
256.4929999999999
 31
0.0
  0
LINE
  5
51
330
1E
100
AcDbEntity
  8
0
100
AcDbLine
 10
2.6133
 20
253.046
 30
0.0
 11
4.4115
 21
257.2239999999999
 31
0.0
  0
LINE
  5
52
330
1E
100
AcDbEntity
  8
0
100
AcDbLine
 10
0.6815
 20
259.7879999999999
 30
0.0
 11
2.679499999999999
 21
264.4309999999999
 31
0.0
  0
LINE
  5
53
330
1E
100
AcDbEntity
  8
0
100
AcDbLine
 10
4.4115
 20
257.2239999999999
 30
0.0
 11
7.272
 21
260.8119999999999
 31
0.0
  0
LINE
  5
54
330
1E
100
AcDbEntity
  8
0
100
AcDbLine
 10
2.679499999999999
 20
264.4309999999999
 30
0.0
 11
5.8578
 21
268.418
 31
0.0
  0
LINE
  5
55
330
1E
100
AcDbEntity
  8
0
100
AcDbLine
 10
0.0
 20
254.8059999999999
 30
0.0
 11
0.6815
 21
249.824
 31
0.0
  0
LINE
  5
56
330
1E
100
AcDbEntity
  8
0
100
AcDbLine
 10
0.0
 20
254.8059999999999
 30
0.0
 11
0.6815
 21
259.7879999999999
 31
0.0
  0
LINE
  5
57
330
1E
100
AcDbEntity
  8
0
100
AcDbLine
 10
0.6815
 20
249.824
 30
0.0
 11
1.6474
 21
247.0749999999999
 31
0.0
  0
LINE
  5
58
330
1E
100
AcDbEntity
  8
0
100
AcDbLine
 10
8.0
 20
235.773396995708
 30
0.0
 11
8.0
 21
234.486
 31
0.0
  0
LINE
  5
59
330
1E
100
AcDbEntity
  8
0
100
AcDbLine
 10
8.0
 20
234.486
 30
0.0
 11
8.0
 21
208.4359999999999
 31
0.0
  0
LINE
  5
5A
330
1E
100
AcDbEntity
  8
0
100
AcDbLine
 10
8.0
 20
234.486
 30
0.0
 11
8.0
 21
235.773396995708
 31
0.0
  0
LINE
  5
5B
330
1E
100
AcDbEntity
  8
0
100
AcDbLine
 10
8.0
 20
208.4359999999999
 30
0.0
 11
8.0
 21
181.722
 31
0.0
  0
LINE
  5
5C
330
1E
100
AcDbEntity
  8
0
100
AcDbLine
 10
8.0
 20
208.4359999999999
 30
0.0
 11
8.0
 21
234.486
 31
0.0
  0
LINE
  5
5D
330
1E
100
AcDbEntity
  8
0
100
AcDbLine
 10
8.0
 20
181.722
 30
0.0
 11
8.0
 21
152.609
 31
0.0
  0
LINE
  5
5E
330
1E
100
AcDbEntity
  8
0
100
AcDbLine
 10
8.0
 20
181.722
 30
0.0
 11
8.0
 21
208.4359999999999
 31
0.0
  0
LINE
  5
5F
330
1E
100
AcDbEntity
  8
0
100
AcDbLine
 10
5.277499999999999
 20
256.4929999999999
 30
0.0
 11
7.979199999999999
 21
259.8819999999999
 31
0.0
  0
LINE
  5
60
330
1E
100
AcDbEntity
  8
0
100
AcDbLine
 10
7.0
 20
247.953
 30
0.0
 11
7.4588
 21
244.7509999999999
 31
0.0
  0
LINE
  5
61
330
1E
100
AcDbEntity
  8
0
100
AcDbLine
 10
7.0
 20
247.953
 30
0.0
 11
7.0
 21
248.045720726152
 31
0.0
  0
LINE
  5
62
330
1E
100
AcDbEntity
  8
0
100
AcDbLine
 10
7.65
 20
244.694
 30
0.0
 11
8.911799999999999
 21
241.7129999999999
 31
0.0
  0
LINE
  5
63
330
1E
100
AcDbEntity
  8
0
100
AcDbLine
 10
7.4588
 20
244.7509999999999
 30
0.0
 11
8.7588
 21
241.733
 31
0.0
  0
LINE
  5
64
330
1E
100
AcDbEntity
  8
0
100
AcDbLine
 10
7.1912
 20
247.859
 30
0.0
 11
7.65
 21
251.024
 31
0.0
  0
LINE
  5
65
330
1E
100
AcDbEntity
  8
0
100
AcDbLine
 10
7.1912
 20
247.859
 30
0.0
 11
7.65
 21
244.694
 31
0.0
  0
LINE
  5
66
330
1E
100
AcDbEntity
  8
0
100
AcDbLine
 10
7.65
 20
251.024
 30
0.0
 11
8.911799999999999
 21
254.0049999999999
 31
0.0
  0
LINE
  5
67
330
1E
100
AcDbEntity
  8
0
100
AcDbLine
 10
7.0
 20
248.045720726152
 30
0.0
 11
7.0
 21
247.953
 31
0.0
  0
LINE
  5
68
330
1E
100
AcDbEntity
  8
0
100
AcDbLine
 10
7.979199999999999
 20
259.8819999999999
 30
0.0
 11
11.5
 21
262.482
 31
0.0
  0
LINE
  5
69
330
1E
100
AcDbEntity
  8
0
100
AcDbLine
 10
7.272
 20
260.8119999999999
 30
0.0
 11
11.0
 21
263.565
 31
0.0
  0
LINE
  5
6A
330
1E
100
AcDbEntity
  8
0
100
AcDbLine
 10
5.8578
 20
268.418
 30
0.0
 11
10.0
 21
271.477
 31
0.0
  0
LINE
  5
6B
330
1E
100
AcDbEntity
  8
0
100
AcDbLine
 10
5.277499999999999
 20
240.1309999999999
 30
0.0
 11
7.979199999999999
 21
236.742
 31
0.0
  0
LINE
  5
6C
330
1E
100
AcDbEntity
  8
0
100
AcDbLine
 10
8.0
 20
247.812
 30
0.0
 11
8.0
 21
247.687
 31
0.0
  0
LINE
  5
6D
330
1E
100
AcDbEntity
  8
0
100
AcDbLine
 10
8.0
 20
247.687
 30
0.0
 11
8.3
 21
247.014
 31
0.0
  0
LINE
  5
6E
330
1E
100
AcDbEntity
  8
0
100
AcDbLine
 10
8.0
 20
247.687
 30
0.0
 11
8.3
 21
248.361
 31
0.0
  0
LINE
  5
6F
330
1E
100
AcDbEntity
  8
0
100
AcDbLine
 10
8.0
 20
247.687
 30
0.0
 11
8.0
 21
247.812
 31
0.0
  0
LINE
  5
70
330
1E
100
AcDbEntity
  8
0
100
AcDbLine
 10
7.979199999999999
 20
236.742
 30
0.0
 11
11.5
 21
234.1419999999999
 31
0.0
  0
LINE
  5
71
330
1E
100
AcDbEntity
  8
0
100
AcDbLine
 10
7.272
 20
236.3109999999999
 30
0.0
 11
11.0
 21
233.5579999999999
 31
0.0
  0
LINE
  5
72
330
1E
100
AcDbEntity
  8
0
100
AcDbLine
 10
8.3
 20
248.361
 30
0.0
 11
9.0
 21
248.6499999999999
 31
0.0
  0
LINE
  5
73
330
1E
100
AcDbEntity
  8
0
100
AcDbLine
 10
8.3
 20
247.014
 30
0.0
 11
9.0
 21
246.7249999999999
 31
0.0
  0
LINE
  5
74
330
1E
100
AcDbEntity
  8
0
100
AcDbLine
 10
8.0
 20
152.609
 30
0.0
 11
8.0
 21
119.022
 31
0.0
  0
LINE
  5
75
330
1E
100
AcDbEntity
  8
0
100
AcDbLine
 10
8.0
 20
152.609
 30
0.0
 11
8.0
 21
181.722
 31
0.0
  0
LINE
  5
76
330
1E
100
AcDbEntity
  8
0
100
AcDbLine
 10
8.0
 20
119.022
 30
0.0
 11
9.0
 21
116.774
 31
0.0
  0
LINE
  5
77
330
1E
100
AcDbEntity
  8
0
100
AcDbLine
 10
8.0
 20
119.022
 30
0.0
 11
8.0
 21
152.609
 31
0.0
  0
LINE
  5
78
330
1E
100
AcDbEntity
  8
0
100
AcDbLine
 10
5.0
 20
125.858
 30
0.0
 11
5.0
 21
75.8523
 31
0.0
  0
LINE
  5
79
330
1E
100
AcDbEntity
  8
0
100
AcDbLine
 10
5.0
 20
125.858
 30
0.0
 11
8.0
 21
125.858
 31
0.0
  0
LINE
  5
7A
330
1E
100
AcDbEntity
  8
0
100
AcDbLine
 10
5.0
 20
125.858
 30
0.0
 11
5.0
 21
115.8239999999999
 31
0.0
  0
LINE
  5
7B
330
1E
100
AcDbEntity
  8
0
100
AcDbLine
 10
8.125099999999999
 20
116.2909999999999
 30
0.0
 11
8.125099999999999
 21
115.84
 31
0.0
  0
LINE
  5
7C
330
1E
100
AcDbEntity
  8
0
100
AcDbLine
 10
8.125099999999999
 20
116.2909999999999
 30
0.0
 11
8.128326392058649
 21
115.834453194169
 31
0.0
  0
LINE
  5
7D
330
1E
100
AcDbEntity
  8
0
100
AcDbLine
 10
8.125099999999999
 20
116.2909999999999
 30
0.0
 11
8.131234784851629
 21
115.8294530919459
 31
0.0
  0
LINE
  5
7E
330
1E
100
AcDbEntity
  8
0
100
AcDbLine
 10
8.125099999999999
 20
116.2909999999999
 30
0.0
 11
8.128326392058649
 21
115.834453194169
 31
0.0
  0
LINE
  5
7F
330
1E
100
AcDbEntity
  8
0
100
AcDbLine
 10
8.125099999999999
 20
116.2909999999999
 30
0.0
 11
8.348499999999999
 21
116.921
 31
0.0
  0
LINE
  5
80
330
1E
100
AcDbEntity
  8
0
100
AcDbLine
 10
8.125099999999999
 20
116.2909999999999
 30
0.0
 11
8.131234784851629
 21
115.8294530919459
 31
0.0
  0
LINE
  5
81
330
1E
100
AcDbEntity
  8
0
100
AcDbLine
 10
10.7268
 20
115.297
 30
0.0
 11
12.3
 21
114.85
 31
0.0
  0
LINE
  5
82
330
1E
100
AcDbEntity
  8
0
100
AcDbLine
 10
9.0
 20
246.7249999999999
 30
0.0
 11
9.699999999999999
 21
247.014
 31
0.0
  0
LINE
  5
83
330
1E
100
AcDbEntity
  8
0
100
AcDbLine
 10
9.0
 20
248.6499999999999
 30
0.0
 11
9.699999999999999
 21
248.361
 31
0.0
  0
LINE
  5
84
330
1E
100
AcDbEntity
  8
0
100
AcDbLine
 10
8.911799999999999
 20
241.7129999999999
 30
0.0
 11
10.9382
 21
239.137
 31
0.0
  0
LINE
  5
85
330
1E
100
AcDbEntity
  8
0
100
AcDbLine
 10
8.7588
 20
241.733
 30
0.0
 11
10.82349999999999
 21
239.121
 31
0.0
  0
LINE
  5
86
330
1E
100
AcDbEntity
  8
0
100
AcDbLine
 10
8.911799999999999
 20
254.0049999999999
 30
0.0
 11
10.9382
 21
256.5809999999999
 31
0.0
  0
LINE
  5
87
330
1E
100
AcDbEntity
  8
0
100
AcDbLine
 10
9.5175
 20
242.64
 30
0.0
 11
9.607699999999999
 21
241.913
 31
0.0
  0
LINE
  5
88
330
1E
100
AcDbEntity
  8
0
100
AcDbLine
 10
9.5175
 20
242.64
 30
0.0
 11
9.973699999999999
 21
243.2269999999999
 31
0.0
  0
LINE
  5
89
330
1E
100
AcDbEntity
  8
0
100
AcDbLine
 10
9.607699999999999
 20
241.913
 30
0.0
 11
10.21749999999999
 21
241.473
 31
0.0
  0
LINE
  5
8A
330
1E
100
AcDbEntity
  8
0
100
AcDbLine
 10
9.973699999999999
 20
243.2269999999999
 30
0.0
 11
10.7299
 21
243.314
 31
0.0
  0
LINE
  5
8B
330
1E
100
AcDbEntity
  8
0
100
AcDbLine
 10
10.0
 20
247.687
 30
0.0
 11
10.0
 21
247.812
 31
0.0
  0
LINE
  5
8C
330
1E
100
AcDbEntity
  8
0
100
AcDbLine
 10
10.0
 20
247.812
 30
0.0
 11
10.0
 21
247.687
 31
0.0
  0
LINE
  5
8D
330
1E
100
AcDbEntity
  8
0
100
AcDbLine
 10
9.699999999999999
 20
247.014
 30
0.0
 11
10.0
 21
247.687
 31
0.0
  0
LINE
  5
8F
330
1E
100
AcDbEntity
  8
0
100
AcDbLine
 10
9.5175
 20
252.735
 30
0.0
 11
9.607699999999999
 21
253.462
 31
0.0
  0
LINE
  5
90
330
1E
100
AcDbEntity
  8
0
100
AcDbLine
 10
9.5175
 20
252.735
 30
0.0
 11
9.973699999999999
 21
252.1479999999999
 31
0.0
  0
LINE
  5
91
330
1E
100
AcDbEntity
  8
0
100
AcDbLine
 10
9.973699999999999
 20
252.1479999999999
 30
0.0
 11
10.7299
 21
252.061
 31
0.0
  0
LINE
  5
92
330
1E
100
AcDbEntity
  8
0
100
AcDbLine
 10
9.607699999999999
 20
253.462
 30
0.0
 11
10.21749999999999
 21
253.902
 31
0.0
  0
LINE
  5
94
330
1E
100
AcDbEntity
  8
0
100
AcDbLine
 10
9.699999999999999
 20
248.361
 30
0.0
 11
10.0
 21
247.687
 31
0.0
  0
LINE
  5
95
330
1E
100
AcDbEntity
  8
0
100
AcDbLine
 10
10.7299
 20
252.061
 30
0.0
 11
11.3397
 21
252.4999999999999
 31
0.0
  0
LINE
  5
96
330
1E
100
AcDbEntity
  8
0
100
AcDbLine
 10
10.21749999999999
 20
253.902
 30
0.0
 11
10.97369999999999
 21
253.8149999999999
 31
0.0
  0
LINE
  5
97
330
1E
100
AcDbEntity
  8
0
100
AcDbLine
 10
10.7299
 20
243.314
 30
0.0
 11
11.3397
 21
242.8749999999999
 31
0.0
  0
LINE
  5
98
330
1E
100
AcDbEntity
  8
0
100
AcDbLine
 10
10.21749999999999
 20
241.473
 30
0.0
 11
10.97369999999999
 21
241.5599999999999
 31
0.0
  0
LINE
  5
99
330
1E
100
AcDbEntity
  8
0
100
AcDbLine
 10
10.0
 20
271.477
 30
0.0
 11
14.8236
 21
273.401
 31
0.0
  0
LINE
  5
9A
330
1E
100
AcDbEntity
  8
0
100
AcDbLine
 10
9.505
 20
115.9429999999999
 30
0.0
 11
10.7268
 21
115.297
 31
0.0
  0
LINE
  5
9B
330
1E
100
AcDbEntity
  8
0
100
AcDbLine
 10
9.505
 20
115.9429999999999
 30
0.0
 11
10.37959999999999
 21
115.083
 31
0.0
  0
LINE
  5
9C
330
1E
100
AcDbEntity
  8
0
100
AcDbLine
 10
9.0
 20
116.774
 30
0.0
 11
9.505
 21
115.9429999999999
 31
0.0
  0
LINE
  5
9D
330
1E
100
AcDbEntity
  8
0
100
AcDbLine
 10
8.404299999999999
 20
115.3599999999999
 30
0.0
 11
9.4097
 21
114.849
 31
0.0
  0
LINE
  5
9F
330
1E
100
AcDbEntity
  8
0
100
AcDbLine
 10
8.348499999999999
 20
116.921
 30
0.0
 11
8.82652971745338
 21
117.163961195165
 31
0.0
  0
LINE
  5
A1
330
1E
100
AcDbEntity
  8
0
100
AcDbLine
 10
10.9382
 20
256.5809999999999
 30
0.0
 11
13.61469999999999
 21
258.531
 31
0.0
  0
LINE
  5
A2
330
1E
100
AcDbEntity
  8
0
100
AcDbLine
 10
10.97369999999999
 20
241.5599999999999
 30
0.0
 11
11.42989999999999
 21
242.147
 31
0.0
  0
LINE
  5
A3
330
1E
100
AcDbEntity
  8
0
100
AcDbLine
 10
10.97369999999999
 20
253.8149999999999
 30
0.0
 11
11.42989999999999
 21
253.2279999999999
 31
0.0
  0
LINE
  5
A4
330
1E
100
AcDbEntity
  8
0
100
AcDbLine
 10
11.3397
 20
252.4999999999999
 30
0.0
 11
11.42989999999999
 21
253.2279999999999
 31
0.0
  0
LINE
  5
A5
330
1E
100
AcDbEntity
  8
0
100
AcDbLine
 10
11.3397
 20
243.007125855121
 30
0.0
 11
11.3397
 21
242.8749999999999
 31
0.0
  0
LINE
  5
A6
330
1E
100
AcDbEntity
  8
0
100
AcDbLine
 10
11.3397
 20
242.8749999999999
 30
0.0
 11
11.42989999999999
 21
242.147
 31
0.0
  0
LINE
  5
A7
330
1E
100
AcDbEntity
  8
0
100
AcDbLine
 10
11.3397
 20
242.8749999999999
 30
0.0
 11
11.3397
 21
243.007125855121
 31
0.0
  0
LINE
  5
A8
330
1E
100
AcDbEntity
  8
0
100
AcDbLine
 10
10.9382
 20
239.137
 30
0.0
 11
13.61469999999999
 21
237.187
 31
0.0
  0
LINE
  5
A9
330
1E
100
AcDbEntity
  8
0
100
AcDbLine
 10
10.82349999999999
 20
239.121
 30
0.0
 11
13.5382
 21
237.1329999999999
 31
0.0
  0
LINE
  5
AA
330
1E
100
AcDbEntity
  8
0
100
AcDbLine
 10
11.5
 20
262.482
 30
0.0
 11
15.6001
 21
264.117
 31
0.0
  0
LINE
  5
AB
330
1E
100
AcDbEntity
  8
0
100
AcDbLine
 10
11.0
 20
263.565
 30
0.0
 11
15.3413
 21
265.297
 31
0.0
  0
LINE
  5
AC
330
1E
100
AcDbEntity
  8
0
100
AcDbLine
 10
11.5
 20
234.1419999999999
 30
0.0
 11
15.6001
 21
232.507
 31
0.0
  0
LINE
  5
AD
330
1E
100
AcDbEntity
  8
0
100
AcDbLine
 10
11.0
 20
233.5579999999999
 30
0.0
 11
15.3413
 21
231.827
 31
0.0
  0
LINE
  5
AE
330
1E
100
AcDbEntity
  8
0
100
AcDbLine
 10
10.77468198542869
 20
90.11624171334489
 30
0.0
 11
11.0
 21
87.06929999999999
 31
0.0
  0
LINE
  5
AF
330
1E
100
AcDbEntity
  8
0
100
AcDbLine
 10
11.0
 20
87.06929999999999
 30
0.0
 11
11.3
 21
86.47399999999999
 31
0.0
  0
LINE
  5
B0
330
1E
100
AcDbEntity
  8
0
100
AcDbLine
 10
11.97832232510609
 20
86.04484807564958
 30
0.0
 11
11.98969999999999
 21
80.74720000000001
 31
0.0
  0
LINE
  5
B1
330
1E
100
AcDbEntity
  8
0
100
AcDbLine
 10
11.97832232510609
 20
86.04484807564958
 30
0.0
 11
11.98969999999999
 21
80.74720000000001
 31
0.0
  0
LINE
  5
B2
330
1E
100
AcDbEntity
  8
0
100
AcDbLine
 10
27.4488
 20
-0.0560000000000047
 30
0.0
 11
28.0758
 21
-0.0490000000000051
 31
0.0
  0
LINE
  5
B3
330
1E
100
AcDbEntity
  8
0
100
AcDbLine
 10
25.6277
 20
-0.0530000000000049
 30
0.0
 11
27.4488
 21
-0.0560000000000047
 31
0.0
  0
LINE
  5
B4
330
1E
100
AcDbEntity
  8
0
100
AcDbLine
 10
14.5237
 20
-0.0540000000000055
 30
0.0
 11
16.0714521375297
 21
-0.0503075495724992
 31
0.0
  0
LINE
  5
B5
330
1E
100
AcDbEntity
  8
0
100
AcDbLine
 10
12.8863170526577
 20
-0.0522017649252239
 30
0.0
 11
14.5237
 21
-0.0540000000000055
 31
0.0
  0
LINE
  5
B6
330
1E
100
AcDbEntity
  8
0
100
AcDbLine
 10
12.6498
 20
-0.0530000000000051
 30
0.0
 11
14.42759999999999
 21
-0.047000000000005
 31
0.0
  0
LINE
  5
B7
330
1E
100
AcDbEntity
  8
0
100
AcDbLine
 10
12.9
 20
114.2099999999999
 30
0.0
 11
15.0
 21
113.795
 31
0.0
  0
LINE
  5
B8
330
1E
100
AcDbEntity
  8
0
100
AcDbLine
 10
13.6
 20
85.4129
 30
0.0
 11
15.5
 21
85.0505
 31
0.0
  0
LINE
  5
B9
330
1E
100
AcDbEntity
  8
0
100
AcDbLine
 10
12.2726
 20
249.808483906548
 30
0.0
 11
12.2726
 21
249.6799999999999
 31
0.0
  0
LINE
  5
BA
330
1E
100
AcDbEntity
  8
0
100
AcDbLine
 10
12.9797
 20
248.502
 30
0.0
 11
13.7335
 21
248.606
 31
0.0
  0
LINE
  5
BB
330
1E
100
AcDbEntity
  8
0
100
AcDbLine
 10
12.3812
 20
248.955
 30
0.0
 11
12.9797
 21
248.502
 31
0.0
  0
LINE
  5
BC
330
1E
100
AcDbEntity
  8
0
100
AcDbLine
 10
12.2726
 20
249.6799999999999
 30
0.0
 11
12.7435
 21
250.2559999999999
 31
0.0
  0
LINE
  5
BD
330
1E
100
AcDbEntity
  8
0
100
AcDbLine
 10
12.2726
 20
249.6799999999999
 30
0.0
 11
12.3812
 21
248.955
 31
0.0
  0
LINE
  5
BE
330
1E
100
AcDbEntity
  8
0
100
AcDbLine
 10
12.2726
 20
249.6799999999999
 30
0.0
 11
12.2726
 21
249.808483906548
 31
0.0
  0
LINE
  5
BF
330
1E
100
AcDbEntity
  8
0
100
AcDbLine
 10
13.4973
 20
250.361
 30
0.0
 11
14.0958
 21
249.9079999999999
 31
0.0
  0
LINE
  5
C0
330
1E
100
AcDbEntity
  8
0
100
AcDbLine
 10
12.7435
 20
250.2559999999999
 30
0.0
 11
13.4973
 21
250.361
 31
0.0
  0
LINE
  5
C1
330
1E
100
AcDbEntity
  8
0
100
AcDbLine
 10
13.5437
 20
257.1029999999999
 30
0.0
 11
14.0
 21
257.69
 31
0.0
  0
LINE
  5
C2
330
1E
100
AcDbEntity
  8
0
100
AcDbLine
 10
13.5437
 20
257.1029999999999
 30
0.0
 11
13.6339
 21
256.375
 31
0.0
  0
LINE
  5
C3
330
1E
100
AcDbEntity
  8
0
100
AcDbLine
 10
13.5437
 20
238.272
 30
0.0
 11
14.0
 21
237.685
 31
0.0
  0
LINE
  5
C4
330
1E
100
AcDbEntity
  8
0
100
AcDbLine
 10
13.5437
 20
238.272
 30
0.0
 11
13.6339
 21
239.0
 31
0.0
  0
LINE
  5
C5
330
1E
100
AcDbEntity
  8
0
100
AcDbLine
 10
13.6339
 20
256.375
 30
0.0
 11
14.2438
 21
255.9359999999999
 31
0.0
  0
LINE
  5
C6
330
1E
100
AcDbEntity
  8
0
100
AcDbLine
 10
13.7335
 20
248.606
 30
0.0
 11
14.2044
 21
249.182
 31
0.0
  0
LINE
  5
C8
330
1E
100
AcDbEntity
  8
0
100
AcDbLine
 10
14.0
 20
257.69
 30
0.0
 11
14.7562
 21
257.777
 31
0.0
  0
LINE
  5
CA
330
1E
100
AcDbEntity
  8
0
100
AcDbLine
 10
13.6339
 20
239.0
 30
0.0
 11
14.2438
 21
239.439
 31
0.0
  0
LINE
  5
CB
330
1E
100
AcDbEntity
  8
0
100
AcDbLine
 10
14.0
 20
237.685
 30
0.0
 11
14.7562
 21
237.5979999999999
 31
0.0
  0
LINE
  5
CC
330
1E
100
AcDbEntity
  8
0
100
AcDbLine
 10
13.61469999999999
 20
258.531
 30
0.0
 11
16.7118
 21
259.7459999999999
 31
0.0
  0
LINE
  5
CD
330
1E
100
AcDbEntity
  8
0
100
AcDbLine
 10
13.61469999999999
 20
237.187
 30
0.0
 11
16.7118
 21
235.972
 31
0.0
  0
LINE
  5
CE
330
1E
100
AcDbEntity
  8
0
100
AcDbLine
 10
13.5382
 20
237.1329999999999
 30
0.0
 11
16.6735
 21
235.882
 31
0.0
  0
LINE
  5
CF
330
1E
100
AcDbEntity
  8
0
100
AcDbLine
 10
12.3
 20
114.85
 30
0.0
 11
14.28099999999999
 21
114.446
 31
0.0
  0
LINE
  5
D0
330
1E
100
AcDbEntity
  8
0
100
AcDbLine
 10
14.2044
 20
249.182
 30
0.0
 11
14.2044
 21
249.309375848123
 31
0.0
  0
LINE
  5
D1
330
1E
100
AcDbEntity
  8
0
100
AcDbLine
 10
14.2044
 20
249.309375848123
 30
0.0
 11
14.2044
 21
249.182
 31
0.0
  0
LINE
  5
D2
330
1E
100
AcDbEntity
  8
0
100
AcDbLine
 10
14.0958
 20
249.9079999999999
 30
0.0
 11
14.2044
 21
249.182
 31
0.0
  0
LINE
  5
D3
330
1E
100
AcDbEntity
  8
0
100
AcDbLine
 10
14.2438
 20
255.9359999999999
 30
0.0
 11
15.0
 21
256.0229999999999
 31
0.0
  0
LINE
  5
D4
330
1E
100
AcDbEntity
  8
0
100
AcDbLine
 10
14.0603
 20
242.923
 30
0.0
 11
14.34309999999999
 21
242.2429999999999
 31
0.0
  0
LINE
  5
D5
330
1E
100
AcDbEntity
  8
0
100
AcDbLine
 10
14.0603
 20
242.923
 30
0.0
 11
14.34309999999999
 21
243.604
 31
0.0
  0
LINE
  5
D6
330
1E
100
AcDbEntity
  8
0
100
AcDbLine
 10
14.34309999999999
 20
243.604
 30
0.0
 11
15.0502
 21
243.8759999999999
 31
0.0
  0
LINE
  5
D7
330
1E
100
AcDbEntity
  8
0
100
AcDbLine
 10
14.34309999999999
 20
242.2429999999999
 30
0.0
 11
15.0502
 21
241.9709999999999
 31
0.0
  0
LINE
  5
D8
330
1E
100
AcDbEntity
  8
0
100
AcDbLine
 10
14.2438
 20
239.439
 30
0.0
 11
15.0
 21
239.352
 31
0.0
  0
LINE
  5
D9
330
1E
100
AcDbEntity
  8
0
100
AcDbLine
 10
14.28099999999999
 20
114.446
 30
0.0
 11
16.9467
 21
114.132
 31
0.0
  0
LINE
  5
DA
330
1E
100
AcDbEntity
  8
0
100
AcDbLine
 10
12.369090647735
 20
114.390177361425
 30
0.0
 11
12.9
 21
114.2099999999999
 31
0.0
  0
LINE
  5
DB
330
1E
100
AcDbEntity
  8
0
100
AcDbLine
 10
22.29999999999999
 20
84.81759999999999
 30
0.0
 11
24.5
 21
85.0505
 31
0.0
  0
LINE
  5
DC
330
1E
100
AcDbEntity
  8
0
100
AcDbLine
 10
20.0
 20
84.7399
 30
0.0
 11
22.29999999999999
 21
84.81759999999999
 31
0.0
  0
LINE
  5
DD
330
1E
100
AcDbEntity
  8
0
100
AcDbLine
 10
15.5
 20
85.0505
 30
0.0
 11
17.7
 21
84.81759999999999
 31
0.0
  0
LINE
  5
DE
330
1E
100
AcDbEntity
  8
0
100
AcDbLine
 10
17.7
 20
84.81759999999999
 30
0.0
 11
20.0
 21
84.7399
 31
0.0
  0
LINE
  5
DF
330
1E
100
AcDbEntity
  8
0
100
AcDbLine
 10
26.4
 20
85.4129
 30
0.0
 11
27.8
 21
85.9046
 31
0.0
  0
LINE
  5
E0
330
1E
100
AcDbEntity
  8
0
100
AcDbLine
 10
27.8
 20
85.9046
 30
0.0
 11
28.7
 21
86.47399999999999
 31
0.0
  0
LINE
  5
E1
330
1E
100
AcDbEntity
  8
0
100
AcDbLine
 10
24.5
 20
85.0505
 30
0.0
 11
26.4
 21
85.4129
 31
0.0
  0
LINE
  5
E2
330
1E
100
AcDbEntity
  8
0
100
AcDbLine
 10
23.11269999999999
 20
-0.0490000000000046
 30
0.0
 11
25.6277
 21
-0.0530000000000049
 31
0.0
  0
LINE
  5
E3
330
1E
100
AcDbEntity
  8
0
100
AcDbLine
 10
20.0077
 20
-0.0510000000000047
 30
0.0
 11
23.11269999999999
 21
-0.0490000000000046
 31
0.0
  0
LINE
  5
E4
330
1E
100
AcDbEntity
  8
0
100
AcDbLine
 10
28.0596
 20
32.95199999999999
 30
0.0
 11
28.0758
 21
-0.0490000000000051
 31
0.0
  0
LINE
  5
E5
330
1E
100
AcDbEntity
  8
0
100
AcDbLine
 10
28.0596
 20
32.95199999999999
 30
0.0
 11
28.0758
 21
-0.049000000000007
 31
0.0
  0
LINE
  5
E6
330
1E
100
AcDbEntity
  8
0
100
AcDbLine
 10
34.8524
 20
69.3422
 30
0.0
 11
35.0
 21
69.5891
 31
0.0
  0
LINE
  5
E7
330
1E
100
AcDbEntity
  8
0
100
AcDbLine
 10
34.5598
 20
69.0746
 30
0.0
 11
34.8524
 21
69.3422
 31
0.0
  0
LINE
  5
E9
330
1E
100
AcDbEntity
  8
0
100
AcDbLine
 10
33.9318
 20
68.6758
 30
0.0
 11
34.5598
 21
69.0746
 31
0.0
  0
LINE
  5
EA
330
1E
100
AcDbEntity
  8
0
100
AcDbLine
 10
32.9121
 20
68.2157
 30
0.0
 11
33.9318
 21
68.6758
 31
0.0
  0
LINE
  5
EC
330
1E
100
AcDbEntity
  8
0
100
AcDbLine
 10
31.5039
 20
67.85779999999999
 30
0.0
 11
32.9121
 21
68.2157
 31
0.0
  0
LINE
  5
EE
330
1E
100
AcDbEntity
  8
0
100
AcDbLine
 10
29.17289999999999
 20
68.0837
 30
0.0
 11
31.5039
 21
67.85779999999999
 31
0.0
  0
LINE
  5
EF
330
1E
100
AcDbEntity
  8
0
100
AcDbLine
 10
29.17289999999999
 20
68.0837
 30
0.0
 11
29.2834
 21
114.483
 31
0.0
  0
LINE
  5
F0
330
1E
100
AcDbEntity
  8
0
100
AcDbLine
 10
28.1776
 20
71.4731
 30
0.0
 11
29.1802972374238
 21
71.1898234243981
 31
0.0
  0
LINE
  5
F1
330
1E
100
AcDbEntity
  8
0
100
AcDbLine
 10
35.0
 20
75.8523
 30
0.0
 11
35.0
 21
115.8239999999999
 31
0.0
  0
LINE
  5
F2
330
1E
100
AcDbEntity
  8
0
100
AcDbLine
 10
35.0
 20
75.8523
 30
0.0
 11
35.0
 21
69.5891
 31
0.0
  0
LINE
  5
F3
330
1E
100
AcDbEntity
  8
0
100
AcDbLine
 10
35.0
 20
69.5891
 30
0.0
 11
35.0
 21
75.8523
 31
0.0
  0
LINE
  5
F4
330
1E
100
AcDbEntity
  8
0
100
AcDbLine
 10
28.0049033709878
 20
71.5006465759739
 30
0.0
 11
28.1776
 21
71.4731
 31
0.0
  0
LINE
  5
F5
330
1E
100
AcDbEntity
  8
0
100
AcDbLine
 10
28.0306
 20
55.9592
 30
0.0
 11
28.0596
 21
32.95199999999999
 31
0.0
  0
LINE
  5
F6
330
1E
100
AcDbEntity
  8
0
100
AcDbLine
 10
27.9896
 20
80.7562
 30
0.0
 11
28.0306
 21
55.9592
 31
0.0
  0
LINE
  5
F7
330
1E
100
AcDbEntity
  8
0
100
AcDbLine
 10
16.0
 20
204.427
 30
0.0
 11
16.144
 21
205.4199999999999
 31
0.0
  0
LINE
  5
F8
330
1E
100
AcDbEntity
  8
0
100
AcDbLine
 10
16.0
 20
204.427
 30
0.0
 11
16.0
 21
173.4059999999999
 31
0.0
  0
LINE
  5
F9
330
1E
100
AcDbEntity
  8
0
100
AcDbLine
 10
16.144
 20
205.4199999999999
 30
0.0
 11
16.528
 21
206.3499999999999
 31
0.0
  0
LINE
  5
FA
330
1E
100
AcDbEntity
  8
0
100
AcDbLine
 10
16.528
 20
206.3499999999999
 30
0.0
 11
17.168
 21
207.172
 31
0.0
  0
LINE
  5
FB
330
1E
100
AcDbEntity
  8
0
100
AcDbLine
 10
16.0
 20
173.4059999999999
 30
0.0
 11
16.144
 21
172.4129999999999
 31
0.0
  0
LINE
  5
FC
330
1E
100
AcDbEntity
  8
0
100
AcDbLine
 10
16.0
 20
173.4059999999999
 30
0.0
 11
16.0
 21
204.427
 31
0.0
  0
LINE
  5
FD
330
1E
100
AcDbEntity
  8
0
100
AcDbLine
 10
16.144
 20
172.4129999999999
 30
0.0
 11
16.528
 21
171.483
 31
0.0
  0
LINE
  5
FE
330
1E
100
AcDbEntity
  8
0
100
AcDbLine
 10
16.528
 20
171.483
 30
0.0
 11
17.168
 21
170.6599999999999
 31
0.0
  0
LINE
  5
FF
330
1E
100
AcDbEntity
  8
0
100
AcDbLine
 10
15.0
 20
256.0229999999999
 30
0.0
 11
15.4562
 21
256.61
 31
0.0
  0
LINE
  5
100
330
1E
100
AcDbEntity
  8
0
100
AcDbLine
 10
14.7562
 20
257.777
 30
0.0
 11
15.36599999999999
 21
257.3379999999999
 31
0.0
  0
LINE
  5
102
330
1E
100
AcDbEntity
  8
0
100
AcDbLine
 10
15.0502
 20
243.8759999999999
 30
0.0
 11
15.7573
 21
243.604
 31
0.0
  0
LINE
  5
103
330
1E
100
AcDbEntity
  8
0
100
AcDbLine
 10
15.0502
 20
241.9709999999999
 30
0.0
 11
15.7573
 21
242.2429999999999
 31
0.0
  0
LINE
  5
104
330
1E
100
AcDbEntity
  8
0
100
AcDbLine
 10
15.0
 20
239.352
 30
0.0
 11
15.4562
 21
238.7649999999999
 31
0.0
  0
LINE
  5
106
330
1E
100
AcDbEntity
  8
0
100
AcDbLine
 10
14.7562
 20
237.5979999999999
 30
0.0
 11
15.36599999999999
 21
238.037
 31
0.0
  0
LINE
  5
107
330
1E
100
AcDbEntity
  8
0
100
AcDbLine
 10
15.36599999999999
 20
257.3379999999999
 30
0.0
 11
15.4562
 21
256.61
 31
0.0
  0
LINE
  5
108
330
1E
100
AcDbEntity
  8
0
100
AcDbLine
 10
15.36599999999999
 20
238.037
 30
0.0
 11
15.4562
 21
238.7649999999999
 31
0.0
  0
LINE
  5
109
330
1E
100
AcDbEntity
  8
0
100
AcDbLine
 10
15.6001
 20
264.117
 30
0.0
 11
20.0
 21
264.674
 31
0.0
  0
LINE
  5
10A
330
1E
100
AcDbEntity
  8
0
100
AcDbLine
 10
15.3413
 20
265.297
 30
0.0
 11
20.0
 21
265.8869999999999
 31
0.0
  0
LINE
  5
10B
330
1E
100
AcDbEntity
  8
0
100
AcDbLine
 10
14.8236
 20
273.401
 30
0.0
 11
20.0
 21
274.0559999999999
 31
0.0
  0
LINE
  5
10C
330
1E
100
AcDbEntity
  8
0
100
AcDbLine
 10
15.7573
 20
243.7285562365679
 30
0.0
 11
15.7573
 21
243.604
 31
0.0
  0
LINE
  5
10D
330
1E
100
AcDbEntity
  8
0
100
AcDbLine
 10
15.7573
 20
242.2429999999999
 30
0.0
 11
16.0402
 21
242.923
 31
0.0
  0
LINE
  5
10E
330
1E
100
AcDbEntity
  8
0
100
AcDbLine
 10
16.44569999999999
 20
248.8849999999999
 30
0.0
 11
16.5359
 21
249.6119999999999
 31
0.0
  0
LINE
  5
10F
330
1E
100
AcDbEntity
  8
0
100
AcDbLine
 10
16.44569999999999
 20
248.8849999999999
 30
0.0
 11
16.9019
 21
248.2979999999999
 31
0.0
  0
LINE
  5
111
330
1E
100
AcDbEntity
  8
0
100
AcDbLine
 10
16.5359
 20
249.6119999999999
 30
0.0
 11
17.1457
 21
250.052
 31
0.0
  0
LINE
  5
113
330
1E
100
AcDbEntity
  8
0
100
AcDbLine
 10
16.44569999999999
 20
246.49
 30
0.0
 11
16.5359
 21
245.7619999999999
 31
0.0
  0
LINE
  5
114
330
1E
100
AcDbEntity
  8
0
100
AcDbLine
 10
16.44569999999999
 20
246.49
 30
0.0
 11
16.9019
 21
247.0769999999999
 31
0.0
  0
LINE
  5
115
330
1E
100
AcDbEntity
  8
0
100
AcDbLine
 10
16.5359
 20
245.7619999999999
 30
0.0
 11
17.1457
 21
245.323
 31
0.0
  0
LINE
  5
116
330
1E
100
AcDbEntity
  8
0
100
AcDbLine
 10
15.7573
 20
243.604
 30
0.0
 11
16.0402
 21
242.923
 31
0.0
  0
LINE
  5
117
330
1E
100
AcDbEntity
  8
0
100
AcDbLine
 10
15.7573
 20
243.604
 30
0.0
 11
15.7573
 21
243.7285562365679
 31
0.0
  0
LINE
  5
118
330
1E
100
AcDbEntity
  8
0
100
AcDbLine
 10
16.7118
 20
259.7459999999999
 30
0.0
 11
20.0
 21
260.1879999999999
 31
0.0
  0
LINE
  5
119
330
1E
100
AcDbEntity
  8
0
100
AcDbLine
 10
16.9019
 20
248.2979999999999
 30
0.0
 11
17.6581
 21
248.211
 31
0.0
  0
LINE
  5
11A
330
1E
100
AcDbEntity
  8
0
100
AcDbLine
 10
16.9019
 20
247.0769999999999
 30
0.0
 11
17.6581
 21
247.164
 31
0.0
  0
LINE
  5
11B
330
1E
100
AcDbEntity
  8
0
100
AcDbLine
 10
16.7118
 20
235.972
 30
0.0
 11
20.0
 21
235.5309999999999
 31
0.0
  0
LINE
  5
11C
330
1E
100
AcDbEntity
  8
0
100
AcDbLine
 10
16.6735
 20
235.882
 30
0.0
 11
20.0
 21
235.44
 31
0.0
  0
LINE
  5
11D
330
1E
100
AcDbEntity
  8
0
100
AcDbLine
 10
15.6001
 20
232.507
 30
0.0
 11
20.0
 21
231.95
 31
0.0
  0
LINE
  5
11E
330
1E
100
AcDbEntity
  8
0
100
AcDbLine
 10
15.3413
 20
231.827
 30
0.0
 11
20.0
 21
231.237
 31
0.0
  0
LINE
  5
11F
330
1E
100
AcDbEntity
  8
0
100
AcDbLine
 10
17.1457
 20
250.052
 30
0.0
 11
17.9019
 21
249.9649999999999
 31
0.0
  0
LINE
  5
120
330
1E
100
AcDbEntity
  8
0
100
AcDbLine
 10
17.1457
 20
245.323
 30
0.0
 11
17.9019
 21
245.4099999999999
 31
0.0
  0
LINE
  5
121
330
1E
100
AcDbEntity
  8
0
100
AcDbLine
 10
17.2223
 20
253.946
 30
0.0
 11
17.33089999999999
 21
254.672
 31
0.0
  0
LINE
  5
122
330
1E
100
AcDbEntity
  8
0
100
AcDbLine
 10
17.2223
 20
253.946
 30
0.0
 11
17.6933
 21
253.37
 31
0.0
  0
LINE
  5
123
330
1E
100
AcDbEntity
  8
0
100
AcDbLine
 10
17.33089999999999
 20
254.672
 30
0.0
 11
17.9294
 21
255.125
 31
0.0
  0
LINE
  5
124
330
1E
100
AcDbEntity
  8
0
100
AcDbLine
 10
17.168
 20
207.172
 30
0.0
 11
18.01599999999999
 21
207.793
 31
0.0
  0
LINE
  5
125
330
1E
100
AcDbEntity
  8
0
100
AcDbLine
 10
17.168
 20
170.6599999999999
 30
0.0
 11
18.01599999999999
 21
170.039
 31
0.0
  0
LINE
  5
126
330
1E
100
AcDbEntity
  8
0
100
AcDbLine
 10
16.9467
 20
114.132
 30
0.0
 11
20.0
 21
114.026
 31
0.0
  0
LINE
  5
127
330
1E
100
AcDbEntity
  8
0
100
AcDbLine
 10
15.0
 20
113.795
 30
0.0
 11
17.4
 21
113.562
 31
0.0
  0
LINE
  5
128
330
1E
100
AcDbEntity
  8
0
100
AcDbLine
 10
28.7
 20
86.47399999999999
 30
0.0
 11
29.0
 21
87.06929999999999
 31
0.0
  0
LINE
  5
129
330
1E
100
AcDbEntity
  8
0
100
AcDbLine
 10
29.0
 20
87.06929999999999
 30
0.0
 11
29.2253722774477
 21
90.11697550208392
 31
0.0
  0
LINE
  5
12A
330
1E
100
AcDbEntity
  8
0
100
AcDbLine
 10
29.0
 20
87.06929999999999
 30
0.0
 11
29.2253722774477
 21
90.11697550208392
 31
0.0
  0
LINE
  5
12B
330
1E
100
AcDbEntity
  8
0
100
AcDbLine
 10
18.01599999999999
 20
207.793
 30
0.0
 11
18.97599999999999
 21
208.1649999999999
 31
0.0
  0
LINE
  5
12C
330
1E
100
AcDbEntity
  8
0
100
AcDbLine
 10
18.97599999999999
 20
208.1649999999999
 30
0.0
 11
20.0
 21
208.305
 31
0.0
  0
LINE
  5
12D
330
1E
100
AcDbEntity
  8
0
100
AcDbLine
 10
18.01599999999999
 20
170.039
 30
0.0
 11
18.97599999999999
 21
169.667
 31
0.0
  0
LINE
  5
12E
330
1E
100
AcDbEntity
  8
0
100
AcDbLine
 10
20.0
 20
208.305
 30
0.0
 11
21.024
 21
208.1649999999999
 31
0.0
  0
LINE
  5
12F
330
1E
100
AcDbEntity
  8
0
100
AcDbLine
 10
18.97599999999999
 20
169.667
 30
0.0
 11
20.0
 21
169.527
 31
0.0
  0
LINE
  5
130
330
1E
100
AcDbEntity
  8
0
100
AcDbLine
 10
20.0
 20
169.527
 30
0.0
 11
21.024
 21
169.667
 31
0.0
  0
LINE
  5
131
330
1E
100
AcDbEntity
  8
0
100
AcDbLine
 10
20.0
 20
114.026
 30
0.0
 11
23.0533
 21
114.132
 31
0.0
  0
LINE
  5
133
330
1E
100
AcDbEntity
  8
0
100
AcDbLine
 10
21.984
 20
207.793
 30
0.0
 11
22.83199999999999
 21
207.172
 31
0.0
  0
LINE
  5
134
330
1E
100
AcDbEntity
  8
0
100
AcDbLine
 10
21.024
 20
208.1649999999999
 30
0.0
 11
21.984
 21
207.793
 31
0.0
  0
LINE
  5
135
330
1E
100
AcDbEntity
  8
0
100
AcDbLine
 10
21.984
 20
170.039
 30
0.0
 11
22.83199999999999
 21
170.6599999999999
 31
0.0
  0
LINE
  5
136
330
1E
100
AcDbEntity
  8
0
100
AcDbLine
 10
21.024
 20
169.667
 30
0.0
 11
21.984
 21
170.039
 31
0.0
  0
LINE
  5
137
330
1E
100
AcDbEntity
  8
0
100
AcDbLine
 10
20.0
 20
231.237
 30
0.0
 11
24.6587
 21
231.827
 31
0.0
  0
LINE
  5
139
330
1E
100
AcDbEntity
  8
0
100
AcDbLine
 10
19.0
 20
237.0999999999999
 30
0.0
 11
19.3
 21
236.4259999999999
 31
0.0
  0
LINE
  5
13A
330
1E
100
AcDbEntity
  8
0
100
AcDbLine
 10
19.0
 20
237.0999999999999
 30
0.0
 11
19.3
 21
237.774
 31
0.0
  0
LINE
  5
13B
330
1E
100
AcDbEntity
  8
0
100
AcDbLine
 10
19.3
 20
236.4259999999999
 30
0.0
 11
20.0
 21
236.138
 31
0.0
  0
LINE
  5
13D
330
1E
100
AcDbEntity
  8
0
100
AcDbLine
 10
20.0
 20
236.138
 30
0.0
 11
20.69999999999999
 21
236.4259999999999
 31
0.0
  0
LINE
  5
140
330
1E
100
AcDbEntity
  8
0
100
AcDbLine
 10
17.9019
 20
245.4099999999999
 30
0.0
 11
18.3581
 21
245.997
 31
0.0
  0
LINE
  5
143
330
1E
100
AcDbEntity
  8
0
100
AcDbLine
 10
18.2679
 20
246.7249999999999
 30
0.0
 11
18.3581
 21
245.997
 31
0.0
  0
LINE
  5
145
330
1E
100
AcDbEntity
  8
0
100
AcDbLine
 10
17.6581
 20
248.211
 30
0.0
 11
18.2679
 21
248.6499999999999
 31
0.0
  0
LINE
  5
146
330
1E
100
AcDbEntity
  8
0
100
AcDbLine
 10
17.9019
 20
249.9649999999999
 30
0.0
 11
18.3581
 21
249.378
 31
0.0
  0
LINE
  5
147
330
1E
100
AcDbEntity
  8
0
100
AcDbLine
 10
18.2679
 20
248.6499999999999
 30
0.0
 11
18.3581
 21
249.378
 31
0.0
  0
LINE
  5
148
330
1E
100
AcDbEntity
  8
0
100
AcDbLine
 10
18.4471
 20
253.2659999999999
 30
0.0
 11
19.0456
 21
253.719
 31
0.0
  0
LINE
  5
149
330
1E
100
AcDbEntity
  8
0
100
AcDbLine
 10
17.6933
 20
253.37
 30
0.0
 11
18.4471
 21
253.2659999999999
 31
0.0
  0
LINE
  5
14B
330
1E
100
AcDbEntity
  8
0
100
AcDbLine
 10
17.9294
 20
255.125
 30
0.0
 11
18.68319999999999
 21
255.0209999999999
 31
0.0
  0
LINE
  5
14D
330
1E
100
AcDbEntity
  8
0
100
AcDbLine
 10
18.68319999999999
 20
255.0209999999999
 30
0.0
 11
19.1542
 21
254.444
 31
0.0
  0
LINE
  5
14F
330
1E
100
AcDbEntity
  8
0
100
AcDbLine
 10
19.0
 20
258.2749999999999
 30
0.0
 11
19.3
 21
258.949
 31
0.0
  0
LINE
  5
150
330
1E
100
AcDbEntity
  8
0
100
AcDbLine
 10
19.0
 20
258.2749999999999
 30
0.0
 11
19.3
 21
257.601
 31
0.0
  0
LINE
  5
151
330
1E
100
AcDbEntity
  8
0
100
AcDbLine
 10
19.0
 20
250.5749999999999
 30
0.0
 11
19.3
 21
251.249
 31
0.0
  0
LINE
  5
152
330
1E
100
AcDbEntity
  8
0
100
AcDbLine
 10
19.0
 20
250.5749999999999
 30
0.0
 11
19.3
 21
249.9009999999999
 31
0.0
  0
LINE
  5
153
330
1E
100
AcDbEntity
  8
0
100
AcDbLine
 10
17.6581
 20
247.164
 30
0.0
 11
18.2679
 21
246.7249999999999
 31
0.0
  0
LINE
  5
154
330
1E
100
AcDbEntity
  8
0
100
AcDbLine
 10
19.0456
 20
253.719
 30
0.0
 11
19.1542
 21
254.444
 31
0.0
  0
LINE
  5
156
330
1E
100
AcDbEntity
  8
0
100
AcDbLine
 10
19.3
 20
257.601
 30
0.0
 11
20.0
 21
257.312
 31
0.0
  0
LINE
  5
157
330
1E
100
AcDbEntity
  8
0
100
AcDbLine
 10
19.3
 20
258.949
 30
0.0
 11
20.0
 21
259.237
 31
0.0
  0
LINE
  5
159
330
1E
100
AcDbEntity
  8
0
100
AcDbLine
 10
19.3
 20
249.9009999999999
 30
0.0
 11
20.0
 21
249.6119999999999
 31
0.0
  0
LINE
  5
15A
330
1E
100
AcDbEntity
  8
0
100
AcDbLine
 10
19.3
 20
251.249
 30
0.0
 11
20.0
 21
251.537
 31
0.0
  0
LINE
  5
15B
330
1E
100
AcDbEntity
  8
0
100
AcDbLine
 10
19.3
 20
245.474
 30
0.0
 11
20.0
 21
245.7619999999999
 31
0.0
  0
LINE
  5
15C
330
1E
100
AcDbEntity
  8
0
100
AcDbLine
 10
19.0
 20
244.7999999999999
 30
0.0
 11
19.3
 21
244.1259999999999
 31
0.0
  0
LINE
  5
15D
330
1E
100
AcDbEntity
  8
0
100
AcDbLine
 10
19.0
 20
244.7999999999999
 30
0.0
 11
19.3
 21
245.474
 31
0.0
  0
LINE
  5
15E
330
1E
100
AcDbEntity
  8
0
100
AcDbLine
 10
19.3
 20
244.1259999999999
 30
0.0
 11
20.0
 21
243.8379999999999
 31
0.0
  0
LINE
  5
160
330
1E
100
AcDbEntity
  8
0
100
AcDbLine
 10
20.0
 20
257.312
 30
0.0
 11
20.69999999999999
 21
257.601
 31
0.0
  0
LINE
  5
161
330
1E
100
AcDbEntity
  8
0
100
AcDbLine
 10
20.0
 20
259.237
 30
0.0
 11
20.69999999999999
 21
258.949
 31
0.0
  0
LINE
  5
168
330
1E
100
AcDbEntity
  8
0
100
AcDbLine
 10
20.0
 20
249.6119999999999
 30
0.0
 11
20.69999999999999
 21
249.9009999999999
 31
0.0
  0
LINE
  5
169
330
1E
100
AcDbEntity
  8
0
100
AcDbLine
 10
20.0
 20
251.537
 30
0.0
 11
20.69999999999999
 21
251.249
 31
0.0
  0
LINE
  5
16A
330
1E
100
AcDbEntity
  8
0
100
AcDbLine
 10
20.0
 20
245.7619999999999
 30
0.0
 11
20.69999999999999
 21
245.474
 31
0.0
  0
LINE
  5
16B
330
1E
100
AcDbEntity
  8
0
100
AcDbLine
 10
20.0
 20
243.8379999999999
 30
0.0
 11
20.69999999999999
 21
244.1259999999999
 31
0.0
  0
LINE
  5
16D
330
1E
100
AcDbEntity
  8
0
100
AcDbLine
 10
20.0
 20
238.063
 30
0.0
 11
20.69999999999999
 21
237.774
 31
0.0
  0
LINE
  5
16F
330
1E
100
AcDbEntity
  8
0
100
AcDbLine
 10
19.3
 20
237.774
 30
0.0
 11
20.0
 21
238.063
 31
0.0
  0
LINE
  5
175
330
1E
100
AcDbEntity
  8
0
100
AcDbLine
 10
20.0
 20
260.1879999999999
 30
0.0
 11
23.28819999999999
 21
259.7459999999999
 31
0.0
  0
LINE
  5
176
330
1E
100
AcDbEntity
  8
0
100
AcDbLine
 10
20.0
 20
235.5309999999999
 30
0.0
 11
23.28819999999999
 21
235.972
 31
0.0
  0
LINE
  5
177
330
1E
100
AcDbEntity
  8
0
100
AcDbLine
 10
20.0
 20
235.44
 30
0.0
 11
23.3265
 21
235.882
 31
0.0
  0
LINE
  5
178
330
1E
100
AcDbEntity
  8
0
100
AcDbLine
 10
20.0
 20
274.0559999999999
 30
0.0
 11
25.1764
 21
273.401
 31
0.0
  0
LINE
  5
179
330
1E
100
AcDbEntity
  8
0
100
AcDbLine
 10
20.0
 20
264.674
 30
0.0
 11
24.39989999999999
 21
264.117
 31
0.0
  0
LINE
  5
17A
330
1E
100
AcDbEntity
  8
0
100
AcDbLine
 10
20.0
 20
231.95
 30
0.0
 11
24.39989999999999
 21
232.507
 31
0.0
  0
LINE
  5
17B
330
1E
100
AcDbEntity
  8
0
100
AcDbLine
 10
20.69999999999999
 20
237.774
 30
0.0
 11
21.0
 21
237.0999999999999
 31
0.0
  0
LINE
  5
17C
330
1E
100
AcDbEntity
  8
0
100
AcDbLine
 10
20.69999999999999
 20
236.4259999999999
 30
0.0
 11
21.0
 21
237.0999999999999
 31
0.0
  0
LINE
  5
17E
330
1E
100
AcDbEntity
  8
0
100
AcDbLine
 10
20.8458
 20
240.9299999999999
 30
0.0
 11
21.3167
 21
240.354
 31
0.0
  0
LINE
  5
17F
330
1E
100
AcDbEntity
  8
0
100
AcDbLine
 10
20.8458
 20
240.9299999999999
 30
0.0
 11
20.95439999999999
 21
241.656
 31
0.0
  0
LINE
  5
180
330
1E
100
AcDbEntity
  8
0
100
AcDbLine
 10
21.3167
 20
240.354
 30
0.0
 11
22.0705
 21
240.2499999999999
 31
0.0
  0
LINE
  5
182
330
1E
100
AcDbEntity
  8
0
100
AcDbLine
 10
22.0705
 20
240.2499999999999
 30
0.0
 11
22.669
 21
240.703
 31
0.0
  0
LINE
  5
183
330
1E
100
AcDbEntity
  8
0
100
AcDbLine
 10
20.69999999999999
 20
249.9009999999999
 30
0.0
 11
21.0
 21
250.5749999999999
 31
0.0
  0
LINE
  5
184
330
1E
100
AcDbEntity
  8
0
100
AcDbLine
 10
20.69999999999999
 20
257.601
 30
0.0
 11
21.0
 21
258.2749999999999
 31
0.0
  0
LINE
  5
185
330
1E
100
AcDbEntity
  8
0
100
AcDbLine
 10
20.69999999999999
 20
258.949
 30
0.0
 11
21.0
 21
258.2749999999999
 31
0.0
  0
LINE
  5
186
330
1E
100
AcDbEntity
  8
0
100
AcDbLine
 10
20.69999999999999
 20
251.249
 30
0.0
 11
21.0
 21
250.5749999999999
 31
0.0
  0
LINE
  5
187
330
1E
100
AcDbEntity
  8
0
100
AcDbLine
 10
20.95439999999999
 20
253.719
 30
0.0
 11
21.5529
 21
253.2659999999999
 31
0.0
  0
LINE
  5
188
330
1E
100
AcDbEntity
  8
0
100
AcDbLine
 10
20.8458
 20
254.444
 30
0.0
 11
21.3167
 21
255.0209999999999
 31
0.0
  0
LINE
  5
189
330
1E
100
AcDbEntity
  8
0
100
AcDbLine
 10
20.8458
 20
254.444
 30
0.0
 11
20.95439999999999
 21
253.719
 31
0.0
  0
LINE
  5
18A
330
1E
100
AcDbEntity
  8
0
100
AcDbLine
 10
20.69999999999999
 20
245.474
 30
0.0
 11
21.0
 21
244.7999999999999
 31
0.0
  0
LINE
  5
18B
330
1E
100
AcDbEntity
  8
0
100
AcDbLine
 10
20.69999999999999
 20
244.1259999999999
 30
0.0
 11
21.0
 21
244.7999999999999
 31
0.0
  0
LINE
  5
18C
330
1E
100
AcDbEntity
  8
0
100
AcDbLine
 10
22.30669999999999
 20
242.0049999999999
 30
0.0
 11
22.7776
 21
241.429
 31
0.0
  0
LINE
  5
18D
330
1E
100
AcDbEntity
  8
0
100
AcDbLine
 10
21.5529
 20
253.2659999999999
 30
0.0
 11
22.30669999999999
 21
253.37
 31
0.0
  0
LINE
  5
18E
330
1E
100
AcDbEntity
  8
0
100
AcDbLine
 10
21.3167
 20
255.0209999999999
 30
0.0
 11
22.0705
 21
255.125
 31
0.0
  0
LINE
  5
191
330
1E
100
AcDbEntity
  8
0
100
AcDbLine
 10
21.64179999999999
 20
245.997
 30
0.0
 11
21.732
 21
246.7249999999999
 31
0.0
  0
LINE
  5
192
330
1E
100
AcDbEntity
  8
0
100
AcDbLine
 10
21.64179999999999
 20
245.997
 30
0.0
 11
22.098
 21
245.4099999999999
 31
0.0
  0
LINE
  5
194
330
1E
100
AcDbEntity
  8
0
100
AcDbLine
 10
21.732
 20
246.7249999999999
 30
0.0
 11
22.34179999999999
 21
247.164
 31
0.0
  0
LINE
  5
196
330
1E
100
AcDbEntity
  8
0
100
AcDbLine
 10
21.64179999999999
 20
249.378
 30
0.0
 11
21.732
 21
248.6499999999999
 31
0.0
  0
LINE
  5
197
330
1E
100
AcDbEntity
  8
0
100
AcDbLine
 10
21.64179999999999
 20
249.378
 30
0.0
 11
22.098
 21
249.9649999999999
 31
0.0
  0
LINE
  5
198
330
1E
100
AcDbEntity
  8
0
100
AcDbLine
 10
22.098
 20
245.4099999999999
 30
0.0
 11
22.85429999999999
 21
245.323
 31
0.0
  0
LINE
  5
199
330
1E
100
AcDbEntity
  8
0
100
AcDbLine
 10
21.732
 20
248.6499999999999
 30
0.0
 11
22.34179999999999
 21
248.211
 31
0.0
  0
LINE
  5
19A
330
1E
100
AcDbEntity
  8
0
100
AcDbLine
 10
22.098
 20
249.9649999999999
 30
0.0
 11
22.85429999999999
 21
250.052
 31
0.0
  0
LINE
  5
19B
330
1E
100
AcDbEntity
  8
0
100
AcDbLine
 10
22.34179999999999
 20
247.164
 30
0.0
 11
23.098
 21
247.0769999999999
 31
0.0
  0
LINE
  5
19C
330
1E
100
AcDbEntity
  8
0
100
AcDbLine
 10
22.34179999999999
 20
248.211
 30
0.0
 11
23.098
 21
248.2979999999999
 31
0.0
  0
LINE
  5
19D
330
1E
100
AcDbEntity
  8
0
100
AcDbLine
 10
22.30669999999999
 20
253.37
 30
0.0
 11
22.7776
 21
253.946
 31
0.0
  0
LINE
  5
19F
330
1E
100
AcDbEntity
  8
0
100
AcDbLine
 10
22.0705
 20
255.125
 30
0.0
 11
22.669
 21
254.672
 31
0.0
  0
LINE
  5
1A3
330
1E
100
AcDbEntity
  8
0
100
AcDbLine
 10
21.5529
 20
242.1089999999999
 30
0.0
 11
22.30669999999999
 21
242.0049999999999
 31
0.0
  0
LINE
  5
1A6
330
1E
100
AcDbEntity
  8
0
100
AcDbLine
 10
20.95439999999999
 20
241.656
 30
0.0
 11
21.5529
 21
242.1089999999999
 31
0.0
  0
LINE
  5
1AB
330
1E
100
AcDbEntity
  8
0
100
AcDbLine
 10
20.0
 20
265.8869999999999
 30
0.0
 11
24.6587
 21
265.297
 31
0.0
  0
LINE
  5
1AD
330
1E
100
AcDbEntity
  8
0
100
AcDbLine
 10
22.83199999999999
 20
207.172
 30
0.0
 11
23.47199999999999
 21
206.3499999999999
 31
0.0
  0
LINE
  5
1AE
330
1E
100
AcDbEntity
  8
0
100
AcDbLine
 10
22.83199999999999
 20
170.6599999999999
 30
0.0
 11
23.47199999999999
 21
171.483
 31
0.0
  0
LINE
  5
1AF
330
1E
100
AcDbEntity
  8
0
100
AcDbLine
 10
23.85599999999999
 20
205.4199999999999
 30
0.0
 11
24.0
 21
204.427
 31
0.0
  0
LINE
  5
1B0
330
1E
100
AcDbEntity
  8
0
100
AcDbLine
 10
23.47199999999999
 20
206.3499999999999
 30
0.0
 11
23.85599999999999
 21
205.4199999999999
 31
0.0
  0
LINE
  5
1B1
330
1E
100
AcDbEntity
  8
0
100
AcDbLine
 10
24.0
 20
204.427
 30
0.0
 11
24.0
 21
173.4059999999999
 31
0.0
  0
LINE
  5
1B2
330
1E
100
AcDbEntity
  8
0
100
AcDbLine
 10
24.0
 20
173.4059999999999
 30
0.0
 11
24.0
 21
204.427
 31
0.0
  0
LINE
  5
1B3
330
1E
100
AcDbEntity
  8
0
100
AcDbLine
 10
23.85599999999999
 20
172.4129999999999
 30
0.0
 11
24.0
 21
173.4059999999999
 31
0.0
  0
LINE
  5
1B4
330
1E
100
AcDbEntity
  8
0
100
AcDbLine
 10
23.47199999999999
 20
171.483
 30
0.0
 11
23.85599999999999
 21
172.4129999999999
 31
0.0
  0
LINE
  5
1B5
330
1E
100
AcDbEntity
  8
0
100
AcDbLine
 10
23.0533
 20
114.132
 30
0.0
 11
25.719
 21
114.446
 31
0.0
  0
LINE
  5
1B6
330
1E
100
AcDbEntity
  8
0
100
AcDbLine
 10
23.098
 20
247.0769999999999
 30
0.0
 11
23.5543
 21
246.49
 31
0.0
  0
LINE
  5
1B7
330
1E
100
AcDbEntity
  8
0
100
AcDbLine
 10
22.85429999999999
 20
245.323
 30
0.0
 11
23.4641
 21
245.7619999999999
 31
0.0
  0
LINE
  5
1B8
330
1E
100
AcDbEntity
  8
0
100
AcDbLine
 10
23.098
 20
248.2979999999999
 30
0.0
 11
23.5543
 21
248.8849999999999
 31
0.0
  0
LINE
  5
1B9
330
1E
100
AcDbEntity
  8
0
100
AcDbLine
 10
22.85429999999999
 20
250.052
 30
0.0
 11
23.4641
 21
249.6119999999999
 31
0.0
  0
LINE
  5
1BA
330
1E
100
AcDbEntity
  8
0
100
AcDbLine
 10
22.669
 20
254.672
 30
0.0
 11
22.7776
 21
253.946
 31
0.0
  0
LINE
  5
1BB
330
1E
100
AcDbEntity
  8
0
100
AcDbLine
 10
22.669
 20
240.703
 30
0.0
 11
22.7776
 21
241.429
 31
0.0
  0
LINE
  5
1BC
330
1E
100
AcDbEntity
  8
0
100
AcDbLine
 10
23.28819999999999
 20
259.7459999999999
 30
0.0
 11
26.3853
 21
258.531
 31
0.0
  0
LINE
  5
1BD
330
1E
100
AcDbEntity
  8
0
100
AcDbLine
 10
23.28819999999999
 20
235.972
 30
0.0
 11
26.3853
 21
237.187
 31
0.0
  0
LINE
  5
1BE
330
1E
100
AcDbEntity
  8
0
100
AcDbLine
 10
23.4641
 20
245.7619999999999
 30
0.0
 11
23.5543
 21
246.49
 31
0.0
  0
LINE
  5
1BF
330
1E
100
AcDbEntity
  8
0
100
AcDbLine
 10
23.9598
 20
252.4519999999999
 30
0.0
 11
24.2426
 21
251.771
 31
0.0
  0
LINE
  5
1C0
330
1E
100
AcDbEntity
  8
0
100
AcDbLine
 10
23.9598
 20
252.4519999999999
 30
0.0
 11
24.2426
 21
253.132
 31
0.0
  0
LINE
  5
1C1
330
1E
100
AcDbEntity
  8
0
100
AcDbLine
 10
24.2426
 20
251.771
 30
0.0
 11
24.9497
 21
251.499
 31
0.0
  0
LINE
  5
1C2
330
1E
100
AcDbEntity
  8
0
100
AcDbLine
 10
24.2426
 20
253.132
 30
0.0
 11
24.9497
 21
253.404
 31
0.0
  0
LINE
  5
1C3
330
1E
100
AcDbEntity
  8
0
100
AcDbLine
 10
23.4641
 20
249.7342609804449
 30
0.0
 11
23.4641
 21
249.6119999999999
 31
0.0
  0
LINE
  5
1C4
330
1E
100
AcDbEntity
  8
0
100
AcDbLine
 10
23.4641
 20
249.6119999999999
 30
0.0
 11
23.5543
 21
248.8849999999999
 31
0.0
  0
LINE
  5
1C5
330
1E
100
AcDbEntity
  8
0
100
AcDbLine
 10
23.4641
 20
249.6119999999999
 30
0.0
 11
23.4641
 21
249.7342609804449
 31
0.0
  0
LINE
  5
1C6
330
1E
100
AcDbEntity
  8
0
100
AcDbLine
 10
23.3265
 20
235.882
 30
0.0
 11
26.4618
 21
237.1329999999999
 31
0.0
  0
LINE
  5
1C7
330
1E
100
AcDbEntity
  8
0
100
AcDbLine
 10
24.39989999999999
 20
232.507
 30
0.0
 11
28.5
 21
234.1419999999999
 31
0.0
  0
LINE
  5
1C8
330
1E
100
AcDbEntity
  8
0
100
AcDbLine
 10
24.5437
 20
256.61
 30
0.0
 11
25.0
 21
256.0229999999999
 31
0.0
  0
LINE
  5
1C9
330
1E
100
AcDbEntity
  8
0
100
AcDbLine
 10
24.5437
 20
256.61
 30
0.0
 11
24.6339
 21
257.3379999999999
 31
0.0
  0
LINE
  5
1CA
330
1E
100
AcDbEntity
  8
0
100
AcDbLine
 10
24.6339
 20
257.3379999999999
 30
0.0
 11
25.2438
 21
257.777
 31
0.0
  0
LINE
  5
1CB
330
1E
100
AcDbEntity
  8
0
100
AcDbLine
 10
24.5437
 20
238.7649999999999
 30
0.0
 11
25.0
 21
239.352
 31
0.0
  0
LINE
  5
1CC
330
1E
100
AcDbEntity
  8
0
100
AcDbLine
 10
24.5437
 20
238.7649999999999
 30
0.0
 11
24.6339
 21
238.037
 31
0.0
  0
LINE
  5
1CD
330
1E
100
AcDbEntity
  8
0
100
AcDbLine
 10
24.6339
 20
238.037
 30
0.0
 11
25.2438
 21
237.5979999999999
 31
0.0
  0
LINE
  5
1CE
330
1E
100
AcDbEntity
  8
0
100
AcDbLine
 10
24.39989999999999
 20
264.117
 30
0.0
 11
28.5
 21
262.482
 31
0.0
  0
LINE
  5
1CF
330
1E
100
AcDbEntity
  8
0
100
AcDbLine
 10
24.6587
 20
265.297
 30
0.0
 11
29.0
 21
263.565
 31
0.0
  0
LINE
  5
1D0
330
1E
100
AcDbEntity
  8
0
100
AcDbLine
 10
25.0
 20
239.352
 30
0.0
 11
25.7562
 21
239.439
 31
0.0
  0
LINE
  5
1D2
330
1E
100
AcDbEntity
  8
0
100
AcDbLine
 10
24.9497
 20
251.499
 30
0.0
 11
25.6568
 21
251.771
 31
0.0
  0
LINE
  5
1D3
330
1E
100
AcDbEntity
  8
0
100
AcDbLine
 10
24.9497
 20
253.404
 30
0.0
 11
25.6568
 21
253.132
 31
0.0
  0
LINE
  5
1D4
330
1E
100
AcDbEntity
  8
0
100
AcDbLine
 10
25.0
 20
256.0229999999999
 30
0.0
 11
25.7562
 21
255.9359999999999
 31
0.0
  0
LINE
  5
1D6
330
1E
100
AcDbEntity
  8
0
100
AcDbLine
 10
25.6568
 20
251.771
 30
0.0
 11
25.9397
 21
252.4519999999999
 31
0.0
  0
LINE
  5
1D7
330
1E
100
AcDbEntity
  8
0
100
AcDbLine
 10
25.6568
 20
253.132
 30
0.0
 11
25.9397
 21
252.4519999999999
 31
0.0
  0
LINE
  5
1D9
330
1E
100
AcDbEntity
  8
0
100
AcDbLine
 10
25.7955
 20
246.3151342541529
 30
0.0
 11
25.7955
 21
246.1929999999999
 31
0.0
  0
LINE
  5
1DA
330
1E
100
AcDbEntity
  8
0
100
AcDbLine
 10
25.9041
 20
245.467
 30
0.0
 11
26.5026
 21
245.014
 31
0.0
  0
LINE
  5
1DB
330
1E
100
AcDbEntity
  8
0
100
AcDbLine
 10
25.7955
 20
246.1929999999999
 30
0.0
 11
26.2665
 21
246.769
 31
0.0
  0
LINE
  5
1DC
330
1E
100
AcDbEntity
  8
0
100
AcDbLine
 10
25.7955
 20
246.1929999999999
 30
0.0
 11
25.9041
 21
245.467
 31
0.0
  0
LINE
  5
1DD
330
1E
100
AcDbEntity
  8
0
100
AcDbLine
 10
25.7955
 20
246.1929999999999
 30
0.0
 11
25.7955
 21
246.3151342541529
 31
0.0
  0
LINE
  5
1DE
330
1E
100
AcDbEntity
  8
0
100
AcDbLine
 10
25.7562
 20
255.9359999999999
 30
0.0
 11
26.366
 21
256.375
 31
0.0
  0
LINE
  5
1DF
330
1E
100
AcDbEntity
  8
0
100
AcDbLine
 10
26.0
 20
257.69
 30
0.0
 11
26.4562
 21
257.1029999999999
 31
0.0
  0
LINE
  5
1E2
330
1E
100
AcDbEntity
  8
0
100
AcDbLine
 10
25.2438
 20
257.777
 30
0.0
 11
26.0
 21
257.69
 31
0.0
  0
LINE
  5
1E4
330
1E
100
AcDbEntity
  8
0
100
AcDbLine
 10
25.7562
 20
239.439
 30
0.0
 11
26.366
 21
239.0
 31
0.0
  0
LINE
  5
1E5
330
1E
100
AcDbEntity
  8
0
100
AcDbLine
 10
26.2665
 20
246.769
 30
0.0
 11
27.0203
 21
246.8729999999999
 31
0.0
  0
LINE
  5
1E6
330
1E
100
AcDbEntity
  8
0
100
AcDbLine
 10
26.366
 20
256.375
 30
0.0
 11
26.4562
 21
257.1029999999999
 31
0.0
  0
LINE
  5
1E7
330
1E
100
AcDbEntity
  8
0
100
AcDbLine
 10
26.366
 20
239.0
 30
0.0
 11
26.4562
 21
238.272
 31
0.0
  0
LINE
  5
1E8
330
1E
100
AcDbEntity
  8
0
100
AcDbLine
 10
26.0
 20
237.685
 30
0.0
 11
26.4562
 21
238.272
 31
0.0
  0
LINE
  5
1E9
330
1E
100
AcDbEntity
  8
0
100
AcDbLine
 10
25.2438
 20
237.5979999999999
 30
0.0
 11
26.0
 21
237.685
 31
0.0
  0
LINE
  5
1EA
330
1E
100
AcDbEntity
  8
0
100
AcDbLine
 10
26.3853
 20
258.531
 30
0.0
 11
29.06169999999999
 21
256.5809999999999
 31
0.0
  0
LINE
  5
1EB
330
1E
100
AcDbEntity
  8
0
100
AcDbLine
 10
26.3853
 20
237.187
 30
0.0
 11
29.06169999999999
 21
239.137
 31
0.0
  0
LINE
  5
1EC
330
1E
100
AcDbEntity
  8
0
100
AcDbLine
 10
27.0203
 20
246.8729999999999
 30
0.0
 11
27.6188
 21
246.4199999999999
 31
0.0
  0
LINE
  5
1ED
330
1E
100
AcDbEntity
  8
0
100
AcDbLine
 10
26.5026
 20
245.014
 30
0.0
 11
27.2564
 21
245.1179999999999
 31
0.0
  0
LINE
  5
1EE
330
1E
100
AcDbEntity
  8
0
100
AcDbLine
 10
26.4618
 20
237.1329999999999
 30
0.0
 11
29.1764
 21
239.121
 31
0.0
  0
LINE
  5
1EF
330
1E
100
AcDbEntity
  8
0
100
AcDbLine
 10
25.719
 20
114.446
 30
0.0
 11
27.7
 21
114.85
 31
0.0
  0
LINE
  5
1F0
330
1E
100
AcDbEntity
  8
0
100
AcDbLine
 10
24.6587
 20
231.827
 30
0.0
 11
29.0
 21
233.5579999999999
 31
0.0
  0
LINE
  5
1F1
330
1E
100
AcDbEntity
  8
0
100
AcDbLine
 10
25.1764
 20
273.401
 30
0.0
 11
30.0
 21
271.477
 31
0.0
  0
LINE
  5
1F2
330
1E
100
AcDbEntity
  8
0
100
AcDbLine
 10
27.7
 20
114.85
 30
0.0
 11
29.27319999999999
 21
115.297
 31
0.0
  0
LINE
  5
1F3
330
1E
100
AcDbEntity
  8
0
100
AcDbLine
 10
27.7274
 20
245.6949999999999
 30
0.0
 11
27.7274
 21
245.816161786824
 31
0.0
  0
LINE
  5
1F4
330
1E
100
AcDbEntity
  8
0
100
AcDbLine
 10
27.7274
 20
245.816161786824
 30
0.0
 11
27.7274
 21
245.6949999999999
 31
0.0
  0
LINE
  5
1F5
330
1E
100
AcDbEntity
  8
0
100
AcDbLine
 10
27.6188
 20
246.4199999999999
 30
0.0
 11
27.7274
 21
245.6949999999999
 31
0.0
  0
LINE
  5
1F6
330
1E
100
AcDbEntity
  8
0
100
AcDbLine
 10
27.2564
 20
245.1179999999999
 30
0.0
 11
27.7274
 21
245.6949999999999
 31
0.0
  0
LINE
  5
1F7
330
1E
100
AcDbEntity
  8
0
100
AcDbLine
 10
28.5
 20
234.1419999999999
 30
0.0
 11
32.0208
 21
236.742
 31
0.0
  0
LINE
  5
1F8
330
1E
100
AcDbEntity
  8
0
100
AcDbLine
 10
28.57
 20
242.147
 30
0.0
 11
28.6602
 21
242.8749999999999
 31
0.0
  0
LINE
  5
1F9
330
1E
100
AcDbEntity
  8
0
100
AcDbLine
 10
28.57
 20
242.147
 30
0.0
 11
29.0262
 21
241.5599999999999
 31
0.0
  0
LINE
  5
1FA
330
1E
100
AcDbEntity
  8
0
100
AcDbLine
 10
28.57
 20
253.2279999999999
 30
0.0
 11
28.6602
 21
252.4999999999999
 31
0.0
  0
LINE
  5
1FB
330
1E
100
AcDbEntity
  8
0
100
AcDbLine
 10
28.57
 20
253.2279999999999
 30
0.0
 11
29.0262
 21
253.8149999999999
 31
0.0
  0
LINE
  5
1FC
330
1E
100
AcDbEntity
  8
0
100
AcDbLine
 10
28.6602
 20
252.4999999999999
 30
0.0
 11
29.26999999999999
 21
252.061
 31
0.0
  0
LINE
  5
1FE
330
1E
100
AcDbEntity
  8
0
100
AcDbLine
 10
28.6602
 20
242.8749999999999
 30
0.0
 11
29.26999999999999
 21
243.314
 31
0.0
  0
LINE
  5
200
330
1E
100
AcDbEntity
  8
0
100
AcDbLine
 10
29.0262
 20
253.8149999999999
 30
0.0
 11
29.7825
 21
253.902
 31
0.0
  0
LINE
  5
201
330
1E
100
AcDbEntity
  8
0
100
AcDbLine
 10
29.0262
 20
241.5599999999999
 30
0.0
 11
29.7825
 21
241.473
 31
0.0
  0
LINE
  5
202
330
1E
100
AcDbEntity
  8
0
100
AcDbLine
 10
29.06169999999999
 20
256.5809999999999
 30
0.0
 11
31.0882
 21
254.0049999999999
 31
0.0
  0
LINE
  5
203
330
1E
100
AcDbEntity
  8
0
100
AcDbLine
 10
29.26999999999999
 20
252.061
 30
0.0
 11
30.0262
 21
252.1479999999999
 31
0.0
  0
LINE
  5
204
330
1E
100
AcDbEntity
  8
0
100
AcDbLine
 10
29.26999999999999
 20
243.314
 30
0.0
 11
30.0262
 21
243.2269999999999
 31
0.0
  0
LINE
  5
205
330
1E
100
AcDbEntity
  8
0
100
AcDbLine
 10
29.06169999999999
 20
239.137
 30
0.0
 11
31.0882
 21
241.7129999999999
 31
0.0
  0
LINE
  5
206
330
1E
100
AcDbEntity
  8
0
100
AcDbLine
 10
29.1764
 20
239.121
 30
0.0
 11
31.24109999999999
 21
241.733
 31
0.0
  0
LINE
  5
207
330
1E
100
AcDbEntity
  8
0
100
AcDbLine
 10
29.0
 20
263.565
 30
0.0
 11
32.7279
 21
260.8119999999999
 31
0.0
  0
LINE
  5
208
330
1E
100
AcDbEntity
  8
0
100
AcDbLine
 10
29.0
 20
233.5579999999999
 30
0.0
 11
32.7279
 21
236.3109999999999
 31
0.0
  0
LINE
  5
209
330
1E
100
AcDbEntity
  8
0
100
AcDbLine
 10
28.5
 20
262.482
 30
0.0
 11
32.0208
 21
259.8819999999999
 31
0.0
  0
LINE
  5
20A
330
1E
100
AcDbEntity
  8
0
100
AcDbLine
 10
29.27319999999999
 20
115.297
 30
0.0
 11
30.495
 21
115.9429999999999
 31
0.0
  0
LINE
  5
20B
330
1E
100
AcDbEntity
  8
0
100
AcDbLine
 10
29.7825
 20
253.902
 30
0.0
 11
30.39229999999999
 21
253.462
 31
0.0
  0
LINE
  5
20C
330
1E
100
AcDbEntity
  8
0
100
AcDbLine
 10
30.0
 20
247.812
 30
0.0
 11
30.0
 21
247.687
 31
0.0
  0
LINE
  5
20D
330
1E
100
AcDbEntity
  8
0
100
AcDbLine
 10
30.0262
 20
252.1479999999999
 30
0.0
 11
30.4825
 21
252.735
 31
0.0
  0
LINE
  5
20E
330
1E
100
AcDbEntity
  8
0
100
AcDbLine
 10
30.0
 20
247.687
 30
0.0
 11
30.3
 21
248.361
 31
0.0
  0
LINE
  5
20F
330
1E
100
AcDbEntity
  8
0
100
AcDbLine
 10
30.0
 20
247.687
 30
0.0
 11
30.3
 21
247.014
 31
0.0
  0
LINE
  5
210
330
1E
100
AcDbEntity
  8
0
100
AcDbLine
 10
30.0
 20
247.687
 30
0.0
 11
30.0
 21
247.812
 31
0.0
  0
LINE
  5
211
330
1E
100
AcDbEntity
  8
0
100
AcDbLine
 10
30.0262
 20
243.2269999999999
 30
0.0
 11
30.4825
 21
242.64
 31
0.0
  0
LINE
  5
212
330
1E
100
AcDbEntity
  8
0
100
AcDbLine
 10
29.7825
 20
241.473
 30
0.0
 11
30.39229999999999
 21
241.913
 31
0.0
  0
LINE
  5
213
330
1E
100
AcDbEntity
  8
0
100
AcDbLine
 10
30.0
 20
271.477
 30
0.0
 11
34.1421
 21
268.418
 31
0.0
  0
LINE
  5
214
330
1E
100
AcDbEntity
  8
0
100
AcDbLine
 10
29.6204
 20
115.083
 30
0.0
 11
30.495
 21
115.9429999999999
 31
0.0
  0
LINE
  5
215
330
1E
100
AcDbEntity
  8
0
100
AcDbLine
 10
29.2834
 20
114.483
 30
0.0
 11
31.4795
 21
114.274
 31
0.0
  0
LINE
  5
216
330
1E
100
AcDbEntity
  8
0
100
AcDbLine
 10
29.2834
 20
114.483
 30
0.0
 11
30.5902
 21
114.849
 31
0.0
  0
LINE
  5
217
330
1E
100
AcDbEntity
  8
0
100
AcDbLine
 10
27.1
 20
114.2099999999999
 30
0.0
 11
27.630909352265
 21
114.390177361425
 31
0.0
  0
LINE
  5
218
330
1E
100
AcDbEntity
  8
0
100
AcDbLine
 10
27.1
 20
114.2099999999999
 30
0.0
 11
27.630909352265
 21
114.390177361425
 31
0.0
  0
LINE
  5
219
330
1E
100
AcDbEntity
  8
0
100
AcDbLine
 10
25.0
 20
113.795
 30
0.0
 11
27.1
 21
114.2099999999999
 31
0.0
  0
LINE
  5
21A
330
1E
100
AcDbEntity
  8
0
100
AcDbLine
 10
22.6
 20
113.562
 30
0.0
 11
25.0
 21
113.795
 31
0.0
  0
LINE
  5
21B
330
1E
100
AcDbEntity
  8
0
100
AcDbLine
 10
20.0
 20
113.4589999999999
 30
0.0
 11
22.6
 21
113.562
 31
0.0
  0
LINE
  5
21C
330
1E
100
AcDbEntity
  8
0
100
AcDbLine
 10
31.0
 20
116.774
 30
0.0
 11
32.0
 21
119.022
 31
0.0
  0
LINE
  5
21D
330
1E
100
AcDbEntity
  8
0
100
AcDbLine
 10
30.495
 20
115.9429999999999
 30
0.0
 11
31.0
 21
116.774
 31
0.0
  0
LINE
  5
21E
330
1E
100
AcDbEntity
  8
0
100
AcDbLine
 10
31.1734702825466
 20
117.163961195165
 30
0.0
 11
31.6515
 21
116.921
 31
0.0
  0
LINE
  5
21F
330
1E
100
AcDbEntity
  8
0
100
AcDbLine
 10
30.5902
 20
114.849
 30
0.0
 11
31.5956
 21
115.3599999999999
 31
0.0
  0
LINE
  5
222
330
1E
100
AcDbEntity
  8
0
100
AcDbLine
 10
31.875
 20
115.84
 30
0.0
 11
31.875
 21
116.2909999999999
 31
0.0
  0
LINE
  5
224
330
1E
100
AcDbEntity
  8
0
100
AcDbLine
 10
31.6515
 20
116.921
 30
0.0
 11
31.875
 21
116.2909999999999
 31
0.0
  0
LINE
  5
225
330
1E
100
AcDbEntity
  8
0
100
AcDbLine
 10
32.0
 20
119.022
 30
0.0
 11
32.0
 21
152.609
 31
0.0
  0
LINE
  5
226
330
1E
100
AcDbEntity
  8
0
100
AcDbLine
 10
31.875
 20
116.2909999999999
 30
0.0
 11
31.875
 21
115.84
 31
0.0
  0
LINE
  5
227
330
1E
100
AcDbEntity
  8
0
100
AcDbLine
 10
31.5956
 20
115.3599999999999
 30
0.0
 11
31.875
 21
115.84
 31
0.0
  0
LINE
  5
228
330
1E
100
AcDbEntity
  8
0
100
AcDbLine
 10
35.0
 20
125.858
 30
0.0
 11
35.0
 21
115.8239999999999
 31
0.0
  0
LINE
  5
229
330
1E
100
AcDbEntity
  8
0
100
AcDbLine
 10
35.0
 20
115.8239999999999
 30
0.0
 11
35.0
 21
125.858
 31
0.0
  0
LINE
  5
22A
330
1E
100
AcDbEntity
  8
0
100
AcDbLine
 10
35.0
 20
115.8239999999999
 30
0.0
 11
35.0
 21
75.8523
 31
0.0
  0
LINE
  5
22B
330
1E
100
AcDbEntity
  8
0
100
AcDbLine
 10
34.88389999999999
 20
115.585
 30
0.0
 11
35.0
 21
115.8239999999999
 31
0.0
  0
LINE
  5
22C
330
1E
100
AcDbEntity
  8
0
100
AcDbLine
 10
34.3111
 20
115.107
 30
0.0
 11
34.88389999999999
 21
115.585
 31
0.0
  0
LINE
  5
22E
330
1E
100
AcDbEntity
  8
0
100
AcDbLine
 10
33.4285
 20
114.745
 30
0.0
 11
34.3111
 21
115.107
 31
0.0
  0
LINE
  5
230
330
1E
100
AcDbEntity
  8
0
100
AcDbLine
 10
31.4795
 20
114.274
 30
0.0
 11
33.4285
 21
114.745
 31
0.0
  0
LINE
  5
232
330
1E
100
AcDbEntity
  8
0
100
AcDbLine
 10
32.0
 20
152.609
 30
0.0
 11
32.0
 21
181.722
 31
0.0
  0
LINE
  5
233
330
1E
100
AcDbEntity
  8
0
100
AcDbLine
 10
32.0
 20
152.609
 30
0.0
 11
32.0
 21
119.022
 31
0.0
  0
LINE
  5
234
330
1E
100
AcDbEntity
  8
0
100
AcDbLine
 10
32.0
 20
235.7734564231869
 30
0.0
 11
32.0
 21
234.486
 31
0.0
  0
LINE
  5
235
330
1E
100
AcDbEntity
  8
0
100
AcDbLine
 10
32.0
 20
234.486
 30
0.0
 11
32.0
 21
235.7734564231869
 31
0.0
  0
LINE
  5
236
330
1E
100
AcDbEntity
  8
0
100
AcDbLine
 10
32.0
 20
234.486
 30
0.0
 11
32.0
 21
208.4359999999999
 31
0.0
  0
LINE
  5
237
330
1E
100
AcDbEntity
  8
0
100
AcDbLine
 10
32.0
 20
208.4359999999999
 30
0.0
 11
32.0
 21
181.722
 31
0.0
  0
LINE
  5
238
330
1E
100
AcDbEntity
  8
0
100
AcDbLine
 10
32.0
 20
208.4359999999999
 30
0.0
 11
32.0
 21
234.486
 31
0.0
  0
LINE
  5
239
330
1E
100
AcDbEntity
  8
0
100
AcDbLine
 10
32.7279
 20
236.3109999999999
 30
0.0
 11
35.5885
 21
239.8989999999999
 31
0.0
  0
LINE
  5
23A
330
1E
100
AcDbEntity
  8
0
100
AcDbLine
 10
32.0
 20
181.722
 30
0.0
 11
32.0
 21
208.4359999999999
 31
0.0
  0
LINE
  5
23B
330
1E
100
AcDbEntity
  8
0
100
AcDbLine
 10
32.0
 20
181.722
 30
0.0
 11
32.0
 21
152.609
 31
0.0
  0
LINE
  5
23C
330
1E
100
AcDbEntity
  8
0
100
AcDbLine
 10
30.39229999999999
 20
241.913
 30
0.0
 11
30.4825
 21
242.64
 31
0.0
  0
LINE
  5
23D
330
1E
100
AcDbEntity
  8
0
100
AcDbLine
 10
31.0882
 20
241.7129999999999
 30
0.0
 11
32.35
 21
244.694
 31
0.0
  0
LINE
  5
23E
330
1E
100
AcDbEntity
  8
0
100
AcDbLine
 10
31.24109999999999
 20
241.733
 30
0.0
 11
32.5411
 21
244.7509999999999
 31
0.0
  0
LINE
  5
23F
330
1E
100
AcDbEntity
  8
0
100
AcDbLine
 10
32.0208
 20
236.742
 30
0.0
 11
34.7224
 21
240.1309999999999
 31
0.0
  0
LINE
  5
240
330
1E
100
AcDbEntity
  8
0
100
AcDbLine
 10
35.5885
 20
239.8989999999999
 30
0.0
 11
37.38669999999999
 21
244.077
 31
0.0
  0
LINE
  5
241
330
1E
100
AcDbEntity
  8
0
100
AcDbLine
 10
34.7224
 20
240.1309999999999
 30
0.0
 11
36.42069999999999
 21
244.077
 31
0.0
  0
LINE
  5
242
330
1E
100
AcDbEntity
  8
0
100
AcDbLine
 10
30.3
 20
247.014
 30
0.0
 11
31.0
 21
246.7249999999999
 31
0.0
  0
LINE
  5
243
330
1E
100
AcDbEntity
  8
0
100
AcDbLine
 10
30.3
 20
248.361
 30
0.0
 11
31.0
 21
248.6499999999999
 31
0.0
  0
LINE
  5
245
330
1E
100
AcDbEntity
  8
0
100
AcDbLine
 10
30.39229999999999
 20
253.462
 30
0.0
 11
30.4825
 21
252.735
 31
0.0
  0
LINE
  5
247
330
1E
100
AcDbEntity
  8
0
100
AcDbLine
 10
31.0
 20
248.6499999999999
 30
0.0
 11
31.69999999999999
 21
248.361
 31
0.0
  0
LINE
  5
248
330
1E
100
AcDbEntity
  8
0
100
AcDbLine
 10
32.0
 20
247.687
 30
0.0
 11
32.0
 21
247.812
 31
0.0
  0
LINE
  5
249
330
1E
100
AcDbEntity
  8
0
100
AcDbLine
 10
32.0
 20
247.812
 30
0.0
 11
32.0
 21
247.687
 31
0.0
  0
LINE
  5
24A
330
1E
100
AcDbEntity
  8
0
100
AcDbLine
 10
31.69999999999999
 20
248.361
 30
0.0
 11
32.0
 21
247.687
 31
0.0
  0
LINE
  5
24B
330
1E
100
AcDbEntity
  8
0
100
AcDbLine
 10
31.69999999999999
 20
247.014
 30
0.0
 11
32.0
 21
247.687
 31
0.0
  0
LINE
  5
24C
330
1E
100
AcDbEntity
  8
0
100
AcDbLine
 10
31.0
 20
246.7249999999999
 30
0.0
 11
31.69999999999999
 21
247.014
 31
0.0
  0
LINE
  5
24D
330
1E
100
AcDbEntity
  8
0
100
AcDbLine
 10
31.0882
 20
254.0049999999999
 30
0.0
 11
32.35
 21
251.024
 31
0.0
  0
LINE
  5
24E
330
1E
100
AcDbEntity
  8
0
100
AcDbLine
 10
32.35
 20
251.024
 30
0.0
 11
32.80879999999999
 21
247.859
 31
0.0
  0
LINE
  5
24F
330
1E
100
AcDbEntity
  8
0
100
AcDbLine
 10
32.35
 20
244.694
 30
0.0
 11
32.80879999999999
 21
247.859
 31
0.0
  0
LINE
  5
250
330
1E
100
AcDbEntity
  8
0
100
AcDbLine
 10
33.0
 20
247.953
 30
0.0
 11
33.0
 21
248.045720975414
 31
0.0
  0
LINE
  5
251
330
1E
100
AcDbEntity
  8
0
100
AcDbLine
 10
33.0
 20
248.045720975414
 30
0.0
 11
33.0
 21
247.953
 31
0.0
  0
LINE
  5
252
330
1E
100
AcDbEntity
  8
0
100
AcDbLine
 10
32.5411
 20
244.7509999999999
 30
0.0
 11
33.0
 21
247.953
 31
0.0
  0
LINE
  5
253
330
1E
100
AcDbEntity
  8
0
100
AcDbLine
 10
34.1421
 20
268.418
 30
0.0
 11
37.3205
 21
264.4309999999999
 31
0.0
  0
LINE
  5
254
330
1E
100
AcDbEntity
  8
0
100
AcDbLine
 10
32.7279
 20
260.8119999999999
 30
0.0
 11
35.5885
 21
257.2239999999999
 31
0.0
  0
LINE
  5
255
330
1E
100
AcDbEntity
  8
0
100
AcDbLine
 10
32.0208
 20
259.8819999999999
 30
0.0
 11
34.7224
 21
256.4929999999999
 31
0.0
  0
LINE
  5
256
330
1E
100
AcDbEntity
  8
0
100
AcDbLine
 10
35.5885
 20
257.2239999999999
 30
0.0
 11
37.38669999999999
 21
253.046
 31
0.0
  0
LINE
  5
257
330
1E
100
AcDbEntity
  8
0
100
AcDbLine
 10
34.7224
 20
256.4929999999999
 30
0.0
 11
36.42069999999999
 21
252.5469999999999
 31
0.0
  0
LINE
  5
258
330
1E
100
AcDbEntity
  8
0
100
AcDbLine
 10
36.42069999999999
 20
244.077
 30
0.0
 11
37.0
 21
248.3119999999999
 31
0.0
  0
LINE
  5
259
330
1E
100
AcDbEntity
  8
0
100
AcDbLine
 10
37.3205
 20
264.4309999999999
 30
0.0
 11
39.3185
 21
259.7879999999999
 31
0.0
  0
LINE
  5
25A
330
1E
100
AcDbEntity
  8
0
100
AcDbLine
 10
39.3185
 20
249.824
 30
0.0
 11
40.0
 21
254.8059999999999
 31
0.0
  0
LINE
  5
25B
330
1E
100
AcDbEntity
  8
0
100
AcDbLine
 10
38.3526
 20
247.0749999999999
 30
0.0
 11
39.3185
 21
249.824
 31
0.0
  0
LINE
  5
25C
330
1E
100
AcDbEntity
  8
0
100
AcDbLine
 10
39.3185
 20
259.7879999999999
 30
0.0
 11
40.0
 21
254.8059999999999
 31
0.0
  0
LINE
  5
25D
330
1E
100
AcDbEntity
  8
0
100
AcDbLine
 10
37.38669999999999
 20
253.046
 30
0.0
 11
38.0
 21
248.562
 31
0.0
  0
LINE
  5
25E
330
1E
100
AcDbEntity
  8
0
100
AcDbLine
 10
37.38669999999999
 20
244.077
 30
0.0
 11
38.3526
 21
247.0749999999999
 31
0.0
  0
LINE
  5
25F
330
1E
100
AcDbEntity
  8
0
100
AcDbLine
 10
37.38669999999999
 20
244.077
 30
0.0
 11
38.0
 21
248.562
 31
0.0
  0
LINE
  5
260
330
1E
100
AcDbEntity
  8
0
100
AcDbLine
 10
36.42069999999999
 20
252.5469999999999
 30
0.0
 11
37.0
 21
248.3119999999999
 31
0.0
  0
LINE
  5
261
330
1E
100
AcDbEntity
  8
0
100
AcDbLine
 10
32.0
 20
125.858
 30
0.0
 11
35.0
 21
125.858
 31
0.0
  0
LINE
  5
263
330
1E
100
AcDbEntity
  8
0
100
AcDbLine
 10
17.4
 20
113.562
 30
0.0
 11
20.0
 21
113.4589999999999
 31
0.0
  0
LINE
  5
264
330
1E
100
AcDbEntity
  8
0
100
AcDbLine
 10
27.9780912469113
 20
86.01727239554589
 30
0.0
 11
27.9896
 21
80.7562
 31
0.0
  0
LINE
  5
265
330
1E
100
AcDbEntity
  8
0
100
AcDbLine
 10
14.42759999999999
 20
-0.047000000000005
 30
0.0
 11
16.9126
 21
-0.0520000000000047
 31
0.0
  0
LINE
  5
266
330
1E
100
AcDbEntity
  8
0
100
AcDbLine
 10
16.9126
 20
-0.0520000000000047
 30
0.0
 11
20.0077
 21
-0.0510000000000047
 31
0.0
  0
LINE
  5
26B
330
1E
100
AcDbEntity
  8
0
100
AcDbLine
 10
12.369090647735
 20
114.390177361425
 30
0.0
 11
10.37959999999999
 21
115.083
 31
0.0
  0
LINE
  5
26C
330
1E
100
AcDbEntity
  8
0
100
AcDbLine
 10
29.6204
 20
115.083
 30
0.0
 11
27.630909352265
 21
114.390177361425
 31
0.0
  0
ENDSEC
  0
SECTION
  2
OBJECTS
  0
DICTIONARY
  5
C
330
0
100
AcDbDictionary
  3
ACAD_GROUP
350
D
  3
ACAD_LAYOUT
350
19
  3
ACAD_MLINESTYLE
350
16
  3
ACAD_PLOTSETTINGS
350
18
  3
ACAD_PLOTSTYLENAME
350
E
  3
ACDBHEADERROUNDTRIPXREC
350
271
  3
ACDBVARIABLEDICTIONARY
350
26E
  0
DICTIONARY
  5
293
330
1E
100
AcDbDictionary
280
     1
  3
ACAD_LAYOUTSELFREF
360
294
  0
DICTIONARY
  5
291
330
1A
100
AcDbDictionary
280
     1
  3
ACAD_LAYOUTSELFREF
360
292
  0
DICTIONARY
  5
D
102
{ACAD_REACTORS
330
C
102
}
330
C
100
AcDbDictionary
  0
DICTIONARY
  5
19
102
{ACAD_REACTORS
330
C
102
}
330
C
100
AcDbDictionary
  0
DICTIONARY
  5
16
102
{ACAD_REACTORS
330
C
102
}
330
C
100
AcDbDictionary
  3
STANDARD
350
17
  0
DICTIONARY
  5
18
102
{ACAD_REACTORS
330
C
102
}
330
C
100
AcDbDictionary
  0
ACDBDICTIONARYWDFLT
  5
E
102
{ACAD_REACTORS
330
C
102
}
330
C
100
AcDbDictionary
281
     1
  3
Normal
350
F
100
AcDbDictionaryWithDefault
340
F
  0
DICTIONARY
  5
271
102
{ACAD_REACTORS
330
C
102
}
330
C
100
AcDbDictionary
  3
CEPSNTYPE
350
27B
  3
FINGERPRINTGUID
350
27C
  3
HYPERLINKBASE
350
274
  3
INSUNITS
350
27A
  3
LAYOUTDICT
350
276
  3
LWETCUNION
350
279
  3
PLOTSETDICT
350
277
  3
PLOTSTYLNAMDICT
350
278
  3
PSVPSCALE
350
27E
  3
PUCSBASE
350
281
  3
PUCSORGBACK
350
287
  3
PUCSORGBOTTOM
350
283
  3
PUCSORGFRONT
350
286
  3
PUCSORGLEFT
350
284
  3
PUCSORGRIGHT
350
285
  3
PUCSORGTOP
350
282
  3
PUCSORTHOREF
350
27F
  3
PUCSORTHOVIEW
350
280
  3
STYLESHEET
350
275
  3
TSTACKALIGN
350
272
  3
TSTACKSIZE
350
273
  3
UCSBASE
350
28A
  3
UCSORGBACK
350
290
  3
UCSORGBOTTOM
350
28C
  3
UCSORGFRONT
350
28F
  3
UCSORGLEFT
350
28D
  3
UCSORGRIGHT
350
28E
  3
UCSORGTOP
350
28B
  3
UCSORTHOREF
350
288
  3
UCSORTHOVIEW
350
289
  3
VERSIONGUID
350
27D
  0
DICTIONARY
  5
26E
102
{ACAD_REACTORS
330
C
102
}
330
C
100
AcDbDictionary
  3
DIMASSOC
350
26F
  0
XRECORD
  5
294
102
{ACAD_REACTORS
330
293
102
}
330
293
100
AcDbXrecord
340
1E
  0
XRECORD
  5
292
102
{ACAD_REACTORS
330
291
102
}
330
291
100
AcDbXrecord
340
1A
  0
MLINESTYLE
  5
17
102
{ACAD_REACTORS
330
16
102
}
330
16
100
AcDbMlineStyle
  2
STANDARD
 70
     0
  3

 62
   256
 51
90.0
 52
90.0
 71
     2
 49
0.5
 62
   256
  6
BYLAYER
 49
-0.5
 62
   256
  6
BYLAYER
  0
ACDBPLACEHOLDER
  5
F
102
{ACAD_REACTORS
330
E
102
}
330
E
100
AcDbPlaceHolder
280
     0
  0
XRECORD
  5
27B
102
{ACAD_REACTORS
330
271
102
}
330
271
100
AcDbXrecord
 90
        0
  0
XRECORD
  5
27C
102
{ACAD_REACTORS
330
271
102
}
330
271
100
AcDbXrecord
  1
{52CCFD57-1068-4983-ACDC-896C1F8B85C4}
  0
XRECORD
  5
274
102
{ACAD_REACTORS
330
271
102
}
330
271
100
AcDbXrecord
  1

  0
XRECORD
  5
27A
102
{ACAD_REACTORS
330
271
102
}
330
271
100
AcDbXrecord
 90
        0
  0
XRECORD
  5
276
102
{ACAD_REACTORS
330
271
102
}
330
271
100
AcDbXrecord
340
19
  0
XRECORD
  5
279
102
{ACAD_REACTORS
330
271
102
}
330
271
100
AcDbXrecord
 90
    10781
  0
XRECORD
  5
277
102
{ACAD_REACTORS
330
271
102
}
330
271
100
AcDbXrecord
340
18
  0
XRECORD
  5
278
102
{ACAD_REACTORS
330
271
102
}
330
271
100
AcDbXrecord
340
E
  0
XRECORD
  5
27E
102
{ACAD_REACTORS
330
271
102
}
330
271
100
AcDbXrecord
 40
0.0
  0
XRECORD
  5
281
102
{ACAD_REACTORS
330
271
102
}
330
271
100
AcDbXrecord
340
0
  0
XRECORD
  5
287
102
{ACAD_REACTORS
330
271
102
}
330
271
100
AcDbXrecord
 10
0.0
 20
0.0
 30
0.0
  0
XRECORD
  5
283
102
{ACAD_REACTORS
330
271
102
}
330
271
100
AcDbXrecord
 10
0.0
 20
0.0
 30
0.0
  0
XRECORD
  5
286
102
{ACAD_REACTORS
330
271
102
}
330
271
100
AcDbXrecord
 10
0.0
 20
0.0
 30
0.0
  0
XRECORD
  5
284
102
{ACAD_REACTORS
330
271
102
}
330
271
100
AcDbXrecord
 10
0.0
 20
0.0
 30
0.0
  0
XRECORD
  5
285
102
{ACAD_REACTORS
330
271
102
}
330
271
100
AcDbXrecord
 10
0.0
 20
0.0
 30
0.0
  0
XRECORD
  5
282
102
{ACAD_REACTORS
330
271
102
}
330
271
100
AcDbXrecord
 10
0.0
 20
0.0
 30
0.0
  0
XRECORD
  5
27F
102
{ACAD_REACTORS
330
271
102
}
330
271
100
AcDbXrecord
340
0
  0
XRECORD
  5
280
102
{ACAD_REACTORS
330
271
102
}
330
271
100
AcDbXrecord
 70
     0
  0
XRECORD
  5
275
102
{ACAD_REACTORS
330
271
102
}
330
271
100
AcDbXrecord
  1

  0
XRECORD
  5
272
102
{ACAD_REACTORS
330
271
102
}
330
271
100
AcDbXrecord
 90
        1
  0
XRECORD
  5
273
102
{ACAD_REACTORS
330
271
102
}
330
271
100
AcDbXrecord
 90
       70
  0
XRECORD
  5
28A
102
{ACAD_REACTORS
330
271
102
}
330
271
100
AcDbXrecord
340
0
  0
XRECORD
  5
290
102
{ACAD_REACTORS
330
271
102
}
330
271
100
AcDbXrecord
 10
0.0
 20
0.0
 30
0.0
  0
XRECORD
  5
28C
102
{ACAD_REACTORS
330
271
102
}
330
271
100
AcDbXrecord
 10
0.0
 20
0.0
 30
0.0
  0
XRECORD
  5
28F
102
{ACAD_REACTORS
330
271
102
}
330
271
100
AcDbXrecord
 10
0.0
 20
0.0
 30
0.0
  0
XRECORD
  5
28D
102
{ACAD_REACTORS
330
271
102
}
330
271
100
AcDbXrecord
 10
0.0
 20
0.0
 30
0.0
  0
XRECORD
  5
28E
102
{ACAD_REACTORS
330
271
102
}
330
271
100
AcDbXrecord
 10
0.0
 20
0.0
 30
0.0
  0
XRECORD
  5
28B
102
{ACAD_REACTORS
330
271
102
}
330
271
100
AcDbXrecord
 10
0.0
 20
0.0
 30
0.0
  0
XRECORD
  5
288
102
{ACAD_REACTORS
330
271
102
}
330
271
100
AcDbXrecord
340
0
  0
XRECORD
  5
289
102
{ACAD_REACTORS
330
271
102
}
330
271
100
AcDbXrecord
 70
     1
  0
XRECORD
  5
27D
102
{ACAD_REACTORS
330
271
102
}
330
271
100
AcDbXrecord
  1
{BB5CC014-F615-4DE6-BC38-5F8D3AFB35BF}
  0
DICTIONARYVAR
  5
26F
102
{ACAD_REACTORS
330
26E
102
}
330
26E
100
DictionaryVariables
280
     0
  1
1
  0
ENDSEC
  0
EOF
