  0
SECTION
  2
HEADER
  9
$ACADVER
  1
AC1014
  9
$ACADMAINTVER
 70
     9
  9
$DWGCODEPAGE
  3
ANSI_1252
  9
$INSBASE
 10
0.0
 20
0.0
 30
0.0
  9
$EXTMIN
 10
0.0000000000000044
 20
-0.149999999999996
 30
0.0
  9
$EXTMAX
 10
280.0
 20
107.15
 30
0.0
  9
$LIMMIN
 10
0.0
 20
0.0
  9
$LIMMAX
 10
12.0
 20
9.0
  9
$ORTHOMODE
 70
     0
  9
$REGENMODE
 70
     1
  9
$FILLMODE
 70
     1
  9
$QTEXTMODE
 70
     0
  9
$MIRRTEXT
 70
     1
  9
$DRAGMODE
 70
     2
  9
$LTSCALE
 40
1.0
  9
$OSMODE
 70
    37
  9
$ATTMODE
 70
     1
  9
$TEXTSIZE
 40
0.2
  9
$TRACEWID
 40
0.05
  9
$TEXTSTYLE
  7
STANDARD
  9
$CLAYER
  8
0
  9
$CELTYPE
  6
CONTINUOUS
  9
$CECOLOR
 62
   256
  9
$CELTSCALE
 40
1.0
  9
$DELOBJ
 70
     1
  9
$DISPSILH
 70
     0
  9
$DIMSCALE
 40
1.0
  9
$DIMASZ
 40
0.18
  9
$DIMEXO
 40
0.0625
  9
$DIMDLI
 40
0.38
  9
$DIMRND
 40
0.0
  9
$DIMDLE
 40
0.0
  9
$DIMEXE
 40
0.18
  9
$DIMTP
 40
0.0
  9
$DIMTM
 40
0.0
  9
$DIMTXT
 40
0.18
  9
$DIMCEN
 40
0.09
  9
$DIMTSZ
 40
0.0
  9
$DIMTOL
 70
     0
  9
$DIMLIM
 70
     0
  9
$DIMTIH
 70
     1
  9
$DIMTOH
 70
     1
  9
$DIMSE1
 70
     0
  9
$DIMSE2
 70
     0
  9
$DIMTAD
 70
     0
  9
$DIMZIN
 70
     0
  9
$DIMBLK
  1

  9
$DIMASO
 70
     1
  9
$DIMSHO
 70
     1
  9
$DIMPOST
  1

  9
$DIMAPOST
  1

  9
$DIMALT
 70
     0
  9
$DIMALTD
 70
     2
  9
$DIMALTF
 40
25.4
  9
$DIMLFAC
 40
1.0
  9
$DIMTOFL
 70
     0
  9
$DIMTVP
 40
0.0
  9
$DIMTIX
 70
     0
  9
$DIMSOXD
 70
     0
  9
$DIMSAH
 70
     0
  9
$DIMBLK1
  1

  9
$DIMBLK2
  1

  9
$DIMSTYLE
  2
STANDARD
  9
$DIMCLRD
 70
     0
  9
$DIMCLRE
 70
     0
  9
$DIMCLRT
 70
     0
  9
$DIMTFAC
 40
1.0
  9
$DIMGAP
 40
0.09
  9
$DIMJUST
 70
     0
  9
$DIMSD1
 70
     0
  9
$DIMSD2
 70
     0
  9
$DIMTOLJ
 70
     1
  9
$DIMTZIN
 70
     0
  9
$DIMALTZ
 70
     0
  9
$DIMALTTZ
 70
     0
  9
$DIMFIT
 70
     3
  9
$DIMUPT
 70
     0
  9
$DIMUNIT
 70
     2
  9
$DIMDEC
 70
     4
  9
$DIMTDEC
 70
     4
  9
$DIMALTU
 70
     2
  9
$DIMALTTD
 70
     2
  9
$DIMTXSTY
  7
STANDARD
  9
$DIMAUNIT
 70
     0
  9
$LUNITS
 70
     2
  9
$LUPREC
 70
     4
  9
$SKETCHINC
 40
0.1
  9
$FILLETRAD
 40
0.0
  9
$AUNITS
 70
     0
  9
$AUPREC
 70
     0
  9
$MENU
  1
.
  9
$ELEVATION
 40
0.0
  9
$PELEVATION
 40
0.0
  9
$THICKNESS
 40
0.0
  9
$LIMCHECK
 70
     0
  9
$BLIPMODE
 70
     0
  9
$CHAMFERA
 40
0.0
  9
$CHAMFERB
 40
0.0
  9
$CHAMFERC
 40
0.0
  9
$CHAMFERD
 40
0.0
  9
$SKPOLY
 70
     0
  9
$TDCREATE
 40
2454692.782971817
  9
$TDUPDATE
 40
2454692.783476921
  9
$TDINDWG
 40
0.0005052778
  9
$TDUSRTIMER
 40
0.0005052778
  9
$USRTIMER
 70
     1
  9
$ANGBASE
 50
0.0
  9
$ANGDIR
 70
     0
  9
$PDMODE
 70
     0
  9
$PDSIZE
 40
0.0
  9
$PLINEWID
 40
0.0
  9
$COORDS
 70
     1
  9
$SPLFRAME
 70
     0
  9
$SPLINETYPE
 70
     6
  9
$SPLINESEGS
 70
     8
  9
$ATTDIA
 70
     0
  9
$ATTREQ
 70
     1
  9
$HANDLING
 70
 22529
  9
$HANDSEED
  5
32E
  9
$SURFTAB1
 70
     6
  9
$SURFTAB2
 70
     6
  9
$SURFTYPE
 70
     6
  9
$SURFU
 70
     6
  9
$SURFV
 70
     6
  9
$UCSNAME
  2

  9
$UCSORG
 10
0.0
 20
0.0
 30
0.0
  9
$UCSXDIR
 10
1.0
 20
0.0
 30
0.0
  9
$UCSYDIR
 10
0.0
 20
1.0
 30
0.0
  9
$PUCSNAME
  2

  9
$PUCSORG
 10
0.0
 20
0.0
 30
0.0
  9
$PUCSXDIR
 10
1.0
 20
0.0
 30
0.0
  9
$PUCSYDIR
 10
0.0
 20
1.0
 30
0.0
  9
$USERI1
 70
     0
  9
$USERI2
 70
     0
  9
$USERI3
 70
     0
  9
$USERI4
 70
     0
  9
$USERI5
 70
     0
  9
$USERR1
 40
0.0
  9
$USERR2
 40
0.0
  9
$USERR3
 40
0.0
  9
$USERR4
 40
0.0
  9
$USERR5
 40
0.0
  9
$WORLDVIEW
 70
     1
  9
$SHADEDGE
 70
     3
  9
$SHADEDIF
 70
    70
  9
$TILEMODE
 70
     1
  9
$MAXACTVP
 70
    64
  9
$PINSBASE
 10
0.0
 20
0.0
 30
0.0
  9
$PLIMCHECK
 70
     0
  9
$PEXTMIN
 10
1.000000000000000E+20
 20
1.000000000000000E+20
 30
1.000000000000000E+20
  9
$PEXTMAX
 10
-1.000000000000000E+20
 20
-1.000000000000000E+20
 30
-1.000000000000000E+20
  9
$PLIMMIN
 10
0.0
 20
0.0
  9
$PLIMMAX
 10
12.0
 20
9.0
  9
$UNITMODE
 70
     0
  9
$VISRETAIN
 70
     1
  9
$PLINEGEN
 70
     0
  9
$PSLTSCALE
 70
     1
  9
$TREEDEPTH
 70
  3020
  9
$PICKSTYLE
 70
     1
  9
$CMLSTYLE
  2
STANDARD
  9
$CMLJUST
 70
     0
  9
$CMLSCALE
 40
1.0
  9
$PROXYGRAPHICS
 70
     1
  9
$MEASUREMENT
 70
     0
  0
ENDSEC
  0
SECTION
  2
CLASSES
  0
CLASS
  1
ACDBDICTIONARYWDFLT
  2
AcDbDictionaryWithDefault
  3
AutoCAD 2000
 90
        0
280
     0
281
     0
  0
CLASS
  1
ACDBPLACEHOLDER
  2
AcDbPlaceHolder
  3
AutoCAD 2000
 90
        0
280
     0
281
     0
  0
CLASS
  1
LAYOUT
  2
AcDbLayout
  3
AutoCAD 2000
 90
        0
280
     0
281
     0
  0
CLASS
  1
DICTIONARYVAR
  2
AcDbDictionaryVar
  3
AutoCAD 2000
 90
        0
280
     0
281
     0
  0
CLASS
  1
LONG_TRANSACTION
  2
AcDbLongTransaction
  3
AutoCAD 2000
 90
        0
280
     0
281
     0
  0
CLASS
  1
LWPOLYLINE
  2
AcDbPolyline
  3
AutoCAD 2000
 90
        0
280
     0
281
     1
  0
CLASS
  1
HATCH
  2
AcDbHatch
  3
AutoCAD 2000
 90
        0
280
     0
281
     1
  0
CLASS
  1
XRECORD
  2
AcDbXrecord
  3
AutoCAD 2000
 90
        0
280
     0
281
     0
  0
ENDSEC
  0
SECTION
  2
TABLES
  0
TABLE
  2
VPORT
  5
8
330
0
100
AcDbSymbolTable
 70
     2
  0
VPORT
  5
309
330
8
100
AcDbSymbolTableRecord
100
AcDbViewportTableRecord
  2
*ACTIVE
 70
     0
 10
0.0
 20
0.0
 11
1.0
 21
1.0
 12
140.0
 22
53.5
 13
0.0
 23
0.0
 14
1.0
 24
1.0
 15
0.0
 25
0.0
 16
0.0
 26
0.0
 36
1.0
 17
0.0
 27
0.0
 37
0.0
 40
135.2359402553806
 41
2.078104993597951
 42
50.0
 43
0.0
 44
0.0
 50
0.0
 51
0.0
 71
     0
 72
   100
 73
     1
 74
     3
 75
     0
 76
     0
 77
     0
 78
     0
  0
ENDTAB
  0
TABLE
  2
LTYPE
  5
5
330
0
100
AcDbSymbolTable
 70
     1
  0
LTYPE
  5
13
330
5
100
AcDbSymbolTableRecord
100
AcDbLinetypeTableRecord
  2
BYBLOCK
 70
     0
  3

 72
    65
 73
     0
 40
0.0
  0
LTYPE
  5
14
330
5
100
AcDbSymbolTableRecord
100
AcDbLinetypeTableRecord
  2
BYLAYER
 70
     0
  3

 72
    65
 73
     0
 40
0.0
  0
LTYPE
  5
15
330
5
100
AcDbSymbolTableRecord
100
AcDbLinetypeTableRecord
  2
CONTINUOUS
 70
     0
  3
Solid line
 72
    65
 73
     0
 40
0.0
  0
ENDTAB
  0
TABLE
  2
LAYER
  5
2
330
0
100
AcDbSymbolTable
 70
     1
  0
LAYER
  5
10
330
2
100
AcDbSymbolTableRecord
100
AcDbLayerTableRecord
  2
0
 70
     0
 62
     7
  6
CONTINUOUS
  0
ENDTAB
  0
TABLE
  2
STYLE
  5
3
330
0
100
AcDbSymbolTable
 70
     1
  0
STYLE
  5
11
330
3
100
AcDbSymbolTableRecord
100
AcDbTextStyleTableRecord
  2
STANDARD
 70
     0
 40
0.0
 41
1.0
 50
0.0
 71
     0
 42
0.2
  3
txt
  4

  0
ENDTAB
  0
TABLE
  2
VIEW
  5
6
330
0
100
AcDbSymbolTable
 70
     0
  0
ENDTAB
  0
TABLE
  2
UCS
  5
7
330
0
100
AcDbSymbolTable
 70
     0
  0
ENDTAB
  0
TABLE
  2
APPID
  5
9
330
0
100
AcDbSymbolTable
 70
     1
  0
APPID
  5
12
330
9
100
AcDbSymbolTableRecord
100
AcDbRegAppTableRecord
  2
ACAD
 70
     0
  0
ENDTAB
  0
TABLE
  2
DIMSTYLE
  5
A
330
0
100
AcDbSymbolTable
 70
     1
  0
DIMSTYLE
105
303
330
A
100
AcDbSymbolTableRecord
100
AcDbDimStyleTableRecord
  2
STANDARD
 70
     0
  3

  4

  5

  6

  7

 40
1.0
 41
0.18
 42
0.0625
 43
0.38
 44
0.18
 45
0.0
 46
0.0
 47
0.0
 48
0.0
140
0.18
141
0.09
142
0.0
143
25.4
144
1.0
145
0.0
146
1.0
147
0.09
 71
     0
 72
     0
 73
     1
 74
     1
 75
     0
 76
     0
 77
     0
 78
     0
170
     0
171
     2
172
     0
173
     0
174
     0
175
     0
176
     0
177
     0
178
     0
270
     2
271
     4
272
     4
273
     2
274
     2
340
11
275
     0
280
     0
281
     0
282
     0
283
     1
284
     0
285
     0
286
     0
287
     3
288
     0
  0
ENDTAB
  0
TABLE
  2
BLOCK_RECORD
  5
1
330
0
100
AcDbSymbolTable
 70
     0
  0
BLOCK_RECORD
  5
1E
102
{ACAD_XDICTIONARY
360
32C
102
}
330
1
100
AcDbSymbolTableRecord
100
AcDbBlockTableRecord
  2
*MODEL_SPACE
  0
BLOCK_RECORD
  5
1A
102
{ACAD_XDICTIONARY
360
32A
102
}
330
1
100
AcDbSymbolTableRecord
100
AcDbBlockTableRecord
  2
*PAPER_SPACE
  0
ENDTAB
  0
ENDSEC
  0
SECTION
  2
BLOCKS
  0
BLOCK
  5
1F
330
1E
100
AcDbEntity
  8
0
100
AcDbBlockBegin
  2
*MODEL_SPACE
 70
     0
 10
0.0
 20
0.0
 30
0.0
  3
*MODEL_SPACE
  1

  0
ENDBLK
  5
20
330
1E
100
AcDbEntity
  8
0
100
AcDbBlockEnd
  0
BLOCK
  5
1B
330
1A
100
AcDbEntity
 67
     1
  8
0
100
AcDbBlockBegin
  2
*PAPER_SPACE
 70
     0
 10
0.0
 20
0.0
 30
0.0
  3
*PAPER_SPACE
  1

  0
ENDBLK
  5
1C
330
1A
100
AcDbEntity
 67
     1
  8
0
100
AcDbBlockEnd
  0
ENDSEC
  0
SECTION
  2
ENTITIES
  0
LINE
  5
22
330
1E
100
AcDbEntity
  8
0
100
AcDbLine
 10
15.0
 20
1.149999999999999
 30
0.0
 11
19.0
 21
0.150000000000004
 31
0.0
  0
LINE
  5
23
330
1E
100
AcDbEntity
  8
0
100
AcDbLine
 10
15.0
 20
1.149999999999999
 30
0.0
 11
15.0
 21
3.149999999999999
 31
0.0
  0
LINE
  5
24
330
1E
100
AcDbEntity
  8
0
100
AcDbLine
 10
15.0
 20
1.149999999999999
 30
0.0
 11
15.3
 21
1.149999999999999
 31
0.0
  0
LINE
  5
25
330
1E
100
AcDbEntity
  8
0
100
AcDbLine
 10
15.0
 20
1.149999999999999
 30
0.0
 11
19.0
 21
0.150000000000004
 31
0.0
  0
LINE
  5
26
330
1E
100
AcDbEntity
  8
0
100
AcDbLine
 10
15.0
 20
5.15
 30
0.0
 11
15.0
 21
3.149999999999999
 31
0.0
  0
LINE
  5
27
330
1E
100
AcDbEntity
  8
0
100
AcDbLine
 10
3.0
 20
5.15
 30
0.0
 11
3.0
 21
5.950000000000009
 31
0.0
  0
LINE
  5
28
330
1E
100
AcDbEntity
  8
0
100
AcDbLine
 10
3.0
 20
5.15
 30
0.0
 11
15.0
 21
5.15
 31
0.0
  0
LINE
  5
29
330
1E
100
AcDbEntity
  8
0
100
AcDbLine
 10
15.9
 20
1.149999999999999
 30
0.0
 11
17.1
 21
1.149999999999999
 31
0.0
  0
LINE
  5
2A
330
1E
100
AcDbEntity
  8
0
100
AcDbLine
 10
15.3
 20
1.149999999999999
 30
0.0
 11
15.9
 21
1.149999999999999
 31
0.0
  0
LINE
  5
2B
330
1E
100
AcDbEntity
  8
0
100
AcDbLine
 10
18.5
 20
1.149999999999999
 30
0.0
 11
20.2
 21
1.149999999999999
 31
0.0
  0
LINE
  5
2C
330
1E
100
AcDbEntity
  8
0
100
AcDbLine
 10
17.1
 20
1.149999999999999
 30
0.0
 11
18.5
 21
1.149999999999999
 31
0.0
  0
LINE
  5
2D
330
1E
100
AcDbEntity
  8
0
100
AcDbLine
 10
19.0
 20
0.150000000000004
 30
0.0
 11
22.0
 21
-0.149999999999996
 31
0.0
  0
LINE
  5
2E
330
1E
100
AcDbEntity
  8
0
100
AcDbLine
 10
20.2
 20
1.149999999999999
 30
0.0
 11
22.0
 21
1.149999999999999
 31
0.0
  0
LINE
  5
2F
330
1E
100
AcDbEntity
  8
0
100
AcDbLine
 10
19.0
 20
0.150000000000004
 30
0.0
 11
22.0
 21
-0.149999999999996
 31
0.0
  0
LINE
  5
30
330
1E
100
AcDbEntity
  8
0
100
AcDbLine
 10
22.0
 20
-0.149999999999996
 30
0.0
 11
25.0
 21
0.150000000000004
 31
0.0
  0
LINE
  5
31
330
1E
100
AcDbEntity
  8
0
100
AcDbLine
 10
22.0
 20
1.149999999999999
 30
0.0
 11
23.8
 21
1.149999999999999
 31
0.0
  0
LINE
  5
32
330
1E
100
AcDbEntity
  8
0
100
AcDbLine
 10
22.0
 20
-0.149999999999996
 30
0.0
 11
25.0
 21
0.150000000000004
 31
0.0
  0
LINE
  5
33
330
1E
100
AcDbEntity
  8
0
100
AcDbLine
 10
20.2
 20
3.149999999999999
 30
0.0
 11
22.0
 21
3.149999999999999
 31
0.0
  0
LINE
  5
34
330
1E
100
AcDbEntity
  8
0
100
AcDbLine
 10
18.5
 20
3.149999999999999
 30
0.0
 11
20.2
 21
3.149999999999999
 31
0.0
  0
LINE
  5
35
330
1E
100
AcDbEntity
  8
0
100
AcDbLine
 10
17.1
 20
3.149999999999999
 30
0.0
 11
18.5
 21
3.149999999999999
 31
0.0
  0
LINE
  5
36
330
1E
100
AcDbEntity
  8
0
100
AcDbLine
 10
15.9
 20
3.149999999999999
 30
0.0
 11
17.1
 21
3.149999999999999
 31
0.0
  0
LINE
  5
37
330
1E
100
AcDbEntity
  8
0
100
AcDbLine
 10
15.3
 20
3.149999999999999
 30
0.0
 11
15.9
 21
3.149999999999999
 31
0.0
  0
LINE
  5
38
330
1E
100
AcDbEntity
  8
0
100
AcDbLine
 10
25.0
 20
0.150000000000004
 30
0.0
 11
29.0
 21
1.149999999999999
 31
0.0
  0
LINE
  5
39
330
1E
100
AcDbEntity
  8
0
100
AcDbLine
 10
23.8
 20
1.149999999999999
 30
0.0
 11
25.5
 21
1.149999999999999
 31
0.0
  0
LINE
  5
3A
330
1E
100
AcDbEntity
  8
0
100
AcDbLine
 10
25.5
 20
1.149999999999999
 30
0.0
 11
26.89999999999999
 21
1.149999999999999
 31
0.0
  0
LINE
  5
3B
330
1E
100
AcDbEntity
  8
0
100
AcDbLine
 10
25.0
 20
0.150000000000004
 30
0.0
 11
29.0
 21
1.149999999999999
 31
0.0
  0
LINE
  5
3C
330
1E
100
AcDbEntity
  8
0
100
AcDbLine
 10
22.0
 20
3.149999999999999
 30
0.0
 11
23.8
 21
3.149999999999999
 31
0.0
  0
LINE
  5
3D
330
1E
100
AcDbEntity
  8
0
100
AcDbLine
 10
23.8
 20
3.149999999999999
 30
0.0
 11
25.5
 21
3.149999999999999
 31
0.0
  0
LINE
  5
3E
330
1E
100
AcDbEntity
  8
0
100
AcDbLine
 10
26.89999999999999
 20
1.149999999999999
 30
0.0
 11
28.1
 21
1.149999999999999
 31
0.0
  0
LINE
  5
3F
330
1E
100
AcDbEntity
  8
0
100
AcDbLine
 10
28.1
 20
1.149999999999999
 30
0.0
 11
28.7
 21
1.149999999999999
 31
0.0
  0
LINE
  5
40
330
1E
100
AcDbEntity
  8
0
100
AcDbLine
 10
25.5
 20
3.149999999999999
 30
0.0
 11
26.89999999999999
 21
3.149999999999999
 31
0.0
  0
LINE
  5
41
330
1E
100
AcDbEntity
  8
0
100
AcDbLine
 10
26.89999999999999
 20
3.149999999999999
 30
0.0
 11
28.1
 21
3.149999999999999
 31
0.0
  0
LINE
  5
42
330
1E
100
AcDbEntity
  8
0
100
AcDbLine
 10
28.7
 20
1.149999999999999
 30
0.0
 11
29.0
 21
1.149999999999999
 31
0.0
  0
LINE
  5
43
330
1E
100
AcDbEntity
  8
0
100
AcDbLine
 10
29.0
 20
1.149999999999999
 30
0.0
 11
29.0
 21
3.149999999999999
 31
0.0
  0
LINE
  5
44
330
1E
100
AcDbEntity
  8
0
100
AcDbLine
 10
28.1
 20
3.149999999999999
 30
0.0
 11
28.7
 21
3.149999999999999
 31
0.0
  0
LINE
  5
45
330
1E
100
AcDbEntity
  8
0
100
AcDbLine
 10
28.7
 20
3.149999999999999
 30
0.0
 11
29.0
 21
3.149999999999999
 31
0.0
  0
LINE
  5
46
330
1E
100
AcDbEntity
  8
0
100
AcDbLine
 10
29.0
 20
3.149999999999999
 30
0.0
 11
29.0
 21
5.15
 31
0.0
  0
LINE
  5
47
330
1E
100
AcDbEntity
  8
0
100
AcDbLine
 10
29.0
 20
3.149999999999999
 30
0.0
 11
29.0
 21
1.149999999999999
 31
0.0
  0
LINE
  5
48
330
1E
100
AcDbEntity
  8
0
100
AcDbLine
 10
29.0
 20
5.15
 30
0.0
 11
46.0
 21
5.15
 31
0.0
  0
LINE
  5
49
330
1E
100
AcDbEntity
  8
0
100
AcDbLine
 10
15.0
 20
3.149999999999999
 30
0.0
 11
15.0
 21
5.15
 31
0.0
  0
LINE
  5
4A
330
1E
100
AcDbEntity
  8
0
100
AcDbLine
 10
15.0
 20
3.149999999999999
 30
0.0
 11
15.3
 21
3.149999999999999
 31
0.0
  0
LINE
  5
4B
330
1E
100
AcDbEntity
  8
0
100
AcDbLine
 10
15.0
 20
3.149999999999999
 30
0.0
 11
15.0
 21
1.149999999999999
 31
0.0
  0
LINE
  5
4C
330
1E
100
AcDbEntity
  8
0
100
AcDbLine
 10
3.0
 20
5.15
 30
0.0
 11
15.0
 21
5.15
 31
0.0
  0
LINE
  5
4D
330
1E
100
AcDbEntity
  8
0
100
AcDbLine
 10
46.0
 20
5.15
 30
0.0
 11
46.0
 21
5.950000000000009
 31
0.0
  0
LINE
  5
4E
330
1E
100
AcDbEntity
  8
0
100
AcDbLine
 10
29.0
 20
5.15
 30
0.0
 11
46.0
 21
5.15
 31
0.0
  0
LINE
  5
4F
330
1E
100
AcDbEntity
  8
0
100
AcDbLine
 10
29.0
 20
5.15
 30
0.0
 11
29.0
 21
3.149999999999999
 31
0.0
  0
LINE
  5
50
330
1E
100
AcDbEntity
  8
0
100
AcDbLine
 10
46.0
 20
5.950000000000009
 30
0.0
 11
46.0
 21
7.95
 31
0.0
  0
LINE
  5
51
330
1E
100
AcDbEntity
  8
0
100
AcDbLine
 10
46.0
 20
5.950000000000009
 30
0.0
 11
46.0
 21
5.15
 31
0.0
  0
LINE
  5
52
330
1E
100
AcDbEntity
  8
0
100
AcDbLine
 10
3.0
 20
5.950000000000009
 30
0.0
 11
3.0
 21
7.95
 31
0.0
  0
LINE
  5
53
330
1E
100
AcDbEntity
  8
0
100
AcDbLine
 10
3.0
 20
5.950000000000009
 30
0.0
 11
3.0
 21
5.15
 31
0.0
  0
LINE
  5
54
330
1E
100
AcDbEntity
  8
0
100
AcDbLine
 10
46.0
 20
6.65
 30
0.0
 11
48.0
 21
6.65
 31
0.0
  0
LINE
  5
55
330
1E
100
AcDbEntity
  8
0
100
AcDbLine
 10
46.0
 20
7.95
 30
0.0
 11
46.0
 21
11.35
 31
0.0
  0
LINE
  5
56
330
1E
100
AcDbEntity
  8
0
100
AcDbLine
 10
46.0
 20
7.95
 30
0.0
 11
46.0
 21
5.950000000000009
 31
0.0
  0
LINE
  5
57
330
1E
100
AcDbEntity
  8
0
100
AcDbLine
 10
3.0
 20
7.95
 30
0.0
 11
3.0
 21
11.35
 31
0.0
  0
LINE
  5
58
330
1E
100
AcDbEntity
  8
0
100
AcDbLine
 10
3.0
 20
7.95
 30
0.0
 11
3.0
 21
5.950000000000009
 31
0.0
  0
LINE
  5
59
330
1E
100
AcDbEntity
  8
0
100
AcDbLine
 10
2.0
 20
6.850000000000009
 30
0.0
 11
2.0
 21
8.85000000000001
 31
0.0
  0
LINE
  5
5A
330
1E
100
AcDbEntity
  8
0
100
AcDbLine
 10
2.0
 20
6.850000000000009
 30
0.0
 11
2.0
 21
6.15
 31
0.0
  0
LINE
  5
5B
330
1E
100
AcDbEntity
  8
0
100
AcDbLine
 10
2.0
 20
6.15
 30
0.0
 11
3.0
 21
5.15
 31
0.0
  0
LINE
  5
5C
330
1E
100
AcDbEntity
  8
0
100
AcDbLine
 10
2.0
 20
6.15
 30
0.0
 11
2.0
 21
6.850000000000009
 31
0.0
  0
LINE
  5
5D
330
1E
100
AcDbEntity
  8
0
100
AcDbLine
 10
48.0
 20
7.350000000000009
 30
0.0
 11
48.0
 21
9.250000000000008
 31
0.0
  0
LINE
  5
5E
330
1E
100
AcDbEntity
  8
0
100
AcDbLine
 10
48.0
 20
7.350000000000009
 30
0.0
 11
48.0
 21
6.65
 31
0.0
  0
LINE
  5
5F
330
1E
100
AcDbEntity
  8
0
100
AcDbLine
 10
2.0
 20
8.85000000000001
 30
0.0
 11
2.0
 21
12.05
 31
0.0
  0
LINE
  5
60
330
1E
100
AcDbEntity
  8
0
100
AcDbLine
 10
2.0
 20
8.85000000000001
 30
0.0
 11
2.0
 21
6.850000000000009
 31
0.0
  0
LINE
  5
61
330
1E
100
AcDbEntity
  8
0
100
AcDbLine
 10
46.0
 20
11.35
 30
0.0
 11
46.0
 21
15.65
 31
0.0
  0
LINE
  5
62
330
1E
100
AcDbEntity
  8
0
100
AcDbLine
 10
46.0
 20
11.35
 30
0.0
 11
46.0
 21
7.95
 31
0.0
  0
LINE
  5
63
330
1E
100
AcDbEntity
  8
0
100
AcDbLine
 10
3.0
 20
11.35
 30
0.0
 11
3.0
 21
15.65
 31
0.0
  0
LINE
  5
64
330
1E
100
AcDbEntity
  8
0
100
AcDbLine
 10
3.0
 20
11.35
 30
0.0
 11
3.0
 21
7.95
 31
0.0
  0
LINE
  5
65
330
1E
100
AcDbEntity
  8
0
100
AcDbLine
 10
2.0
 20
12.05
 30
0.0
 11
2.0
 21
16.15
 31
0.0
  0
LINE
  5
66
330
1E
100
AcDbEntity
  8
0
100
AcDbLine
 10
2.0
 20
12.05
 30
0.0
 11
2.0
 21
8.85000000000001
 31
0.0
  0
LINE
  5
67
330
1E
100
AcDbEntity
  8
0
100
AcDbLine
 10
46.0
 20
15.65
 30
0.0
 11
46.0
 21
20.75
 31
0.0
  0
LINE
  5
68
330
1E
100
AcDbEntity
  8
0
100
AcDbLine
 10
46.0
 20
15.65
 30
0.0
 11
46.0
 21
11.35
 31
0.0
  0
LINE
  5
69
330
1E
100
AcDbEntity
  8
0
100
AcDbLine
 10
3.0
 20
15.65
 30
0.0
 11
3.0
 21
20.75
 31
0.0
  0
LINE
  5
6A
330
1E
100
AcDbEntity
  8
0
100
AcDbLine
 10
3.0
 20
15.65
 30
0.0
 11
3.0
 21
11.35
 31
0.0
  0
LINE
  5
6B
330
1E
100
AcDbEntity
  8
0
100
AcDbLine
 10
48.0
 20
12.35
 30
0.0
 11
48.0
 21
16.45
 31
0.0
  0
LINE
  5
6C
330
1E
100
AcDbEntity
  8
0
100
AcDbLine
 10
48.0
 20
12.35
 30
0.0
 11
48.0
 21
9.250000000000008
 31
0.0
  0
LINE
  5
6D
330
1E
100
AcDbEntity
  8
0
100
AcDbLine
 10
48.0
 20
9.250000000000008
 30
0.0
 11
48.0
 21
12.35
 31
0.0
  0
LINE
  5
6E
330
1E
100
AcDbEntity
  8
0
100
AcDbLine
 10
48.0
 20
9.250000000000008
 30
0.0
 11
48.0
 21
7.350000000000009
 31
0.0
  0
LINE
  5
6F
330
1E
100
AcDbEntity
  8
0
100
AcDbLine
 10
2.0
 20
16.15
 30
0.0
 11
2.0
 21
20.95
 31
0.0
  0
LINE
  5
70
330
1E
100
AcDbEntity
  8
0
100
AcDbLine
 10
2.0
 20
16.15
 30
0.0
 11
2.0
 21
12.05
 31
0.0
  0
LINE
  5
71
330
1E
100
AcDbEntity
  8
0
100
AcDbLine
 10
0.0000000000000044
 20
18.14999999999999
 30
0.0
 11
0.0000000000000044
 21
18.44999999999999
 31
0.0
  0
LINE
  5
72
330
1E
100
AcDbEntity
  8
0
100
AcDbLine
 10
0.0000000000000044
 20
18.14999999999999
 30
0.0
 11
0.500000000000004
 21
18.14999999999999
 31
0.0
  0
LINE
  5
73
330
1E
100
AcDbEntity
  8
0
100
AcDbLine
 10
0.0000000000000044
 20
18.44999999999999
 30
0.0
 11
0.0000000000000044
 21
18.14999999999999
 31
0.0
  0
LINE
  5
74
330
1E
100
AcDbEntity
  8
0
100
AcDbLine
 10
0.0000000000000044
 20
18.44999999999999
 30
0.0
 11
0.0000000000000044
 21
19.25
 31
0.0
  0
LINE
  5
75
330
1E
100
AcDbEntity
  8
0
100
AcDbLine
 10
0.0000000000000044
 20
19.25
 30
0.0
 11
0.0000000000000044
 21
18.44999999999999
 31
0.0
  0
LINE
  5
76
330
1E
100
AcDbEntity
  8
0
100
AcDbLine
 10
0.0000000000000044
 20
19.25
 30
0.0
 11
0.0000000000000044
 21
20.55
 31
0.0
  0
LINE
  5
77
330
1E
100
AcDbEntity
  8
0
100
AcDbLine
 10
0.0000000000000044
 20
20.55
 30
0.0
 11
0.0000000000000044
 21
19.25
 31
0.0
  0
LINE
  5
78
330
1E
100
AcDbEntity
  8
0
100
AcDbLine
 10
0.0000000000000044
 20
20.55
 30
0.0
 11
0.0000000000000044
 21
22.14999999999999
 31
0.0
  0
LINE
  5
79
330
1E
100
AcDbEntity
  8
0
100
AcDbLine
 10
0.0000000000000044
 20
22.14999999999999
 30
0.0
 11
0.0000000000000044
 21
20.55
 31
0.0
  0
LINE
  5
7A
330
1E
100
AcDbEntity
  8
0
100
AcDbLine
 10
0.0000000000000044
 20
22.14999999999999
 30
0.0
 11
0.0000000000000044
 21
24.05
 31
0.0
  0
LINE
  5
7B
330
1E
100
AcDbEntity
  8
0
100
AcDbLine
 10
0.0000000000000044
 20
22.14999999999999
 30
0.0
 11
0.0000000000000044
 21
24.05
 31
0.0
  0
LINE
  5
7C
330
1E
100
AcDbEntity
  8
0
100
AcDbLine
 10
0.0000000000000044
 20
24.05
 30
0.0
 11
0.0000000000000044
 21
26.15
 31
0.0
  0
LINE
  5
7D
330
1E
100
AcDbEntity
  8
0
100
AcDbLine
 10
0.0000000000000044
 20
24.05
 30
0.0
 11
0.0000000000000044
 21
22.14999999999999
 31
0.0
  0
LINE
  5
7E
330
1E
100
AcDbEntity
  8
0
100
AcDbLine
 10
0.0000000000000044
 20
24.05
 30
0.0
 11
0.0000000000000044
 21
22.14999999999999
 31
0.0
  0
LINE
  5
7F
330
1E
100
AcDbEntity
  8
0
100
AcDbLine
 10
0.0000000000000044
 20
24.05
 30
0.0
 11
0.0000000000000044
 21
26.15
 31
0.0
  0
LINE
  5
80
330
1E
100
AcDbEntity
  8
0
100
AcDbLine
 10
0.500000000000004
 20
18.14999999999999
 30
0.0
 11
0.500000000000004
 21
18.44999999999999
 31
0.0
  0
LINE
  5
81
330
1E
100
AcDbEntity
  8
0
100
AcDbLine
 10
0.500000000000004
 20
18.14999999999999
 30
0.0
 11
2.0
 21
6.150000000000009
 31
0.0
  0
LINE
  5
82
330
1E
100
AcDbEntity
  8
0
100
AcDbLine
 10
0.500000000000004
 20
18.44999999999999
 30
0.0
 11
0.500000000000004
 21
19.25
 31
0.0
  0
LINE
  5
83
330
1E
100
AcDbEntity
  8
0
100
AcDbLine
 10
0.500000000000004
 20
18.44999999999999
 30
0.0
 11
0.500000000000004
 21
18.14999999999999
 31
0.0
  0
LINE
  5
84
330
1E
100
AcDbEntity
  8
0
100
AcDbLine
 10
0.500000000000004
 20
19.25
 30
0.0
 11
0.500000000000004
 21
20.55
 31
0.0
  0
LINE
  5
85
330
1E
100
AcDbEntity
  8
0
100
AcDbLine
 10
0.500000000000004
 20
19.25
 30
0.0
 11
0.500000000000004
 21
18.44999999999999
 31
0.0
  0
LINE
  5
86
330
1E
100
AcDbEntity
  8
0
100
AcDbLine
 10
0.500000000000004
 20
20.55
 30
0.0
 11
0.500000000000004
 21
22.14999999999999
 31
0.0
  0
LINE
  5
87
330
1E
100
AcDbEntity
  8
0
100
AcDbLine
 10
0.500000000000004
 20
20.55
 30
0.0
 11
0.500000000000004
 21
19.25
 31
0.0
  0
LINE
  5
88
330
1E
100
AcDbEntity
  8
0
100
AcDbLine
 10
0.500000000000004
 20
28.25
 30
0.0
 11
0.500000000000004
 21
30.15
 31
0.0
  0
LINE
  5
89
330
1E
100
AcDbEntity
  8
0
100
AcDbLine
 10
0.500000000000004
 20
28.25
 30
0.0
 11
0.500000000000004
 21
26.15
 31
0.0
  0
LINE
  5
8A
330
1E
100
AcDbEntity
  8
0
100
AcDbLine
 10
0.500000000000004
 20
26.15
 30
0.0
 11
0.500000000000004
 21
24.05
 31
0.0
  0
LINE
  5
8B
330
1E
100
AcDbEntity
  8
0
100
AcDbLine
 10
0.500000000000004
 20
26.15
 30
0.0
 11
0.500000000000004
 21
28.25
 31
0.0
  0
LINE
  5
8C
330
1E
100
AcDbEntity
  8
0
100
AcDbLine
 10
0.500000000000004
 20
22.14999999999999
 30
0.0
 11
0.500000000000004
 21
24.05
 31
0.0
  0
LINE
  5
8D
330
1E
100
AcDbEntity
  8
0
100
AcDbLine
 10
0.500000000000004
 20
22.14999999999999
 30
0.0
 11
0.500000000000004
 21
20.55
 31
0.0
  0
LINE
  5
8E
330
1E
100
AcDbEntity
  8
0
100
AcDbLine
 10
46.0
 20
20.75
 30
0.0
 11
46.0
 21
26.15
 31
0.0
  0
LINE
  5
8F
330
1E
100
AcDbEntity
  8
0
100
AcDbLine
 10
46.0
 20
20.75
 30
0.0
 11
46.0
 21
15.65
 31
0.0
  0
LINE
  5
90
330
1E
100
AcDbEntity
  8
0
100
AcDbLine
 10
3.0
 20
20.75
 30
0.0
 11
3.0
 21
26.15
 31
0.0
  0
LINE
  5
91
330
1E
100
AcDbEntity
  8
0
100
AcDbLine
 10
3.0
 20
20.75
 30
0.0
 11
3.0
 21
15.65
 31
0.0
  0
LINE
  5
92
330
1E
100
AcDbEntity
  8
0
100
AcDbLine
 10
46.0
 20
26.15
 30
0.0
 11
46.0
 21
20.75
 31
0.0
  0
LINE
  5
93
330
1E
100
AcDbEntity
  8
0
100
AcDbLine
 10
46.0
 20
26.15
 30
0.0
 11
46.0
 21
31.55
 31
0.0
  0
LINE
  5
94
330
1E
100
AcDbEntity
  8
0
100
AcDbLine
 10
3.0
 20
26.15
 30
0.0
 11
3.0
 21
20.75
 31
0.0
  0
LINE
  5
95
330
1E
100
AcDbEntity
  8
0
100
AcDbLine
 10
3.0
 20
26.15
 30
0.0
 11
3.0
 21
31.55
 31
0.0
  0
LINE
  5
96
330
1E
100
AcDbEntity
  8
0
100
AcDbLine
 10
2.0
 20
26.15
 30
0.0
 11
2.0
 21
20.95
 31
0.0
  0
LINE
  5
97
330
1E
100
AcDbEntity
  8
0
100
AcDbLine
 10
2.0
 20
26.15
 30
0.0
 11
2.0
 21
31.35
 31
0.0
  0
LINE
  5
98
330
1E
100
AcDbEntity
  8
0
100
AcDbLine
 10
2.0
 20
20.95
 30
0.0
 11
2.0
 21
26.15
 31
0.0
  0
LINE
  5
99
330
1E
100
AcDbEntity
  8
0
100
AcDbLine
 10
2.0
 20
20.95
 30
0.0
 11
2.0
 21
16.15
 31
0.0
  0
LINE
  5
9A
330
1E
100
AcDbEntity
  8
0
100
AcDbLine
 10
0.500000000000004
 20
24.05
 30
0.0
 11
0.500000000000004
 21
26.15
 31
0.0
  0
LINE
  5
9B
330
1E
100
AcDbEntity
  8
0
100
AcDbLine
 10
0.500000000000004
 20
24.05
 30
0.0
 11
0.500000000000004
 21
22.14999999999999
 31
0.0
  0
LINE
  5
9C
330
1E
100
AcDbEntity
  8
0
100
AcDbLine
 10
0.500000000000004
 20
18.14999999999999
 30
0.0
 11
2.0
 21
6.15
 31
0.0
  0
LINE
  5
9D
330
1E
100
AcDbEntity
  8
0
100
AcDbLine
 10
0.0000000000000044
 20
26.15
 30
0.0
 11
0.0000000000000044
 21
28.25
 31
0.0
  0
LINE
  5
9E
330
1E
100
AcDbEntity
  8
0
100
AcDbLine
 10
0.0000000000000044
 20
26.15
 30
0.0
 11
0.0000000000000044
 21
24.05
 31
0.0
  0
LINE
  5
9F
330
1E
100
AcDbEntity
  8
0
100
AcDbLine
 10
0.0000000000000044
 20
26.15
 30
0.0
 11
0.0000000000000044
 21
24.05
 31
0.0
  0
LINE
  5
A0
330
1E
100
AcDbEntity
  8
0
100
AcDbLine
 10
0.500000000000004
 20
30.15
 30
0.0
 11
0.500000000000004
 21
31.75
 31
0.0
  0
LINE
  5
A1
330
1E
100
AcDbEntity
  8
0
100
AcDbLine
 10
0.500000000000004
 20
30.15
 30
0.0
 11
0.500000000000004
 21
28.25
 31
0.0
  0
LINE
  5
A2
330
1E
100
AcDbEntity
  8
0
100
AcDbLine
 10
0.0000000000000044
 20
30.15
 30
0.0
 11
0.0000000000000044
 21
28.25
 31
0.0
  0
LINE
  5
A3
330
1E
100
AcDbEntity
  8
0
100
AcDbLine
 10
0.0000000000000044
 20
30.15
 30
0.0
 11
0.0000000000000044
 21
31.75
 31
0.0
  0
LINE
  5
A4
330
1E
100
AcDbEntity
  8
0
100
AcDbLine
 10
0.0000000000000044
 20
28.25
 30
0.0
 11
0.0000000000000044
 21
26.15
 31
0.0
  0
LINE
  5
A5
330
1E
100
AcDbEntity
  8
0
100
AcDbLine
 10
0.0000000000000044
 20
28.25
 30
0.0
 11
0.0000000000000044
 21
30.15
 31
0.0
  0
LINE
  5
A6
330
1E
100
AcDbEntity
  8
0
100
AcDbLine
 10
48.0
 20
21.14999999999999
 30
0.0
 11
48.0
 21
26.15
 31
0.0
  0
LINE
  5
A7
330
1E
100
AcDbEntity
  8
0
100
AcDbLine
 10
48.0
 20
21.14999999999999
 30
0.0
 11
48.0
 21
16.45
 31
0.0
  0
LINE
  5
A8
330
1E
100
AcDbEntity
  8
0
100
AcDbLine
 10
48.0
 20
16.45
 30
0.0
 11
48.0
 21
21.14999999999999
 31
0.0
  0
LINE
  5
A9
330
1E
100
AcDbEntity
  8
0
100
AcDbLine
 10
48.0
 20
16.45
 30
0.0
 11
48.0
 21
12.35
 31
0.0
  0
LINE
  5
AA
330
1E
100
AcDbEntity
  8
0
100
AcDbLine
 10
48.0
 20
20.75
 30
0.0
 11
48.0
 21
26.15
 31
0.0
  0
LINE
  5
AB
330
1E
100
AcDbEntity
  8
0
100
AcDbLine
 10
48.0
 20
20.75
 30
0.0
 11
48.0
 21
15.65
 31
0.0
  0
LINE
  5
AC
330
1E
100
AcDbEntity
  8
0
100
AcDbLine
 10
48.0
 20
15.65
 30
0.0
 11
48.0
 21
20.75
 31
0.0
  0
LINE
  5
AD
330
1E
100
AcDbEntity
  8
0
100
AcDbLine
 10
48.0
 20
15.65
 30
0.0
 11
48.0
 21
11.35
 31
0.0
  0
LINE
  5
AE
330
1E
100
AcDbEntity
  8
0
100
AcDbLine
 10
48.0
 20
11.35
 30
0.0
 11
48.0
 21
15.65
 31
0.0
  0
LINE
  5
AF
330
1E
100
AcDbEntity
  8
0
100
AcDbLine
 10
48.0
 20
11.35
 30
0.0
 11
48.0
 21
7.95
 31
0.0
  0
LINE
  5
B0
330
1E
100
AcDbEntity
  8
0
100
AcDbLine
 10
48.0
 20
7.95
 30
0.0
 11
48.0
 21
11.35
 31
0.0
  0
LINE
  5
B1
330
1E
100
AcDbEntity
  8
0
100
AcDbLine
 10
48.0
 20
7.95
 30
0.0
 11
48.0
 21
5.950000000000009
 31
0.0
  0
LINE
  5
B2
330
1E
100
AcDbEntity
  8
0
100
AcDbLine
 10
48.0
 20
5.950000000000009
 30
0.0
 11
48.0
 21
7.95
 31
0.0
  0
LINE
  5
B3
330
1E
100
AcDbEntity
  8
0
100
AcDbLine
 10
48.0
 20
5.950000000000009
 30
0.0
 11
48.0
 21
5.15
 31
0.0
  0
LINE
  5
B4
330
1E
100
AcDbEntity
  8
0
100
AcDbLine
 10
46.0
 20
31.55
 30
0.0
 11
46.0
 21
36.65
 31
0.0
  0
LINE
  5
B5
330
1E
100
AcDbEntity
  8
0
100
AcDbLine
 10
46.0
 20
31.55
 30
0.0
 11
46.0
 21
26.15
 31
0.0
  0
LINE
  5
B6
330
1E
100
AcDbEntity
  8
0
100
AcDbLine
 10
3.0
 20
31.55
 30
0.0
 11
3.0
 21
36.65
 31
0.0
  0
LINE
  5
B7
330
1E
100
AcDbEntity
  8
0
100
AcDbLine
 10
3.0
 20
31.55
 30
0.0
 11
3.0
 21
26.15
 31
0.0
  0
LINE
  5
B8
330
1E
100
AcDbEntity
  8
0
100
AcDbLine
 10
2.0
 20
31.35
 30
0.0
 11
2.0
 21
36.15
 31
0.0
  0
LINE
  5
B9
330
1E
100
AcDbEntity
  8
0
100
AcDbLine
 10
2.0
 20
31.35
 30
0.0
 11
2.0
 21
26.15
 31
0.0
  0
LINE
  5
BA
330
1E
100
AcDbEntity
  8
0
100
AcDbLine
 10
48.0
 20
31.15
 30
0.0
 11
48.0
 21
35.85
 31
0.0
  0
LINE
  5
BB
330
1E
100
AcDbEntity
  8
0
100
AcDbLine
 10
48.0
 20
31.15
 30
0.0
 11
48.0
 21
26.15
 31
0.0
  0
LINE
  5
BC
330
1E
100
AcDbEntity
  8
0
100
AcDbLine
 10
48.0
 20
26.15
 30
0.0
 11
48.0
 21
31.55
 31
0.0
  0
LINE
  5
BD
330
1E
100
AcDbEntity
  8
0
100
AcDbLine
 10
48.0
 20
26.15
 30
0.0
 11
48.0
 21
31.15
 31
0.0
  0
LINE
  5
BE
330
1E
100
AcDbEntity
  8
0
100
AcDbLine
 10
48.0
 20
26.15
 30
0.0
 11
48.0
 21
20.75
 31
0.0
  0
LINE
  5
BF
330
1E
100
AcDbEntity
  8
0
100
AcDbLine
 10
48.0
 20
26.15
 30
0.0
 11
48.0
 21
21.14999999999999
 31
0.0
  0
LINE
  5
C0
330
1E
100
AcDbEntity
  8
0
100
AcDbLine
 10
0.0000000000000044
 20
34.15
 30
0.0
 11
0.0000000000000044
 21
33.85
 31
0.0
  0
LINE
  5
C1
330
1E
100
AcDbEntity
  8
0
100
AcDbLine
 10
0.0000000000000044
 20
34.15
 30
0.0
 11
0.500000000000004
 21
34.15
 31
0.0
  0
LINE
  5
C2
330
1E
100
AcDbEntity
  8
0
100
AcDbLine
 10
0.0000000000000044
 20
33.85
 30
0.0
 11
0.0000000000000044
 21
33.04999999999999
 31
0.0
  0
LINE
  5
C3
330
1E
100
AcDbEntity
  8
0
100
AcDbLine
 10
0.0000000000000044
 20
33.85
 30
0.0
 11
0.0000000000000044
 21
34.15
 31
0.0
  0
LINE
  5
C4
330
1E
100
AcDbEntity
  8
0
100
AcDbLine
 10
0.0000000000000044
 20
33.04999999999999
 30
0.0
 11
0.0000000000000044
 21
31.75
 31
0.0
  0
LINE
  5
C5
330
1E
100
AcDbEntity
  8
0
100
AcDbLine
 10
0.0000000000000044
 20
33.04999999999999
 30
0.0
 11
0.0000000000000044
 21
33.85
 31
0.0
  0
LINE
  5
C6
330
1E
100
AcDbEntity
  8
0
100
AcDbLine
 10
0.500000000000004
 20
34.15
 30
0.0
 11
2.0
 21
46.15
 31
0.0
  0
LINE
  5
C7
330
1E
100
AcDbEntity
  8
0
100
AcDbLine
 10
0.500000000000004
 20
33.85
 30
0.0
 11
0.500000000000004
 21
34.15
 31
0.0
  0
LINE
  5
C8
330
1E
100
AcDbEntity
  8
0
100
AcDbLine
 10
0.500000000000004
 20
33.85
 30
0.0
 11
0.500000000000004
 21
33.04999999999999
 31
0.0
  0
LINE
  5
C9
330
1E
100
AcDbEntity
  8
0
100
AcDbLine
 10
0.500000000000004
 20
33.04999999999999
 30
0.0
 11
0.500000000000004
 21
33.85
 31
0.0
  0
LINE
  5
CA
330
1E
100
AcDbEntity
  8
0
100
AcDbLine
 10
0.500000000000004
 20
33.04999999999999
 30
0.0
 11
0.500000000000004
 21
31.75
 31
0.0
  0
LINE
  5
CB
330
1E
100
AcDbEntity
  8
0
100
AcDbLine
 10
0.500000000000004
 20
31.75
 30
0.0
 11
0.500000000000004
 21
33.04999999999999
 31
0.0
  0
LINE
  5
CC
330
1E
100
AcDbEntity
  8
0
100
AcDbLine
 10
0.500000000000004
 20
31.75
 30
0.0
 11
0.500000000000004
 21
30.15
 31
0.0
  0
LINE
  5
CD
330
1E
100
AcDbEntity
  8
0
100
AcDbLine
 10
0.500000000000004
 20
34.15
 30
0.0
 11
2.0
 21
46.15
 31
0.0
  0
LINE
  5
CE
330
1E
100
AcDbEntity
  8
0
100
AcDbLine
 10
0.500000000000004
 20
34.15
 30
0.0
 11
0.500000000000004
 21
33.85
 31
0.0
  0
LINE
  5
CF
330
1E
100
AcDbEntity
  8
0
100
AcDbLine
 10
0.0000000000000044
 20
31.75
 30
0.0
 11
0.0000000000000044
 21
30.15
 31
0.0
  0
LINE
  5
D0
330
1E
100
AcDbEntity
  8
0
100
AcDbLine
 10
0.0000000000000044
 20
31.75
 30
0.0
 11
0.0000000000000044
 21
33.04999999999999
 31
0.0
  0
LINE
  5
D1
330
1E
100
AcDbEntity
  8
0
100
AcDbLine
 10
2.0
 20
40.25
 30
0.0
 11
2.0
 21
43.45
 31
0.0
  0
LINE
  5
D2
330
1E
100
AcDbEntity
  8
0
100
AcDbLine
 10
2.0
 20
40.25
 30
0.0
 11
2.0
 21
36.15
 31
0.0
  0
LINE
  5
D3
330
1E
100
AcDbEntity
  8
0
100
AcDbLine
 10
46.0
 20
36.65
 30
0.0
 11
46.0
 21
40.95
 31
0.0
  0
LINE
  5
D4
330
1E
100
AcDbEntity
  8
0
100
AcDbLine
 10
46.0
 20
36.65
 30
0.0
 11
46.0
 21
31.55
 31
0.0
  0
LINE
  5
D5
330
1E
100
AcDbEntity
  8
0
100
AcDbLine
 10
46.0
 20
40.95
 30
0.0
 11
46.0
 21
44.35
 31
0.0
  0
LINE
  5
D6
330
1E
100
AcDbEntity
  8
0
100
AcDbLine
 10
46.0
 20
40.95
 30
0.0
 11
46.0
 21
36.65
 31
0.0
  0
LINE
  5
D7
330
1E
100
AcDbEntity
  8
0
100
AcDbLine
 10
3.0
 20
40.95
 30
0.0
 11
3.0
 21
44.35
 31
0.0
  0
LINE
  5
D8
330
1E
100
AcDbEntity
  8
0
100
AcDbLine
 10
3.0
 20
40.95
 30
0.0
 11
3.0
 21
36.65
 31
0.0
  0
LINE
  5
D9
330
1E
100
AcDbEntity
  8
0
100
AcDbLine
 10
3.0
 20
36.65
 30
0.0
 11
3.0
 21
40.95
 31
0.0
  0
LINE
  5
DA
330
1E
100
AcDbEntity
  8
0
100
AcDbLine
 10
3.0
 20
36.65
 30
0.0
 11
3.0
 21
31.55
 31
0.0
  0
LINE
  5
DB
330
1E
100
AcDbEntity
  8
0
100
AcDbLine
 10
2.0
 20
36.15
 30
0.0
 11
2.0
 21
40.25
 31
0.0
  0
LINE
  5
DC
330
1E
100
AcDbEntity
  8
0
100
AcDbLine
 10
2.0
 20
36.15
 30
0.0
 11
2.0
 21
31.35
 31
0.0
  0
LINE
  5
DD
330
1E
100
AcDbEntity
  8
0
100
AcDbLine
 10
48.0
 20
35.85
 30
0.0
 11
48.0
 21
39.95
 31
0.0
  0
LINE
  5
DE
330
1E
100
AcDbEntity
  8
0
100
AcDbLine
 10
48.0
 20
35.85
 30
0.0
 11
48.0
 21
31.15
 31
0.0
  0
LINE
  5
DF
330
1E
100
AcDbEntity
  8
0
100
AcDbLine
 10
48.0
 20
39.95
 30
0.0
 11
48.0
 21
43.04999999999999
 31
0.0
  0
LINE
  5
E0
330
1E
100
AcDbEntity
  8
0
100
AcDbLine
 10
48.0
 20
39.95
 30
0.0
 11
48.0
 21
35.85
 31
0.0
  0
LINE
  5
E1
330
1E
100
AcDbEntity
  8
0
100
AcDbLine
 10
48.0
 20
31.55
 30
0.0
 11
48.0
 21
36.65
 31
0.0
  0
LINE
  5
E2
330
1E
100
AcDbEntity
  8
0
100
AcDbLine
 10
48.0
 20
31.55
 30
0.0
 11
48.0
 21
26.15
 31
0.0
  0
LINE
  5
E3
330
1E
100
AcDbEntity
  8
0
100
AcDbLine
 10
48.0
 20
36.65
 30
0.0
 11
48.0
 21
40.95
 31
0.0
  0
LINE
  5
E4
330
1E
100
AcDbEntity
  8
0
100
AcDbLine
 10
48.0
 20
36.65
 30
0.0
 11
48.0
 21
31.55
 31
0.0
  0
LINE
  5
E5
330
1E
100
AcDbEntity
  8
0
100
AcDbLine
 10
2.0
 20
45.45
 30
0.0
 11
2.0
 21
46.15
 31
0.0
  0
LINE
  5
E6
330
1E
100
AcDbEntity
  8
0
100
AcDbLine
 10
2.0
 20
45.45
 30
0.0
 11
2.0
 21
43.45
 31
0.0
  0
LINE
  5
E7
330
1E
100
AcDbEntity
  8
0
100
AcDbLine
 10
46.0
 20
44.35
 30
0.0
 11
46.0
 21
46.35
 31
0.0
  0
LINE
  5
E8
330
1E
100
AcDbEntity
  8
0
100
AcDbLine
 10
46.0
 20
44.35
 30
0.0
 11
46.0
 21
40.95
 31
0.0
  0
LINE
  5
E9
330
1E
100
AcDbEntity
  8
0
100
AcDbLine
 10
46.0
 20
45.65
 30
0.0
 11
48.0
 21
45.65
 31
0.0
  0
LINE
  5
EA
330
1E
100
AcDbEntity
  8
0
100
AcDbLine
 10
3.0
 20
44.35
 30
0.0
 11
3.0
 21
46.35
 31
0.0
  0
LINE
  5
EB
330
1E
100
AcDbEntity
  8
0
100
AcDbLine
 10
3.0
 20
44.35
 30
0.0
 11
3.0
 21
40.95
 31
0.0
  0
LINE
  5
EC
330
1E
100
AcDbEntity
  8
0
100
AcDbLine
 10
2.0
 20
43.45
 30
0.0
 11
2.0
 21
45.45
 31
0.0
  0
LINE
  5
ED
330
1E
100
AcDbEntity
  8
0
100
AcDbLine
 10
2.0
 20
43.45
 30
0.0
 11
2.0
 21
40.25
 31
0.0
  0
LINE
  5
EE
330
1E
100
AcDbEntity
  8
0
100
AcDbLine
 10
48.0
 20
43.04999999999999
 30
0.0
 11
48.0
 21
44.95
 31
0.0
  0
LINE
  5
EF
330
1E
100
AcDbEntity
  8
0
100
AcDbLine
 10
48.0
 20
43.04999999999999
 30
0.0
 11
48.0
 21
39.95
 31
0.0
  0
LINE
  5
F0
330
1E
100
AcDbEntity
  8
0
100
AcDbLine
 10
48.0
 20
44.95
 30
0.0
 11
48.0
 21
45.65
 31
0.0
  0
LINE
  5
F1
330
1E
100
AcDbEntity
  8
0
100
AcDbLine
 10
48.0
 20
44.95
 30
0.0
 11
48.0
 21
43.04999999999999
 31
0.0
  0
LINE
  5
F2
330
1E
100
AcDbEntity
  8
0
100
AcDbLine
 10
48.0
 20
40.95
 30
0.0
 11
48.0
 21
44.35
 31
0.0
  0
LINE
  5
F3
330
1E
100
AcDbEntity
  8
0
100
AcDbLine
 10
48.0
 20
40.95
 30
0.0
 11
48.0
 21
36.65
 31
0.0
  0
LINE
  5
F4
330
1E
100
AcDbEntity
  8
0
100
AcDbLine
 10
48.0
 20
44.35
 30
0.0
 11
48.0
 21
46.35
 31
0.0
  0
LINE
  5
F5
330
1E
100
AcDbEntity
  8
0
100
AcDbLine
 10
48.0
 20
44.35
 30
0.0
 11
48.0
 21
40.95
 31
0.0
  0
LINE
  5
F6
330
1E
100
AcDbEntity
  8
0
100
AcDbLine
 10
15.0
 20
47.14999999999999
 30
0.0
 11
15.0
 21
49.15
 31
0.0
  0
LINE
  5
F7
330
1E
100
AcDbEntity
  8
0
100
AcDbLine
 10
3.0
 20
47.14999999999999
 30
0.0
 11
15.0
 21
47.14999999999999
 31
0.0
  0
LINE
  5
F8
330
1E
100
AcDbEntity
  8
0
100
AcDbLine
 10
3.0
 20
46.35
 30
0.0
 11
3.0
 21
47.14999999999999
 31
0.0
  0
LINE
  5
F9
330
1E
100
AcDbEntity
  8
0
100
AcDbLine
 10
3.0
 20
46.35
 30
0.0
 11
3.0
 21
44.35
 31
0.0
  0
LINE
  5
FA
330
1E
100
AcDbEntity
  8
0
100
AcDbLine
 10
46.0
 20
47.14999999999999
 30
0.0
 11
46.0
 21
46.35
 31
0.0
  0
LINE
  5
FB
330
1E
100
AcDbEntity
  8
0
100
AcDbLine
 10
46.0
 20
46.35
 30
0.0
 11
46.0
 21
47.14999999999999
 31
0.0
  0
LINE
  5
FC
330
1E
100
AcDbEntity
  8
0
100
AcDbLine
 10
46.0
 20
46.35
 30
0.0
 11
46.0
 21
44.35
 31
0.0
  0
LINE
  5
FD
330
1E
100
AcDbEntity
  8
0
100
AcDbLine
 10
29.0
 20
47.14999999999999
 30
0.0
 11
29.0
 21
49.15
 31
0.0
  0
LINE
  5
FE
330
1E
100
AcDbEntity
  8
0
100
AcDbLine
 10
29.0
 20
47.14999999999999
 30
0.0
 11
46.0
 21
47.14999999999999
 31
0.0
  0
LINE
  5
FF
330
1E
100
AcDbEntity
  8
0
100
AcDbLine
 10
29.0
 20
47.14999999999999
 30
0.0
 11
46.0
 21
47.14999999999999
 31
0.0
  0
LINE
  5
100
330
1E
100
AcDbEntity
  8
0
100
AcDbLine
 10
3.0
 20
47.14999999999999
 30
0.0
 11
15.0
 21
47.14999999999999
 31
0.0
  0
LINE
  5
101
330
1E
100
AcDbEntity
  8
0
100
AcDbLine
 10
3.0
 20
47.14999999999999
 30
0.0
 11
3.0
 21
46.35
 31
0.0
  0
LINE
  5
102
330
1E
100
AcDbEntity
  8
0
100
AcDbLine
 10
2.0
 20
46.15
 30
0.0
 11
3.0
 21
47.14999999999999
 31
0.0
  0
LINE
  5
103
330
1E
100
AcDbEntity
  8
0
100
AcDbLine
 10
2.0
 20
46.15
 30
0.0
 11
2.0
 21
45.45
 31
0.0
  0
LINE
  5
104
330
1E
100
AcDbEntity
  8
0
100
AcDbLine
 10
48.0
 20
45.65
 30
0.0
 11
48.0
 21
46.35
 31
0.0
  0
LINE
  5
105
330
1E
100
AcDbEntity
  8
0
100
AcDbLine
 10
48.0
 20
45.65
 30
0.0
 11
48.0
 21
44.95
 31
0.0
  0
LINE
  5
106
330
1E
100
AcDbEntity
  8
0
100
AcDbLine
 10
48.0
 20
46.35
 30
0.0
 11
48.0
 21
45.65
 31
0.0
  0
LINE
  5
107
330
1E
100
AcDbEntity
  8
0
100
AcDbLine
 10
48.0
 20
46.35
 30
0.0
 11
48.0
 21
47.14999999999999
 31
0.0
  0
LINE
  5
108
330
1E
100
AcDbEntity
  8
0
100
AcDbLine
 10
48.0
 20
46.35
 30
0.0
 11
48.0
 21
44.35
 31
0.0
  0
LINE
  5
109
330
1E
100
AcDbEntity
  8
0
100
AcDbLine
 10
22.0
 20
49.15
 30
0.0
 11
23.8
 21
49.15
 31
0.0
  0
LINE
  5
10A
330
1E
100
AcDbEntity
  8
0
100
AcDbLine
 10
23.8
 20
49.15
 30
0.0
 11
25.5
 21
49.15
 31
0.0
  0
LINE
  5
10B
330
1E
100
AcDbEntity
  8
0
100
AcDbLine
 10
25.5
 20
49.15
 30
0.0
 11
26.89999999999999
 21
49.15
 31
0.0
  0
LINE
  5
10C
330
1E
100
AcDbEntity
  8
0
100
AcDbLine
 10
26.89999999999999
 20
49.15
 30
0.0
 11
28.1
 21
49.15
 31
0.0
  0
LINE
  5
10D
330
1E
100
AcDbEntity
  8
0
100
AcDbLine
 10
28.1
 20
49.15
 30
0.0
 11
28.7
 21
49.15
 31
0.0
  0
LINE
  5
10E
330
1E
100
AcDbEntity
  8
0
100
AcDbLine
 10
28.7
 20
49.15
 30
0.0
 11
29.0
 21
49.15
 31
0.0
  0
LINE
  5
10F
330
1E
100
AcDbEntity
  8
0
100
AcDbLine
 10
29.0
 20
49.15
 30
0.0
 11
29.0
 21
47.14999999999999
 31
0.0
  0
LINE
  5
110
330
1E
100
AcDbEntity
  8
0
100
AcDbLine
 10
20.2
 20
49.15
 30
0.0
 11
22.0
 21
49.15
 31
0.0
  0
LINE
  5
111
330
1E
100
AcDbEntity
  8
0
100
AcDbLine
 10
18.5
 20
49.15
 30
0.0
 11
20.2
 21
49.15
 31
0.0
  0
LINE
  5
112
330
1E
100
AcDbEntity
  8
0
100
AcDbLine
 10
17.1
 20
49.15
 30
0.0
 11
18.5
 21
49.15
 31
0.0
  0
LINE
  5
113
330
1E
100
AcDbEntity
  8
0
100
AcDbLine
 10
15.9
 20
49.15
 30
0.0
 11
17.1
 21
49.15
 31
0.0
  0
LINE
  5
114
330
1E
100
AcDbEntity
  8
0
100
AcDbLine
 10
15.3
 20
49.15
 30
0.0
 11
15.9
 21
49.15
 31
0.0
  0
LINE
  5
115
330
1E
100
AcDbEntity
  8
0
100
AcDbLine
 10
15.0
 20
49.15
 30
0.0
 11
15.0
 21
47.14999999999999
 31
0.0
  0
LINE
  5
116
330
1E
100
AcDbEntity
  8
0
100
AcDbLine
 10
15.0
 20
49.15
 30
0.0
 11
15.3
 21
49.15
 31
0.0
  0
LINE
  5
117
330
1E
100
AcDbEntity
  8
0
100
AcDbLine
 10
31.0
 20
107.15
 30
0.0
 11
31.0
 21
83.15000000000001
 31
0.0
  0
LINE
  5
118
330
1E
100
AcDbEntity
  8
0
100
AcDbLine
 10
31.0
 20
107.15
 30
0.0
 11
32.2
 21
107.15
 31
0.0
  0
LINE
  5
119
330
1E
100
AcDbEntity
  8
0
100
AcDbLine
 10
42.4
 20
81.15
 30
0.0
 11
49.1
 21
81.15
 31
0.0
  0
LINE
  5
11A
330
1E
100
AcDbEntity
  8
0
100
AcDbLine
 10
37.29999999999999
 20
81.15
 30
0.0
 11
42.4
 21
81.15
 31
0.0
  0
LINE
  5
11B
330
1E
100
AcDbEntity
  8
0
100
AcDbLine
 10
34.2
 20
81.15
 30
0.0
 11
37.29999999999999
 21
81.15
 31
0.0
  0
LINE
  5
11C
330
1E
100
AcDbEntity
  8
0
100
AcDbLine
 10
32.2
 20
107.15
 30
0.0
 11
35.6
 21
107.15
 31
0.0
  0
LINE
  5
11D
330
1E
100
AcDbEntity
  8
0
100
AcDbLine
 10
41.0
 20
83.15000000000001
 30
0.0
 11
48.1
 21
83.15000000000001
 31
0.0
  0
LINE
  5
11E
330
1E
100
AcDbEntity
  8
0
100
AcDbLine
 10
41.0
 20
107.15
 30
0.0
 11
48.1
 21
107.15
 31
0.0
  0
LINE
  5
11F
330
1E
100
AcDbEntity
  8
0
100
AcDbLine
 10
35.6
 20
107.15
 30
0.0
 11
41.0
 21
107.15
 31
0.0
  0
LINE
  5
120
330
1E
100
AcDbEntity
  8
0
100
AcDbLine
 10
35.6
 20
83.15000000000001
 30
0.0
 11
41.0
 21
83.15000000000001
 31
0.0
  0
LINE
  5
121
330
1E
100
AcDbEntity
  8
0
100
AcDbLine
 10
32.2
 20
83.15000000000001
 30
0.0
 11
35.6
 21
83.15000000000001
 31
0.0
  0
LINE
  5
122
330
1E
100
AcDbEntity
  8
0
100
AcDbLine
 10
33.0
 20
81.15
 30
0.0
 11
34.2
 21
81.15
 31
0.0
  0
LINE
  5
123
330
1E
100
AcDbEntity
  8
0
100
AcDbLine
 10
31.0
 20
83.15000000000001
 30
0.0
 11
31.0
 21
107.15
 31
0.0
  0
LINE
  5
124
330
1E
100
AcDbEntity
  8
0
100
AcDbLine
 10
31.0
 20
83.15000000000001
 30
0.0
 11
33.0
 21
81.15
 31
0.0
  0
LINE
  5
125
330
1E
100
AcDbEntity
  8
0
100
AcDbLine
 10
31.0
 20
83.15000000000001
 30
0.0
 11
32.2
 21
83.15000000000001
 31
0.0
  0
LINE
  5
126
330
1E
100
AcDbEntity
  8
0
100
AcDbLine
 10
48.0
 20
47.14999999999999
 30
0.0
 11
48.0
 21
46.35
 31
0.0
  0
LINE
  5
127
330
1E
100
AcDbEntity
  8
0
100
AcDbLine
 10
48.0
 20
47.14999999999999
 30
0.0
 11
51.0
 21
47.14999999999999
 31
0.0
  0
LINE
  5
128
330
1E
100
AcDbEntity
  8
0
100
AcDbLine
 10
48.0
 20
6.65
 30
0.0
 11
48.0
 21
5.95
 31
0.0
  0
LINE
  5
129
330
1E
100
AcDbEntity
  8
0
100
AcDbLine
 10
48.0
 20
6.65
 30
0.0
 11
48.0
 21
7.350000000000009
 31
0.0
  0
LINE
  5
12A
330
1E
100
AcDbEntity
  8
0
100
AcDbLine
 10
48.0
 20
5.95
 30
0.0
 11
48.0
 21
5.15
 31
0.0
  0
LINE
  5
12B
330
1E
100
AcDbEntity
  8
0
100
AcDbLine
 10
48.0
 20
5.95
 30
0.0
 11
48.0
 21
6.65
 31
0.0
  0
LINE
  5
12C
330
1E
100
AcDbEntity
  8
0
100
AcDbLine
 10
232.0
 20
5.15
 30
0.0
 11
232.0
 21
5.950000000000009
 31
0.0
  0
LINE
  5
12D
330
1E
100
AcDbEntity
  8
0
100
AcDbLine
 10
140.0
 20
5.15
 30
0.0
 11
232.0
 21
5.15
 31
0.0
  0
LINE
  5
12E
330
1E
100
AcDbEntity
  8
0
100
AcDbLine
 10
251.0
 20
1.149999999999999
 30
0.0
 11
251.0
 21
3.149999999999999
 31
0.0
  0
LINE
  5
12F
330
1E
100
AcDbEntity
  8
0
100
AcDbLine
 10
251.0
 20
1.149999999999999
 30
0.0
 11
255.0
 21
0.150000000000004
 31
0.0
  0
LINE
  5
130
330
1E
100
AcDbEntity
  8
0
100
AcDbLine
 10
251.0
 20
1.149999999999999
 30
0.0
 11
251.3
 21
1.149999999999999
 31
0.0
  0
LINE
  5
131
330
1E
100
AcDbEntity
  8
0
100
AcDbLine
 10
251.0
 20
1.149999999999999
 30
0.0
 11
255.0
 21
0.150000000000004
 31
0.0
  0
LINE
  5
132
330
1E
100
AcDbEntity
  8
0
100
AcDbLine
 10
251.9
 20
1.149999999999999
 30
0.0
 11
253.1
 21
1.149999999999999
 31
0.0
  0
LINE
  5
133
330
1E
100
AcDbEntity
  8
0
100
AcDbLine
 10
251.3
 20
1.149999999999999
 30
0.0
 11
251.9
 21
1.149999999999999
 31
0.0
  0
LINE
  5
134
330
1E
100
AcDbEntity
  8
0
100
AcDbLine
 10
254.4999999999999
 20
1.149999999999999
 30
0.0
 11
256.1999999999999
 21
1.149999999999999
 31
0.0
  0
LINE
  5
135
330
1E
100
AcDbEntity
  8
0
100
AcDbLine
 10
253.1
 20
1.149999999999999
 30
0.0
 11
254.4999999999999
 21
1.149999999999999
 31
0.0
  0
LINE
  5
136
330
1E
100
AcDbEntity
  8
0
100
AcDbLine
 10
255.0
 20
0.150000000000004
 30
0.0
 11
258.0
 21
-0.149999999999996
 31
0.0
  0
LINE
  5
137
330
1E
100
AcDbEntity
  8
0
100
AcDbLine
 10
256.1999999999999
 20
1.149999999999999
 30
0.0
 11
258.0
 21
1.149999999999999
 31
0.0
  0
LINE
  5
138
330
1E
100
AcDbEntity
  8
0
100
AcDbLine
 10
255.0
 20
0.150000000000004
 30
0.0
 11
258.0
 21
-0.149999999999996
 31
0.0
  0
LINE
  5
139
330
1E
100
AcDbEntity
  8
0
100
AcDbLine
 10
258.0
 20
-0.149999999999996
 30
0.0
 11
261.0
 21
0.150000000000004
 31
0.0
  0
LINE
  5
13A
330
1E
100
AcDbEntity
  8
0
100
AcDbLine
 10
258.0
 20
1.149999999999999
 30
0.0
 11
259.8
 21
1.149999999999999
 31
0.0
  0
LINE
  5
13B
330
1E
100
AcDbEntity
  8
0
100
AcDbLine
 10
259.8
 20
1.149999999999999
 30
0.0
 11
261.5
 21
1.149999999999999
 31
0.0
  0
LINE
  5
13C
330
1E
100
AcDbEntity
  8
0
100
AcDbLine
 10
258.0
 20
-0.149999999999996
 30
0.0
 11
261.0
 21
0.150000000000004
 31
0.0
  0
LINE
  5
13D
330
1E
100
AcDbEntity
  8
0
100
AcDbLine
 10
258.0
 20
3.149999999999999
 30
0.0
 11
259.8
 21
3.149999999999999
 31
0.0
  0
LINE
  5
13E
330
1E
100
AcDbEntity
  8
0
100
AcDbLine
 10
261.0
 20
0.150000000000004
 30
0.0
 11
265.0
 21
1.149999999999999
 31
0.0
  0
LINE
  5
13F
330
1E
100
AcDbEntity
  8
0
100
AcDbLine
 10
261.0
 20
0.150000000000004
 30
0.0
 11
265.0
 21
1.149999999999999
 31
0.0
  0
LINE
  5
140
330
1E
100
AcDbEntity
  8
0
100
AcDbLine
 10
261.5
 20
1.149999999999999
 30
0.0
 11
262.9
 21
1.149999999999999
 31
0.0
  0
LINE
  5
141
330
1E
100
AcDbEntity
  8
0
100
AcDbLine
 10
262.9
 20
1.149999999999999
 30
0.0
 11
264.1
 21
1.149999999999999
 31
0.0
  0
LINE
  5
142
330
1E
100
AcDbEntity
  8
0
100
AcDbLine
 10
259.8
 20
3.149999999999999
 30
0.0
 11
261.5
 21
3.149999999999999
 31
0.0
  0
LINE
  5
143
330
1E
100
AcDbEntity
  8
0
100
AcDbLine
 10
261.5
 20
3.149999999999999
 30
0.0
 11
262.9
 21
3.149999999999999
 31
0.0
  0
LINE
  5
144
330
1E
100
AcDbEntity
  8
0
100
AcDbLine
 10
264.1
 20
1.149999999999999
 30
0.0
 11
264.6999999999999
 21
1.149999999999999
 31
0.0
  0
LINE
  5
145
330
1E
100
AcDbEntity
  8
0
100
AcDbLine
 10
264.6999999999999
 20
1.149999999999999
 30
0.0
 11
265.0
 21
1.149999999999999
 31
0.0
  0
LINE
  5
146
330
1E
100
AcDbEntity
  8
0
100
AcDbLine
 10
262.9
 20
3.149999999999999
 30
0.0
 11
264.1
 21
3.149999999999999
 31
0.0
  0
LINE
  5
147
330
1E
100
AcDbEntity
  8
0
100
AcDbLine
 10
264.1
 20
3.149999999999999
 30
0.0
 11
264.6999999999999
 21
3.149999999999999
 31
0.0
  0
LINE
  5
148
330
1E
100
AcDbEntity
  8
0
100
AcDbLine
 10
265.0
 20
1.149999999999999
 30
0.0
 11
265.0
 21
3.149999999999999
 31
0.0
  0
LINE
  5
149
330
1E
100
AcDbEntity
  8
0
100
AcDbLine
 10
264.6999999999999
 20
3.149999999999999
 30
0.0
 11
265.0
 21
3.149999999999999
 31
0.0
  0
LINE
  5
14A
330
1E
100
AcDbEntity
  8
0
100
AcDbLine
 10
256.1999999999999
 20
3.149999999999999
 30
0.0
 11
258.0
 21
3.149999999999999
 31
0.0
  0
LINE
  5
14B
330
1E
100
AcDbEntity
  8
0
100
AcDbLine
 10
254.4999999999999
 20
3.149999999999999
 30
0.0
 11
256.1999999999999
 21
3.149999999999999
 31
0.0
  0
LINE
  5
14C
330
1E
100
AcDbEntity
  8
0
100
AcDbLine
 10
253.1
 20
3.149999999999999
 30
0.0
 11
254.4999999999999
 21
3.149999999999999
 31
0.0
  0
LINE
  5
14D
330
1E
100
AcDbEntity
  8
0
100
AcDbLine
 10
251.9
 20
3.149999999999999
 30
0.0
 11
253.1
 21
3.149999999999999
 31
0.0
  0
LINE
  5
14E
330
1E
100
AcDbEntity
  8
0
100
AcDbLine
 10
251.3
 20
3.149999999999999
 30
0.0
 11
251.9
 21
3.149999999999999
 31
0.0
  0
LINE
  5
14F
330
1E
100
AcDbEntity
  8
0
100
AcDbLine
 10
251.0
 20
3.149999999999999
 30
0.0
 11
251.0
 21
5.15
 31
0.0
  0
LINE
  5
150
330
1E
100
AcDbEntity
  8
0
100
AcDbLine
 10
251.0
 20
3.149999999999999
 30
0.0
 11
251.3
 21
3.149999999999999
 31
0.0
  0
LINE
  5
151
330
1E
100
AcDbEntity
  8
0
100
AcDbLine
 10
251.0
 20
3.149999999999999
 30
0.0
 11
251.0
 21
1.149999999999999
 31
0.0
  0
LINE
  5
152
330
1E
100
AcDbEntity
  8
0
100
AcDbLine
 10
251.0
 20
5.15
 30
0.0
 11
251.0
 21
3.149999999999999
 31
0.0
  0
LINE
  5
153
330
1E
100
AcDbEntity
  8
0
100
AcDbLine
 10
265.0
 20
3.149999999999999
 30
0.0
 11
265.0
 21
5.15
 31
0.0
  0
LINE
  5
154
330
1E
100
AcDbEntity
  8
0
100
AcDbLine
 10
265.0
 20
3.149999999999999
 30
0.0
 11
265.0
 21
1.149999999999999
 31
0.0
  0
LINE
  5
155
330
1E
100
AcDbEntity
  8
0
100
AcDbLine
 10
265.0
 20
5.15
 30
0.0
 11
277.0
 21
5.15
 31
0.0
  0
LINE
  5
156
330
1E
100
AcDbEntity
  8
0
100
AcDbLine
 10
265.0
 20
5.15
 30
0.0
 11
265.0
 21
3.149999999999999
 31
0.0
  0
LINE
  5
157
330
1E
100
AcDbEntity
  8
0
100
AcDbLine
 10
234.0
 20
5.15
 30
0.0
 11
234.0
 21
5.95
 31
0.0
  0
LINE
  5
158
330
1E
100
AcDbEntity
  8
0
100
AcDbLine
 10
234.0
 20
5.15
 30
0.0
 11
251.0
 21
5.15
 31
0.0
  0
LINE
  5
159
330
1E
100
AcDbEntity
  8
0
100
AcDbLine
 10
234.0
 20
5.15
 30
0.0
 11
234.0
 21
5.950000000000009
 31
0.0
  0
LINE
  5
15A
330
1E
100
AcDbEntity
  8
0
100
AcDbLine
 10
232.0
 20
5.950000000000009
 30
0.0
 11
232.0
 21
5.15
 31
0.0
  0
LINE
  5
15B
330
1E
100
AcDbEntity
  8
0
100
AcDbLine
 10
232.0
 20
5.950000000000009
 30
0.0
 11
232.0
 21
7.95
 31
0.0
  0
LINE
  5
15C
330
1E
100
AcDbEntity
  8
0
100
AcDbLine
 10
234.0
 20
5.950000000000009
 30
0.0
 11
234.0
 21
5.15
 31
0.0
  0
LINE
  5
15D
330
1E
100
AcDbEntity
  8
0
100
AcDbLine
 10
234.0
 20
5.950000000000009
 30
0.0
 11
234.0
 21
7.95
 31
0.0
  0
LINE
  5
15E
330
1E
100
AcDbEntity
  8
0
100
AcDbLine
 10
277.0
 20
5.950000000000009
 30
0.0
 11
277.0
 21
5.15
 31
0.0
  0
LINE
  5
15F
330
1E
100
AcDbEntity
  8
0
100
AcDbLine
 10
277.0
 20
5.950000000000009
 30
0.0
 11
277.0
 21
7.95
 31
0.0
  0
LINE
  5
160
330
1E
100
AcDbEntity
  8
0
100
AcDbLine
 10
234.0
 20
5.95
 30
0.0
 11
234.0
 21
6.65
 31
0.0
  0
LINE
  5
161
330
1E
100
AcDbEntity
  8
0
100
AcDbLine
 10
234.0
 20
5.95
 30
0.0
 11
234.0
 21
5.15
 31
0.0
  0
LINE
  5
162
330
1E
100
AcDbEntity
  8
0
100
AcDbLine
 10
278.0
 20
6.15
 30
0.0
 11
279.4999999999999
 21
18.14999999999999
 31
0.0
  0
LINE
  5
163
330
1E
100
AcDbEntity
  8
0
100
AcDbLine
 10
278.0
 20
6.15
 30
0.0
 11
278.0
 21
6.850000000000009
 31
0.0
  0
LINE
  5
164
330
1E
100
AcDbEntity
  8
0
100
AcDbLine
 10
277.0
 20
5.15
 30
0.0
 11
278.0
 21
6.15
 31
0.0
  0
LINE
  5
165
330
1E
100
AcDbEntity
  8
0
100
AcDbLine
 10
277.0
 20
5.15
 30
0.0
 11
277.0
 21
5.950000000000009
 31
0.0
  0
LINE
  5
166
330
1E
100
AcDbEntity
  8
0
100
AcDbLine
 10
232.0
 20
6.65
 30
0.0
 11
234.0
 21
6.65
 31
0.0
  0
LINE
  5
167
330
1E
100
AcDbEntity
  8
0
100
AcDbLine
 10
232.0
 20
7.95
 30
0.0
 11
232.0
 21
5.950000000000009
 31
0.0
  0
LINE
  5
168
330
1E
100
AcDbEntity
  8
0
100
AcDbLine
 10
232.0
 20
7.95
 30
0.0
 11
232.0
 21
11.35
 31
0.0
  0
LINE
  5
169
330
1E
100
AcDbEntity
  8
0
100
AcDbLine
 10
234.0
 20
7.350000000000009
 30
0.0
 11
234.0
 21
6.65
 31
0.0
  0
LINE
  5
16A
330
1E
100
AcDbEntity
  8
0
100
AcDbLine
 10
234.0
 20
7.350000000000009
 30
0.0
 11
234.0
 21
9.250000000000008
 31
0.0
  0
LINE
  5
16B
330
1E
100
AcDbEntity
  8
0
100
AcDbLine
 10
232.0
 20
15.65
 30
0.0
 11
232.0
 21
11.35
 31
0.0
  0
LINE
  5
16C
330
1E
100
AcDbEntity
  8
0
100
AcDbLine
 10
232.0
 20
15.65
 30
0.0
 11
232.0
 21
20.75
 31
0.0
  0
LINE
  5
16D
330
1E
100
AcDbEntity
  8
0
100
AcDbLine
 10
232.0
 20
11.35
 30
0.0
 11
232.0
 21
7.95
 31
0.0
  0
LINE
  5
16E
330
1E
100
AcDbEntity
  8
0
100
AcDbLine
 10
232.0
 20
11.35
 30
0.0
 11
232.0
 21
15.65
 31
0.0
  0
LINE
  5
16F
330
1E
100
AcDbEntity
  8
0
100
AcDbLine
 10
234.0
 20
9.250000000000008
 30
0.0
 11
234.0
 21
7.350000000000009
 31
0.0
  0
LINE
  5
170
330
1E
100
AcDbEntity
  8
0
100
AcDbLine
 10
234.0
 20
9.250000000000008
 30
0.0
 11
234.0
 21
12.35
 31
0.0
  0
LINE
  5
171
330
1E
100
AcDbEntity
  8
0
100
AcDbLine
 10
234.0
 20
12.35
 30
0.0
 11
234.0
 21
9.250000000000008
 31
0.0
  0
LINE
  5
172
330
1E
100
AcDbEntity
  8
0
100
AcDbLine
 10
234.0
 20
12.35
 30
0.0
 11
234.0
 21
16.45
 31
0.0
  0
LINE
  5
173
330
1E
100
AcDbEntity
  8
0
100
AcDbLine
 10
234.0
 20
7.95
 30
0.0
 11
234.0
 21
5.950000000000009
 31
0.0
  0
LINE
  5
174
330
1E
100
AcDbEntity
  8
0
100
AcDbLine
 10
234.0
 20
7.95
 30
0.0
 11
234.0
 21
11.35
 31
0.0
  0
LINE
  5
175
330
1E
100
AcDbEntity
  8
0
100
AcDbLine
 10
234.0
 20
11.35
 30
0.0
 11
234.0
 21
7.95
 31
0.0
  0
LINE
  5
176
330
1E
100
AcDbEntity
  8
0
100
AcDbLine
 10
234.0
 20
11.35
 30
0.0
 11
234.0
 21
15.65
 31
0.0
  0
LINE
  5
177
330
1E
100
AcDbEntity
  8
0
100
AcDbLine
 10
232.0
 20
26.15
 30
0.0
 11
232.0
 21
20.75
 31
0.0
  0
LINE
  5
178
330
1E
100
AcDbEntity
  8
0
100
AcDbLine
 10
232.0
 20
26.15
 30
0.0
 11
232.0
 21
31.55
 31
0.0
  0
LINE
  5
179
330
1E
100
AcDbEntity
  8
0
100
AcDbLine
 10
232.0
 20
20.75
 30
0.0
 11
232.0
 21
15.65
 31
0.0
  0
LINE
  5
17A
330
1E
100
AcDbEntity
  8
0
100
AcDbLine
 10
232.0
 20
20.75
 30
0.0
 11
232.0
 21
26.15
 31
0.0
  0
LINE
  5
17B
330
1E
100
AcDbEntity
  8
0
100
AcDbLine
 10
234.0
 20
16.45
 30
0.0
 11
234.0
 21
12.35
 31
0.0
  0
LINE
  5
17C
330
1E
100
AcDbEntity
  8
0
100
AcDbLine
 10
234.0
 20
16.45
 30
0.0
 11
234.0
 21
21.14999999999999
 31
0.0
  0
LINE
  5
17D
330
1E
100
AcDbEntity
  8
0
100
AcDbLine
 10
234.0
 20
21.14999999999999
 30
0.0
 11
234.0
 21
16.45
 31
0.0
  0
LINE
  5
17E
330
1E
100
AcDbEntity
  8
0
100
AcDbLine
 10
234.0
 20
21.14999999999999
 30
0.0
 11
234.0
 21
26.15
 31
0.0
  0
LINE
  5
17F
330
1E
100
AcDbEntity
  8
0
100
AcDbLine
 10
234.0
 20
15.65
 30
0.0
 11
234.0
 21
11.35
 31
0.0
  0
LINE
  5
180
330
1E
100
AcDbEntity
  8
0
100
AcDbLine
 10
234.0
 20
15.65
 30
0.0
 11
234.0
 21
20.75
 31
0.0
  0
LINE
  5
181
330
1E
100
AcDbEntity
  8
0
100
AcDbLine
 10
234.0
 20
20.75
 30
0.0
 11
234.0
 21
15.65
 31
0.0
  0
LINE
  5
182
330
1E
100
AcDbEntity
  8
0
100
AcDbLine
 10
234.0
 20
20.75
 30
0.0
 11
234.0
 21
26.15
 31
0.0
  0
LINE
  5
183
330
1E
100
AcDbEntity
  8
0
100
AcDbLine
 10
201.0
 20
47.14999999999999
 30
0.0
 11
201.0
 21
63.15
 31
0.0
  0
LINE
  5
184
330
1E
100
AcDbEntity
  8
0
100
AcDbLine
 10
51.0
 20
47.14999999999999
 30
0.0
 11
51.0
 21
63.15
 31
0.0
  0
LINE
  5
185
330
1E
100
AcDbEntity
  8
0
100
AcDbLine
 10
232.0
 20
31.55
 30
0.0
 11
232.0
 21
26.15
 31
0.0
  0
LINE
  5
186
330
1E
100
AcDbEntity
  8
0
100
AcDbLine
 10
232.0
 20
31.55
 30
0.0
 11
232.0
 21
36.65
 31
0.0
  0
LINE
  5
187
330
1E
100
AcDbEntity
  8
0
100
AcDbLine
 10
232.0
 20
36.65
 30
0.0
 11
232.0
 21
31.55
 31
0.0
  0
LINE
  5
188
330
1E
100
AcDbEntity
  8
0
100
AcDbLine
 10
232.0
 20
36.65
 30
0.0
 11
232.0
 21
40.95
 31
0.0
  0
LINE
  5
189
330
1E
100
AcDbEntity
  8
0
100
AcDbLine
 10
232.0
 20
45.65
 30
0.0
 11
234.0
 21
45.65
 31
0.0
  0
LINE
  5
18A
330
1E
100
AcDbEntity
  8
0
100
AcDbLine
 10
232.0
 20
40.95
 30
0.0
 11
232.0
 21
36.65
 31
0.0
  0
LINE
  5
18B
330
1E
100
AcDbEntity
  8
0
100
AcDbLine
 10
232.0
 20
40.95
 30
0.0
 11
232.0
 21
44.35
 31
0.0
  0
LINE
  5
18C
330
1E
100
AcDbEntity
  8
0
100
AcDbLine
 10
232.0
 20
44.35
 30
0.0
 11
232.0
 21
40.95
 31
0.0
  0
LINE
  5
18D
330
1E
100
AcDbEntity
  8
0
100
AcDbLine
 10
232.0
 20
44.35
 30
0.0
 11
232.0
 21
46.35
 31
0.0
  0
LINE
  5
18E
330
1E
100
AcDbEntity
  8
0
100
AcDbLine
 10
232.0
 20
46.35
 30
0.0
 11
232.0
 21
44.35
 31
0.0
  0
LINE
  5
18F
330
1E
100
AcDbEntity
  8
0
100
AcDbLine
 10
232.0
 20
46.35
 30
0.0
 11
232.0
 21
47.14999999999999
 31
0.0
  0
LINE
  5
190
330
1E
100
AcDbEntity
  8
0
100
AcDbLine
 10
229.0
 20
47.14999999999999
 30
0.0
 11
232.0
 21
47.14999999999999
 31
0.0
  0
LINE
  5
191
330
1E
100
AcDbEntity
  8
0
100
AcDbLine
 10
229.0
 20
47.14999999999999
 30
0.0
 11
229.0
 21
63.15
 31
0.0
  0
LINE
  5
192
330
1E
100
AcDbEntity
  8
0
100
AcDbLine
 10
140.0
 20
47.14999999999999
 30
0.0
 11
229.0
 21
47.14999999999999
 31
0.0
  0
LINE
  5
193
330
1E
100
AcDbEntity
  8
0
100
AcDbLine
 10
234.0
 20
35.85
 30
0.0
 11
234.0
 21
31.15
 31
0.0
  0
LINE
  5
194
330
1E
100
AcDbEntity
  8
0
100
AcDbLine
 10
234.0
 20
35.85
 30
0.0
 11
234.0
 21
39.95
 31
0.0
  0
LINE
  5
195
330
1E
100
AcDbEntity
  8
0
100
AcDbLine
 10
234.0
 20
31.15
 30
0.0
 11
234.0
 21
26.15
 31
0.0
  0
LINE
  5
196
330
1E
100
AcDbEntity
  8
0
100
AcDbLine
 10
234.0
 20
31.15
 30
0.0
 11
234.0
 21
35.85
 31
0.0
  0
LINE
  5
197
330
1E
100
AcDbEntity
  8
0
100
AcDbLine
 10
234.0
 20
43.04999999999999
 30
0.0
 11
234.0
 21
39.95
 31
0.0
  0
LINE
  5
198
330
1E
100
AcDbEntity
  8
0
100
AcDbLine
 10
234.0
 20
43.04999999999999
 30
0.0
 11
234.0
 21
44.95
 31
0.0
  0
LINE
  5
199
330
1E
100
AcDbEntity
  8
0
100
AcDbLine
 10
234.0
 20
39.95
 30
0.0
 11
234.0
 21
35.85
 31
0.0
  0
LINE
  5
19A
330
1E
100
AcDbEntity
  8
0
100
AcDbLine
 10
234.0
 20
39.95
 30
0.0
 11
234.0
 21
43.04999999999999
 31
0.0
  0
LINE
  5
19B
330
1E
100
AcDbEntity
  8
0
100
AcDbLine
 10
234.0
 20
44.95
 30
0.0
 11
234.0
 21
43.04999999999999
 31
0.0
  0
LINE
  5
19C
330
1E
100
AcDbEntity
  8
0
100
AcDbLine
 10
234.0
 20
44.95
 30
0.0
 11
234.0
 21
45.65
 31
0.0
  0
LINE
  5
19D
330
1E
100
AcDbEntity
  8
0
100
AcDbLine
 10
234.0
 20
44.35
 30
0.0
 11
234.0
 21
40.95
 31
0.0
  0
LINE
  5
19E
330
1E
100
AcDbEntity
  8
0
100
AcDbLine
 10
234.0
 20
44.35
 30
0.0
 11
234.0
 21
46.35
 31
0.0
  0
LINE
  5
19F
330
1E
100
AcDbEntity
  8
0
100
AcDbLine
 10
234.0
 20
40.95
 30
0.0
 11
234.0
 21
36.65
 31
0.0
  0
LINE
  5
1A0
330
1E
100
AcDbEntity
  8
0
100
AcDbLine
 10
234.0
 20
40.95
 30
0.0
 11
234.0
 21
44.35
 31
0.0
  0
LINE
  5
1A1
330
1E
100
AcDbEntity
  8
0
100
AcDbLine
 10
234.0
 20
36.65
 30
0.0
 11
234.0
 21
31.55
 31
0.0
  0
LINE
  5
1A2
330
1E
100
AcDbEntity
  8
0
100
AcDbLine
 10
234.0
 20
36.65
 30
0.0
 11
234.0
 21
40.95
 31
0.0
  0
LINE
  5
1A3
330
1E
100
AcDbEntity
  8
0
100
AcDbLine
 10
234.0
 20
31.55
 30
0.0
 11
234.0
 21
26.15
 31
0.0
  0
LINE
  5
1A4
330
1E
100
AcDbEntity
  8
0
100
AcDbLine
 10
234.0
 20
31.55
 30
0.0
 11
234.0
 21
36.65
 31
0.0
  0
LINE
  5
1A5
330
1E
100
AcDbEntity
  8
0
100
AcDbLine
 10
234.0
 20
46.35
 30
0.0
 11
234.0
 21
47.14999999999999
 31
0.0
  0
LINE
  5
1A6
330
1E
100
AcDbEntity
  8
0
100
AcDbLine
 10
234.0
 20
46.35
 30
0.0
 11
234.0
 21
45.65
 31
0.0
  0
LINE
  5
1A7
330
1E
100
AcDbEntity
  8
0
100
AcDbLine
 10
234.0
 20
46.35
 30
0.0
 11
234.0
 21
44.35
 31
0.0
  0
LINE
  5
1A8
330
1E
100
AcDbEntity
  8
0
100
AcDbLine
 10
234.0
 20
47.14999999999999
 30
0.0
 11
251.0
 21
47.14999999999999
 31
0.0
  0
LINE
  5
1A9
330
1E
100
AcDbEntity
  8
0
100
AcDbLine
 10
234.0
 20
47.14999999999999
 30
0.0
 11
234.0
 21
46.35
 31
0.0
  0
LINE
  5
1AA
330
1E
100
AcDbEntity
  8
0
100
AcDbLine
 10
234.0
 20
45.65
 30
0.0
 11
234.0
 21
46.35
 31
0.0
  0
LINE
  5
1AB
330
1E
100
AcDbEntity
  8
0
100
AcDbLine
 10
234.0
 20
45.65
 30
0.0
 11
234.0
 21
44.95
 31
0.0
  0
LINE
  5
1AC
330
1E
100
AcDbEntity
  8
0
100
AcDbLine
 10
232.0
 20
47.14999999999999
 30
0.0
 11
232.0
 21
46.35
 31
0.0
  0
LINE
  5
1AD
330
1E
100
AcDbEntity
  8
0
100
AcDbLine
 10
234.0
 20
26.15
 30
0.0
 11
234.0
 21
20.75
 31
0.0
  0
LINE
  5
1AE
330
1E
100
AcDbEntity
  8
0
100
AcDbLine
 10
234.0
 20
26.15
 30
0.0
 11
234.0
 21
21.14999999999999
 31
0.0
  0
LINE
  5
1AF
330
1E
100
AcDbEntity
  8
0
100
AcDbLine
 10
234.0
 20
26.15
 30
0.0
 11
234.0
 21
31.55
 31
0.0
  0
LINE
  5
1B0
330
1E
100
AcDbEntity
  8
0
100
AcDbLine
 10
234.0
 20
26.15
 30
0.0
 11
234.0
 21
31.15
 31
0.0
  0
LINE
  5
1B1
330
1E
100
AcDbEntity
  8
0
100
AcDbLine
 10
277.0
 20
7.95
 30
0.0
 11
277.0
 21
5.950000000000009
 31
0.0
  0
LINE
  5
1B2
330
1E
100
AcDbEntity
  8
0
100
AcDbLine
 10
277.0
 20
7.95
 30
0.0
 11
277.0
 21
11.35
 31
0.0
  0
LINE
  5
1B3
330
1E
100
AcDbEntity
  8
0
100
AcDbLine
 10
278.0
 20
6.850000000000009
 30
0.0
 11
278.0
 21
6.15
 31
0.0
  0
LINE
  5
1B4
330
1E
100
AcDbEntity
  8
0
100
AcDbLine
 10
278.0
 20
6.850000000000009
 30
0.0
 11
278.0
 21
8.85000000000001
 31
0.0
  0
LINE
  5
1B5
330
1E
100
AcDbEntity
  8
0
100
AcDbLine
 10
277.0
 20
11.35
 30
0.0
 11
277.0
 21
7.95
 31
0.0
  0
LINE
  5
1B6
330
1E
100
AcDbEntity
  8
0
100
AcDbLine
 10
277.0
 20
11.35
 30
0.0
 11
277.0
 21
15.65
 31
0.0
  0
LINE
  5
1B7
330
1E
100
AcDbEntity
  8
0
100
AcDbLine
 10
277.0
 20
15.65
 30
0.0
 11
277.0
 21
11.35
 31
0.0
  0
LINE
  5
1B8
330
1E
100
AcDbEntity
  8
0
100
AcDbLine
 10
277.0
 20
15.65
 30
0.0
 11
277.0
 21
20.75
 31
0.0
  0
LINE
  5
1B9
330
1E
100
AcDbEntity
  8
0
100
AcDbLine
 10
278.0
 20
8.85000000000001
 30
0.0
 11
278.0
 21
6.850000000000009
 31
0.0
  0
LINE
  5
1BA
330
1E
100
AcDbEntity
  8
0
100
AcDbLine
 10
278.0
 20
8.85000000000001
 30
0.0
 11
278.0
 21
12.05
 31
0.0
  0
LINE
  5
1BB
330
1E
100
AcDbEntity
  8
0
100
AcDbLine
 10
278.0
 20
12.05
 30
0.0
 11
278.0
 21
8.85000000000001
 31
0.0
  0
LINE
  5
1BC
330
1E
100
AcDbEntity
  8
0
100
AcDbLine
 10
278.0
 20
12.05
 30
0.0
 11
278.0
 21
16.15
 31
0.0
  0
LINE
  5
1BD
330
1E
100
AcDbEntity
  8
0
100
AcDbLine
 10
278.0
 20
16.15
 30
0.0
 11
278.0
 21
12.05
 31
0.0
  0
LINE
  5
1BE
330
1E
100
AcDbEntity
  8
0
100
AcDbLine
 10
278.0
 20
16.15
 30
0.0
 11
278.0
 21
20.95
 31
0.0
  0
LINE
  5
1BF
330
1E
100
AcDbEntity
  8
0
100
AcDbLine
 10
279.4999999999999
 20
18.44999999999999
 30
0.0
 11
279.4999999999999
 21
18.14999999999999
 31
0.0
  0
LINE
  5
1C0
330
1E
100
AcDbEntity
  8
0
100
AcDbLine
 10
279.4999999999999
 20
18.44999999999999
 30
0.0
 11
279.4999999999999
 21
19.25
 31
0.0
  0
LINE
  5
1C1
330
1E
100
AcDbEntity
  8
0
100
AcDbLine
 10
277.0
 20
20.75
 30
0.0
 11
277.0
 21
15.65
 31
0.0
  0
LINE
  5
1C2
330
1E
100
AcDbEntity
  8
0
100
AcDbLine
 10
277.0
 20
20.75
 30
0.0
 11
277.0
 21
26.15
 31
0.0
  0
LINE
  5
1C3
330
1E
100
AcDbEntity
  8
0
100
AcDbLine
 10
278.0
 20
20.95
 30
0.0
 11
278.0
 21
16.15
 31
0.0
  0
LINE
  5
1C4
330
1E
100
AcDbEntity
  8
0
100
AcDbLine
 10
278.0
 20
20.95
 30
0.0
 11
278.0
 21
26.15
 31
0.0
  0
LINE
  5
1C5
330
1E
100
AcDbEntity
  8
0
100
AcDbLine
 10
279.4999999999999
 20
19.25
 30
0.0
 11
279.4999999999999
 21
18.44999999999999
 31
0.0
  0
LINE
  5
1C6
330
1E
100
AcDbEntity
  8
0
100
AcDbLine
 10
279.4999999999999
 20
19.25
 30
0.0
 11
279.4999999999999
 21
20.55
 31
0.0
  0
LINE
  5
1C7
330
1E
100
AcDbEntity
  8
0
100
AcDbLine
 10
279.4999999999999
 20
20.55
 30
0.0
 11
279.4999999999999
 21
19.25
 31
0.0
  0
LINE
  5
1C8
330
1E
100
AcDbEntity
  8
0
100
AcDbLine
 10
279.4999999999999
 20
20.55
 30
0.0
 11
279.4999999999999
 21
22.14999999999999
 31
0.0
  0
LINE
  5
1C9
330
1E
100
AcDbEntity
  8
0
100
AcDbLine
 10
277.0
 20
26.15
 30
0.0
 11
277.0
 21
20.75
 31
0.0
  0
LINE
  5
1CA
330
1E
100
AcDbEntity
  8
0
100
AcDbLine
 10
277.0
 20
26.15
 30
0.0
 11
277.0
 21
31.55
 31
0.0
  0
LINE
  5
1CB
330
1E
100
AcDbEntity
  8
0
100
AcDbLine
 10
278.0
 20
26.15
 30
0.0
 11
278.0
 21
20.95
 31
0.0
  0
LINE
  5
1CC
330
1E
100
AcDbEntity
  8
0
100
AcDbLine
 10
278.0
 20
26.15
 30
0.0
 11
278.0
 21
31.35
 31
0.0
  0
LINE
  5
1CD
330
1E
100
AcDbEntity
  8
0
100
AcDbLine
 10
279.4999999999999
 20
22.14999999999999
 30
0.0
 11
279.4999999999999
 21
20.55
 31
0.0
  0
LINE
  5
1CE
330
1E
100
AcDbEntity
  8
0
100
AcDbLine
 10
279.4999999999999
 20
22.14999999999999
 30
0.0
 11
279.4999999999999
 21
24.05
 31
0.0
  0
LINE
  5
1CF
330
1E
100
AcDbEntity
  8
0
100
AcDbLine
 10
279.4999999999999
 20
24.05
 30
0.0
 11
279.4999999999999
 21
22.14999999999999
 31
0.0
  0
LINE
  5
1D0
330
1E
100
AcDbEntity
  8
0
100
AcDbLine
 10
279.4999999999999
 20
24.05
 30
0.0
 11
279.4999999999999
 21
26.15
 31
0.0
  0
LINE
  5
1D1
330
1E
100
AcDbEntity
  8
0
100
AcDbLine
 10
251.0
 20
47.14999999999999
 30
0.0
 11
251.0
 21
49.15
 31
0.0
  0
LINE
  5
1D2
330
1E
100
AcDbEntity
  8
0
100
AcDbLine
 10
277.0
 20
31.55
 30
0.0
 11
277.0
 21
26.15
 31
0.0
  0
LINE
  5
1D3
330
1E
100
AcDbEntity
  8
0
100
AcDbLine
 10
277.0
 20
31.55
 30
0.0
 11
277.0
 21
36.65
 31
0.0
  0
LINE
  5
1D4
330
1E
100
AcDbEntity
  8
0
100
AcDbLine
 10
278.0
 20
31.35
 30
0.0
 11
278.0
 21
26.15
 31
0.0
  0
LINE
  5
1D5
330
1E
100
AcDbEntity
  8
0
100
AcDbLine
 10
278.0
 20
31.35
 30
0.0
 11
278.0
 21
36.15
 31
0.0
  0
LINE
  5
1D6
330
1E
100
AcDbEntity
  8
0
100
AcDbLine
 10
279.4999999999999
 20
33.85
 30
0.0
 11
279.4999999999999
 21
33.04999999999999
 31
0.0
  0
LINE
  5
1D7
330
1E
100
AcDbEntity
  8
0
100
AcDbLine
 10
279.4999999999999
 20
33.85
 30
0.0
 11
279.4999999999999
 21
34.15
 31
0.0
  0
LINE
  5
1D8
330
1E
100
AcDbEntity
  8
0
100
AcDbLine
 10
279.4999999999999
 20
33.04999999999999
 30
0.0
 11
279.4999999999999
 21
31.75
 31
0.0
  0
LINE
  5
1D9
330
1E
100
AcDbEntity
  8
0
100
AcDbLine
 10
279.4999999999999
 20
33.04999999999999
 30
0.0
 11
279.4999999999999
 21
33.85
 31
0.0
  0
LINE
  5
1DA
330
1E
100
AcDbEntity
  8
0
100
AcDbLine
 10
279.4999999999999
 20
31.75
 30
0.0
 11
279.4999999999999
 21
30.15
 31
0.0
  0
LINE
  5
1DB
330
1E
100
AcDbEntity
  8
0
100
AcDbLine
 10
279.4999999999999
 20
31.75
 30
0.0
 11
279.4999999999999
 21
33.04999999999999
 31
0.0
  0
LINE
  5
1DC
330
1E
100
AcDbEntity
  8
0
100
AcDbLine
 10
279.4999999999999
 20
30.15
 30
0.0
 11
279.4999999999999
 21
28.25
 31
0.0
  0
LINE
  5
1DD
330
1E
100
AcDbEntity
  8
0
100
AcDbLine
 10
279.4999999999999
 20
30.15
 30
0.0
 11
279.4999999999999
 21
31.75
 31
0.0
  0
LINE
  5
1DE
330
1E
100
AcDbEntity
  8
0
100
AcDbLine
 10
279.4999999999999
 20
28.25
 30
0.0
 11
279.4999999999999
 21
26.15
 31
0.0
  0
LINE
  5
1DF
330
1E
100
AcDbEntity
  8
0
100
AcDbLine
 10
279.4999999999999
 20
28.25
 30
0.0
 11
279.4999999999999
 21
30.15
 31
0.0
  0
LINE
  5
1E0
330
1E
100
AcDbEntity
  8
0
100
AcDbLine
 10
277.0
 20
36.65
 30
0.0
 11
277.0
 21
31.55
 31
0.0
  0
LINE
  5
1E1
330
1E
100
AcDbEntity
  8
0
100
AcDbLine
 10
277.0
 20
36.65
 30
0.0
 11
277.0
 21
40.95
 31
0.0
  0
LINE
  5
1E2
330
1E
100
AcDbEntity
  8
0
100
AcDbLine
 10
277.0
 20
44.35
 30
0.0
 11
277.0
 21
40.95
 31
0.0
  0
LINE
  5
1E3
330
1E
100
AcDbEntity
  8
0
100
AcDbLine
 10
277.0
 20
44.35
 30
0.0
 11
277.0
 21
46.35
 31
0.0
  0
LINE
  5
1E4
330
1E
100
AcDbEntity
  8
0
100
AcDbLine
 10
277.0
 20
40.95
 30
0.0
 11
277.0
 21
36.65
 31
0.0
  0
LINE
  5
1E5
330
1E
100
AcDbEntity
  8
0
100
AcDbLine
 10
277.0
 20
40.95
 30
0.0
 11
277.0
 21
44.35
 31
0.0
  0
LINE
  5
1E6
330
1E
100
AcDbEntity
  8
0
100
AcDbLine
 10
277.0
 20
46.35
 30
0.0
 11
277.0
 21
44.35
 31
0.0
  0
LINE
  5
1E7
330
1E
100
AcDbEntity
  8
0
100
AcDbLine
 10
277.0
 20
46.35
 30
0.0
 11
277.0
 21
47.14999999999999
 31
0.0
  0
LINE
  5
1E8
330
1E
100
AcDbEntity
  8
0
100
AcDbLine
 10
278.0
 20
45.45
 30
0.0
 11
278.0
 21
43.45
 31
0.0
  0
LINE
  5
1E9
330
1E
100
AcDbEntity
  8
0
100
AcDbLine
 10
278.0
 20
45.45
 30
0.0
 11
278.0
 21
46.15
 31
0.0
  0
LINE
  5
1EA
330
1E
100
AcDbEntity
  8
0
100
AcDbLine
 10
278.0
 20
43.45
 30
0.0
 11
278.0
 21
40.25
 31
0.0
  0
LINE
  5
1EB
330
1E
100
AcDbEntity
  8
0
100
AcDbLine
 10
278.0
 20
43.45
 30
0.0
 11
278.0
 21
45.45
 31
0.0
  0
LINE
  5
1EC
330
1E
100
AcDbEntity
  8
0
100
AcDbLine
 10
278.0
 20
40.25
 30
0.0
 11
278.0
 21
36.15
 31
0.0
  0
LINE
  5
1ED
330
1E
100
AcDbEntity
  8
0
100
AcDbLine
 10
278.0
 20
40.25
 30
0.0
 11
278.0
 21
43.45
 31
0.0
  0
LINE
  5
1EE
330
1E
100
AcDbEntity
  8
0
100
AcDbLine
 10
278.0
 20
36.15
 30
0.0
 11
278.0
 21
31.35
 31
0.0
  0
LINE
  5
1EF
330
1E
100
AcDbEntity
  8
0
100
AcDbLine
 10
278.0
 20
36.15
 30
0.0
 11
278.0
 21
40.25
 31
0.0
  0
LINE
  5
1F0
330
1E
100
AcDbEntity
  8
0
100
AcDbLine
 10
277.0
 20
47.14999999999999
 30
0.0
 11
278.0
 21
46.15
 31
0.0
  0
LINE
  5
1F1
330
1E
100
AcDbEntity
  8
0
100
AcDbLine
 10
277.0
 20
47.14999999999999
 30
0.0
 11
277.0
 21
46.35
 31
0.0
  0
LINE
  5
1F2
330
1E
100
AcDbEntity
  8
0
100
AcDbLine
 10
278.0
 20
46.15
 30
0.0
 11
279.4999999999999
 21
34.15
 31
0.0
  0
LINE
  5
1F3
330
1E
100
AcDbEntity
  8
0
100
AcDbLine
 10
278.0
 20
46.15
 30
0.0
 11
278.0
 21
45.45
 31
0.0
  0
LINE
  5
1F4
330
1E
100
AcDbEntity
  8
0
100
AcDbLine
 10
279.4999999999999
 20
34.15
 30
0.0
 11
280.0
 21
34.15
 31
0.0
  0
LINE
  5
1F5
330
1E
100
AcDbEntity
  8
0
100
AcDbLine
 10
279.4999999999999
 20
34.15
 30
0.0
 11
279.4999999999999
 21
33.85
 31
0.0
  0
LINE
  5
1F6
330
1E
100
AcDbEntity
  8
0
100
AcDbLine
 10
265.0
 20
47.14999999999999
 30
0.0
 11
265.0
 21
49.15
 31
0.0
  0
LINE
  5
1F7
330
1E
100
AcDbEntity
  8
0
100
AcDbLine
 10
265.0
 20
47.14999999999999
 30
0.0
 11
277.0
 21
47.14999999999999
 31
0.0
  0
LINE
  5
1F8
330
1E
100
AcDbEntity
  8
0
100
AcDbLine
 10
279.4999999999999
 20
26.15
 30
0.0
 11
279.4999999999999
 21
24.05
 31
0.0
  0
LINE
  5
1F9
330
1E
100
AcDbEntity
  8
0
100
AcDbLine
 10
279.4999999999999
 20
26.15
 30
0.0
 11
279.4999999999999
 21
28.25
 31
0.0
  0
LINE
  5
1FA
330
1E
100
AcDbEntity
  8
0
100
AcDbLine
 10
234.0
 20
6.65
 30
0.0
 11
234.0
 21
5.95
 31
0.0
  0
LINE
  5
1FB
330
1E
100
AcDbEntity
  8
0
100
AcDbLine
 10
234.0
 20
6.65
 30
0.0
 11
234.0
 21
7.350000000000009
 31
0.0
  0
LINE
  5
1FC
330
1E
100
AcDbEntity
  8
0
100
AcDbLine
 10
278.0
 20
6.150000000000009
 30
0.0
 11
279.4999999999999
 21
18.14999999999999
 31
0.0
  0
LINE
  5
1FD
330
1E
100
AcDbEntity
  8
0
100
AcDbLine
 10
280.0
 20
18.14999999999999
 30
0.0
 11
280.0
 21
18.44999999999999
 31
0.0
  0
LINE
  5
1FE
330
1E
100
AcDbEntity
  8
0
100
AcDbLine
 10
280.0
 20
18.44999999999999
 30
0.0
 11
280.0
 21
18.14999999999999
 31
0.0
  0
LINE
  5
1FF
330
1E
100
AcDbEntity
  8
0
100
AcDbLine
 10
280.0
 20
18.44999999999999
 30
0.0
 11
280.0
 21
19.25
 31
0.0
  0
LINE
  5
200
330
1E
100
AcDbEntity
  8
0
100
AcDbLine
 10
280.0
 20
19.25
 30
0.0
 11
280.0
 21
18.44999999999999
 31
0.0
  0
LINE
  5
201
330
1E
100
AcDbEntity
  8
0
100
AcDbLine
 10
280.0
 20
19.25
 30
0.0
 11
280.0
 21
20.55
 31
0.0
  0
LINE
  5
202
330
1E
100
AcDbEntity
  8
0
100
AcDbLine
 10
280.0
 20
20.55
 30
0.0
 11
280.0
 21
19.25
 31
0.0
  0
LINE
  5
203
330
1E
100
AcDbEntity
  8
0
100
AcDbLine
 10
280.0
 20
20.55
 30
0.0
 11
280.0
 21
22.14999999999999
 31
0.0
  0
LINE
  5
204
330
1E
100
AcDbEntity
  8
0
100
AcDbLine
 10
280.0
 20
22.14999999999999
 30
0.0
 11
280.0
 21
20.55
 31
0.0
  0
LINE
  5
205
330
1E
100
AcDbEntity
  8
0
100
AcDbLine
 10
280.0
 20
22.14999999999999
 30
0.0
 11
280.0
 21
24.05
 31
0.0
  0
LINE
  5
206
330
1E
100
AcDbEntity
  8
0
100
AcDbLine
 10
280.0
 20
24.05
 30
0.0
 11
280.0
 21
22.14999999999999
 31
0.0
  0
LINE
  5
207
330
1E
100
AcDbEntity
  8
0
100
AcDbLine
 10
280.0
 20
24.05
 30
0.0
 11
280.0
 21
26.15
 31
0.0
  0
LINE
  5
208
330
1E
100
AcDbEntity
  8
0
100
AcDbLine
 10
280.0
 20
34.15
 30
0.0
 11
280.0
 21
33.85
 31
0.0
  0
LINE
  5
209
330
1E
100
AcDbEntity
  8
0
100
AcDbLine
 10
280.0
 20
33.85
 30
0.0
 11
280.0
 21
33.04999999999999
 31
0.0
  0
LINE
  5
20A
330
1E
100
AcDbEntity
  8
0
100
AcDbLine
 10
280.0
 20
33.85
 30
0.0
 11
280.0
 21
34.15
 31
0.0
  0
LINE
  5
20B
330
1E
100
AcDbEntity
  8
0
100
AcDbLine
 10
280.0
 20
33.04999999999999
 30
0.0
 11
280.0
 21
31.75
 31
0.0
  0
LINE
  5
20C
330
1E
100
AcDbEntity
  8
0
100
AcDbLine
 10
280.0
 20
33.04999999999999
 30
0.0
 11
280.0
 21
33.85
 31
0.0
  0
LINE
  5
20D
330
1E
100
AcDbEntity
  8
0
100
AcDbLine
 10
280.0
 20
31.75
 30
0.0
 11
280.0
 21
30.15
 31
0.0
  0
LINE
  5
20E
330
1E
100
AcDbEntity
  8
0
100
AcDbLine
 10
280.0
 20
31.75
 30
0.0
 11
280.0
 21
33.04999999999999
 31
0.0
  0
LINE
  5
20F
330
1E
100
AcDbEntity
  8
0
100
AcDbLine
 10
280.0
 20
30.15
 30
0.0
 11
280.0
 21
28.25
 31
0.0
  0
LINE
  5
210
330
1E
100
AcDbEntity
  8
0
100
AcDbLine
 10
280.0
 20
30.15
 30
0.0
 11
280.0
 21
31.75
 31
0.0
  0
LINE
  5
211
330
1E
100
AcDbEntity
  8
0
100
AcDbLine
 10
280.0
 20
28.25
 30
0.0
 11
280.0
 21
26.15
 31
0.0
  0
LINE
  5
212
330
1E
100
AcDbEntity
  8
0
100
AcDbLine
 10
280.0
 20
28.25
 30
0.0
 11
280.0
 21
30.15
 31
0.0
  0
LINE
  5
213
330
1E
100
AcDbEntity
  8
0
100
AcDbLine
 10
280.0
 20
26.15
 30
0.0
 11
280.0
 21
24.05
 31
0.0
  0
LINE
  5
214
330
1E
100
AcDbEntity
  8
0
100
AcDbLine
 10
280.0
 20
26.15
 30
0.0
 11
280.0
 21
28.25
 31
0.0
  0
LINE
  5
215
330
1E
100
AcDbEntity
  8
0
100
AcDbLine
 10
279.4999999999999
 20
18.14999999999999
 30
0.0
 11
280.0
 21
18.14999999999999
 31
0.0
  0
LINE
  5
216
330
1E
100
AcDbEntity
  8
0
100
AcDbLine
 10
279.4999999999999
 20
18.14999999999999
 30
0.0
 11
279.4999999999999
 21
18.44999999999999
 31
0.0
  0
LINE
  5
217
330
1E
100
AcDbEntity
  8
0
100
AcDbLine
 10
48.1
 20
107.15
 30
0.0
 11
56.2
 21
107.15
 31
0.0
  0
LINE
  5
218
330
1E
100
AcDbEntity
  8
0
100
AcDbLine
 10
48.1
 20
83.15000000000001
 30
0.0
 11
56.2
 21
83.15000000000001
 31
0.0
  0
LINE
  5
219
330
1E
100
AcDbEntity
  8
0
100
AcDbLine
 10
55.0
 20
63.15
 30
0.0
 11
55.0
 21
67.15
 31
0.0
  0
LINE
  5
21A
330
1E
100
AcDbEntity
  8
0
100
AcDbLine
 10
55.1176
 20
63.15
 30
0.0
 11
58.04120000000001
 21
63.15
 31
0.0
  0
LINE
  5
21B
330
1E
100
AcDbEntity
  8
0
100
AcDbLine
 10
55.1177
 20
63.15
 30
0.0
 11
58.04120000000001
 21
63.15
 31
0.0
  0
LINE
  5
21C
330
1E
100
AcDbEntity
  8
0
100
AcDbLine
 10
52.8941
 20
63.15
 30
0.0
 11
55.1177
 21
63.15
 31
0.0
  0
LINE
  5
21D
330
1E
100
AcDbEntity
  8
0
100
AcDbLine
 10
52.8941
 20
63.15
 30
0.0
 11
55.1176
 21
63.15
 31
0.0
  0
LINE
  5
21E
330
1E
100
AcDbEntity
  8
0
100
AcDbLine
 10
51.4941
 20
63.15
 30
0.0
 11
52.8941
 21
63.15
 31
0.0
  0
LINE
  5
21F
330
1E
100
AcDbEntity
  8
0
100
AcDbLine
 10
52.0
 20
77.15
 30
0.0
 11
52.0
 21
79.15
 31
0.0
  0
LINE
  5
220
330
1E
100
AcDbEntity
  8
0
100
AcDbLine
 10
52.0
 20
77.15
 30
0.0
 11
52.0
 21
74.15
 31
0.0
  0
LINE
  5
221
330
1E
100
AcDbEntity
  8
0
100
AcDbLine
 10
52.0
 20
79.15
 30
0.0
 11
54.0
 21
81.15
 31
0.0
  0
LINE
  5
222
330
1E
100
AcDbEntity
  8
0
100
AcDbLine
 10
52.0
 20
79.15
 30
0.0
 11
52.5
 21
79.15
 31
0.0
  0
LINE
  5
223
330
1E
100
AcDbEntity
  8
0
100
AcDbLine
 10
52.0
 20
79.15
 30
0.0
 11
52.0
 21
77.15
 31
0.0
  0
LINE
  5
224
330
1E
100
AcDbEntity
  8
0
100
AcDbLine
 10
52.0
 20
74.15
 30
0.0
 11
52.0
 21
71.15000000000001
 31
0.0
  0
LINE
  5
225
330
1E
100
AcDbEntity
  8
0
100
AcDbLine
 10
52.0
 20
74.15
 30
0.0
 11
52.0
 21
77.15
 31
0.0
  0
LINE
  5
226
330
1E
100
AcDbEntity
  8
0
100
AcDbLine
 10
52.0
 20
71.15000000000001
 30
0.0
 11
52.0
 21
69.15
 31
0.0
  0
LINE
  5
227
330
1E
100
AcDbEntity
  8
0
100
AcDbLine
 10
52.0
 20
71.15000000000001
 30
0.0
 11
52.0
 21
74.15
 31
0.0
  0
LINE
  5
228
330
1E
100
AcDbEntity
  8
0
100
AcDbLine
 10
55.0
 20
67.15
 30
0.0
 11
55.35289999999999
 21
67.15
 31
0.0
  0
LINE
  5
229
330
1E
100
AcDbEntity
  8
0
100
AcDbLine
 10
55.0
 20
67.15
 30
0.0
 11
55.0
 21
63.15
 31
0.0
  0
LINE
  5
22A
330
1E
100
AcDbEntity
  8
0
100
AcDbLine
 10
55.35289999999999
 20
67.15
 30
0.0
 11
56.3529
 21
67.15
 31
0.0
  0
LINE
  5
22B
330
1E
100
AcDbEntity
  8
0
100
AcDbLine
 10
56.3529
 20
67.15
 30
0.0
 11
57.9412
 21
67.15
 31
0.0
  0
LINE
  5
22C
330
1E
100
AcDbEntity
  8
0
100
AcDbLine
 10
54.0
 20
81.15
 30
0.0
 11
54.4
 21
81.15
 31
0.0
  0
LINE
  5
22D
330
1E
100
AcDbEntity
  8
0
100
AcDbLine
 10
54.4
 20
81.15
 30
0.0
 11
55.5
 21
81.15
 31
0.0
  0
LINE
  5
22E
330
1E
100
AcDbEntity
  8
0
100
AcDbLine
 10
55.5
 20
81.15
 30
0.0
 11
57.2
 21
81.15
 31
0.0
  0
LINE
  5
231
330
1E
100
AcDbEntity
  8
0
100
AcDbLine
 10
52.0
 20
69.15
 30
0.0
 11
55.0
 21
67.15
 31
0.0
  0
LINE
  5
232
330
1E
100
AcDbEntity
  8
0
100
AcDbLine
 10
52.0
 20
69.15
 30
0.0
 11
52.5
 21
69.15
 31
0.0
  0
LINE
  5
233
330
1E
100
AcDbEntity
  8
0
100
AcDbLine
 10
52.0
 20
69.15
 30
0.0
 11
52.0
 21
71.15000000000001
 31
0.0
  0
LINE
  5
234
330
1E
100
AcDbEntity
  8
0
100
AcDbLine
 10
51.0
 20
63.15
 30
0.0
 11
51.4941
 21
63.15
 31
0.0
  0
LINE
  5
235
330
1E
100
AcDbEntity
  8
0
100
AcDbLine
 10
51.0
 20
63.15
 30
0.0
 11
51.0
 21
47.14999999999999
 31
0.0
  0
LINE
  5
236
330
1E
100
AcDbEntity
  8
0
100
AcDbLine
 10
65.0
 20
63.15
 30
0.0
 11
68.62350000000001
 21
63.15
 31
0.0
  0
LINE
  5
237
330
1E
100
AcDbEntity
  8
0
100
AcDbLine
 10
61.3765
 20
63.15
 30
0.0
 11
65.0
 21
63.15
 31
0.0
  0
LINE
  5
238
330
1E
100
AcDbEntity
  8
0
100
AcDbLine
 10
57.9412
 20
67.15
 30
0.0
 11
60.0294
 21
67.15
 31
0.0
  0
LINE
  5
239
330
1E
100
AcDbEntity
  8
0
100
AcDbLine
 10
60.0294
 20
67.15
 30
0.0
 11
62.41179999999999
 21
67.15
 31
0.0
  0
LINE
  5
23A
330
1E
100
AcDbEntity
  8
0
100
AcDbLine
 10
57.2
 20
81.15
 30
0.0
 11
59.5
 21
81.15
 31
0.0
  0
LINE
  5
23B
330
1E
100
AcDbEntity
  8
0
100
AcDbLine
 10
59.5
 20
81.15
 30
0.0
 11
62.2
 21
81.15
 31
0.0
  0
LINE
  5
23D
330
1E
100
AcDbEntity
  8
0
100
AcDbLine
 10
62.2
 20
81.15
 30
0.0
 11
65.0
 21
81.15
 31
0.0
  0
LINE
  5
23F
330
1E
100
AcDbEntity
  8
0
100
AcDbLine
 10
65.0
 20
67.15
 30
0.0
 11
67.5882
 21
67.15
 31
0.0
  0
LINE
  5
240
330
1E
100
AcDbEntity
  8
0
100
AcDbLine
 10
62.41179999999999
 20
67.15
 30
0.0
 11
65.0
 21
67.15
 31
0.0
  0
LINE
  5
241
330
1E
100
AcDbEntity
  8
0
100
AcDbLine
 10
58.04120000000001
 20
63.15
 30
0.0
 11
61.3765
 21
63.15
 31
0.0
  0
LINE
  5
242
330
1E
100
AcDbEntity
  8
0
100
AcDbLine
 10
68.62350000000001
 20
63.15
 30
0.0
 11
71.95879999999999
 21
63.15
 31
0.0
  0
LINE
  5
243
330
1E
100
AcDbEntity
  8
0
100
AcDbLine
 10
75.0
 20
63.15
 30
0.0
 11
75.0
 21
67.15
 31
0.0
  0
LINE
  5
244
330
1E
100
AcDbEntity
  8
0
100
AcDbLine
 10
74.88240000000001
 20
63.15
 30
0.0
 11
77.1059
 21
63.15
 31
0.0
  0
LINE
  5
245
330
1E
100
AcDbEntity
  8
0
100
AcDbLine
 10
71.95879999999999
 20
63.15
 30
0.0
 11
74.8823
 21
63.15
 31
0.0
  0
LINE
  5
246
330
1E
100
AcDbEntity
  8
0
100
AcDbLine
 10
71.95879999999999
 20
63.15
 30
0.0
 11
74.88240000000001
 21
63.15
 31
0.0
  0
LINE
  5
247
330
1E
100
AcDbEntity
  8
0
100
AcDbLine
 10
74.6471
 20
67.15
 30
0.0
 11
75.0
 21
67.15
 31
0.0
  0
LINE
  5
248
330
1E
100
AcDbEntity
  8
0
100
AcDbLine
 10
73.64709999999999
 20
67.15
 30
0.0
 11
74.6471
 21
67.15
 31
0.0
  0
LINE
  5
249
330
1E
100
AcDbEntity
  8
0
100
AcDbLine
 10
72.0588
 20
67.15
 30
0.0
 11
73.64709999999999
 21
67.15
 31
0.0
  0
LINE
  5
24B
330
1E
100
AcDbEntity
  8
0
100
AcDbLine
 10
69.97060000000001
 20
67.15
 30
0.0
 11
72.0588
 21
67.15
 31
0.0
  0
LINE
  5
24C
330
1E
100
AcDbEntity
  8
0
100
AcDbLine
 10
67.5882
 20
67.15
 30
0.0
 11
69.97060000000001
 21
67.15
 31
0.0
  0
LINE
  5
24E
330
1E
100
AcDbEntity
  8
0
100
AcDbLine
 10
74.5
 20
81.15
 30
0.0
 11
75.59999999999999
 21
81.15
 31
0.0
  0
LINE
  5
24F
330
1E
100
AcDbEntity
  8
0
100
AcDbLine
 10
72.8
 20
81.15
 30
0.0
 11
74.5
 21
81.15
 31
0.0
  0
LINE
  5
250
330
1E
100
AcDbEntity
  8
0
100
AcDbLine
 10
70.5
 20
81.15
 30
0.0
 11
72.8
 21
81.15
 31
0.0
  0
LINE
  5
252
330
1E
100
AcDbEntity
  8
0
100
AcDbLine
 10
67.8
 20
81.15
 30
0.0
 11
70.5
 21
81.15
 31
0.0
  0
LINE
  5
254
330
1E
100
AcDbEntity
  8
0
100
AcDbLine
 10
75.59999999999999
 20
81.15
 30
0.0
 11
76.0
 21
81.15
 31
0.0
  0
LINE
  5
255
330
1E
100
AcDbEntity
  8
0
100
AcDbLine
 10
75.0
 20
67.15
 30
0.0
 11
78.0
 21
69.15
 31
0.0
  0
LINE
  5
256
330
1E
100
AcDbEntity
  8
0
100
AcDbLine
 10
75.0
 20
67.15
 30
0.0
 11
75.0
 21
63.15
 31
0.0
  0
LINE
  5
257
330
1E
100
AcDbEntity
  8
0
100
AcDbLine
 10
74.8823
 20
63.15
 30
0.0
 11
77.1059
 21
63.15
 31
0.0
  0
LINE
  5
258
330
1E
100
AcDbEntity
  8
0
100
AcDbLine
 10
65.0
 20
81.15
 30
0.0
 11
73.3
 21
81.15
 31
0.0
  0
LINE
  5
259
330
1E
100
AcDbEntity
  8
0
100
AcDbLine
 10
65.0
 20
81.15
 30
0.0
 11
67.8
 21
81.15
 31
0.0
  0
LINE
  5
25A
330
1E
100
AcDbEntity
  8
0
100
AcDbLine
 10
73.3
 20
81.15
 30
0.0
 11
80.90000000000001
 21
81.15
 31
0.0
  0
LINE
  5
25B
330
1E
100
AcDbEntity
  8
0
100
AcDbLine
 10
79.0
 20
63.15
 30
0.0
 11
79.0
 21
47.14999999999999
 31
0.0
  0
LINE
  5
25C
330
1E
100
AcDbEntity
  8
0
100
AcDbLine
 10
77.1059
 20
63.15
 30
0.0
 11
78.5059
 21
63.15
 31
0.0
  0
LINE
  5
25D
330
1E
100
AcDbEntity
  8
0
100
AcDbLine
 10
78.0
 20
79.15
 30
0.0
 11
78.0
 21
69.15
 31
0.0
  0
LINE
  5
25E
330
1E
100
AcDbEntity
  8
0
100
AcDbLine
 10
52.5
 20
79.15
 30
0.0
 11
78.0
 21
79.15
 31
0.0
  0
LINE
  5
25F
330
1E
100
AcDbEntity
  8
0
100
AcDbLine
 10
52.5
 20
69.15
 30
0.0
 11
78.0
 21
69.15
 31
0.0
  0
LINE
  5
260
330
1E
100
AcDbEntity
  8
0
100
AcDbLine
 10
78.0
 20
69.15
 30
0.0
 11
78.0
 21
79.15
 31
0.0
  0
LINE
  5
261
330
1E
100
AcDbEntity
  8
0
100
AcDbLine
 10
78.5059
 20
63.15
 30
0.0
 11
79.0
 21
63.15
 31
0.0
  0
LINE
  5
262
330
1E
100
AcDbEntity
  8
0
100
AcDbLine
 10
76.0
 20
81.15
 30
0.0
 11
80.90000000000001
 21
81.15
 31
0.0
  0
LINE
  5
263
330
1E
100
AcDbEntity
  8
0
100
AcDbLine
 10
76.0
 20
81.15
 30
0.0
 11
78.0
 21
79.15
 31
0.0
  0
LINE
  5
264
330
1E
100
AcDbEntity
  8
0
100
AcDbLine
 10
80.90000000000001
 20
81.15
 30
0.0
 11
87.59999999999999
 21
81.15
 31
0.0
  0
LINE
  5
265
330
1E
100
AcDbEntity
  8
0
100
AcDbLine
 10
87.59999999999999
 20
81.15
 30
0.0
 11
92.70000000000001
 21
81.15
 31
0.0
  0
LINE
  5
266
330
1E
100
AcDbEntity
  8
0
100
AcDbLine
 10
92.70000000000001
 20
81.15
 30
0.0
 11
95.8
 21
81.15
 31
0.0
  0
LINE
  5
267
330
1E
100
AcDbEntity
  8
0
100
AcDbLine
 10
205.0
 20
63.15
 30
0.0
 11
205.0
 21
67.15
 31
0.0
  0
LINE
  5
268
330
1E
100
AcDbEntity
  8
0
100
AcDbLine
 10
211.3759999999999
 20
63.15
 30
0.0
 11
215.0
 21
63.15
 31
0.0
  0
LINE
  5
269
330
1E
100
AcDbEntity
  8
0
100
AcDbLine
 10
208.041
 20
63.15
 30
0.0
 11
211.3759999999999
 21
63.15
 31
0.0
  0
LINE
  5
26A
330
1E
100
AcDbEntity
  8
0
100
AcDbLine
 10
205.118
 20
63.15
 30
0.0
 11
208.041
 21
63.15
 31
0.0
  0
LINE
  5
26B
330
1E
100
AcDbEntity
  8
0
100
AcDbLine
 10
202.8939999999999
 20
63.15
 30
0.0
 11
205.118
 21
63.15
 31
0.0
  0
LINE
  5
26C
330
1E
100
AcDbEntity
  8
0
100
AcDbLine
 10
201.494
 20
63.15
 30
0.0
 11
202.8939999999999
 21
63.15
 31
0.0
  0
LINE
  5
26D
330
1E
100
AcDbEntity
  8
0
100
AcDbLine
 10
201.0
 20
63.15
 30
0.0
 11
201.494
 21
63.15
 31
0.0
  0
LINE
  5
26E
330
1E
100
AcDbEntity
  8
0
100
AcDbLine
 10
201.0
 20
63.15
 30
0.0
 11
201.0
 21
47.14999999999999
 31
0.0
  0
LINE
  5
26F
330
1E
100
AcDbEntity
  8
0
100
AcDbLine
 10
215.0
 20
63.15
 30
0.0
 11
218.624
 21
63.15
 31
0.0
  0
LINE
  5
270
330
1E
100
AcDbEntity
  8
0
100
AcDbLine
 10
218.624
 20
63.15
 30
0.0
 11
221.959
 21
63.15
 31
0.0
  0
LINE
  5
271
330
1E
100
AcDbEntity
  8
0
100
AcDbLine
 10
225.0
 20
63.15
 30
0.0
 11
225.0
 21
67.15
 31
0.0
  0
LINE
  5
272
330
1E
100
AcDbEntity
  8
0
100
AcDbLine
 10
221.959
 20
63.15
 30
0.0
 11
224.882
 21
63.15
 31
0.0
  0
LINE
  5
273
330
1E
100
AcDbEntity
  8
0
100
AcDbLine
 10
224.882
 20
63.15
 30
0.0
 11
227.1059999999999
 21
63.15
 31
0.0
  0
LINE
  5
274
330
1E
100
AcDbEntity
  8
0
100
AcDbLine
 10
256.1999999999999
 20
49.15
 30
0.0
 11
258.0
 21
49.15
 31
0.0
  0
LINE
  5
275
330
1E
100
AcDbEntity
  8
0
100
AcDbLine
 10
254.4999999999999
 20
49.15
 30
0.0
 11
256.1999999999999
 21
49.15
 31
0.0
  0
LINE
  5
276
330
1E
100
AcDbEntity
  8
0
100
AcDbLine
 10
253.1
 20
49.15
 30
0.0
 11
254.4999999999999
 21
49.15
 31
0.0
  0
LINE
  5
277
330
1E
100
AcDbEntity
  8
0
100
AcDbLine
 10
251.9
 20
49.15
 30
0.0
 11
253.1
 21
49.15
 31
0.0
  0
LINE
  5
278
330
1E
100
AcDbEntity
  8
0
100
AcDbLine
 10
251.3
 20
49.15
 30
0.0
 11
251.9
 21
49.15
 31
0.0
  0
LINE
  5
279
330
1E
100
AcDbEntity
  8
0
100
AcDbLine
 10
258.0
 20
49.15
 30
0.0
 11
259.8
 21
49.15
 31
0.0
  0
LINE
  5
27A
330
1E
100
AcDbEntity
  8
0
100
AcDbLine
 10
259.8
 20
49.15
 30
0.0
 11
261.5
 21
49.15
 31
0.0
  0
LINE
  5
27B
330
1E
100
AcDbEntity
  8
0
100
AcDbLine
 10
261.5
 20
49.15
 30
0.0
 11
262.9
 21
49.15
 31
0.0
  0
LINE
  5
27C
330
1E
100
AcDbEntity
  8
0
100
AcDbLine
 10
262.9
 20
49.15
 30
0.0
 11
264.1
 21
49.15
 31
0.0
  0
LINE
  5
27D
330
1E
100
AcDbEntity
  8
0
100
AcDbLine
 10
264.1
 20
49.15
 30
0.0
 11
264.6999999999999
 21
49.15
 31
0.0
  0
LINE
  5
27E
330
1E
100
AcDbEntity
  8
0
100
AcDbLine
 10
264.6999999999999
 20
49.15
 30
0.0
 11
265.0
 21
49.15
 31
0.0
  0
LINE
  5
27F
330
1E
100
AcDbEntity
  8
0
100
AcDbLine
 10
265.0
 20
49.15
 30
0.0
 11
265.0
 21
47.14999999999999
 31
0.0
  0
LINE
  5
280
330
1E
100
AcDbEntity
  8
0
100
AcDbLine
 10
229.0
 20
63.15
 30
0.0
 11
229.0
 21
47.14999999999999
 31
0.0
  0
LINE
  5
281
330
1E
100
AcDbEntity
  8
0
100
AcDbLine
 10
251.0
 20
49.15
 30
0.0
 11
251.0
 21
47.14999999999999
 31
0.0
  0
LINE
  5
282
330
1E
100
AcDbEntity
  8
0
100
AcDbLine
 10
251.0
 20
49.15
 30
0.0
 11
251.3
 21
49.15
 31
0.0
  0
LINE
  5
283
330
1E
100
AcDbEntity
  8
0
100
AcDbLine
 10
227.1059999999999
 20
63.15
 30
0.0
 11
228.5059999999999
 21
63.15
 31
0.0
  0
LINE
  5
284
330
1E
100
AcDbEntity
  8
0
100
AcDbLine
 10
205.0
 20
67.15
 30
0.0
 11
205.3529999999999
 21
67.15
 31
0.0
  0
LINE
  5
285
330
1E
100
AcDbEntity
  8
0
100
AcDbLine
 10
205.0
 20
67.15
 30
0.0
 11
205.0
 21
63.15
 31
0.0
  0
LINE
  5
286
330
1E
100
AcDbEntity
  8
0
100
AcDbLine
 10
205.3529999999999
 20
67.15
 30
0.0
 11
206.3529999999999
 21
67.15
 31
0.0
  0
LINE
  5
287
330
1E
100
AcDbEntity
  8
0
100
AcDbLine
 10
206.3529999999999
 20
67.15
 30
0.0
 11
207.9409999999999
 21
67.15
 31
0.0
  0
LINE
  5
289
330
1E
100
AcDbEntity
  8
0
100
AcDbLine
 10
207.9409999999999
 20
67.15
 30
0.0
 11
210.029
 21
67.15
 31
0.0
  0
LINE
  5
28A
330
1E
100
AcDbEntity
  8
0
100
AcDbLine
 10
210.029
 20
67.15
 30
0.0
 11
212.412
 21
67.15
 31
0.0
  0
LINE
  5
28C
330
1E
100
AcDbEntity
  8
0
100
AcDbLine
 10
212.412
 20
67.15
 30
0.0
 11
215.0
 21
67.15
 31
0.0
  0
LINE
  5
28D
330
1E
100
AcDbEntity
  8
0
100
AcDbLine
 10
202.0
 20
74.15
 30
0.0
 11
202.0
 21
71.15000000000001
 31
0.0
  0
LINE
  5
28E
330
1E
100
AcDbEntity
  8
0
100
AcDbLine
 10
202.0
 20
74.15
 30
0.0
 11
202.0
 21
77.15
 31
0.0
  0
LINE
  5
28F
330
1E
100
AcDbEntity
  8
0
100
AcDbLine
 10
202.0
 20
71.15000000000001
 30
0.0
 11
202.0
 21
69.15
 31
0.0
  0
LINE
  5
290
330
1E
100
AcDbEntity
  8
0
100
AcDbLine
 10
202.0
 20
71.15000000000001
 30
0.0
 11
202.0
 21
74.15
 31
0.0
  0
LINE
  5
291
330
1E
100
AcDbEntity
  8
0
100
AcDbLine
 10
202.0
 20
77.15
 30
0.0
 11
202.0
 21
79.15
 31
0.0
  0
LINE
  5
292
330
1E
100
AcDbEntity
  8
0
100
AcDbLine
 10
202.0
 20
77.15
 30
0.0
 11
202.0
 21
74.15
 31
0.0
  0
LINE
  5
293
330
1E
100
AcDbEntity
  8
0
100
AcDbLine
 10
204.0
 20
81.15
 30
0.0
 11
204.4
 21
81.15
 31
0.0
  0
LINE
  5
294
330
1E
100
AcDbEntity
  8
0
100
AcDbLine
 10
204.4
 20
81.15
 30
0.0
 11
205.5
 21
81.15
 31
0.0
  0
LINE
  5
295
330
1E
100
AcDbEntity
  8
0
100
AcDbLine
 10
205.5
 20
81.15
 30
0.0
 11
207.2
 21
81.15
 31
0.0
  0
LINE
  5
296
330
1E
100
AcDbEntity
  8
0
100
AcDbLine
 10
207.2
 20
81.15
 30
0.0
 11
209.5
 21
81.15
 31
0.0
  0
LINE
  5
298
330
1E
100
AcDbEntity
  8
0
100
AcDbLine
 10
209.5
 20
81.15
 30
0.0
 11
212.1999999999999
 21
81.15
 31
0.0
  0
LINE
  5
29A
330
1E
100
AcDbEntity
  8
0
100
AcDbLine
 10
212.1999999999999
 20
81.15
 30
0.0
 11
215.0
 21
81.15
 31
0.0
  0
LINE
  5
29B
330
1E
100
AcDbEntity
  8
0
100
AcDbLine
 10
202.0
 20
79.15
 30
0.0
 11
204.0
 21
81.15
 31
0.0
  0
LINE
  5
29C
330
1E
100
AcDbEntity
  8
0
100
AcDbLine
 10
202.0
 20
79.15
 30
0.0
 11
202.4999999999999
 21
79.15
 31
0.0
  0
LINE
  5
29D
330
1E
100
AcDbEntity
  8
0
100
AcDbLine
 10
202.0
 20
79.15
 30
0.0
 11
202.0
 21
77.15
 31
0.0
  0
LINE
  5
29E
330
1E
100
AcDbEntity
  8
0
100
AcDbLine
 10
202.0
 20
69.15
 30
0.0
 11
205.0
 21
67.15
 31
0.0
  0
LINE
  5
29F
330
1E
100
AcDbEntity
  8
0
100
AcDbLine
 10
202.0
 20
69.15
 30
0.0
 11
202.0
 21
71.15000000000001
 31
0.0
  0
LINE
  5
2A0
330
1E
100
AcDbEntity
  8
0
100
AcDbLine
 10
202.0
 20
69.15
 30
0.0
 11
202.4999999999999
 21
69.15
 31
0.0
  0
LINE
  5
2A1
330
1E
100
AcDbEntity
  8
0
100
AcDbLine
 10
222.059
 20
67.15
 30
0.0
 11
223.647
 21
67.15
 31
0.0
  0
LINE
  5
2A3
330
1E
100
AcDbEntity
  8
0
100
AcDbLine
 10
219.9709999999999
 20
67.15
 30
0.0
 11
222.059
 21
67.15
 31
0.0
  0
LINE
  5
2A4
330
1E
100
AcDbEntity
  8
0
100
AcDbLine
 10
217.5879999999999
 20
67.15
 30
0.0
 11
219.9709999999999
 21
67.15
 31
0.0
  0
LINE
  5
2A6
330
1E
100
AcDbEntity
  8
0
100
AcDbLine
 10
222.8
 20
81.15
 30
0.0
 11
224.5
 21
81.15
 31
0.0
  0
LINE
  5
2A7
330
1E
100
AcDbEntity
  8
0
100
AcDbLine
 10
220.5
 20
81.15
 30
0.0
 11
222.8
 21
81.15
 31
0.0
  0
LINE
  5
2A9
330
1E
100
AcDbEntity
  8
0
100
AcDbLine
 10
217.8
 20
81.15
 30
0.0
 11
220.5
 21
81.15
 31
0.0
  0
LINE
  5
2AB
330
1E
100
AcDbEntity
  8
0
100
AcDbLine
 10
215.0
 20
67.15
 30
0.0
 11
217.5879999999999
 21
67.15
 31
0.0
  0
LINE
  5
2AC
330
1E
100
AcDbEntity
  8
0
100
AcDbLine
 10
206.6999999999999
 20
81.15
 30
0.0
 11
215.0
 21
81.15
 31
0.0
  0
LINE
  5
2AD
330
1E
100
AcDbEntity
  8
0
100
AcDbLine
 10
199.0999999999999
 20
81.15
 30
0.0
 11
206.6999999999999
 21
81.15
 31
0.0
  0
LINE
  5
2AE
330
1E
100
AcDbEntity
  8
0
100
AcDbLine
 10
199.0999999999999
 20
81.15
 30
0.0
 11
204.0
 21
81.15
 31
0.0
  0
LINE
  5
2AF
330
1E
100
AcDbEntity
  8
0
100
AcDbLine
 10
192.4
 20
81.15
 30
0.0
 11
199.0999999999999
 21
81.15
 31
0.0
  0
LINE
  5
2B0
330
1E
100
AcDbEntity
  8
0
100
AcDbLine
 10
187.3
 20
81.15
 30
0.0
 11
192.4
 21
81.15
 31
0.0
  0
LINE
  5
2B1
330
1E
100
AcDbEntity
  8
0
100
AcDbLine
 10
184.1999999999999
 20
81.15
 30
0.0
 11
187.3
 21
81.15
 31
0.0
  0
LINE
  5
2B2
330
1E
100
AcDbEntity
  8
0
100
AcDbLine
 10
183.0
 20
81.15
 30
0.0
 11
184.1999999999999
 21
81.15
 31
0.0
  0
LINE
  5
2B3
330
1E
100
AcDbEntity
  8
0
100
AcDbLine
 10
215.0
 20
81.15
 30
0.0
 11
223.3
 21
81.15
 31
0.0
  0
LINE
  5
2B4
330
1E
100
AcDbEntity
  8
0
100
AcDbLine
 10
215.0
 20
81.15
 30
0.0
 11
217.8
 21
81.15
 31
0.0
  0
LINE
  5
2B5
330
1E
100
AcDbEntity
  8
0
100
AcDbLine
 10
224.647
 20
67.15
 30
0.0
 11
225.0
 21
67.15
 31
0.0
  0
LINE
  5
2B6
330
1E
100
AcDbEntity
  8
0
100
AcDbLine
 10
224.5
 20
81.15
 30
0.0
 11
225.5999999999999
 21
81.15
 31
0.0
  0
LINE
  5
2B7
330
1E
100
AcDbEntity
  8
0
100
AcDbLine
 10
223.647
 20
67.15
 30
0.0
 11
224.647
 21
67.15
 31
0.0
  0
LINE
  5
2B8
330
1E
100
AcDbEntity
  8
0
100
AcDbLine
 10
228.0
 20
69.15
 30
0.0
 11
228.0
 21
71.15000000000001
 31
0.0
  0
LINE
  5
2B9
330
1E
100
AcDbEntity
  8
0
100
AcDbLine
 10
202.4999999999999
 20
69.15
 30
0.0
 11
228.0
 21
69.15
 31
0.0
  0
LINE
  5
2BA
330
1E
100
AcDbEntity
  8
0
100
AcDbLine
 10
228.0
 20
79.15
 30
0.0
 11
228.0
 21
74.15
 31
0.0
  0
LINE
  5
2BB
330
1E
100
AcDbEntity
  8
0
100
AcDbLine
 10
225.5999999999999
 20
81.15
 30
0.0
 11
226.0
 21
81.15
 31
0.0
  0
LINE
  5
2BC
330
1E
100
AcDbEntity
  8
0
100
AcDbLine
 10
202.4999999999999
 20
79.15
 30
0.0
 11
228.0
 21
79.15
 31
0.0
  0
LINE
  5
2BD
330
1E
100
AcDbEntity
  8
0
100
AcDbLine
 10
228.0
 20
74.15
 30
0.0
 11
228.0
 21
71.15000000000001
 31
0.0
  0
LINE
  5
2BE
330
1E
100
AcDbEntity
  8
0
100
AcDbLine
 10
228.0
 20
74.15
 30
0.0
 11
228.0
 21
79.15
 31
0.0
  0
LINE
  5
2BF
330
1E
100
AcDbEntity
  8
0
100
AcDbLine
 10
228.0
 20
71.15000000000001
 30
0.0
 11
228.0
 21
69.15
 31
0.0
  0
LINE
  5
2C0
330
1E
100
AcDbEntity
  8
0
100
AcDbLine
 10
228.0
 20
71.15000000000001
 30
0.0
 11
228.0
 21
74.15
 31
0.0
  0
LINE
  5
2C1
330
1E
100
AcDbEntity
  8
0
100
AcDbLine
 10
225.0
 20
67.15
 30
0.0
 11
228.0
 21
69.15
 31
0.0
  0
LINE
  5
2C2
330
1E
100
AcDbEntity
  8
0
100
AcDbLine
 10
225.0
 20
67.15
 30
0.0
 11
225.0
 21
63.15
 31
0.0
  0
LINE
  5
2C3
330
1E
100
AcDbEntity
  8
0
100
AcDbLine
 10
226.0
 20
81.15
 30
0.0
 11
230.9
 21
81.15
 31
0.0
  0
LINE
  5
2C4
330
1E
100
AcDbEntity
  8
0
100
AcDbLine
 10
226.0
 20
81.15
 30
0.0
 11
228.0
 21
79.15
 31
0.0
  0
LINE
  5
2C5
330
1E
100
AcDbEntity
  8
0
100
AcDbLine
 10
223.3
 20
81.15
 30
0.0
 11
230.9
 21
81.15
 31
0.0
  0
LINE
  5
2C6
330
1E
100
AcDbEntity
  8
0
100
AcDbLine
 10
230.9
 20
81.15
 30
0.0
 11
237.5999999999999
 21
81.15
 31
0.0
  0
LINE
  5
2C7
330
1E
100
AcDbEntity
  8
0
100
AcDbLine
 10
237.5999999999999
 20
81.15
 30
0.0
 11
242.7
 21
81.15
 31
0.0
  0
LINE
  5
2C8
330
1E
100
AcDbEntity
  8
0
100
AcDbLine
 10
242.7
 20
81.15
 30
0.0
 11
245.8
 21
81.15
 31
0.0
  0
LINE
  5
2C9
330
1E
100
AcDbEntity
  8
0
100
AcDbLine
 10
247.0
 20
81.15
 30
0.0
 11
249.0
 21
83.15000000000001
 31
0.0
  0
LINE
  5
2CA
330
1E
100
AcDbEntity
  8
0
100
AcDbLine
 10
245.8
 20
81.15
 30
0.0
 11
247.0
 21
81.15
 31
0.0
  0
LINE
  5
2CB
330
1E
100
AcDbEntity
  8
0
100
AcDbLine
 10
228.5059999999999
 20
63.15
 30
0.0
 11
229.0
 21
63.15
 31
0.0
  0
LINE
  5
2CC
330
1E
100
AcDbEntity
  8
0
100
AcDbLine
 10
97.0
 20
81.15
 30
0.0
 11
99.0
 21
83.15000000000001
 31
0.0
  0
LINE
  5
2CD
330
1E
100
AcDbEntity
  8
0
100
AcDbLine
 10
65.0
 20
83.15000000000001
 30
0.0
 11
73.79999999999999
 21
83.15000000000001
 31
0.0
  0
LINE
  5
2CE
330
1E
100
AcDbEntity
  8
0
100
AcDbLine
 10
73.79999999999999
 20
83.15000000000001
 30
0.0
 11
81.90000000000001
 21
83.15000000000001
 31
0.0
  0
LINE
  5
2CF
330
1E
100
AcDbEntity
  8
0
100
AcDbLine
 10
81.90000000000001
 20
83.15000000000001
 30
0.0
 11
89.0
 21
83.15000000000001
 31
0.0
  0
LINE
  5
2D0
330
1E
100
AcDbEntity
  8
0
100
AcDbLine
 10
89.0
 20
83.15000000000001
 30
0.0
 11
94.40000000000001
 21
83.15000000000001
 31
0.0
  0
LINE
  5
2D1
330
1E
100
AcDbEntity
  8
0
100
AcDbLine
 10
94.40000000000001
 20
83.15000000000001
 30
0.0
 11
97.80000000000001
 21
83.15000000000001
 31
0.0
  0
LINE
  5
2D2
330
1E
100
AcDbEntity
  8
0
100
AcDbLine
 10
97.80000000000001
 20
83.15000000000001
 30
0.0
 11
99.0
 21
83.15000000000001
 31
0.0
  0
LINE
  5
2D3
330
1E
100
AcDbEntity
  8
0
100
AcDbLine
 10
206.1999999999999
 20
83.15000000000001
 30
0.0
 11
215.0
 21
83.15000000000001
 31
0.0
  0
LINE
  5
2D4
330
1E
100
AcDbEntity
  8
0
100
AcDbLine
 10
198.1
 20
83.15000000000001
 30
0.0
 11
206.1999999999999
 21
83.15000000000001
 31
0.0
  0
LINE
  5
2D5
330
1E
100
AcDbEntity
  8
0
100
AcDbLine
 10
191.0
 20
83.15000000000001
 30
0.0
 11
198.1
 21
83.15000000000001
 31
0.0
  0
LINE
  5
2D6
330
1E
100
AcDbEntity
  8
0
100
AcDbLine
 10
185.5999999999999
 20
83.15000000000001
 30
0.0
 11
191.0
 21
83.15000000000001
 31
0.0
  0
LINE
  5
2D7
330
1E
100
AcDbEntity
  8
0
100
AcDbLine
 10
182.1999999999999
 20
83.15000000000001
 30
0.0
 11
185.5999999999999
 21
83.15000000000001
 31
0.0
  0
LINE
  5
2D8
330
1E
100
AcDbEntity
  8
0
100
AcDbLine
 10
181.0
 20
83.15000000000001
 30
0.0
 11
182.1999999999999
 21
83.15000000000001
 31
0.0
  0
LINE
  5
2D9
330
1E
100
AcDbEntity
  8
0
100
AcDbLine
 10
181.0
 20
83.15000000000001
 30
0.0
 11
183.0
 21
81.15
 31
0.0
  0
LINE
  5
2DA
330
1E
100
AcDbEntity
  8
0
100
AcDbLine
 10
181.0
 20
83.15000000000001
 30
0.0
 11
181.0
 21
107.15
 31
0.0
  0
LINE
  5
2DB
330
1E
100
AcDbEntity
  8
0
100
AcDbLine
 10
215.0
 20
83.15000000000001
 30
0.0
 11
223.7999999999999
 21
83.15000000000001
 31
0.0
  0
LINE
  5
2DC
330
1E
100
AcDbEntity
  8
0
100
AcDbLine
 10
223.7999999999999
 20
83.15000000000001
 30
0.0
 11
231.8999999999999
 21
83.15000000000001
 31
0.0
  0
LINE
  5
2DD
330
1E
100
AcDbEntity
  8
0
100
AcDbLine
 10
231.8999999999999
 20
83.15000000000001
 30
0.0
 11
239.0
 21
83.15000000000001
 31
0.0
  0
LINE
  5
2DE
330
1E
100
AcDbEntity
  8
0
100
AcDbLine
 10
239.0
 20
83.15000000000001
 30
0.0
 11
244.3999999999999
 21
83.15000000000001
 31
0.0
  0
LINE
  5
2DF
330
1E
100
AcDbEntity
  8
0
100
AcDbLine
 10
244.3999999999999
 20
83.15000000000001
 30
0.0
 11
247.8
 21
83.15000000000001
 31
0.0
  0
LINE
  5
2E0
330
1E
100
AcDbEntity
  8
0
100
AcDbLine
 10
247.8
 20
83.15000000000001
 30
0.0
 11
249.0
 21
83.15000000000001
 31
0.0
  0
LINE
  5
2E1
330
1E
100
AcDbEntity
  8
0
100
AcDbLine
 10
249.0
 20
83.15000000000001
 30
0.0
 11
249.0
 21
107.15
 31
0.0
  0
LINE
  5
2E2
330
1E
100
AcDbEntity
  8
0
100
AcDbLine
 10
99.0
 20
83.15000000000001
 30
0.0
 11
99.0
 21
107.15
 31
0.0
  0
LINE
  5
2E3
330
1E
100
AcDbEntity
  8
0
100
AcDbLine
 10
95.8
 20
81.15
 30
0.0
 11
97.0
 21
81.15
 31
0.0
  0
LINE
  5
2E4
330
1E
100
AcDbEntity
  8
0
100
AcDbLine
 10
56.7
 20
81.15
 30
0.0
 11
65.0
 21
81.15
 31
0.0
  0
LINE
  5
2E5
330
1E
100
AcDbEntity
  8
0
100
AcDbLine
 10
65.0
 20
107.15
 30
0.0
 11
73.79999999999999
 21
107.15
 31
0.0
  0
LINE
  5
2E6
330
1E
100
AcDbEntity
  8
0
100
AcDbLine
 10
73.79999999999999
 20
107.15
 30
0.0
 11
81.90000000000001
 21
107.15
 31
0.0
  0
LINE
  5
2E7
330
1E
100
AcDbEntity
  8
0
100
AcDbLine
 10
81.90000000000001
 20
107.15
 30
0.0
 11
89.0
 21
107.15
 31
0.0
  0
LINE
  5
2E8
330
1E
100
AcDbEntity
  8
0
100
AcDbLine
 10
89.0
 20
107.15
 30
0.0
 11
94.40000000000001
 21
107.15
 31
0.0
  0
LINE
  5
2E9
330
1E
100
AcDbEntity
  8
0
100
AcDbLine
 10
94.40000000000001
 20
107.15
 30
0.0
 11
97.80000000000001
 21
107.15
 31
0.0
  0
LINE
  5
2EA
330
1E
100
AcDbEntity
  8
0
100
AcDbLine
 10
206.1999999999999
 20
107.15
 30
0.0
 11
215.0
 21
107.15
 31
0.0
  0
LINE
  5
2EB
330
1E
100
AcDbEntity
  8
0
100
AcDbLine
 10
198.1
 20
107.15
 30
0.0
 11
206.1999999999999
 21
107.15
 31
0.0
  0
LINE
  5
2EC
330
1E
100
AcDbEntity
  8
0
100
AcDbLine
 10
191.0
 20
107.15
 30
0.0
 11
198.1
 21
107.15
 31
0.0
  0
LINE
  5
2ED
330
1E
100
AcDbEntity
  8
0
100
AcDbLine
 10
185.5999999999999
 20
107.15
 30
0.0
 11
191.0
 21
107.15
 31
0.0
  0
LINE
  5
2EE
330
1E
100
AcDbEntity
  8
0
100
AcDbLine
 10
182.1999999999999
 20
107.15
 30
0.0
 11
185.5999999999999
 21
107.15
 31
0.0
  0
LINE
  5
2EF
330
1E
100
AcDbEntity
  8
0
100
AcDbLine
 10
181.0
 20
107.15
 30
0.0
 11
181.0
 21
83.15000000000001
 31
0.0
  0
LINE
  5
2F0
330
1E
100
AcDbEntity
  8
0
100
AcDbLine
 10
181.0
 20
107.15
 30
0.0
 11
182.1999999999999
 21
107.15
 31
0.0
  0
LINE
  5
2F1
330
1E
100
AcDbEntity
  8
0
100
AcDbLine
 10
215.0
 20
107.15
 30
0.0
 11
223.7999999999999
 21
107.15
 31
0.0
  0
LINE
  5
2F2
330
1E
100
AcDbEntity
  8
0
100
AcDbLine
 10
223.7999999999999
 20
107.15
 30
0.0
 11
231.8999999999999
 21
107.15
 31
0.0
  0
LINE
  5
2F3
330
1E
100
AcDbEntity
  8
0
100
AcDbLine
 10
231.8999999999999
 20
107.15
 30
0.0
 11
239.0
 21
107.15
 31
0.0
  0
LINE
  5
2F4
330
1E
100
AcDbEntity
  8
0
100
AcDbLine
 10
239.0
 20
107.15
 30
0.0
 11
244.3999999999999
 21
107.15
 31
0.0
  0
LINE
  5
2F5
330
1E
100
AcDbEntity
  8
0
100
AcDbLine
 10
249.0
 20
107.15
 30
0.0
 11
249.0
 21
83.15000000000001
 31
0.0
  0
LINE
  5
2F6
330
1E
100
AcDbEntity
  8
0
100
AcDbLine
 10
244.3999999999999
 20
107.15
 30
0.0
 11
247.8
 21
107.15
 31
0.0
  0
LINE
  5
2F7
330
1E
100
AcDbEntity
  8
0
100
AcDbLine
 10
247.8
 20
107.15
 30
0.0
 11
249.0
 21
107.15
 31
0.0
  0
LINE
  5
2F8
330
1E
100
AcDbEntity
  8
0
100
AcDbLine
 10
97.80000000000001
 20
107.15
 30
0.0
 11
99.0
 21
107.15
 31
0.0
  0
LINE
  5
2F9
330
1E
100
AcDbEntity
  8
0
100
AcDbLine
 10
99.0
 20
107.15
 30
0.0
 11
99.0
 21
83.15000000000001
 31
0.0
  0
LINE
  5
2FA
330
1E
100
AcDbEntity
  8
0
100
AcDbLine
 10
56.2
 20
107.15
 30
0.0
 11
65.0
 21
107.15
 31
0.0
  0
LINE
  5
2FB
330
1E
100
AcDbEntity
  8
0
100
AcDbLine
 10
56.2
 20
83.15000000000001
 30
0.0
 11
65.0
 21
83.15000000000001
 31
0.0
  0
LINE
  5
2FC
330
1E
100
AcDbEntity
  8
0
100
AcDbLine
 10
49.1
 20
81.15
 30
0.0
 11
54.0
 21
81.15
 31
0.0
  0
LINE
  5
2FD
330
1E
100
AcDbEntity
  8
0
100
AcDbLine
 10
49.1
 20
81.15
 30
0.0
 11
56.7
 21
81.15
 31
0.0
  0
LINE
  5
2FE
330
1E
100
AcDbEntity
  8
0
100
AcDbLine
 10
51.0
 20
47.14999999999999
 30
0.0
 11
140.0
 21
47.14999999999999
 31
0.0
  0
LINE
  5
2FF
330
1E
100
AcDbEntity
  8
0
100
AcDbLine
 10
79.0
 20
47.14999999999999
 30
0.0
 11
79.0
 21
63.15
 31
0.0
  0
LINE
  5
300
330
1E
100
AcDbEntity
  8
0
100
AcDbLine
 10
48.0
 20
5.15
 30
0.0
 11
140.0
 21
5.15
 31
0.0
  0
LINE
  5
301
330
1E
100
AcDbEntity
  8
0
100
AcDbLine
 10
48.0
 20
5.15
 30
0.0
 11
48.0
 21
5.95
 31
0.0
  0
LINE
  5
302
330
1E
100
AcDbEntity
  8
0
100
AcDbLine
 10
48.0
 20
5.15
 30
0.0
 11
48.0
 21
5.950000000000009
 31
0.0
  0
ENDSEC
  0
SECTION
  2
OBJECTS
  0
DICTIONARY
  5
C
330
0
100
AcDbDictionary
  3
ACAD_GROUP
350
D
  3
ACAD_LAYOUT
350
19
  3
ACAD_MLINESTYLE
350
16
  3
ACAD_PLOTSETTINGS
350
18
  3
ACAD_PLOTSTYLENAME
350
E
  3
ACDBHEADERROUNDTRIPXREC
350
30A
  3
ACDBVARIABLEDICTIONARY
350
307
  0
DICTIONARY
  5
32C
330
1E
100
AcDbDictionary
280
     1
  3
ACAD_LAYOUTSELFREF
360
32D
  0
DICTIONARY
  5
32A
330
1A
100
AcDbDictionary
280
     1
  3
ACAD_LAYOUTSELFREF
360
32B
  0
DICTIONARY
  5
D
102
{ACAD_REACTORS
330
C
102
}
330
C
100
AcDbDictionary
  0
DICTIONARY
  5
19
102
{ACAD_REACTORS
330
C
102
}
330
C
100
AcDbDictionary
  0
DICTIONARY
  5
16
102
{ACAD_REACTORS
330
C
102
}
330
C
100
AcDbDictionary
  3
STANDARD
350
17
  0
DICTIONARY
  5
18
102
{ACAD_REACTORS
330
C
102
}
330
C
100
AcDbDictionary
  0
ACDBDICTIONARYWDFLT
  5
E
102
{ACAD_REACTORS
330
C
102
}
330
C
100
AcDbDictionary
281
     1
  3
Normal
350
F
100
AcDbDictionaryWithDefault
340
F
  0
DICTIONARY
  5
30A
102
{ACAD_REACTORS
330
C
102
}
330
C
100
AcDbDictionary
  3
CEPSNTYPE
350
314
  3
FINGERPRINTGUID
350
315
  3
HYPERLINKBASE
350
30D
  3
INSUNITS
350
313
  3
LAYOUTDICT
350
30F
  3
LWETCUNION
350
312
  3
PLOTSETDICT
350
310
  3
PLOTSTYLNAMDICT
350
311
  3
PSVPSCALE
350
317
  3
PUCSBASE
350
31A
  3
PUCSORGBACK
350
320
  3
PUCSORGBOTTOM
350
31C
  3
PUCSORGFRONT
350
31F
  3
PUCSORGLEFT
350
31D
  3
PUCSORGRIGHT
350
31E
  3
PUCSORGTOP
350
31B
  3
PUCSORTHOREF
350
318
  3
PUCSORTHOVIEW
350
319
  3
STYLESHEET
350
30E
  3
TSTACKALIGN
350
30B
  3
TSTACKSIZE
350
30C
  3
UCSBASE
350
323
  3
UCSORGBACK
350
329
  3
UCSORGBOTTOM
350
325
  3
UCSORGFRONT
350
328
  3
UCSORGLEFT
350
326
  3
UCSORGRIGHT
350
327
  3
UCSORGTOP
350
324
  3
UCSORTHOREF
350
321
  3
UCSORTHOVIEW
350
322
  3
VERSIONGUID
350
316
  0
DICTIONARY
  5
307
102
{ACAD_REACTORS
330
C
102
}
330
C
100
AcDbDictionary
  3
DIMASSOC
350
308
  0
XRECORD
  5
32D
102
{ACAD_REACTORS
330
32C
102
}
330
32C
100
AcDbXrecord
340
1E
  0
XRECORD
  5
32B
102
{ACAD_REACTORS
330
32A
102
}
330
32A
100
AcDbXrecord
340
1A
  0
MLINESTYLE
  5
17
102
{ACAD_REACTORS
330
16
102
}
330
16
100
AcDbMlineStyle
  2
STANDARD
 70
     0
  3

 62
   256
 51
90.0
 52
90.0
 71
     2
 49
0.5
 62
   256
  6
BYLAYER
 49
-0.5
 62
   256
  6
BYLAYER
  0
ACDBPLACEHOLDER
  5
F
102
{ACAD_REACTORS
330
E
102
}
330
E
100
AcDbPlaceHolder
280
     0
  0
XRECORD
  5
314
102
{ACAD_REACTORS
330
30A
102
}
330
30A
100
AcDbXrecord
 90
        0
  0
XRECORD
  5
315
102
{ACAD_REACTORS
330
30A
102
}
330
30A
100
AcDbXrecord
  1
{283C8854-C849-4A75-95D5-30D988FABED1}
  0
XRECORD
  5
30D
102
{ACAD_REACTORS
330
30A
102
}
330
30A
100
AcDbXrecord
  1

  0
XRECORD
  5
313
102
{ACAD_REACTORS
330
30A
102
}
330
30A
100
AcDbXrecord
 90
        0
  0
XRECORD
  5
30F
102
{ACAD_REACTORS
330
30A
102
}
330
30A
100
AcDbXrecord
340
19
  0
XRECORD
  5
312
102
{ACAD_REACTORS
330
30A
102
}
330
30A
100
AcDbXrecord
 90
    10781
  0
XRECORD
  5
310
102
{ACAD_REACTORS
330
30A
102
}
330
30A
100
AcDbXrecord
340
18
  0
XRECORD
  5
311
102
{ACAD_REACTORS
330
30A
102
}
330
30A
100
AcDbXrecord
340
E
  0
XRECORD
  5
317
102
{ACAD_REACTORS
330
30A
102
}
330
30A
100
AcDbXrecord
 40
0.0
  0
XRECORD
  5
31A
102
{ACAD_REACTORS
330
30A
102
}
330
30A
100
AcDbXrecord
340
0
  0
XRECORD
  5
320
102
{ACAD_REACTORS
330
30A
102
}
330
30A
100
AcDbXrecord
 10
0.0
 20
0.0
 30
0.0
  0
XRECORD
  5
31C
102
{ACAD_REACTORS
330
30A
102
}
330
30A
100
AcDbXrecord
 10
0.0
 20
0.0
 30
0.0
  0
XRECORD
  5
31F
102
{ACAD_REACTORS
330
30A
102
}
330
30A
100
AcDbXrecord
 10
0.0
 20
0.0
 30
0.0
  0
XRECORD
  5
31D
102
{ACAD_REACTORS
330
30A
102
}
330
30A
100
AcDbXrecord
 10
0.0
 20
0.0
 30
0.0
  0
XRECORD
  5
31E
102
{ACAD_REACTORS
330
30A
102
}
330
30A
100
AcDbXrecord
 10
0.0
 20
0.0
 30
0.0
  0
XRECORD
  5
31B
102
{ACAD_REACTORS
330
30A
102
}
330
30A
100
AcDbXrecord
 10
0.0
 20
0.0
 30
0.0
  0
XRECORD
  5
318
102
{ACAD_REACTORS
330
30A
102
}
330
30A
100
AcDbXrecord
340
0
  0
XRECORD
  5
319
102
{ACAD_REACTORS
330
30A
102
}
330
30A
100
AcDbXrecord
 70
     0
  0
XRECORD
  5
30E
102
{ACAD_REACTORS
330
30A
102
}
330
30A
100
AcDbXrecord
  1

  0
XRECORD
  5
30B
102
{ACAD_REACTORS
330
30A
102
}
330
30A
100
AcDbXrecord
 90
        1
  0
XRECORD
  5
30C
102
{ACAD_REACTORS
330
30A
102
}
330
30A
100
AcDbXrecord
 90
       70
  0
XRECORD
  5
323
102
{ACAD_REACTORS
330
30A
102
}
330
30A
100
AcDbXrecord
340
0
  0
XRECORD
  5
329
102
{ACAD_REACTORS
330
30A
102
}
330
30A
100
AcDbXrecord
 10
0.0
 20
0.0
 30
0.0
  0
XRECORD
  5
325
102
{ACAD_REACTORS
330
30A
102
}
330
30A
100
AcDbXrecord
 10
0.0
 20
0.0
 30
0.0
  0
XRECORD
  5
328
102
{ACAD_REACTORS
330
30A
102
}
330
30A
100
AcDbXrecord
 10
0.0
 20
0.0
 30
0.0
  0
XRECORD
  5
326
102
{ACAD_REACTORS
330
30A
102
}
330
30A
100
AcDbXrecord
 10
0.0
 20
0.0
 30
0.0
  0
XRECORD
  5
327
102
{ACAD_REACTORS
330
30A
102
}
330
30A
100
AcDbXrecord
 10
0.0
 20
0.0
 30
0.0
  0
XRECORD
  5
324
102
{ACAD_REACTORS
330
30A
102
}
330
30A
100
AcDbXrecord
 10
0.0
 20
0.0
 30
0.0
  0
XRECORD
  5
321
102
{ACAD_REACTORS
330
30A
102
}
330
30A
100
AcDbXrecord
340
0
  0
XRECORD
  5
322
102
{ACAD_REACTORS
330
30A
102
}
330
30A
100
AcDbXrecord
 70
     1
  0
XRECORD
  5
316
102
{ACAD_REACTORS
330
30A
102
}
330
30A
100
AcDbXrecord
  1
{181B6855-0962-4423-8B3D-66157FF2DD44}
  0
DICTIONARYVAR
  5
308
102
{ACAD_REACTORS
330
307
102
}
330
307
100
DictionaryVariables
280
     0
  1
1
  0
ENDSEC
  0
EOF
