  0
SECTION
  2
HEADER
  9
$ACADVER
  1
AC1014
  9
$ACADMAINTVER
 70
     9
  9
$DWGCODEPAGE
  3
ANSI_1252
  9
$INSBASE
 10
0.0
 20
0.0
 30
0.0
  9
$EXTMIN
 10
0.0000000000000044
 20
0.0000000000000079
 30
0.0
  9
$EXTMAX
 10
280.0
 20
142.0
 30
0.0
  9
$LIMMIN
 10
0.0
 20
0.0
  9
$LIMMAX
 10
12.0
 20
9.0
  9
$ORTHOMODE
 70
     0
  9
$REGENMODE
 70
     1
  9
$FILLMODE
 70
     1
  9
$QTEXTMODE
 70
     0
  9
$MIRRTEXT
 70
     1
  9
$DRAGMODE
 70
     2
  9
$LTSCALE
 40
1.0
  9
$OSMODE
 70
    37
  9
$ATTMODE
 70
     1
  9
$TEXTSIZE
 40
0.2
  9
$TRACEWID
 40
0.05
  9
$TEXTSTYLE
  7
STANDARD
  9
$CLAYER
  8
0
  9
$CELTYPE
  6
CONTINUOUS
  9
$CECOLOR
 62
   256
  9
$CELTSCALE
 40
1.0
  9
$DELOBJ
 70
     1
  9
$DISPSILH
 70
     0
  9
$DIMSCALE
 40
1.0
  9
$DIMASZ
 40
0.18
  9
$DIMEXO
 40
0.0625
  9
$DIMDLI
 40
0.38
  9
$DIMRND
 40
0.0
  9
$DIMDLE
 40
0.0
  9
$DIMEXE
 40
0.18
  9
$DIMTP
 40
0.0
  9
$DIMTM
 40
0.0
  9
$DIMTXT
 40
0.18
  9
$DIMCEN
 40
0.09
  9
$DIMTSZ
 40
0.0
  9
$DIMTOL
 70
     0
  9
$DIMLIM
 70
     0
  9
$DIMTIH
 70
     1
  9
$DIMTOH
 70
     1
  9
$DIMSE1
 70
     0
  9
$DIMSE2
 70
     0
  9
$DIMTAD
 70
     0
  9
$DIMZIN
 70
     0
  9
$DIMBLK
  1

  9
$DIMASO
 70
     1
  9
$DIMSHO
 70
     1
  9
$DIMPOST
  1

  9
$DIMAPOST
  1

  9
$DIMALT
 70
     0
  9
$DIMALTD
 70
     2
  9
$DIMALTF
 40
25.4
  9
$DIMLFAC
 40
1.0
  9
$DIMTOFL
 70
     0
  9
$DIMTVP
 40
0.0
  9
$DIMTIX
 70
     0
  9
$DIMSOXD
 70
     0
  9
$DIMSAH
 70
     0
  9
$DIMBLK1
  1

  9
$DIMBLK2
  1

  9
$DIMSTYLE
  2
STANDARD
  9
$DIMCLRD
 70
     0
  9
$DIMCLRE
 70
     0
  9
$DIMCLRT
 70
     0
  9
$DIMTFAC
 40
1.0
  9
$DIMGAP
 40
0.09
  9
$DIMJUST
 70
     0
  9
$DIMSD1
 70
     0
  9
$DIMSD2
 70
     0
  9
$DIMTOLJ
 70
     1
  9
$DIMTZIN
 70
     0
  9
$DIMALTZ
 70
     0
  9
$DIMALTTZ
 70
     0
  9
$DIMFIT
 70
     3
  9
$DIMUPT
 70
     0
  9
$DIMUNIT
 70
     2
  9
$DIMDEC
 70
     4
  9
$DIMTDEC
 70
     4
  9
$DIMALTU
 70
     2
  9
$DIMALTTD
 70
     2
  9
$DIMTXSTY
  7
STANDARD
  9
$DIMAUNIT
 70
     0
  9
$LUNITS
 70
     2
  9
$LUPREC
 70
     4
  9
$SKETCHINC
 40
0.1
  9
$FILLETRAD
 40
0.0
  9
$AUNITS
 70
     0
  9
$AUPREC
 70
     0
  9
$MENU
  1
.
  9
$ELEVATION
 40
0.0
  9
$PELEVATION
 40
0.0
  9
$THICKNESS
 40
0.0
  9
$LIMCHECK
 70
     0
  9
$BLIPMODE
 70
     0
  9
$CHAMFERA
 40
0.0
  9
$CHAMFERB
 40
0.0
  9
$CHAMFERC
 40
0.0
  9
$CHAMFERD
 40
0.0
  9
$SKPOLY
 70
     0
  9
$TDCREATE
 40
2454692.782960428
  9
$TDUPDATE
 40
2454692.785581597
  9
$TDINDWG
 40
0.0026213426
  9
$TDUSRTIMER
 40
0.0026213426
  9
$USRTIMER
 70
     1
  9
$ANGBASE
 50
0.0
  9
$ANGDIR
 70
     0
  9
$PDMODE
 70
     0
  9
$PDSIZE
 40
0.0
  9
$PLINEWID
 40
0.0
  9
$COORDS
 70
     1
  9
$SPLFRAME
 70
     0
  9
$SPLINETYPE
 70
     6
  9
$SPLINESEGS
 70
     8
  9
$ATTDIA
 70
     0
  9
$ATTREQ
 70
     1
  9
$HANDLING
 70
 22529
  9
$HANDSEED
  5
2AF
  9
$SURFTAB1
 70
     6
  9
$SURFTAB2
 70
     6
  9
$SURFTYPE
 70
     6
  9
$SURFU
 70
     6
  9
$SURFV
 70
     6
  9
$UCSNAME
  2

  9
$UCSORG
 10
0.0
 20
0.0
 30
0.0
  9
$UCSXDIR
 10
1.0
 20
0.0
 30
0.0
  9
$UCSYDIR
 10
0.0
 20
1.0
 30
0.0
  9
$PUCSNAME
  2

  9
$PUCSORG
 10
0.0
 20
0.0
 30
0.0
  9
$PUCSXDIR
 10
1.0
 20
0.0
 30
0.0
  9
$PUCSYDIR
 10
0.0
 20
1.0
 30
0.0
  9
$USERI1
 70
     0
  9
$USERI2
 70
     0
  9
$USERI3
 70
     0
  9
$USERI4
 70
     0
  9
$USERI5
 70
     0
  9
$USERR1
 40
0.0
  9
$USERR2
 40
0.0
  9
$USERR3
 40
0.0
  9
$USERR4
 40
0.0
  9
$USERR5
 40
0.0
  9
$WORLDVIEW
 70
     1
  9
$SHADEDGE
 70
     3
  9
$SHADEDIF
 70
    70
  9
$TILEMODE
 70
     1
  9
$MAXACTVP
 70
    64
  9
$PINSBASE
 10
0.0
 20
0.0
 30
0.0
  9
$PLIMCHECK
 70
     0
  9
$PEXTMIN
 10
1.000000000000000E+20
 20
1.000000000000000E+20
 30
1.000000000000000E+20
  9
$PEXTMAX
 10
-1.000000000000000E+20
 20
-1.000000000000000E+20
 30
-1.000000000000000E+20
  9
$PLIMMIN
 10
0.0
 20
0.0
  9
$PLIMMAX
 10
12.0
 20
9.0
  9
$UNITMODE
 70
     0
  9
$VISRETAIN
 70
     1
  9
$PLINEGEN
 70
     0
  9
$PSLTSCALE
 70
     1
  9
$TREEDEPTH
 70
  3020
  9
$PICKSTYLE
 70
     1
  9
$CMLSTYLE
  2
STANDARD
  9
$CMLJUST
 70
     0
  9
$CMLSCALE
 40
1.0
  9
$PROXYGRAPHICS
 70
     1
  9
$MEASUREMENT
 70
     0
  0
ENDSEC
  0
SECTION
  2
CLASSES
  0
CLASS
  1
ACDBDICTIONARYWDFLT
  2
AcDbDictionaryWithDefault
  3
AutoCAD 2000
 90
        0
280
     0
281
     0
  0
CLASS
  1
ACDBPLACEHOLDER
  2
AcDbPlaceHolder
  3
AutoCAD 2000
 90
        0
280
     0
281
     0
  0
CLASS
  1
LAYOUT
  2
AcDbLayout
  3
AutoCAD 2000
 90
        0
280
     0
281
     0
  0
CLASS
  1
DICTIONARYVAR
  2
AcDbDictionaryVar
  3
AutoCAD 2000
 90
        0
280
     0
281
     0
  0
CLASS
  1
LONG_TRANSACTION
  2
AcDbLongTransaction
  3
AutoCAD 2000
 90
        0
280
     0
281
     0
  0
CLASS
  1
LWPOLYLINE
  2
AcDbPolyline
  3
AutoCAD 2000
 90
        0
280
     0
281
     1
  0
CLASS
  1
HATCH
  2
AcDbHatch
  3
AutoCAD 2000
 90
        0
280
     0
281
     1
  0
CLASS
  1
XRECORD
  2
AcDbXrecord
  3
AutoCAD 2000
 90
        0
280
     0
281
     0
  0
ENDSEC
  0
SECTION
  2
TABLES
  0
TABLE
  2
VPORT
  5
8
330
0
100
AcDbSymbolTable
 70
     2
  0
VPORT
  5
28A
330
8
100
AcDbSymbolTableRecord
100
AcDbViewportTableRecord
  2
*ACTIVE
 70
     0
 10
0.0
 20
0.0
 11
1.0
 21
1.0
 12
140.0
 22
71.00000000000001
 13
0.0
 23
0.0
 14
1.0
 24
1.0
 15
0.0
 25
0.0
 16
0.0
 26
0.0
 36
1.0
 17
0.0
 27
0.0
 37
0.0
 40
143.0895140664961
 41
2.078104993597951
 42
50.0
 43
0.0
 44
0.0
 50
0.0
 51
0.0
 71
     0
 72
   100
 73
     1
 74
     3
 75
     0
 76
     0
 77
     0
 78
     0
  0
ENDTAB
  0
TABLE
  2
LTYPE
  5
5
330
0
100
AcDbSymbolTable
 70
     1
  0
LTYPE
  5
13
330
5
100
AcDbSymbolTableRecord
100
AcDbLinetypeTableRecord
  2
BYBLOCK
 70
     0
  3

 72
    65
 73
     0
 40
0.0
  0
LTYPE
  5
14
330
5
100
AcDbSymbolTableRecord
100
AcDbLinetypeTableRecord
  2
BYLAYER
 70
     0
  3

 72
    65
 73
     0
 40
0.0
  0
LTYPE
  5
15
330
5
100
AcDbSymbolTableRecord
100
AcDbLinetypeTableRecord
  2
CONTINUOUS
 70
     0
  3
Solid line
 72
    65
 73
     0
 40
0.0
  0
ENDTAB
  0
TABLE
  2
LAYER
  5
2
330
0
100
AcDbSymbolTable
 70
     1
  0
LAYER
  5
10
330
2
100
AcDbSymbolTableRecord
100
AcDbLayerTableRecord
  2
0
 70
     0
 62
     7
  6
CONTINUOUS
  0
ENDTAB
  0
TABLE
  2
STYLE
  5
3
330
0
100
AcDbSymbolTable
 70
     1
  0
STYLE
  5
11
330
3
100
AcDbSymbolTableRecord
100
AcDbTextStyleTableRecord
  2
STANDARD
 70
     0
 40
0.0
 41
1.0
 50
0.0
 71
     0
 42
0.2
  3
txt
  4

  0
ENDTAB
  0
TABLE
  2
VIEW
  5
6
330
0
100
AcDbSymbolTable
 70
     0
  0
ENDTAB
  0
TABLE
  2
UCS
  5
7
330
0
100
AcDbSymbolTable
 70
     0
  0
ENDTAB
  0
TABLE
  2
APPID
  5
9
330
0
100
AcDbSymbolTable
 70
     1
  0
APPID
  5
12
330
9
100
AcDbSymbolTableRecord
100
AcDbRegAppTableRecord
  2
ACAD
 70
     0
  0
ENDTAB
  0
TABLE
  2
DIMSTYLE
  5
A
330
0
100
AcDbSymbolTable
 70
     1
  0
DIMSTYLE
105
27E
330
A
100
AcDbSymbolTableRecord
100
AcDbDimStyleTableRecord
  2
STANDARD
 70
     0
  3

  4

  5

  6

  7

 40
1.0
 41
0.18
 42
0.0625
 43
0.38
 44
0.18
 45
0.0
 46
0.0
 47
0.0
 48
0.0
140
0.18
141
0.09
142
0.0
143
25.4
144
1.0
145
0.0
146
1.0
147
0.09
 71
     0
 72
     0
 73
     1
 74
     1
 75
     0
 76
     0
 77
     0
 78
     0
170
     0
171
     2
172
     0
173
     0
174
     0
175
     0
176
     0
177
     0
178
     0
270
     2
271
     4
272
     4
273
     2
274
     2
340
11
275
     0
280
     0
281
     0
282
     0
283
     1
284
     0
285
     0
286
     0
287
     3
288
     0
  0
ENDTAB
  0
TABLE
  2
BLOCK_RECORD
  5
1
330
0
100
AcDbSymbolTable
 70
     0
  0
BLOCK_RECORD
  5
1E
102
{ACAD_XDICTIONARY
360
2AD
102
}
330
1
100
AcDbSymbolTableRecord
100
AcDbBlockTableRecord
  2
*MODEL_SPACE
  0
BLOCK_RECORD
  5
1A
102
{ACAD_XDICTIONARY
360
2AB
102
}
330
1
100
AcDbSymbolTableRecord
100
AcDbBlockTableRecord
  2
*PAPER_SPACE
  0
ENDTAB
  0
ENDSEC
  0
SECTION
  2
BLOCKS
  0
BLOCK
  5
1F
330
1E
100
AcDbEntity
  8
0
100
AcDbBlockBegin
  2
*MODEL_SPACE
 70
     0
 10
0.0
 20
0.0
 30
0.0
  3
*MODEL_SPACE
  1

  0
ENDBLK
  5
20
330
1E
100
AcDbEntity
  8
0
100
AcDbBlockEnd
  0
BLOCK
  5
1B
330
1A
100
AcDbEntity
 67
     1
  8
0
100
AcDbBlockBegin
  2
*PAPER_SPACE
 70
     0
 10
0.0
 20
0.0
 30
0.0
  3
*PAPER_SPACE
  1

  0
ENDBLK
  5
1C
330
1A
100
AcDbEntity
 67
     1
  8
0
100
AcDbBlockEnd
  0
ENDSEC
  0
SECTION
  2
ENTITIES
  0
LINE
  5
22
330
1E
100
AcDbEntity
  8
0
100
AcDbLine
 10
65.0
 20
74.0
 30
0.0
 11
73.79999999999999
 21
75.2
 31
0.0
  0
LINE
  5
23
330
1E
100
AcDbEntity
  8
0
100
AcDbLine
 10
126.0
 20
76.0
 30
0.0
 11
126.5
 21
76.0
 31
0.0
  0
LINE
  5
24
330
1E
100
AcDbEntity
  8
0
100
AcDbLine
 10
126.0
 20
76.0
 30
0.0
 11
126.0
 21
80.0
 31
0.0
  0
LINE
  5
25
330
1E
100
AcDbEntity
  8
0
100
AcDbLine
 10
126.5
 20
76.0
 30
0.0
 11
127.9
 21
76.0
 31
0.0
  0
LINE
  5
26
330
1E
100
AcDbEntity
  8
0
100
AcDbLine
 10
127.9
 20
76.0
 30
0.0
 11
130.0999999999999
 21
76.0
 31
0.0
  0
LINE
  5
27
330
1E
100
AcDbEntity
  8
0
100
AcDbLine
 10
65.0
 20
76.0
 30
0.0
 11
73.3
 21
77.2
 31
0.0
  0
LINE
  5
28
330
1E
100
AcDbEntity
  8
0
100
AcDbLine
 10
73.79999999999999
 20
75.2
 30
0.0
 11
81.90000000000001
 21
78.59999999999999
 31
0.0
  0
LINE
  5
29
330
1E
100
AcDbEntity
  8
0
100
AcDbLine
 10
56.2
 20
75.2
 30
0.0
 11
65.0
 21
74.0
 31
0.0
  0
LINE
  5
2A
330
1E
100
AcDbEntity
  8
0
100
AcDbLine
 10
3.0
 20
87.0
 30
0.0
 11
46.0
 21
87.0
 31
0.0
  0
LINE
  5
2B
330
1E
100
AcDbEntity
  8
0
100
AcDbLine
 10
3.0
 20
87.0
 30
0.0
 11
46.0
 21
87.0
 31
0.0
  0
LINE
  5
2C
330
1E
100
AcDbEntity
  8
0
100
AcDbLine
 10
3.0
 20
87.0
 30
0.0
 11
3.0
 21
87.79999999999999
 31
0.0
  0
LINE
  5
2D
330
1E
100
AcDbEntity
  8
0
100
AcDbLine
 10
46.0
 20
87.0
 30
0.0
 11
46.0
 21
87.79999999999999
 31
0.0
  0
LINE
  5
2E
330
1E
100
AcDbEntity
  8
0
100
AcDbLine
 10
42.4
 20
85.4
 30
0.0
 11
49.1
 21
80.29999999999999
 31
0.0
  0
LINE
  5
2F
330
1E
100
AcDbEntity
  8
0
100
AcDbLine
 10
41.1820895522388
 20
87.0
 30
0.0
 11
42.4
 21
85.4
 31
0.0
  0
LINE
  5
30
330
1E
100
AcDbEntity
  8
0
100
AcDbLine
 10
41.0
 20
84.0
 30
0.0
 11
48.1
 21
78.59999999999999
 31
0.0
  0
LINE
  5
31
330
1E
100
AcDbEntity
  8
0
100
AcDbLine
 10
46.0
 20
87.79999999999999
 30
0.0
 11
46.0
 21
87.0
 31
0.0
  0
LINE
  5
32
330
1E
100
AcDbEntity
  8
0
100
AcDbLine
 10
46.0
 20
87.79999999999999
 30
0.0
 11
46.0
 21
89.8
 31
0.0
  0
LINE
  5
33
330
1E
100
AcDbEntity
  8
0
100
AcDbLine
 10
3.0
 20
87.79999999999999
 30
0.0
 11
3.0
 21
87.0
 31
0.0
  0
LINE
  5
34
330
1E
100
AcDbEntity
  8
0
100
AcDbLine
 10
3.0
 20
87.79999999999999
 30
0.0
 11
3.0
 21
89.8
 31
0.0
  0
LINE
  5
35
330
1E
100
AcDbEntity
  8
0
100
AcDbLine
 10
38.7183098591549
 20
87.0
 30
0.0
 11
41.0
 21
84.0
 31
0.0
  0
LINE
  5
36
330
1E
100
AcDbEntity
  8
0
100
AcDbLine
 10
48.0
 20
87.0
 30
0.0
 11
122.0
 21
87.0
 31
0.0
  0
LINE
  5
37
330
1E
100
AcDbEntity
  8
0
100
AcDbLine
 10
48.0
 20
87.0
 30
0.0
 11
48.0
 21
87.79999999999999
 31
0.0
  0
LINE
  5
38
330
1E
100
AcDbEntity
  8
0
100
AcDbLine
 10
46.0
 20
88.49999999999999
 30
0.0
 11
48.0
 21
88.49999999999999
 31
0.0
  0
LINE
  5
39
330
1E
100
AcDbEntity
  8
0
100
AcDbLine
 10
2.0
 20
88.7
 30
0.0
 11
2.0
 21
88.0
 31
0.0
  0
LINE
  5
3A
330
1E
100
AcDbEntity
  8
0
100
AcDbLine
 10
2.0
 20
88.7
 30
0.0
 11
2.0
 21
90.7
 31
0.0
  0
LINE
  5
3B
330
1E
100
AcDbEntity
  8
0
100
AcDbLine
 10
2.0
 20
88.0
 30
0.0
 11
3.0
 21
87.0
 31
0.0
  0
LINE
  5
3C
330
1E
100
AcDbEntity
  8
0
100
AcDbLine
 10
2.0
 20
88.0
 30
0.0
 11
2.0
 21
88.7
 31
0.0
  0
LINE
  5
3D
330
1E
100
AcDbEntity
  8
0
100
AcDbLine
 10
48.0
 20
88.49999999999999
 30
0.0
 11
48.0
 21
87.79999999999999
 31
0.0
  0
LINE
  5
3E
330
1E
100
AcDbEntity
  8
0
100
AcDbLine
 10
46.0
 20
89.8
 30
0.0
 11
46.0
 21
87.79999999999999
 31
0.0
  0
LINE
  5
3F
330
1E
100
AcDbEntity
  8
0
100
AcDbLine
 10
46.0
 20
89.8
 30
0.0
 11
46.0
 21
93.2
 31
0.0
  0
LINE
  5
40
330
1E
100
AcDbEntity
  8
0
100
AcDbLine
 10
46.0
 20
93.2
 30
0.0
 11
46.0
 21
89.8
 31
0.0
  0
LINE
  5
41
330
1E
100
AcDbEntity
  8
0
100
AcDbLine
 10
46.0
 20
93.2
 30
0.0
 11
46.0
 21
97.5
 31
0.0
  0
LINE
  5
42
330
1E
100
AcDbEntity
  8
0
100
AcDbLine
 10
3.0
 20
93.2
 30
0.0
 11
3.0
 21
89.8
 31
0.0
  0
LINE
  5
43
330
1E
100
AcDbEntity
  8
0
100
AcDbLine
 10
3.0
 20
93.2
 30
0.0
 11
3.0
 21
97.5
 31
0.0
  0
LINE
  5
44
330
1E
100
AcDbEntity
  8
0
100
AcDbLine
 10
3.0
 20
89.8
 30
0.0
 11
3.0
 21
87.79999999999999
 31
0.0
  0
LINE
  5
45
330
1E
100
AcDbEntity
  8
0
100
AcDbLine
 10
3.0
 20
89.8
 30
0.0
 11
3.0
 21
93.2
 31
0.0
  0
LINE
  5
46
330
1E
100
AcDbEntity
  8
0
100
AcDbLine
 10
2.0
 20
90.7
 30
0.0
 11
2.0
 21
88.7
 31
0.0
  0
LINE
  5
47
330
1E
100
AcDbEntity
  8
0
100
AcDbLine
 10
2.0
 20
90.7
 30
0.0
 11
2.0
 21
93.9
 31
0.0
  0
LINE
  5
48
330
1E
100
AcDbEntity
  8
0
100
AcDbLine
 10
48.0
 20
89.19999999999999
 30
0.0
 11
48.0
 21
88.49999999999999
 31
0.0
  0
LINE
  5
49
330
1E
100
AcDbEntity
  8
0
100
AcDbLine
 10
48.0
 20
91.09999999999999
 30
0.0
 11
48.0
 21
89.19999999999999
 31
0.0
  0
LINE
  5
4A
330
1E
100
AcDbEntity
  8
0
100
AcDbLine
 10
48.0
 20
87.79999999999999
 30
0.0
 11
48.0
 21
87.0
 31
0.0
  0
LINE
  5
4B
330
1E
100
AcDbEntity
  8
0
100
AcDbLine
 10
48.0
 20
87.79999999999999
 30
0.0
 11
48.0
 21
89.8
 31
0.0
  0
LINE
  5
4C
330
1E
100
AcDbEntity
  8
0
100
AcDbLine
 10
48.0
 20
87.79999999999999
 30
0.0
 11
48.0
 21
88.49999999999999
 31
0.0
  0
LINE
  5
4D
330
1E
100
AcDbEntity
  8
0
100
AcDbLine
 10
48.0
 20
89.8
 30
0.0
 11
48.0
 21
87.79999999999999
 31
0.0
  0
LINE
  5
4E
330
1E
100
AcDbEntity
  8
0
100
AcDbLine
 10
48.0
 20
89.8
 30
0.0
 11
48.0
 21
93.2
 31
0.0
  0
LINE
  5
4F
330
1E
100
AcDbEntity
  8
0
100
AcDbLine
 10
2.0
 20
93.9
 30
0.0
 11
2.0
 21
90.7
 31
0.0
  0
LINE
  5
50
330
1E
100
AcDbEntity
  8
0
100
AcDbLine
 10
2.0
 20
93.9
 30
0.0
 11
2.0
 21
98.0
 31
0.0
  0
LINE
  5
51
330
1E
100
AcDbEntity
  8
0
100
AcDbLine
 10
0.0000000000000044
 20
102.4
 30
0.0
 11
0.0000000000000044
 21
104.0
 31
0.0
  0
LINE
  5
52
330
1E
100
AcDbEntity
  8
0
100
AcDbLine
 10
0.0000000000000044
 20
102.4
 30
0.0
 11
0.0000000000000044
 21
101.0999999999999
 31
0.0
  0
LINE
  5
53
330
1E
100
AcDbEntity
  8
0
100
AcDbLine
 10
0.0000000000000044
 20
101.0999999999999
 30
0.0
 11
0.0000000000000044
 21
102.4
 31
0.0
  0
LINE
  5
54
330
1E
100
AcDbEntity
  8
0
100
AcDbLine
 10
0.0000000000000044
 20
101.0999999999999
 30
0.0
 11
0.0000000000000044
 21
100.2999999999999
 31
0.0
  0
LINE
  5
55
330
1E
100
AcDbEntity
  8
0
100
AcDbLine
 10
0.0000000000000044
 20
100.2999999999999
 30
0.0
 11
0.0000000000000044
 21
101.0999999999999
 31
0.0
  0
LINE
  5
56
330
1E
100
AcDbEntity
  8
0
100
AcDbLine
 10
0.0000000000000044
 20
100.2999999999999
 30
0.0
 11
0.0000000000000044
 21
100.0
 31
0.0
  0
LINE
  5
57
330
1E
100
AcDbEntity
  8
0
100
AcDbLine
 10
46.0
 20
97.5
 30
0.0
 11
46.0
 21
93.2
 31
0.0
  0
LINE
  5
58
330
1E
100
AcDbEntity
  8
0
100
AcDbLine
 10
46.0
 20
97.5
 30
0.0
 11
46.0
 21
102.6
 31
0.0
  0
LINE
  5
59
330
1E
100
AcDbEntity
  8
0
100
AcDbLine
 10
3.0
 20
97.5
 30
0.0
 11
3.0
 21
93.2
 31
0.0
  0
LINE
  5
5A
330
1E
100
AcDbEntity
  8
0
100
AcDbLine
 10
3.0
 20
97.5
 30
0.0
 11
3.0
 21
102.6
 31
0.0
  0
LINE
  5
5B
330
1E
100
AcDbEntity
  8
0
100
AcDbLine
 10
2.0
 20
98.0
 30
0.0
 11
2.0
 21
93.9
 31
0.0
  0
LINE
  5
5C
330
1E
100
AcDbEntity
  8
0
100
AcDbLine
 10
2.0
 20
98.0
 30
0.0
 11
2.0
 21
102.8
 31
0.0
  0
LINE
  5
5D
330
1E
100
AcDbEntity
  8
0
100
AcDbLine
 10
0.500000000000004
 20
100.0
 30
0.0
 11
2.0
 21
88.0
 31
0.0
  0
LINE
  5
5E
330
1E
100
AcDbEntity
  8
0
100
AcDbLine
 10
0.500000000000004
 20
102.4
 30
0.0
 11
0.500000000000004
 21
101.0999999999999
 31
0.0
  0
LINE
  5
5F
330
1E
100
AcDbEntity
  8
0
100
AcDbLine
 10
0.500000000000004
 20
102.4
 30
0.0
 11
0.500000000000004
 21
104.0
 31
0.0
  0
LINE
  5
60
330
1E
100
AcDbEntity
  8
0
100
AcDbLine
 10
0.500000000000004
 20
101.0999999999999
 30
0.0
 11
0.500000000000004
 21
100.2999999999999
 31
0.0
  0
LINE
  5
61
330
1E
100
AcDbEntity
  8
0
100
AcDbLine
 10
0.500000000000004
 20
101.0999999999999
 30
0.0
 11
0.500000000000004
 21
102.4
 31
0.0
  0
LINE
  5
62
330
1E
100
AcDbEntity
  8
0
100
AcDbLine
 10
46.0
 20
102.6
 30
0.0
 11
46.0
 21
97.5
 31
0.0
  0
LINE
  5
63
330
1E
100
AcDbEntity
  8
0
100
AcDbLine
 10
46.0
 20
102.6
 30
0.0
 11
46.0
 21
108.0
 31
0.0
  0
LINE
  5
64
330
1E
100
AcDbEntity
  8
0
100
AcDbLine
 10
3.0
 20
102.6
 30
0.0
 11
3.0
 21
97.5
 31
0.0
  0
LINE
  5
65
330
1E
100
AcDbEntity
  8
0
100
AcDbLine
 10
3.0
 20
102.6
 30
0.0
 11
3.0
 21
108.0
 31
0.0
  0
LINE
  5
66
330
1E
100
AcDbEntity
  8
0
100
AcDbLine
 10
0.500000000000004
 20
100.2999999999999
 30
0.0
 11
0.500000000000004
 21
100.0
 31
0.0
  0
LINE
  5
67
330
1E
100
AcDbEntity
  8
0
100
AcDbLine
 10
0.500000000000004
 20
100.2999999999999
 30
0.0
 11
0.500000000000004
 21
101.0999999999999
 31
0.0
  0
LINE
  5
68
330
1E
100
AcDbEntity
  8
0
100
AcDbLine
 10
0.500000000000004
 20
100.0
 30
0.0
 11
2.0
 21
88.0
 31
0.0
  0
LINE
  5
69
330
1E
100
AcDbEntity
  8
0
100
AcDbLine
 10
0.500000000000004
 20
100.0
 30
0.0
 11
0.500000000000004
 21
100.2999999999999
 31
0.0
  0
LINE
  5
6A
330
1E
100
AcDbEntity
  8
0
100
AcDbLine
 10
0.0000000000000044
 20
100.0
 30
0.0
 11
0.0000000000000044
 21
100.2999999999999
 31
0.0
  0
LINE
  5
6B
330
1E
100
AcDbEntity
  8
0
100
AcDbLine
 10
0.0000000000000044
 20
100.0
 30
0.0
 11
0.500000000000004
 21
100.0
 31
0.0
  0
LINE
  5
6C
330
1E
100
AcDbEntity
  8
0
100
AcDbLine
 10
48.0
 20
94.19999999999999
 30
0.0
 11
48.0
 21
91.09999999999999
 31
0.0
  0
LINE
  5
6D
330
1E
100
AcDbEntity
  8
0
100
AcDbLine
 10
48.0
 20
98.3
 30
0.0
 11
48.0
 21
94.19999999999999
 31
0.0
  0
LINE
  5
6E
330
1E
100
AcDbEntity
  8
0
100
AcDbLine
 10
48.0
 20
93.2
 30
0.0
 11
48.0
 21
89.8
 31
0.0
  0
LINE
  5
6F
330
1E
100
AcDbEntity
  8
0
100
AcDbLine
 10
48.0
 20
93.2
 30
0.0
 11
48.0
 21
97.5
 31
0.0
  0
LINE
  5
70
330
1E
100
AcDbEntity
  8
0
100
AcDbLine
 10
48.0
 20
97.5
 30
0.0
 11
48.0
 21
93.2
 31
0.0
  0
LINE
  5
71
330
1E
100
AcDbEntity
  8
0
100
AcDbLine
 10
48.0
 20
97.5
 30
0.0
 11
48.0
 21
102.6
 31
0.0
  0
LINE
  5
72
330
1E
100
AcDbEntity
  8
0
100
AcDbLine
 10
0.0000000000000044
 20
110.0999999999999
 30
0.0
 11
0.0000000000000044
 21
108.0
 31
0.0
  0
LINE
  5
73
330
1E
100
AcDbEntity
  8
0
100
AcDbLine
 10
0.0000000000000044
 20
110.0999999999999
 30
0.0
 11
0.0000000000000044
 21
112.0
 31
0.0
  0
LINE
  5
74
330
1E
100
AcDbEntity
  8
0
100
AcDbLine
 10
0.0000000000000044
 20
112.0
 30
0.0
 11
0.0000000000000044
 21
110.0999999999999
 31
0.0
  0
LINE
  5
75
330
1E
100
AcDbEntity
  8
0
100
AcDbLine
 10
0.0000000000000044
 20
112.0
 30
0.0
 11
0.0000000000000044
 21
113.5999999999999
 31
0.0
  0
LINE
  5
76
330
1E
100
AcDbEntity
  8
0
100
AcDbLine
 10
0.0000000000000044
 20
113.5999999999999
 30
0.0
 11
0.0000000000000044
 21
112.0
 31
0.0
  0
LINE
  5
77
330
1E
100
AcDbEntity
  8
0
100
AcDbLine
 10
0.0000000000000044
 20
113.5999999999999
 30
0.0
 11
0.0000000000000044
 21
114.9
 31
0.0
  0
LINE
  5
78
330
1E
100
AcDbEntity
  8
0
100
AcDbLine
 10
0.0000000000000044
 20
114.9
 30
0.0
 11
0.0000000000000044
 21
113.5999999999999
 31
0.0
  0
LINE
  5
79
330
1E
100
AcDbEntity
  8
0
100
AcDbLine
 10
0.0000000000000044
 20
114.9
 30
0.0
 11
0.0000000000000044
 21
115.7
 31
0.0
  0
LINE
  5
7A
330
1E
100
AcDbEntity
  8
0
100
AcDbLine
 10
0.0000000000000044
 20
115.7
 30
0.0
 11
0.0000000000000044
 21
114.9
 31
0.0
  0
LINE
  5
7B
330
1E
100
AcDbEntity
  8
0
100
AcDbLine
 10
0.0000000000000044
 20
115.7
 30
0.0
 11
0.0000000000000044
 21
116.0
 31
0.0
  0
LINE
  5
7C
330
1E
100
AcDbEntity
  8
0
100
AcDbLine
 10
0.0000000000000044
 20
116.0
 30
0.0
 11
0.0000000000000044
 21
115.7
 31
0.0
  0
LINE
  5
7D
330
1E
100
AcDbEntity
  8
0
100
AcDbLine
 10
0.0000000000000044
 20
116.0
 30
0.0
 11
0.500000000000004
 21
116.0
 31
0.0
  0
LINE
  5
7E
330
1E
100
AcDbEntity
  8
0
100
AcDbLine
 10
0.0000000000000044
 20
108.0
 30
0.0
 11
0.0000000000000044
 21
105.9
 31
0.0
  0
LINE
  5
7F
330
1E
100
AcDbEntity
  8
0
100
AcDbLine
 10
0.0000000000000044
 20
108.0
 30
0.0
 11
0.0000000000000044
 21
110.0999999999999
 31
0.0
  0
LINE
  5
80
330
1E
100
AcDbEntity
  8
0
100
AcDbLine
 10
0.0000000000000044
 20
105.9
 30
0.0
 11
0.0000000000000044
 21
108.0
 31
0.0
  0
LINE
  5
81
330
1E
100
AcDbEntity
  8
0
100
AcDbLine
 10
0.0000000000000044
 20
105.9
 30
0.0
 11
0.0000000000000044
 21
104.0
 31
0.0
  0
LINE
  5
82
330
1E
100
AcDbEntity
  8
0
100
AcDbLine
 10
22.0
 20
103.0
 30
0.0
 11
23.8
 21
103.2
 31
0.0
  0
LINE
  5
83
330
1E
100
AcDbEntity
  8
0
100
AcDbLine
 10
20.2
 20
103.2
 30
0.0
 11
22.0
 21
103.0
 31
0.0
  0
LINE
  5
84
330
1E
100
AcDbEntity
  8
0
100
AcDbLine
 10
25.5
 20
103.7
 30
0.0
 11
26.89999999999999
 21
104.4999999999999
 31
0.0
  0
LINE
  5
85
330
1E
100
AcDbEntity
  8
0
100
AcDbLine
 10
23.8
 20
103.2
 30
0.0
 11
25.5
 21
103.7
 31
0.0
  0
LINE
  5
86
330
1E
100
AcDbEntity
  8
0
100
AcDbLine
 10
18.5
 20
103.7
 30
0.0
 11
20.2
 21
103.2
 31
0.0
  0
LINE
  5
87
330
1E
100
AcDbEntity
  8
0
100
AcDbLine
 10
2.0
 20
102.8
 30
0.0
 11
2.0
 21
98.0
 31
0.0
  0
LINE
  5
88
330
1E
100
AcDbEntity
  8
0
100
AcDbLine
 10
2.0
 20
102.8
 30
0.0
 11
2.0
 21
108.0
 31
0.0
  0
LINE
  5
89
330
1E
100
AcDbEntity
  8
0
100
AcDbLine
 10
0.500000000000004
 20
110.0999999999999
 30
0.0
 11
0.500000000000004
 21
108.0
 31
0.0
  0
LINE
  5
8A
330
1E
100
AcDbEntity
  8
0
100
AcDbLine
 10
0.500000000000004
 20
110.0999999999999
 30
0.0
 11
0.500000000000004
 21
112.0
 31
0.0
  0
LINE
  5
8B
330
1E
100
AcDbEntity
  8
0
100
AcDbLine
 10
0.500000000000004
 20
112.0
 30
0.0
 11
0.500000000000004
 21
110.0999999999999
 31
0.0
  0
LINE
  5
8C
330
1E
100
AcDbEntity
  8
0
100
AcDbLine
 10
0.500000000000004
 20
112.0
 30
0.0
 11
0.500000000000004
 21
113.5999999999999
 31
0.0
  0
LINE
  5
8D
330
1E
100
AcDbEntity
  8
0
100
AcDbLine
 10
0.500000000000004
 20
113.5999999999999
 30
0.0
 11
0.500000000000004
 21
112.0
 31
0.0
  0
LINE
  5
8E
330
1E
100
AcDbEntity
  8
0
100
AcDbLine
 10
0.500000000000004
 20
113.5999999999999
 30
0.0
 11
0.500000000000004
 21
114.9
 31
0.0
  0
LINE
  5
8F
330
1E
100
AcDbEntity
  8
0
100
AcDbLine
 10
0.500000000000004
 20
114.9
 30
0.0
 11
0.500000000000004
 21
113.5999999999999
 31
0.0
  0
LINE
  5
90
330
1E
100
AcDbEntity
  8
0
100
AcDbLine
 10
0.500000000000004
 20
114.9
 30
0.0
 11
0.500000000000004
 21
115.7
 31
0.0
  0
LINE
  5
91
330
1E
100
AcDbEntity
  8
0
100
AcDbLine
 10
0.500000000000004
 20
116.0
 30
0.0
 11
2.0
 21
128.0
 31
0.0
  0
LINE
  5
92
330
1E
100
AcDbEntity
  8
0
100
AcDbLine
 10
0.500000000000004
 20
115.7
 30
0.0
 11
0.500000000000004
 21
114.9
 31
0.0
  0
LINE
  5
93
330
1E
100
AcDbEntity
  8
0
100
AcDbLine
 10
0.500000000000004
 20
115.7
 30
0.0
 11
0.500000000000004
 21
116.0
 31
0.0
  0
LINE
  5
94
330
1E
100
AcDbEntity
  8
0
100
AcDbLine
 10
0.500000000000004
 20
116.0
 30
0.0
 11
0.500000000000004
 21
115.7
 31
0.0
  0
LINE
  5
95
330
1E
100
AcDbEntity
  8
0
100
AcDbLine
 10
0.500000000000004
 20
116.0
 30
0.0
 11
2.0
 21
128.0
 31
0.0
  0
LINE
  5
96
330
1E
100
AcDbEntity
  8
0
100
AcDbLine
 10
0.500000000000004
 20
108.0
 30
0.0
 11
0.500000000000004
 21
105.9
 31
0.0
  0
LINE
  5
97
330
1E
100
AcDbEntity
  8
0
100
AcDbLine
 10
0.500000000000004
 20
108.0
 30
0.0
 11
0.500000000000004
 21
110.0999999999999
 31
0.0
  0
LINE
  5
98
330
1E
100
AcDbEntity
  8
0
100
AcDbLine
 10
15.0
 20
108.0
 30
0.0
 11
15.3
 21
106.6999999999999
 31
0.0
  0
LINE
  5
99
330
1E
100
AcDbEntity
  8
0
100
AcDbLine
 10
15.0
 20
108.0
 30
0.0
 11
15.3
 21
109.2999999999999
 31
0.0
  0
LINE
  5
9A
330
1E
100
AcDbEntity
  8
0
100
AcDbLine
 10
26.89999999999999
 20
104.4999999999999
 30
0.0
 11
28.1
 21
105.4999999999999
 31
0.0
  0
LINE
  5
9B
330
1E
100
AcDbEntity
  8
0
100
AcDbLine
 10
28.1
 20
105.4999999999999
 30
0.0
 11
28.7
 21
106.6999999999999
 31
0.0
  0
LINE
  5
9C
330
1E
100
AcDbEntity
  8
0
100
AcDbLine
 10
17.1
 20
104.4999999999999
 30
0.0
 11
18.5
 21
103.7
 31
0.0
  0
LINE
  5
9D
330
1E
100
AcDbEntity
  8
0
100
AcDbLine
 10
28.7
 20
106.6999999999999
 30
0.0
 11
29.0
 21
108.0
 31
0.0
  0
LINE
  5
9E
330
1E
100
AcDbEntity
  8
0
100
AcDbLine
 10
15.9
 20
105.4999999999999
 30
0.0
 11
17.1
 21
104.4999999999999
 31
0.0
  0
LINE
  5
9F
330
1E
100
AcDbEntity
  8
0
100
AcDbLine
 10
15.3
 20
106.6999999999999
 30
0.0
 11
15.9
 21
105.4999999999999
 31
0.0
  0
LINE
  5
A0
330
1E
100
AcDbEntity
  8
0
100
AcDbLine
 10
46.0
 20
108.0
 30
0.0
 11
46.0
 21
102.6
 31
0.0
  0
LINE
  5
A1
330
1E
100
AcDbEntity
  8
0
100
AcDbLine
 10
46.0
 20
108.0
 30
0.0
 11
46.0
 21
113.4
 31
0.0
  0
LINE
  5
A2
330
1E
100
AcDbEntity
  8
0
100
AcDbLine
 10
3.0
 20
108.0
 30
0.0
 11
3.0
 21
102.6
 31
0.0
  0
LINE
  5
A3
330
1E
100
AcDbEntity
  8
0
100
AcDbLine
 10
3.0
 20
108.0
 30
0.0
 11
3.0
 21
113.4
 31
0.0
  0
LINE
  5
A4
330
1E
100
AcDbEntity
  8
0
100
AcDbLine
 10
28.7
 20
109.2999999999999
 30
0.0
 11
29.0
 21
108.0
 31
0.0
  0
LINE
  5
A5
330
1E
100
AcDbEntity
  8
0
100
AcDbLine
 10
26.89999999999999
 20
111.4999999999999
 30
0.0
 11
28.1
 21
110.4999999999999
 31
0.0
  0
LINE
  5
A6
330
1E
100
AcDbEntity
  8
0
100
AcDbLine
 10
28.1
 20
110.4999999999999
 30
0.0
 11
28.7
 21
109.2999999999999
 31
0.0
  0
LINE
  5
A7
330
1E
100
AcDbEntity
  8
0
100
AcDbLine
 10
18.5
 20
112.2999999999999
 30
0.0
 11
20.2
 21
112.7999999999999
 31
0.0
  0
LINE
  5
A8
330
1E
100
AcDbEntity
  8
0
100
AcDbLine
 10
22.0
 20
113.0
 30
0.0
 11
23.8
 21
112.7999999999999
 31
0.0
  0
LINE
  5
A9
330
1E
100
AcDbEntity
  8
0
100
AcDbLine
 10
23.8
 20
112.7999999999999
 30
0.0
 11
25.5
 21
112.2999999999999
 31
0.0
  0
LINE
  5
AA
330
1E
100
AcDbEntity
  8
0
100
AcDbLine
 10
25.5
 20
112.2999999999999
 30
0.0
 11
26.89999999999999
 21
111.4999999999999
 31
0.0
  0
LINE
  5
AB
330
1E
100
AcDbEntity
  8
0
100
AcDbLine
 10
20.2
 20
112.7999999999999
 30
0.0
 11
22.0
 21
113.0
 31
0.0
  0
LINE
  5
AC
330
1E
100
AcDbEntity
  8
0
100
AcDbLine
 10
17.1
 20
111.4999999999999
 30
0.0
 11
18.5
 21
112.2999999999999
 31
0.0
  0
LINE
  5
AD
330
1E
100
AcDbEntity
  8
0
100
AcDbLine
 10
15.9
 20
110.4999999999999
 30
0.0
 11
17.1
 21
111.4999999999999
 31
0.0
  0
LINE
  5
AE
330
1E
100
AcDbEntity
  8
0
100
AcDbLine
 10
15.3
 20
109.2999999999999
 30
0.0
 11
15.9
 21
110.4999999999999
 31
0.0
  0
LINE
  5
AF
330
1E
100
AcDbEntity
  8
0
100
AcDbLine
 10
46.0
 20
113.4
 30
0.0
 11
46.0
 21
108.0
 31
0.0
  0
LINE
  5
B0
330
1E
100
AcDbEntity
  8
0
100
AcDbLine
 10
46.0
 20
113.4
 30
0.0
 11
46.0
 21
118.5
 31
0.0
  0
LINE
  5
B1
330
1E
100
AcDbEntity
  8
0
100
AcDbLine
 10
3.0
 20
113.4
 30
0.0
 11
3.0
 21
108.0
 31
0.0
  0
LINE
  5
B2
330
1E
100
AcDbEntity
  8
0
100
AcDbLine
 10
3.0
 20
113.4
 30
0.0
 11
3.0
 21
118.5
 31
0.0
  0
LINE
  5
B3
330
1E
100
AcDbEntity
  8
0
100
AcDbLine
 10
2.0
 20
113.2
 30
0.0
 11
2.0
 21
108.0
 31
0.0
  0
LINE
  5
B4
330
1E
100
AcDbEntity
  8
0
100
AcDbLine
 10
2.0
 20
113.2
 30
0.0
 11
2.0
 21
118.0
 31
0.0
  0
LINE
  5
B5
330
1E
100
AcDbEntity
  8
0
100
AcDbLine
 10
2.0
 20
108.0
 30
0.0
 11
2.0
 21
102.8
 31
0.0
  0
LINE
  5
B6
330
1E
100
AcDbEntity
  8
0
100
AcDbLine
 10
2.0
 20
108.0
 30
0.0
 11
2.0
 21
113.2
 31
0.0
  0
LINE
  5
B7
330
1E
100
AcDbEntity
  8
0
100
AcDbLine
 10
0.500000000000004
 20
105.9
 30
0.0
 11
0.500000000000004
 21
104.0
 31
0.0
  0
LINE
  5
B8
330
1E
100
AcDbEntity
  8
0
100
AcDbLine
 10
0.500000000000004
 20
105.9
 30
0.0
 11
0.500000000000004
 21
108.0
 31
0.0
  0
LINE
  5
B9
330
1E
100
AcDbEntity
  8
0
100
AcDbLine
 10
0.500000000000004
 20
104.0
 30
0.0
 11
0.500000000000004
 21
102.4
 31
0.0
  0
LINE
  5
BA
330
1E
100
AcDbEntity
  8
0
100
AcDbLine
 10
0.500000000000004
 20
104.0
 30
0.0
 11
0.500000000000004
 21
105.9
 31
0.0
  0
LINE
  5
BB
330
1E
100
AcDbEntity
  8
0
100
AcDbLine
 10
0.0000000000000044
 20
104.0
 30
0.0
 11
0.0000000000000044
 21
105.9
 31
0.0
  0
LINE
  5
BC
330
1E
100
AcDbEntity
  8
0
100
AcDbLine
 10
0.0000000000000044
 20
104.0
 30
0.0
 11
0.0000000000000044
 21
102.4
 31
0.0
  0
LINE
  5
BD
330
1E
100
AcDbEntity
  8
0
100
AcDbLine
 10
46.0
 20
118.5
 30
0.0
 11
46.0
 21
113.4
 31
0.0
  0
LINE
  5
BE
330
1E
100
AcDbEntity
  8
0
100
AcDbLine
 10
46.0
 20
118.5
 30
0.0
 11
46.0
 21
122.7999999999999
 31
0.0
  0
LINE
  5
BF
330
1E
100
AcDbEntity
  8
0
100
AcDbLine
 10
3.0
 20
118.5
 30
0.0
 11
3.0
 21
113.4
 31
0.0
  0
LINE
  5
C0
330
1E
100
AcDbEntity
  8
0
100
AcDbLine
 10
3.0
 20
118.5
 30
0.0
 11
3.0
 21
122.7999999999999
 31
0.0
  0
LINE
  5
C1
330
1E
100
AcDbEntity
  8
0
100
AcDbLine
 10
2.0
 20
118.0
 30
0.0
 11
2.0
 21
113.2
 31
0.0
  0
LINE
  5
C2
330
1E
100
AcDbEntity
  8
0
100
AcDbLine
 10
2.0
 20
118.0
 30
0.0
 11
2.0
 21
122.0999999999999
 31
0.0
  0
LINE
  5
C3
330
1E
100
AcDbEntity
  8
0
100
AcDbLine
 10
48.0
 20
117.7
 30
0.0
 11
48.0
 21
113.0
 31
0.0
  0
LINE
  5
C4
330
1E
100
AcDbEntity
  8
0
100
AcDbLine
 10
48.0
 20
113.0
 30
0.0
 11
48.0
 21
108.0
 31
0.0
  0
LINE
  5
C5
330
1E
100
AcDbEntity
  8
0
100
AcDbLine
 10
46.0
 20
122.7999999999999
 30
0.0
 11
46.0
 21
118.5
 31
0.0
  0
LINE
  5
C6
330
1E
100
AcDbEntity
  8
0
100
AcDbLine
 10
46.0
 20
122.7999999999999
 30
0.0
 11
46.0
 21
126.2
 31
0.0
  0
LINE
  5
C7
330
1E
100
AcDbEntity
  8
0
100
AcDbLine
 10
3.0
 20
122.7999999999999
 30
0.0
 11
3.0
 21
118.5
 31
0.0
  0
LINE
  5
C8
330
1E
100
AcDbEntity
  8
0
100
AcDbLine
 10
3.0
 20
122.7999999999999
 30
0.0
 11
3.0
 21
126.2
 31
0.0
  0
LINE
  5
C9
330
1E
100
AcDbEntity
  8
0
100
AcDbLine
 10
2.0
 20
122.0999999999999
 30
0.0
 11
2.0
 21
118.0
 31
0.0
  0
LINE
  5
CA
330
1E
100
AcDbEntity
  8
0
100
AcDbLine
 10
2.0
 20
122.0999999999999
 30
0.0
 11
2.0
 21
125.2999999999999
 31
0.0
  0
LINE
  5
CB
330
1E
100
AcDbEntity
  8
0
100
AcDbLine
 10
46.0
 20
126.2
 30
0.0
 11
46.0
 21
122.7999999999999
 31
0.0
  0
LINE
  5
CC
330
1E
100
AcDbEntity
  8
0
100
AcDbLine
 10
46.0
 20
126.2
 30
0.0
 11
46.0
 21
128.1999999999999
 31
0.0
  0
LINE
  5
CD
330
1E
100
AcDbEntity
  8
0
100
AcDbLine
 10
3.0
 20
126.2
 30
0.0
 11
3.0
 21
122.7999999999999
 31
0.0
  0
LINE
  5
CE
330
1E
100
AcDbEntity
  8
0
100
AcDbLine
 10
3.0
 20
126.2
 30
0.0
 11
3.0
 21
128.1999999999999
 31
0.0
  0
LINE
  5
CF
330
1E
100
AcDbEntity
  8
0
100
AcDbLine
 10
2.0
 20
125.2999999999999
 30
0.0
 11
2.0
 21
122.0999999999999
 31
0.0
  0
LINE
  5
D0
330
1E
100
AcDbEntity
  8
0
100
AcDbLine
 10
2.0
 20
125.2999999999999
 30
0.0
 11
2.0
 21
127.2999999999999
 31
0.0
  0
LINE
  5
D1
330
1E
100
AcDbEntity
  8
0
100
AcDbLine
 10
48.0
 20
124.9
 30
0.0
 11
48.0
 21
121.7999999999999
 31
0.0
  0
LINE
  5
D2
330
1E
100
AcDbEntity
  8
0
100
AcDbLine
 10
48.0
 20
121.7999999999999
 30
0.0
 11
48.0
 21
117.7
 31
0.0
  0
LINE
  5
D3
330
1E
100
AcDbEntity
  8
0
100
AcDbLine
 10
46.0
 20
127.5
 30
0.0
 11
48.0
 21
127.5
 31
0.0
  0
LINE
  5
D4
330
1E
100
AcDbEntity
  8
0
100
AcDbLine
 10
2.0
 20
127.2999999999999
 30
0.0
 11
2.0
 21
125.2999999999999
 31
0.0
  0
LINE
  5
D5
330
1E
100
AcDbEntity
  8
0
100
AcDbLine
 10
2.0
 20
127.2999999999999
 30
0.0
 11
2.0
 21
128.0
 31
0.0
  0
LINE
  5
D6
330
1E
100
AcDbEntity
  8
0
100
AcDbLine
 10
48.0
 20
126.8
 30
0.0
 11
48.0
 21
124.9
 31
0.0
  0
LINE
  5
D7
330
1E
100
AcDbEntity
  8
0
100
AcDbLine
 10
48.0
 20
126.2
 30
0.0
 11
48.0
 21
122.7999999999999
 31
0.0
  0
LINE
  5
D8
330
1E
100
AcDbEntity
  8
0
100
AcDbLine
 10
48.0
 20
126.2
 30
0.0
 11
48.0
 21
128.1999999999999
 31
0.0
  0
LINE
  5
D9
330
1E
100
AcDbEntity
  8
0
100
AcDbLine
 10
48.0
 20
122.7999999999999
 30
0.0
 11
48.0
 21
118.5
 31
0.0
  0
LINE
  5
DA
330
1E
100
AcDbEntity
  8
0
100
AcDbLine
 10
48.0
 20
122.7999999999999
 30
0.0
 11
48.0
 21
126.2
 31
0.0
  0
LINE
  5
DB
330
1E
100
AcDbEntity
  8
0
100
AcDbLine
 10
48.0
 20
118.5
 30
0.0
 11
48.0
 21
113.4
 31
0.0
  0
LINE
  5
DC
330
1E
100
AcDbEntity
  8
0
100
AcDbLine
 10
48.0
 20
118.5
 30
0.0
 11
48.0
 21
122.7999999999999
 31
0.0
  0
LINE
  5
DD
330
1E
100
AcDbEntity
  8
0
100
AcDbLine
 10
48.0
 20
113.4
 30
0.0
 11
48.0
 21
108.0
 31
0.0
  0
LINE
  5
DE
330
1E
100
AcDbEntity
  8
0
100
AcDbLine
 10
48.0
 20
113.4
 30
0.0
 11
48.0
 21
118.5
 31
0.0
  0
LINE
  5
DF
330
1E
100
AcDbEntity
  8
0
100
AcDbLine
 10
46.0
 20
128.1999999999999
 30
0.0
 11
46.0
 21
126.2
 31
0.0
  0
LINE
  5
E0
330
1E
100
AcDbEntity
  8
0
100
AcDbLine
 10
46.0
 20
128.1999999999999
 30
0.0
 11
46.0
 21
129.0
 31
0.0
  0
LINE
  5
E1
330
1E
100
AcDbEntity
  8
0
100
AcDbLine
 10
3.0
 20
128.1999999999999
 30
0.0
 11
3.0
 21
126.2
 31
0.0
  0
LINE
  5
E2
330
1E
100
AcDbEntity
  8
0
100
AcDbLine
 10
3.0
 20
128.1999999999999
 30
0.0
 11
3.0
 21
129.0
 31
0.0
  0
LINE
  5
E3
330
1E
100
AcDbEntity
  8
0
100
AcDbLine
 10
2.0
 20
128.0
 30
0.0
 11
2.0
 21
127.2999999999999
 31
0.0
  0
LINE
  5
E4
330
1E
100
AcDbEntity
  8
0
100
AcDbLine
 10
2.0
 20
128.0
 30
0.0
 11
3.0
 21
129.0
 31
0.0
  0
LINE
  5
E5
330
1E
100
AcDbEntity
  8
0
100
AcDbLine
 10
3.0
 20
129.0
 30
0.0
 11
46.0
 21
129.0
 31
0.0
  0
LINE
  5
E6
330
1E
100
AcDbEntity
  8
0
100
AcDbLine
 10
3.0
 20
129.0
 30
0.0
 11
3.0
 21
128.1999999999999
 31
0.0
  0
LINE
  5
E7
330
1E
100
AcDbEntity
  8
0
100
AcDbLine
 10
3.0
 20
129.0
 30
0.0
 11
46.0
 21
129.0
 31
0.0
  0
LINE
  5
E8
330
1E
100
AcDbEntity
  8
0
100
AcDbLine
 10
46.0
 20
129.0
 30
0.0
 11
46.0
 21
128.1999999999999
 31
0.0
  0
LINE
  5
E9
330
1E
100
AcDbEntity
  8
0
100
AcDbLine
 10
42.4
 20
130.6
 30
0.0
 11
49.1
 21
135.6999999999999
 31
0.0
  0
LINE
  5
EA
330
1E
100
AcDbEntity
  8
0
100
AcDbLine
 10
41.1820895522388
 20
129.0
 30
0.0
 11
42.4
 21
130.6
 31
0.0
  0
LINE
  5
EB
330
1E
100
AcDbEntity
  8
0
100
AcDbLine
 10
41.0
 20
132.0
 30
0.0
 11
48.1
 21
137.4
 31
0.0
  0
LINE
  5
EC
330
1E
100
AcDbEntity
  8
0
100
AcDbLine
 10
38.7183098591549
 20
129.0
 30
0.0
 11
41.0
 21
132.0
 31
0.0
  0
LINE
  5
ED
330
1E
100
AcDbEntity
  8
0
100
AcDbLine
 10
48.0
 20
128.1999999999999
 30
0.0
 11
48.0
 21
129.0
 31
0.0
  0
LINE
  5
EE
330
1E
100
AcDbEntity
  8
0
100
AcDbLine
 10
48.0
 20
128.1999999999999
 30
0.0
 11
48.0
 21
127.5
 31
0.0
  0
LINE
  5
EF
330
1E
100
AcDbEntity
  8
0
100
AcDbLine
 10
48.0
 20
128.1999999999999
 30
0.0
 11
48.0
 21
126.2
 31
0.0
  0
LINE
  5
F0
330
1E
100
AcDbEntity
  8
0
100
AcDbLine
 10
48.0
 20
129.0
 30
0.0
 11
140.0
 21
129.0
 31
0.0
  0
LINE
  5
F1
330
1E
100
AcDbEntity
  8
0
100
AcDbLine
 10
48.0
 20
129.0
 30
0.0
 11
48.0
 21
128.1999999999999
 31
0.0
  0
LINE
  5
F2
330
1E
100
AcDbEntity
  8
0
100
AcDbLine
 10
48.0
 20
127.5
 30
0.0
 11
48.0
 21
128.1999999999999
 31
0.0
  0
LINE
  5
F3
330
1E
100
AcDbEntity
  8
0
100
AcDbLine
 10
48.0
 20
127.5
 30
0.0
 11
48.0
 21
126.8
 31
0.0
  0
LINE
  5
F4
330
1E
100
AcDbEntity
  8
0
100
AcDbLine
 10
48.0
 20
103.0
 30
0.0
 11
48.0
 21
98.3
 31
0.0
  0
LINE
  5
F5
330
1E
100
AcDbEntity
  8
0
100
AcDbLine
 10
48.0
 20
102.6
 30
0.0
 11
48.0
 21
97.5
 31
0.0
  0
LINE
  5
F6
330
1E
100
AcDbEntity
  8
0
100
AcDbLine
 10
48.0
 20
102.6
 30
0.0
 11
48.0
 21
108.0
 31
0.0
  0
LINE
  5
F7
330
1E
100
AcDbEntity
  8
0
100
AcDbLine
 10
73.3
 20
77.2
 30
0.0
 11
80.90000000000001
 21
80.29999999999999
 31
0.0
  0
LINE
  5
F8
330
1E
100
AcDbEntity
  8
0
100
AcDbLine
 10
81.90000000000001
 20
78.59999999999999
 30
0.0
 11
89.0
 21
84.0
 31
0.0
  0
LINE
  5
F9
330
1E
100
AcDbEntity
  8
0
100
AcDbLine
 10
56.7
 20
77.2
 30
0.0
 11
65.0
 21
76.0
 31
0.0
  0
LINE
  5
FA
330
1E
100
AcDbEntity
  8
0
100
AcDbLine
 10
80.90000000000001
 20
80.29999999999999
 30
0.0
 11
87.59999999999999
 21
85.4
 31
0.0
  0
LINE
  5
FB
330
1E
100
AcDbEntity
  8
0
100
AcDbLine
 10
87.59999999999999
 20
85.4
 30
0.0
 11
88.8179104477612
 21
87.0
 31
0.0
  0
LINE
  5
FC
330
1E
100
AcDbEntity
  8
0
100
AcDbLine
 10
89.0
 20
84.0
 30
0.0
 11
91.28169014084509
 21
87.0
 31
0.0
  0
LINE
  5
FD
330
1E
100
AcDbEntity
  8
0
100
AcDbLine
 10
49.1
 20
80.29999999999999
 30
0.0
 11
56.7
 21
77.2
 31
0.0
  0
LINE
  5
FE
330
1E
100
AcDbEntity
  8
0
100
AcDbLine
 10
48.1
 20
78.59999999999999
 30
0.0
 11
56.2
 21
75.2
 31
0.0
  0
LINE
  5
FF
330
1E
100
AcDbEntity
  8
0
100
AcDbLine
 10
124.0
 20
80.0
 30
0.0
 11
124.5999999999999
 21
80.0
 31
0.0
  0
LINE
  5
100
330
1E
100
AcDbEntity
  8
0
100
AcDbLine
 10
124.5999999999999
 20
80.0
 30
0.0
 11
126.0999999999999
 21
80.0
 31
0.0
  0
LINE
  5
101
330
1E
100
AcDbEntity
  8
0
100
AcDbLine
 10
124.5999999999999
 20
80.0
 30
0.0
 11
126.0
 21
80.0
 31
0.0
  0
LINE
  5
102
330
1E
100
AcDbEntity
  8
0
100
AcDbLine
 10
126.0999999999999
 20
80.0
 30
0.0
 11
128.6999999999999
 21
80.0
 31
0.0
  0
LINE
  5
103
330
1E
100
AcDbEntity
  8
0
100
AcDbLine
 10
126.0
 20
80.0
 30
0.0
 11
126.0
 21
76.0
 31
0.0
  0
LINE
  5
104
330
1E
100
AcDbEntity
  8
0
100
AcDbLine
 10
126.0
 20
80.0
 30
0.0
 11
126.5
 21
80.0
 31
0.0
  0
LINE
  5
105
330
1E
100
AcDbEntity
  8
0
100
AcDbLine
 10
122.0
 20
82.0
 30
0.0
 11
122.7
 21
82.0
 31
0.0
  0
LINE
  5
106
330
1E
100
AcDbEntity
  8
0
100
AcDbLine
 10
122.0
 20
82.0
 30
0.0
 11
122.0
 21
83.0
 31
0.0
  0
LINE
  5
107
330
1E
100
AcDbEntity
  8
0
100
AcDbLine
 10
122.0
 20
82.0
 30
0.0
 11
124.0
 21
80.0
 31
0.0
  0
LINE
  5
108
330
1E
100
AcDbEntity
  8
0
100
AcDbLine
 10
122.0
 20
83.0
 30
0.0
 11
122.0
 21
88.3
 31
0.0
  0
LINE
  5
109
330
1E
100
AcDbEntity
  8
0
100
AcDbLine
 10
122.0
 20
83.0
 30
0.0
 11
122.0
 21
82.0
 31
0.0
  0
LINE
  5
10A
330
1E
100
AcDbEntity
  8
0
100
AcDbLine
 10
122.0
 20
88.3
 30
0.0
 11
122.0
 21
93.9
 31
0.0
  0
LINE
  5
10B
330
1E
100
AcDbEntity
  8
0
100
AcDbLine
 10
122.0
 20
88.3
 30
0.0
 11
122.0
 21
83.0
 31
0.0
  0
LINE
  5
10C
330
1E
100
AcDbEntity
  8
0
100
AcDbLine
 10
122.7
 20
82.0
 30
0.0
 11
124.3999999999999
 21
82.0
 31
0.0
  0
LINE
  5
10D
330
1E
100
AcDbEntity
  8
0
100
AcDbLine
 10
124.3999999999999
 20
82.0
 30
0.0
 11
127.2999999999999
 21
82.0
 31
0.0
  0
LINE
  5
10E
330
1E
100
AcDbEntity
  8
0
100
AcDbLine
 10
127.2999999999999
 20
82.0
 30
0.0
 11
131.0
 21
82.0
 31
0.0
  0
LINE
  5
10F
330
1E
100
AcDbEntity
  8
0
100
AcDbLine
 10
122.0
 20
93.9
 30
0.0
 11
122.0
 21
88.3
 31
0.0
  0
LINE
  5
110
330
1E
100
AcDbEntity
  8
0
100
AcDbLine
 10
126.5
 20
80.0
 30
0.0
 11
127.9
 21
80.0
 31
0.0
  0
LINE
  5
111
330
1E
100
AcDbEntity
  8
0
100
AcDbLine
 10
128.6999999999999
 20
80.0
 30
0.0
 11
132.0
 21
80.0
 31
0.0
  0
LINE
  5
112
330
1E
100
AcDbEntity
  8
0
100
AcDbLine
 10
127.9
 20
80.0
 30
0.0
 11
130.0999999999999
 21
80.0
 31
0.0
  0
LINE
  5
113
330
1E
100
AcDbEntity
  8
0
100
AcDbLine
 10
121.9
 20
99.40000000000001
 30
0.0
 11
122.0
 21
93.9
 31
0.0
  0
LINE
  5
114
330
1E
100
AcDbEntity
  8
0
100
AcDbLine
 10
121.7999999999999
 20
103.4999999999999
 30
0.0
 11
121.9
 21
99.40000000000001
 31
0.0
  0
LINE
  5
115
330
1E
100
AcDbEntity
  8
0
100
AcDbLine
 10
121.5999999999999
 20
106.6999999999999
 30
0.0
 11
121.7999999999999
 21
103.4999999999999
 31
0.0
  0
LINE
  5
116
330
1E
100
AcDbEntity
  8
0
100
AcDbLine
 10
121.7999999999999
 20
97.5
 30
0.0
 11
121.9377120963329
 21
97.32583470169679
 31
0.0
  0
LINE
  5
118
330
1E
100
AcDbEntity
  8
0
100
AcDbLine
 10
87.59999999999999
 20
130.6
 30
0.0
 11
88.8179104477612
 21
129.0
 31
0.0
  0
LINE
  5
119
330
1E
100
AcDbEntity
  8
0
100
AcDbLine
 10
80.90000000000001
 20
135.6999999999999
 30
0.0
 11
87.59999999999999
 21
130.6
 31
0.0
  0
LINE
  5
11A
330
1E
100
AcDbEntity
  8
0
100
AcDbLine
 10
81.90000000000001
 20
137.4
 30
0.0
 11
89.0
 21
132.0
 31
0.0
  0
LINE
  5
11B
330
1E
100
AcDbEntity
  8
0
100
AcDbLine
 10
89.0
 20
132.0
 30
0.0
 11
91.28169014084509
 21
129.0
 31
0.0
  0
LINE
  5
11C
330
1E
100
AcDbEntity
  8
0
100
AcDbLine
 10
49.1
 20
135.6999999999999
 30
0.0
 11
56.7
 21
138.8
 31
0.0
  0
LINE
  5
11D
330
1E
100
AcDbEntity
  8
0
100
AcDbLine
 10
73.3
 20
138.8
 30
0.0
 11
80.90000000000001
 21
135.6999999999999
 31
0.0
  0
LINE
  5
11E
330
1E
100
AcDbEntity
  8
0
100
AcDbLine
 10
65.0
 20
140.0
 30
0.0
 11
73.3
 21
138.8
 31
0.0
  0
LINE
  5
11F
330
1E
100
AcDbEntity
  8
0
100
AcDbLine
 10
65.0
 20
142.0
 30
0.0
 11
73.79999999999999
 21
140.8
 31
0.0
  0
LINE
  5
120
330
1E
100
AcDbEntity
  8
0
100
AcDbLine
 10
73.79999999999999
 20
140.8
 30
0.0
 11
81.90000000000001
 21
137.4
 31
0.0
  0
LINE
  5
121
330
1E
100
AcDbEntity
  8
0
100
AcDbLine
 10
56.7
 20
138.8
 30
0.0
 11
65.0
 21
140.0
 31
0.0
  0
LINE
  5
122
330
1E
100
AcDbEntity
  8
0
100
AcDbLine
 10
56.2
 20
140.8
 30
0.0
 11
65.0
 21
142.0
 31
0.0
  0
LINE
  5
123
330
1E
100
AcDbEntity
  8
0
100
AcDbLine
 10
48.1
 20
137.4
 30
0.0
 11
56.2
 21
140.8
 31
0.0
  0
LINE
  5
129
330
1E
100
AcDbEntity
  8
0
100
AcDbLine
 10
48.0
 20
108.0
 30
0.0
 11
48.0
 21
102.6
 31
0.0
  0
LINE
  5
12A
330
1E
100
AcDbEntity
  8
0
100
AcDbLine
 10
48.0
 20
108.0
 30
0.0
 11
48.0
 21
103.0
 31
0.0
  0
LINE
  5
12B
330
1E
100
AcDbEntity
  8
0
100
AcDbLine
 10
48.0
 20
108.0
 30
0.0
 11
48.0
 21
113.4
 31
0.0
  0
LINE
  5
12C
330
1E
100
AcDbEntity
  8
0
100
AcDbLine
 10
128.966666666667
 20
76.0
 30
0.0
 11
129.4999999999999
 21
60.0
 31
0.0
  0
LINE
  5
12D
330
1E
100
AcDbEntity
  8
0
100
AcDbLine
 10
130.9
 20
60.0
 30
0.0
 11
132.4999999999999
 21
60.0
 31
0.0
  0
LINE
  5
12E
330
1E
100
AcDbEntity
  8
0
100
AcDbLine
 10
129.9
 20
60.0
 30
0.0
 11
130.9
 21
60.0
 31
0.0
  0
LINE
  5
12F
330
1E
100
AcDbEntity
  8
0
100
AcDbLine
 10
132.4999999999999
 20
0.0000000000000094
 30
0.0
 11
132.86274
 21
0.0262500000000095
 31
0.0
  0
LINE
  5
130
330
1E
100
AcDbEntity
  8
0
100
AcDbLine
 10
132.86274
 20
0.0262500000000093
 30
0.0
 11
133.5379899999999
 21
0.101220000000009
 31
0.0
  0
LINE
  5
131
330
1E
100
AcDbEntity
  8
0
100
AcDbLine
 10
133.5379899999999
 20
0.101220000000009
 30
0.0
 11
134.7759499999999
 21
0.476040000000009
 31
0.0
  0
LINE
  5
132
330
1E
100
AcDbEntity
  8
0
100
AcDbLine
 10
134.7759499999999
 20
0.476040000000009
 30
0.0
 11
136.2765
 21
1.15073000000001
 31
0.0
  0
LINE
  5
133
330
1E
100
AcDbEntity
  8
0
100
AcDbLine
 10
134.6999999999999
 20
60.0
 30
0.0
 11
136.3
 21
60.0
 31
0.0
  0
LINE
  5
134
330
1E
100
AcDbEntity
  8
0
100
AcDbLine
 10
134.7759499999999
 20
0.47604000000001
 30
0.0
 11
136.2765
 21
1.15073000000001
 31
0.0
  0
LINE
  5
135
330
1E
100
AcDbEntity
  8
0
100
AcDbLine
 10
133.4999999999999
 20
60.0
 30
0.0
 11
134.6999999999999
 21
60.0
 31
0.0
  0
LINE
  5
136
330
1E
100
AcDbEntity
  8
0
100
AcDbLine
 10
133.5379899999999
 20
0.10122000000001
 30
0.0
 11
134.7759499999999
 21
0.47604000000001
 31
0.0
  0
LINE
  5
137
330
1E
100
AcDbEntity
  8
0
100
AcDbLine
 10
132.8
 20
60.0
 30
0.0
 11
133.4999999999999
 21
60.0
 31
0.0
  0
LINE
  5
138
330
1E
100
AcDbEntity
  8
0
100
AcDbLine
 10
132.86274
 20
0.0262500000000095
 30
0.0
 11
133.5379899999999
 21
0.10122000000001
 31
0.0
  0
LINE
  5
139
330
1E
100
AcDbEntity
  8
0
100
AcDbLine
 10
132.4999999999999
 20
60.0
 30
0.0
 11
132.8
 21
60.0
 31
0.0
  0
LINE
  5
13A
330
1E
100
AcDbEntity
  8
0
100
AcDbLine
 10
132.4999999999999
 20
60.0
 30
0.0
 11
132.4999999999999
 21
0.0000000000000079
 31
0.0
  0
LINE
  5
13B
330
1E
100
AcDbEntity
  8
0
100
AcDbLine
 10
132.4999999999999
 20
0.0000000000000094
 30
0.0
 11
132.4999999999999
 21
60.0
 31
0.0
  0
LINE
  5
13C
330
1E
100
AcDbEntity
  8
0
100
AcDbLine
 10
132.4999999999999
 20
0.0000000000000094
 30
0.0
 11
132.86274
 21
0.0262500000000093
 31
0.0
  0
LINE
  5
13D
330
1E
100
AcDbEntity
  8
0
100
AcDbLine
 10
136.2765
 20
1.15073000000001
 30
0.0
 11
138.0771699999999
 21
2.275200000000009
 31
0.0
  0
LINE
  5
13E
330
1E
100
AcDbEntity
  8
0
100
AcDbLine
 10
140.0278999999999
 20
4.261770000000009
 30
0.0
 11
141.791
 21
5.611140000000009
 31
0.0
  0
LINE
  5
13F
330
1E
100
AcDbEntity
  8
0
100
AcDbLine
 10
140.0278999999999
 20
4.261770000000009
 30
0.0
 11
141.791
 21
5.611140000000009
 31
0.0
  0
LINE
  5
140
330
1E
100
AcDbEntity
  8
0
100
AcDbLine
 10
140.0
 20
60.0
 30
0.0
 11
141.9
 21
60.0
 31
0.0
  0
LINE
  5
141
330
1E
100
AcDbEntity
  8
0
100
AcDbLine
 10
140.0
 20
60.0
 30
0.0
 11
142.6999999999999
 21
60.0
 31
0.0
  0
LINE
  5
142
330
1E
100
AcDbEntity
  8
0
100
AcDbLine
 10
143.6291999999999
 20
6.810580000000009
 30
0.0
 11
145.4298999999999
 21
8.010020000000009
 31
0.0
  0
LINE
  5
143
330
1E
100
AcDbEntity
  8
0
100
AcDbLine
 10
142.6999999999999
 20
60.0
 30
0.0
 11
145.1999999999999
 21
60.0
 31
0.0
  0
LINE
  5
144
330
1E
100
AcDbEntity
  8
0
100
AcDbLine
 10
141.9
 20
60.0
 30
0.0
 11
143.6999999999999
 21
60.0
 31
0.0
  0
LINE
  5
145
330
1E
100
AcDbEntity
  8
0
100
AcDbLine
 10
141.791
 20
5.611140000000009
 30
0.0
 11
143.6291999999999
 21
6.810580000000009
 31
0.0
  0
LINE
  5
146
330
1E
100
AcDbEntity
  8
0
100
AcDbLine
 10
145.4298999999999
 20
8.010020000000009
 30
0.0
 11
146.5177999999999
 21
9.059530000000009
 31
0.0
  0
LINE
  5
147
330
1E
100
AcDbEntity
  8
0
100
AcDbLine
 10
145.1999999999999
 20
60.0
 30
0.0
 11
147.4
 21
60.0
 31
0.0
  0
LINE
  5
148
330
1E
100
AcDbEntity
  8
0
100
AcDbLine
 10
143.6999999999999
 20
60.0
 30
0.0
 11
145.3
 21
60.0
 31
0.0
  0
LINE
  5
149
330
1E
100
AcDbEntity
  8
0
100
AcDbLine
 10
143.6291999999999
 20
6.810580000000009
 30
0.0
 11
145.4298999999999
 21
8.010020000000009
 31
0.0
  0
LINE
  5
14A
330
1E
100
AcDbEntity
  8
0
100
AcDbLine
 10
145.3
 20
60.0
 30
0.0
 11
146.5
 21
60.0
 31
0.0
  0
LINE
  5
14B
330
1E
100
AcDbEntity
  8
0
100
AcDbLine
 10
145.4298999999999
 20
8.010020000000009
 30
0.0
 11
146.5177999999999
 21
9.059530000000009
 31
0.0
  0
LINE
  5
14C
330
1E
100
AcDbEntity
  8
0
100
AcDbLine
 10
146.5
 20
60.0
 30
0.0
 11
147.1999999999999
 21
60.0
 31
0.0
  0
LINE
  5
14D
330
1E
100
AcDbEntity
  8
0
100
AcDbLine
 10
146.5177999999999
 20
9.059530000000009
 30
0.0
 11
147.2306
 21
9.771700000000009
 31
0.0
  0
LINE
  5
14E
330
1E
100
AcDbEntity
  8
0
100
AcDbLine
 10
147.1999999999999
 20
60.0
 30
0.0
 11
147.5
 21
60.0
 31
0.0
  0
LINE
  5
14F
330
1E
100
AcDbEntity
  8
0
100
AcDbLine
 10
147.5
 20
10.0
 30
0.0
 11
147.5
 21
60.0
 31
0.0
  0
LINE
  5
150
330
1E
100
AcDbEntity
  8
0
100
AcDbLine
 10
147.5
 20
60.0
 30
0.0
 11
149.0999999999999
 21
60.0
 31
0.0
  0
LINE
  5
151
330
1E
100
AcDbEntity
  8
0
100
AcDbLine
 10
149.0999999999999
 20
60.0
 30
0.0
 11
150.0999999999999
 21
60.0
 31
0.0
  0
LINE
  5
152
330
1E
100
AcDbEntity
  8
0
100
AcDbLine
 10
147.4
 20
60.0
 30
0.0
 11
149.0999999999999
 21
60.0
 31
0.0
  0
LINE
  5
153
330
1E
100
AcDbEntity
  8
0
100
AcDbLine
 10
150.0999999999999
 20
60.0
 30
0.0
 11
150.5
 21
60.0
 31
0.0
  0
LINE
  5
154
330
1E
100
AcDbEntity
  8
0
100
AcDbLine
 10
149.0999999999999
 20
60.0
 30
0.0
 11
150.0999999999999
 21
60.0
 31
0.0
  0
LINE
  5
155
330
1E
100
AcDbEntity
  8
0
100
AcDbLine
 10
150.0999999999999
 20
60.0
 30
0.0
 11
150.5
 21
60.0
 31
0.0
  0
LINE
  5
156
330
1E
100
AcDbEntity
  8
0
100
AcDbLine
 10
150.5
 20
60.0
 30
0.0
 11
151.0333333333329
 21
76.0
 31
0.0
  0
LINE
  5
157
330
1E
100
AcDbEntity
  8
0
100
AcDbLine
 10
147.5
 20
60.0
 30
0.0
 11
147.5
 21
10.0
 31
0.0
  0
LINE
  5
158
330
1E
100
AcDbEntity
  8
0
100
AcDbLine
 10
147.2306
 20
9.771700000000009
 30
0.0
 11
147.5
 21
10.0
 31
0.0
  0
LINE
  5
159
330
1E
100
AcDbEntity
  8
0
100
AcDbLine
 10
138.1
 20
60.0
 30
0.0
 11
140.0
 21
60.0
 31
0.0
  0
LINE
  5
15A
330
1E
100
AcDbEntity
  8
0
100
AcDbLine
 10
138.0771699999999
 20
2.275200000000009
 30
0.0
 11
140.0278999999999
 21
4.261770000000009
 31
0.0
  0
LINE
  5
15B
330
1E
100
AcDbEntity
  8
0
100
AcDbLine
 10
136.3
 20
60.0
 30
0.0
 11
138.1
 21
60.0
 31
0.0
  0
LINE
  5
15C
330
1E
100
AcDbEntity
  8
0
100
AcDbLine
 10
136.2765
 20
1.15073000000001
 30
0.0
 11
138.0771699999999
 21
2.275200000000009
 31
0.0
  0
LINE
  5
15D
330
1E
100
AcDbEntity
  8
0
100
AcDbLine
 10
137.3
 20
60.0
 30
0.0
 11
140.0
 21
60.0
 31
0.0
  0
LINE
  5
15E
330
1E
100
AcDbEntity
  8
0
100
AcDbLine
 10
134.8
 20
60.0
 30
0.0
 11
137.3
 21
60.0
 31
0.0
  0
LINE
  5
15F
330
1E
100
AcDbEntity
  8
0
100
AcDbLine
 10
132.6
 20
60.0
 30
0.0
 11
134.8
 21
60.0
 31
0.0
  0
LINE
  5
160
330
1E
100
AcDbEntity
  8
0
100
AcDbLine
 10
130.9
 20
60.0
 30
0.0
 11
132.6
 21
60.0
 31
0.0
  0
LINE
  5
161
330
1E
100
AcDbEntity
  8
0
100
AcDbLine
 10
130.0999999999999
 20
76.0
 30
0.0
 11
133.0
 21
76.0
 31
0.0
  0
LINE
  5
162
330
1E
100
AcDbEntity
  8
0
100
AcDbLine
 10
132.0
 20
80.0
 30
0.0
 11
135.8999999999999
 21
80.0
 31
0.0
  0
LINE
  5
163
330
1E
100
AcDbEntity
  8
0
100
AcDbLine
 10
130.0999999999999
 20
80.0
 30
0.0
 11
133.0
 21
80.0
 31
0.0
  0
LINE
  5
164
330
1E
100
AcDbEntity
  8
0
100
AcDbLine
 10
131.0
 20
82.0
 30
0.0
 11
135.4
 21
82.0
 31
0.0
  0
LINE
  5
165
330
1E
100
AcDbEntity
  8
0
100
AcDbLine
 10
135.8999999999999
 20
80.0
 30
0.0
 11
140.0
 21
80.0
 31
0.0
  0
LINE
  5
166
330
1E
100
AcDbEntity
  8
0
100
AcDbLine
 10
135.4
 20
82.0
 30
0.0
 11
140.0
 21
82.0
 31
0.0
  0
LINE
  5
167
330
1E
100
AcDbEntity
  8
0
100
AcDbLine
 10
133.0
 20
80.0
 30
0.0
 11
136.4
 21
80.0
 31
0.0
  0
LINE
  5
168
330
1E
100
AcDbEntity
  8
0
100
AcDbLine
 10
136.4
 20
80.0
 30
0.0
 11
140.0
 21
80.0
 31
0.0
  0
LINE
  5
169
330
1E
100
AcDbEntity
  8
0
100
AcDbLine
 10
133.0
 20
76.0
 30
0.0
 11
136.4
 21
76.0
 31
0.0
  0
LINE
  5
16A
330
1E
100
AcDbEntity
  8
0
100
AcDbLine
 10
154.0
 20
76.0
 30
0.0
 11
154.0
 21
80.0
 31
0.0
  0
LINE
  5
16B
330
1E
100
AcDbEntity
  8
0
100
AcDbLine
 10
153.5
 20
76.0
 30
0.0
 11
154.0
 21
76.0
 31
0.0
  0
LINE
  5
16C
330
1E
100
AcDbEntity
  8
0
100
AcDbLine
 10
152.0999999999999
 20
76.0
 30
0.0
 11
153.5
 21
76.0
 31
0.0
  0
LINE
  5
16D
330
1E
100
AcDbEntity
  8
0
100
AcDbLine
 10
149.9
 20
76.0
 30
0.0
 11
152.0999999999999
 21
76.0
 31
0.0
  0
LINE
  5
16E
330
1E
100
AcDbEntity
  8
0
100
AcDbLine
 10
147.0
 20
76.0
 30
0.0
 11
149.9
 21
76.0
 31
0.0
  0
LINE
  5
16F
330
1E
100
AcDbEntity
  8
0
100
AcDbLine
 10
143.5999999999999
 20
76.0
 30
0.0
 11
147.0
 21
76.0
 31
0.0
  0
LINE
  5
170
330
1E
100
AcDbEntity
  8
0
100
AcDbLine
 10
140.0
 20
82.0
 30
0.0
 11
144.5999999999999
 21
82.0
 31
0.0
  0
LINE
  5
171
330
1E
100
AcDbEntity
  8
0
100
AcDbLine
 10
151.3
 20
80.0
 30
0.0
 11
153.9
 21
80.0
 31
0.0
  0
LINE
  5
172
330
1E
100
AcDbEntity
  8
0
100
AcDbLine
 10
148.0
 20
80.0
 30
0.0
 11
151.3
 21
80.0
 31
0.0
  0
LINE
  5
173
330
1E
100
AcDbEntity
  8
0
100
AcDbLine
 10
153.9
 20
80.0
 30
0.0
 11
155.4
 21
80.0
 31
0.0
  0
LINE
  5
174
330
1E
100
AcDbEntity
  8
0
100
AcDbLine
 10
155.4
 20
80.0
 30
0.0
 11
156.0
 21
80.0
 31
0.0
  0
LINE
  5
175
330
1E
100
AcDbEntity
  8
0
100
AcDbLine
 10
156.0
 20
80.0
 30
0.0
 11
158.0
 21
82.0
 31
0.0
  0
LINE
  5
176
330
1E
100
AcDbEntity
  8
0
100
AcDbLine
 10
154.0
 20
80.0
 30
0.0
 11
154.0
 21
76.0
 31
0.0
  0
LINE
  5
177
330
1E
100
AcDbEntity
  8
0
100
AcDbLine
 10
154.0
 20
80.0
 30
0.0
 11
155.4
 21
80.0
 31
0.0
  0
LINE
  5
178
330
1E
100
AcDbEntity
  8
0
100
AcDbLine
 10
153.5
 20
80.0
 30
0.0
 11
154.0
 21
80.0
 31
0.0
  0
LINE
  5
179
330
1E
100
AcDbEntity
  8
0
100
AcDbLine
 10
152.0999999999999
 20
80.0
 30
0.0
 11
153.5
 21
80.0
 31
0.0
  0
LINE
  5
17A
330
1E
100
AcDbEntity
  8
0
100
AcDbLine
 10
149.9
 20
80.0
 30
0.0
 11
152.0999999999999
 21
80.0
 31
0.0
  0
LINE
  5
17B
330
1E
100
AcDbEntity
  8
0
100
AcDbLine
 10
147.0
 20
80.0
 30
0.0
 11
149.9
 21
80.0
 31
0.0
  0
LINE
  5
17C
330
1E
100
AcDbEntity
  8
0
100
AcDbLine
 10
144.1
 20
80.0
 30
0.0
 11
148.0
 21
80.0
 31
0.0
  0
LINE
  5
17D
330
1E
100
AcDbEntity
  8
0
100
AcDbLine
 10
157.3
 20
82.0
 30
0.0
 11
158.0
 21
82.0
 31
0.0
  0
LINE
  5
17E
330
1E
100
AcDbEntity
  8
0
100
AcDbLine
 10
158.0
 20
82.0
 30
0.0
 11
158.0
 21
83.0
 31
0.0
  0
LINE
  5
17F
330
1E
100
AcDbEntity
  8
0
100
AcDbLine
 10
155.6
 20
82.0
 30
0.0
 11
157.3
 21
82.0
 31
0.0
  0
LINE
  5
180
330
1E
100
AcDbEntity
  8
0
100
AcDbLine
 10
152.6999999999999
 20
82.0
 30
0.0
 11
155.6
 21
82.0
 31
0.0
  0
LINE
  5
181
330
1E
100
AcDbEntity
  8
0
100
AcDbLine
 10
149.0
 20
82.0
 30
0.0
 11
152.6999999999999
 21
82.0
 31
0.0
  0
LINE
  5
182
330
1E
100
AcDbEntity
  8
0
100
AcDbLine
 10
144.5999999999999
 20
82.0
 30
0.0
 11
149.0
 21
82.0
 31
0.0
  0
LINE
  5
183
330
1E
100
AcDbEntity
  8
0
100
AcDbLine
 10
158.0
 20
83.0
 30
0.0
 11
158.0
 21
88.3
 31
0.0
  0
LINE
  5
184
330
1E
100
AcDbEntity
  8
0
100
AcDbLine
 10
158.0
 20
83.0
 30
0.0
 11
158.0
 21
82.0
 31
0.0
  0
LINE
  5
185
330
1E
100
AcDbEntity
  8
0
100
AcDbLine
 10
143.5999999999999
 20
80.0
 30
0.0
 11
147.0
 21
80.0
 31
0.0
  0
LINE
  5
186
330
1E
100
AcDbEntity
  8
0
100
AcDbLine
 10
140.0
 20
80.0
 30
0.0
 11
143.5999999999999
 21
80.0
 31
0.0
  0
LINE
  5
187
330
1E
100
AcDbEntity
  8
0
100
AcDbLine
 10
140.0
 20
80.0
 30
0.0
 11
144.1
 21
80.0
 31
0.0
  0
LINE
  5
188
330
1E
100
AcDbEntity
  8
0
100
AcDbLine
 10
140.0
 20
76.0
 30
0.0
 11
143.5999999999999
 21
76.0
 31
0.0
  0
LINE
  5
189
330
1E
100
AcDbEntity
  8
0
100
AcDbLine
 10
136.4
 20
76.0
 30
0.0
 11
140.0
 21
76.0
 31
0.0
  0
LINE
  5
18A
330
1E
100
AcDbEntity
  8
0
100
AcDbLine
 10
158.0
 20
87.0
 30
0.0
 11
232.0
 21
87.0
 31
0.0
  0
LINE
  5
18B
330
1E
100
AcDbEntity
  8
0
100
AcDbLine
 10
215.0
 20
74.0
 30
0.0
 11
223.7999999999999
 21
75.2
 31
0.0
  0
LINE
  5
18C
330
1E
100
AcDbEntity
  8
0
100
AcDbLine
 10
223.7999999999999
 20
75.2
 30
0.0
 11
231.8999999999999
 21
78.59999999999999
 31
0.0
  0
LINE
  5
18D
330
1E
100
AcDbEntity
  8
0
100
AcDbLine
 10
215.0
 20
76.0
 30
0.0
 11
223.3
 21
77.2
 31
0.0
  0
LINE
  5
18E
330
1E
100
AcDbEntity
  8
0
100
AcDbLine
 10
223.3
 20
77.2
 30
0.0
 11
230.9
 21
80.29999999999999
 31
0.0
  0
LINE
  5
18F
330
1E
100
AcDbEntity
  8
0
100
AcDbLine
 10
230.9
 20
80.29999999999999
 30
0.0
 11
237.5999999999999
 21
85.4
 31
0.0
  0
LINE
  5
190
330
1E
100
AcDbEntity
  8
0
100
AcDbLine
 10
231.8999999999999
 20
78.59999999999999
 30
0.0
 11
239.0
 21
84.0
 31
0.0
  0
LINE
  5
191
330
1E
100
AcDbEntity
  8
0
100
AcDbLine
 10
206.6999999999999
 20
77.2
 30
0.0
 11
215.0
 21
76.0
 31
0.0
  0
LINE
  5
192
330
1E
100
AcDbEntity
  8
0
100
AcDbLine
 10
199.0999999999999
 20
80.29999999999999
 30
0.0
 11
206.6999999999999
 21
77.2
 31
0.0
  0
LINE
  5
193
330
1E
100
AcDbEntity
  8
0
100
AcDbLine
 10
206.1999999999999
 20
75.2
 30
0.0
 11
215.0
 21
74.0
 31
0.0
  0
LINE
  5
194
330
1E
100
AcDbEntity
  8
0
100
AcDbLine
 10
198.1
 20
78.59999999999999
 30
0.0
 11
206.1999999999999
 21
75.2
 31
0.0
  0
LINE
  5
195
330
1E
100
AcDbEntity
  8
0
100
AcDbLine
 10
232.0
 20
87.0
 30
0.0
 11
232.0
 21
87.79999999999999
 31
0.0
  0
LINE
  5
196
330
1E
100
AcDbEntity
  8
0
100
AcDbLine
 10
232.0
 20
87.79999999999999
 30
0.0
 11
232.0
 21
89.8
 31
0.0
  0
LINE
  5
197
330
1E
100
AcDbEntity
  8
0
100
AcDbLine
 10
232.0
 20
87.79999999999999
 30
0.0
 11
232.0
 21
87.0
 31
0.0
  0
LINE
  5
198
330
1E
100
AcDbEntity
  8
0
100
AcDbLine
 10
192.4
 20
85.4
 30
0.0
 11
199.0999999999999
 21
80.29999999999999
 31
0.0
  0
LINE
  5
199
330
1E
100
AcDbEntity
  8
0
100
AcDbLine
 10
191.182089552239
 20
87.0
 30
0.0
 11
192.4
 21
85.4
 31
0.0
  0
LINE
  5
19A
330
1E
100
AcDbEntity
  8
0
100
AcDbLine
 10
191.0
 20
84.0
 30
0.0
 11
198.1
 21
78.59999999999999
 31
0.0
  0
LINE
  5
19B
330
1E
100
AcDbEntity
  8
0
100
AcDbLine
 10
188.718309859155
 20
87.0
 30
0.0
 11
191.0
 21
84.0
 31
0.0
  0
LINE
  5
19C
330
1E
100
AcDbEntity
  8
0
100
AcDbLine
 10
232.0
 20
88.49999999999999
 30
0.0
 11
234.0
 21
88.49999999999999
 31
0.0
  0
LINE
  5
19D
330
1E
100
AcDbEntity
  8
0
100
AcDbLine
 10
158.0
 20
88.3
 30
0.0
 11
158.0
 21
93.9
 31
0.0
  0
LINE
  5
19E
330
1E
100
AcDbEntity
  8
0
100
AcDbLine
 10
158.0
 20
88.3
 30
0.0
 11
158.0
 21
83.0
 31
0.0
  0
LINE
  5
19F
330
1E
100
AcDbEntity
  8
0
100
AcDbLine
 10
232.0
 20
89.8
 30
0.0
 11
232.0
 21
93.2
 31
0.0
  0
LINE
  5
1A0
330
1E
100
AcDbEntity
  8
0
100
AcDbLine
 10
232.0
 20
89.8
 30
0.0
 11
232.0
 21
87.79999999999999
 31
0.0
  0
LINE
  5
1A1
330
1E
100
AcDbEntity
  8
0
100
AcDbLine
 10
232.0
 20
93.2
 30
0.0
 11
232.0
 21
97.5
 31
0.0
  0
LINE
  5
1A2
330
1E
100
AcDbEntity
  8
0
100
AcDbLine
 10
232.0
 20
93.2
 30
0.0
 11
232.0
 21
89.8
 31
0.0
  0
LINE
  5
1A3
330
1E
100
AcDbEntity
  8
0
100
AcDbLine
 10
234.0
 20
91.09999999999999
 30
0.0
 11
234.0
 21
94.19999999999999
 31
0.0
  0
LINE
  5
1A4
330
1E
100
AcDbEntity
  8
0
100
AcDbLine
 10
234.0
 20
89.19999999999999
 30
0.0
 11
234.0
 21
91.09999999999999
 31
0.0
  0
LINE
  5
1A5
330
1E
100
AcDbEntity
  8
0
100
AcDbLine
 10
234.0
 20
88.49999999999999
 30
0.0
 11
234.0
 21
89.19999999999999
 31
0.0
  0
LINE
  5
1A6
330
1E
100
AcDbEntity
  8
0
100
AcDbLine
 10
234.0
 20
88.49999999999999
 30
0.0
 11
234.0
 21
87.79999999999999
 31
0.0
  0
LINE
  5
1A7
330
1E
100
AcDbEntity
  8
0
100
AcDbLine
 10
158.0
 20
93.9
 30
0.0
 11
158.0999999999999
 21
99.40000000000001
 31
0.0
  0
LINE
  5
1A8
330
1E
100
AcDbEntity
  8
0
100
AcDbLine
 10
158.0
 20
93.9
 30
0.0
 11
158.0
 21
88.3
 31
0.0
  0
LINE
  5
1A9
330
1E
100
AcDbEntity
  8
0
100
AcDbLine
 10
158.062287903667
 20
97.32583470169679
 30
0.0
 11
158.1999999999999
 21
97.5
 31
0.0
  0
LINE
  5
1AA
330
1E
100
AcDbEntity
  8
0
100
AcDbLine
 10
232.0
 20
97.5
 30
0.0
 11
232.0
 21
102.6
 31
0.0
  0
LINE
  5
1AB
330
1E
100
AcDbEntity
  8
0
100
AcDbLine
 10
232.0
 20
97.5
 30
0.0
 11
232.0
 21
93.2
 31
0.0
  0
LINE
  5
1AD
330
1E
100
AcDbEntity
  8
0
100
AcDbLine
 10
158.0999999999999
 20
99.40000000000001
 30
0.0
 11
158.1999999999999
 21
103.4999999999999
 31
0.0
  0
LINE
  5
1AE
330
1E
100
AcDbEntity
  8
0
100
AcDbLine
 10
232.0
 20
102.6
 30
0.0
 11
232.0
 21
108.0
 31
0.0
  0
LINE
  5
1AF
330
1E
100
AcDbEntity
  8
0
100
AcDbLine
 10
232.0
 20
102.6
 30
0.0
 11
232.0
 21
97.5
 31
0.0
  0
LINE
  5
1B1
330
1E
100
AcDbEntity
  8
0
100
AcDbLine
 10
234.0
 20
98.3
 30
0.0
 11
234.0
 21
103.0
 31
0.0
  0
LINE
  5
1B2
330
1E
100
AcDbEntity
  8
0
100
AcDbLine
 10
234.0
 20
94.19999999999999
 30
0.0
 11
234.0
 21
98.3
 31
0.0
  0
LINE
  5
1B3
330
1E
100
AcDbEntity
  8
0
100
AcDbLine
 10
232.0
 20
113.4
 30
0.0
 11
232.0
 21
118.5
 31
0.0
  0
LINE
  5
1B4
330
1E
100
AcDbEntity
  8
0
100
AcDbLine
 10
232.0
 20
113.4
 30
0.0
 11
232.0
 21
108.0
 31
0.0
  0
LINE
  5
1B5
330
1E
100
AcDbEntity
  8
0
100
AcDbLine
 10
232.0
 20
108.0
 30
0.0
 11
232.0
 21
113.4
 31
0.0
  0
LINE
  5
1B6
330
1E
100
AcDbEntity
  8
0
100
AcDbLine
 10
232.0
 20
108.0
 30
0.0
 11
232.0
 21
102.6
 31
0.0
  0
LINE
  5
1B7
330
1E
100
AcDbEntity
  8
0
100
AcDbLine
 10
158.1999999999999
 20
103.4999999999999
 30
0.0
 11
158.4
 21
106.6999999999999
 31
0.0
  0
LINE
  5
1B9
330
1E
100
AcDbEntity
  8
0
100
AcDbLine
 10
234.0
 20
113.0
 30
0.0
 11
234.0
 21
117.7
 31
0.0
  0
LINE
  5
1BA
330
1E
100
AcDbEntity
  8
0
100
AcDbLine
 10
232.0
 20
118.5
 30
0.0
 11
232.0
 21
122.7999999999999
 31
0.0
  0
LINE
  5
1BB
330
1E
100
AcDbEntity
  8
0
100
AcDbLine
 10
232.0
 20
118.5
 30
0.0
 11
232.0
 21
113.4
 31
0.0
  0
LINE
  5
1BC
330
1E
100
AcDbEntity
  8
0
100
AcDbLine
 10
232.0
 20
122.7999999999999
 30
0.0
 11
232.0
 21
126.2
 31
0.0
  0
LINE
  5
1BD
330
1E
100
AcDbEntity
  8
0
100
AcDbLine
 10
232.0
 20
122.7999999999999
 30
0.0
 11
232.0
 21
118.5
 31
0.0
  0
LINE
  5
1C0
330
1E
100
AcDbEntity
  8
0
100
AcDbLine
 10
234.0
 20
117.7
 30
0.0
 11
234.0
 21
121.7999999999999
 31
0.0
  0
LINE
  5
1C1
330
1E
100
AcDbEntity
  8
0
100
AcDbLine
 10
234.0
 20
121.7999999999999
 30
0.0
 11
234.0
 21
124.9
 31
0.0
  0
LINE
  5
1C2
330
1E
100
AcDbEntity
  8
0
100
AcDbLine
 10
234.0
 20
113.4
 30
0.0
 11
234.0
 21
118.5
 31
0.0
  0
LINE
  5
1C3
330
1E
100
AcDbEntity
  8
0
100
AcDbLine
 10
234.0
 20
113.4
 30
0.0
 11
234.0
 21
108.0
 31
0.0
  0
LINE
  5
1C4
330
1E
100
AcDbEntity
  8
0
100
AcDbLine
 10
234.0
 20
118.5
 30
0.0
 11
234.0
 21
122.7999999999999
 31
0.0
  0
LINE
  5
1C5
330
1E
100
AcDbEntity
  8
0
100
AcDbLine
 10
234.0
 20
118.5
 30
0.0
 11
234.0
 21
113.4
 31
0.0
  0
LINE
  5
1C7
330
1E
100
AcDbEntity
  8
0
100
AcDbLine
 10
140.0
 20
129.0
 30
0.0
 11
232.0
 21
129.0
 31
0.0
  0
LINE
  5
1C8
330
1E
100
AcDbEntity
  8
0
100
AcDbLine
 10
188.718309859155
 20
129.0
 30
0.0
 11
191.0
 21
132.0
 31
0.0
  0
LINE
  5
1C9
330
1E
100
AcDbEntity
  8
0
100
AcDbLine
 10
232.0
 20
127.5
 30
0.0
 11
234.0
 21
127.5
 31
0.0
  0
LINE
  5
1CA
330
1E
100
AcDbEntity
  8
0
100
AcDbLine
 10
232.0
 20
126.2
 30
0.0
 11
232.0
 21
128.1999999999999
 31
0.0
  0
LINE
  5
1CB
330
1E
100
AcDbEntity
  8
0
100
AcDbLine
 10
232.0
 20
126.2
 30
0.0
 11
232.0
 21
122.7999999999999
 31
0.0
  0
LINE
  5
1CC
330
1E
100
AcDbEntity
  8
0
100
AcDbLine
 10
232.0
 20
129.0
 30
0.0
 11
232.0
 21
128.1999999999999
 31
0.0
  0
LINE
  5
1CD
330
1E
100
AcDbEntity
  8
0
100
AcDbLine
 10
232.0
 20
128.1999999999999
 30
0.0
 11
232.0
 21
129.0
 31
0.0
  0
LINE
  5
1CE
330
1E
100
AcDbEntity
  8
0
100
AcDbLine
 10
232.0
 20
128.1999999999999
 30
0.0
 11
232.0
 21
126.2
 31
0.0
  0
LINE
  5
1CF
330
1E
100
AcDbEntity
  8
0
100
AcDbLine
 10
234.0
 20
127.5
 30
0.0
 11
234.0
 21
128.1999999999999
 31
0.0
  0
LINE
  5
1D0
330
1E
100
AcDbEntity
  8
0
100
AcDbLine
 10
191.182089552239
 20
129.0
 30
0.0
 11
192.4
 21
130.6
 31
0.0
  0
LINE
  5
1D1
330
1E
100
AcDbEntity
  8
0
100
AcDbLine
 10
234.0
 20
124.9
 30
0.0
 11
234.0
 21
126.8
 31
0.0
  0
LINE
  5
1D2
330
1E
100
AcDbEntity
  8
0
100
AcDbLine
 10
234.0
 20
126.8
 30
0.0
 11
234.0
 21
127.5
 31
0.0
  0
LINE
  5
1D3
330
1E
100
AcDbEntity
  8
0
100
AcDbLine
 10
234.0
 20
122.7999999999999
 30
0.0
 11
234.0
 21
126.2
 31
0.0
  0
LINE
  5
1D4
330
1E
100
AcDbEntity
  8
0
100
AcDbLine
 10
234.0
 20
122.7999999999999
 30
0.0
 11
234.0
 21
118.5
 31
0.0
  0
LINE
  5
1D5
330
1E
100
AcDbEntity
  8
0
100
AcDbLine
 10
234.0
 20
126.2
 30
0.0
 11
234.0
 21
128.1999999999999
 31
0.0
  0
LINE
  5
1D6
330
1E
100
AcDbEntity
  8
0
100
AcDbLine
 10
234.0
 20
126.2
 30
0.0
 11
234.0
 21
122.7999999999999
 31
0.0
  0
LINE
  5
1D7
330
1E
100
AcDbEntity
  8
0
100
AcDbLine
 10
191.0
 20
132.0
 30
0.0
 11
198.1
 21
137.4
 31
0.0
  0
LINE
  5
1D8
330
1E
100
AcDbEntity
  8
0
100
AcDbLine
 10
199.0999999999999
 20
135.6999999999999
 30
0.0
 11
206.6999999999999
 21
138.8
 31
0.0
  0
LINE
  5
1D9
330
1E
100
AcDbEntity
  8
0
100
AcDbLine
 10
192.4
 20
130.6
 30
0.0
 11
199.0999999999999
 21
135.6999999999999
 31
0.0
  0
LINE
  5
1DA
330
1E
100
AcDbEntity
  8
0
100
AcDbLine
 10
234.0
 20
129.0
 30
0.0
 11
277.0
 21
129.0
 31
0.0
  0
LINE
  5
1DB
330
1E
100
AcDbEntity
  8
0
100
AcDbLine
 10
234.0
 20
129.0
 30
0.0
 11
234.0
 21
128.1999999999999
 31
0.0
  0
LINE
  5
1DC
330
1E
100
AcDbEntity
  8
0
100
AcDbLine
 10
234.0
 20
128.1999999999999
 30
0.0
 11
234.0
 21
129.0
 31
0.0
  0
LINE
  5
1DD
330
1E
100
AcDbEntity
  8
0
100
AcDbLine
 10
234.0
 20
128.1999999999999
 30
0.0
 11
234.0
 21
126.2
 31
0.0
  0
LINE
  5
1DE
330
1E
100
AcDbEntity
  8
0
100
AcDbLine
 10
234.0
 20
128.1999999999999
 30
0.0
 11
234.0
 21
127.5
 31
0.0
  0
LINE
  5
1DF
330
1E
100
AcDbEntity
  8
0
100
AcDbLine
 10
234.0
 20
103.0
 30
0.0
 11
234.0
 21
108.0
 31
0.0
  0
LINE
  5
1E0
330
1E
100
AcDbEntity
  8
0
100
AcDbLine
 10
234.0
 20
108.0
 30
0.0
 11
234.0
 21
102.6
 31
0.0
  0
LINE
  5
1E1
330
1E
100
AcDbEntity
  8
0
100
AcDbLine
 10
234.0
 20
108.0
 30
0.0
 11
234.0
 21
113.4
 31
0.0
  0
LINE
  5
1E2
330
1E
100
AcDbEntity
  8
0
100
AcDbLine
 10
234.0
 20
108.0
 30
0.0
 11
234.0
 21
113.0
 31
0.0
  0
LINE
  5
1E3
330
1E
100
AcDbEntity
  8
0
100
AcDbLine
 10
234.0
 20
102.6
 30
0.0
 11
234.0
 21
108.0
 31
0.0
  0
LINE
  5
1E4
330
1E
100
AcDbEntity
  8
0
100
AcDbLine
 10
234.0
 20
102.6
 30
0.0
 11
234.0
 21
97.5
 31
0.0
  0
LINE
  5
1E5
330
1E
100
AcDbEntity
  8
0
100
AcDbLine
 10
234.0
 20
97.5
 30
0.0
 11
234.0
 21
102.6
 31
0.0
  0
LINE
  5
1E6
330
1E
100
AcDbEntity
  8
0
100
AcDbLine
 10
234.0
 20
97.5
 30
0.0
 11
234.0
 21
93.2
 31
0.0
  0
LINE
  5
1E7
330
1E
100
AcDbEntity
  8
0
100
AcDbLine
 10
234.0
 20
93.2
 30
0.0
 11
234.0
 21
97.5
 31
0.0
  0
LINE
  5
1E8
330
1E
100
AcDbEntity
  8
0
100
AcDbLine
 10
234.0
 20
93.2
 30
0.0
 11
234.0
 21
89.8
 31
0.0
  0
LINE
  5
1E9
330
1E
100
AcDbEntity
  8
0
100
AcDbLine
 10
234.0
 20
89.8
 30
0.0
 11
234.0
 21
93.2
 31
0.0
  0
LINE
  5
1EA
330
1E
100
AcDbEntity
  8
0
100
AcDbLine
 10
234.0
 20
89.8
 30
0.0
 11
234.0
 21
87.79999999999999
 31
0.0
  0
LINE
  5
1EB
330
1E
100
AcDbEntity
  8
0
100
AcDbLine
 10
234.0
 20
87.79999999999999
 30
0.0
 11
234.0
 21
89.8
 31
0.0
  0
LINE
  5
1EC
330
1E
100
AcDbEntity
  8
0
100
AcDbLine
 10
234.0
 20
87.79999999999999
 30
0.0
 11
234.0
 21
87.0
 31
0.0
  0
LINE
  5
1ED
330
1E
100
AcDbEntity
  8
0
100
AcDbLine
 10
234.0
 20
87.79999999999999
 30
0.0
 11
234.0
 21
88.49999999999999
 31
0.0
  0
LINE
  5
1EE
330
1E
100
AcDbEntity
  8
0
100
AcDbLine
 10
237.5999999999999
 20
85.4
 30
0.0
 11
238.817910447761
 21
87.0
 31
0.0
  0
LINE
  5
1EF
330
1E
100
AcDbEntity
  8
0
100
AcDbLine
 10
234.0
 20
87.0
 30
0.0
 11
234.0
 21
87.79999999999999
 31
0.0
  0
LINE
  5
1F0
330
1E
100
AcDbEntity
  8
0
100
AcDbLine
 10
234.0
 20
87.0
 30
0.0
 11
277.0
 21
87.0
 31
0.0
  0
LINE
  5
1F1
330
1E
100
AcDbEntity
  8
0
100
AcDbLine
 10
198.1
 20
137.4
 30
0.0
 11
206.1999999999999
 21
140.8
 31
0.0
  0
LINE
  5
1F2
330
1E
100
AcDbEntity
  8
0
100
AcDbLine
 10
206.6999999999999
 20
138.8
 30
0.0
 11
215.0
 21
140.0
 31
0.0
  0
LINE
  5
1F3
330
1E
100
AcDbEntity
  8
0
100
AcDbLine
 10
206.1999999999999
 20
140.8
 30
0.0
 11
215.0
 21
142.0
 31
0.0
  0
LINE
  5
1F4
330
1E
100
AcDbEntity
  8
0
100
AcDbLine
 10
215.0
 20
142.0
 30
0.0
 11
223.7999999999999
 21
140.8
 31
0.0
  0
LINE
  5
1F5
330
1E
100
AcDbEntity
  8
0
100
AcDbLine
 10
215.0
 20
140.0
 30
0.0
 11
223.3
 21
138.8
 31
0.0
  0
LINE
  5
1F6
330
1E
100
AcDbEntity
  8
0
100
AcDbLine
 10
223.7999999999999
 20
140.8
 30
0.0
 11
231.8999999999999
 21
137.4
 31
0.0
  0
LINE
  5
1F7
330
1E
100
AcDbEntity
  8
0
100
AcDbLine
 10
231.8999999999999
 20
137.4
 30
0.0
 11
239.0
 21
132.0
 31
0.0
  0
LINE
  5
1F8
330
1E
100
AcDbEntity
  8
0
100
AcDbLine
 10
223.3
 20
138.8
 30
0.0
 11
230.9
 21
135.6999999999999
 31
0.0
  0
LINE
  5
1F9
330
1E
100
AcDbEntity
  8
0
100
AcDbLine
 10
230.9
 20
135.6999999999999
 30
0.0
 11
237.5999999999999
 21
130.6
 31
0.0
  0
LINE
  5
1FA
330
1E
100
AcDbEntity
  8
0
100
AcDbLine
 10
239.0
 20
84.0
 30
0.0
 11
241.2816901408449
 21
87.0
 31
0.0
  0
LINE
  5
1FB
330
1E
100
AcDbEntity
  8
0
100
AcDbLine
 10
277.0
 20
87.79999999999999
 30
0.0
 11
277.0
 21
89.8
 31
0.0
  0
LINE
  5
1FC
330
1E
100
AcDbEntity
  8
0
100
AcDbLine
 10
277.0
 20
87.79999999999999
 30
0.0
 11
277.0
 21
87.0
 31
0.0
  0
LINE
  5
1FD
330
1E
100
AcDbEntity
  8
0
100
AcDbLine
 10
277.0
 20
87.0
 30
0.0
 11
277.0
 21
87.79999999999999
 31
0.0
  0
LINE
  5
1FE
330
1E
100
AcDbEntity
  8
0
100
AcDbLine
 10
277.0
 20
87.0
 30
0.0
 11
278.0
 21
88.0
 31
0.0
  0
LINE
  5
1FF
330
1E
100
AcDbEntity
  8
0
100
AcDbLine
 10
277.0
 20
93.2
 30
0.0
 11
277.0
 21
97.5
 31
0.0
  0
LINE
  5
200
330
1E
100
AcDbEntity
  8
0
100
AcDbLine
 10
277.0
 20
93.2
 30
0.0
 11
277.0
 21
89.8
 31
0.0
  0
LINE
  5
201
330
1E
100
AcDbEntity
  8
0
100
AcDbLine
 10
277.0
 20
89.8
 30
0.0
 11
277.0
 21
93.2
 31
0.0
  0
LINE
  5
202
330
1E
100
AcDbEntity
  8
0
100
AcDbLine
 10
277.0
 20
89.8
 30
0.0
 11
277.0
 21
87.79999999999999
 31
0.0
  0
LINE
  5
203
330
1E
100
AcDbEntity
  8
0
100
AcDbLine
 10
277.0
 20
97.5
 30
0.0
 11
277.0
 21
102.6
 31
0.0
  0
LINE
  5
204
330
1E
100
AcDbEntity
  8
0
100
AcDbLine
 10
277.0
 20
97.5
 30
0.0
 11
277.0
 21
93.2
 31
0.0
  0
LINE
  5
205
330
1E
100
AcDbEntity
  8
0
100
AcDbLine
 10
278.0
 20
98.0
 30
0.0
 11
278.0
 21
102.8
 31
0.0
  0
LINE
  5
206
330
1E
100
AcDbEntity
  8
0
100
AcDbLine
 10
278.0
 20
98.0
 30
0.0
 11
278.0
 21
93.9
 31
0.0
  0
LINE
  5
207
330
1E
100
AcDbEntity
  8
0
100
AcDbLine
 10
278.0
 20
93.9
 30
0.0
 11
278.0
 21
98.0
 31
0.0
  0
LINE
  5
208
330
1E
100
AcDbEntity
  8
0
100
AcDbLine
 10
278.0
 20
93.9
 30
0.0
 11
278.0
 21
90.7
 31
0.0
  0
LINE
  5
209
330
1E
100
AcDbEntity
  8
0
100
AcDbLine
 10
278.0
 20
90.7
 30
0.0
 11
278.0
 21
93.9
 31
0.0
  0
LINE
  5
20A
330
1E
100
AcDbEntity
  8
0
100
AcDbLine
 10
278.0
 20
90.7
 30
0.0
 11
278.0
 21
88.7
 31
0.0
  0
LINE
  5
20B
330
1E
100
AcDbEntity
  8
0
100
AcDbLine
 10
278.0
 20
88.7
 30
0.0
 11
278.0
 21
90.7
 31
0.0
  0
LINE
  5
20C
330
1E
100
AcDbEntity
  8
0
100
AcDbLine
 10
278.0
 20
88.7
 30
0.0
 11
278.0
 21
88.0
 31
0.0
  0
LINE
  5
20D
330
1E
100
AcDbEntity
  8
0
100
AcDbLine
 10
278.0
 20
88.0
 30
0.0
 11
278.0
 21
88.7
 31
0.0
  0
LINE
  5
20E
330
1E
100
AcDbEntity
  8
0
100
AcDbLine
 10
278.0
 20
88.0
 30
0.0
 11
279.4999999999999
 21
100.0
 31
0.0
  0
LINE
  5
20F
330
1E
100
AcDbEntity
  8
0
100
AcDbLine
 10
279.4999999999999
 20
100.2999999999999
 30
0.0
 11
279.4999999999999
 21
101.0999999999999
 31
0.0
  0
LINE
  5
210
330
1E
100
AcDbEntity
  8
0
100
AcDbLine
 10
279.4999999999999
 20
100.2999999999999
 30
0.0
 11
279.4999999999999
 21
100.0
 31
0.0
  0
LINE
  5
211
330
1E
100
AcDbEntity
  8
0
100
AcDbLine
 10
279.4999999999999
 20
100.0
 30
0.0
 11
279.4999999999999
 21
100.2999999999999
 31
0.0
  0
LINE
  5
212
330
1E
100
AcDbEntity
  8
0
100
AcDbLine
 10
279.4999999999999
 20
100.0
 30
0.0
 11
280.0
 21
100.0
 31
0.0
  0
LINE
  5
213
330
1E
100
AcDbEntity
  8
0
100
AcDbLine
 10
279.4999999999999
 20
102.4
 30
0.0
 11
279.4999999999999
 21
104.0
 31
0.0
  0
LINE
  5
214
330
1E
100
AcDbEntity
  8
0
100
AcDbLine
 10
279.4999999999999
 20
102.4
 30
0.0
 11
279.4999999999999
 21
101.0999999999999
 31
0.0
  0
LINE
  5
215
330
1E
100
AcDbEntity
  8
0
100
AcDbLine
 10
279.4999999999999
 20
101.0999999999999
 30
0.0
 11
279.4999999999999
 21
102.4
 31
0.0
  0
LINE
  5
216
330
1E
100
AcDbEntity
  8
0
100
AcDbLine
 10
279.4999999999999
 20
101.0999999999999
 30
0.0
 11
279.4999999999999
 21
100.2999999999999
 31
0.0
  0
LINE
  5
217
330
1E
100
AcDbEntity
  8
0
100
AcDbLine
 10
258.0
 20
103.0
 30
0.0
 11
259.8
 21
103.2
 31
0.0
  0
LINE
  5
218
330
1E
100
AcDbEntity
  8
0
100
AcDbLine
 10
256.1999999999999
 20
103.2
 30
0.0
 11
258.0
 21
103.0
 31
0.0
  0
LINE
  5
219
330
1E
100
AcDbEntity
  8
0
100
AcDbLine
 10
261.5
 20
103.7
 30
0.0
 11
262.9
 21
104.4999999999999
 31
0.0
  0
LINE
  5
21A
330
1E
100
AcDbEntity
  8
0
100
AcDbLine
 10
262.9
 20
104.4999999999999
 30
0.0
 11
264.1
 21
105.4999999999999
 31
0.0
  0
LINE
  5
21B
330
1E
100
AcDbEntity
  8
0
100
AcDbLine
 10
254.4999999999999
 20
103.7
 30
0.0
 11
256.1999999999999
 21
103.2
 31
0.0
  0
LINE
  5
21C
330
1E
100
AcDbEntity
  8
0
100
AcDbLine
 10
253.1
 20
104.4999999999999
 30
0.0
 11
254.4999999999999
 21
103.7
 31
0.0
  0
LINE
  5
21D
330
1E
100
AcDbEntity
  8
0
100
AcDbLine
 10
251.9
 20
105.4999999999999
 30
0.0
 11
253.1
 21
104.4999999999999
 31
0.0
  0
LINE
  5
21E
330
1E
100
AcDbEntity
  8
0
100
AcDbLine
 10
259.8
 20
103.2
 30
0.0
 11
261.5
 21
103.7
 31
0.0
  0
LINE
  5
21F
330
1E
100
AcDbEntity
  8
0
100
AcDbLine
 10
264.1
 20
105.4999999999999
 30
0.0
 11
264.6999999999999
 21
106.6999999999999
 31
0.0
  0
LINE
  5
220
330
1E
100
AcDbEntity
  8
0
100
AcDbLine
 10
277.0
 20
102.6
 30
0.0
 11
277.0
 21
108.0
 31
0.0
  0
LINE
  5
221
330
1E
100
AcDbEntity
  8
0
100
AcDbLine
 10
277.0
 20
102.6
 30
0.0
 11
277.0
 21
97.5
 31
0.0
  0
LINE
  5
222
330
1E
100
AcDbEntity
  8
0
100
AcDbLine
 10
278.0
 20
102.8
 30
0.0
 11
278.0
 21
108.0
 31
0.0
  0
LINE
  5
223
330
1E
100
AcDbEntity
  8
0
100
AcDbLine
 10
278.0
 20
102.8
 30
0.0
 11
278.0
 21
98.0
 31
0.0
  0
LINE
  5
224
330
1E
100
AcDbEntity
  8
0
100
AcDbLine
 10
279.4999999999999
 20
105.9
 30
0.0
 11
279.4999999999999
 21
108.0
 31
0.0
  0
LINE
  5
225
330
1E
100
AcDbEntity
  8
0
100
AcDbLine
 10
279.4999999999999
 20
105.9
 30
0.0
 11
279.4999999999999
 21
104.0
 31
0.0
  0
LINE
  5
226
330
1E
100
AcDbEntity
  8
0
100
AcDbLine
 10
279.4999999999999
 20
104.0
 30
0.0
 11
279.4999999999999
 21
105.9
 31
0.0
  0
LINE
  5
227
330
1E
100
AcDbEntity
  8
0
100
AcDbLine
 10
279.4999999999999
 20
104.0
 30
0.0
 11
279.4999999999999
 21
102.4
 31
0.0
  0
LINE
  5
228
330
1E
100
AcDbEntity
  8
0
100
AcDbLine
 10
251.3
 20
106.6999999999999
 30
0.0
 11
251.9
 21
105.4999999999999
 31
0.0
  0
LINE
  5
229
330
1E
100
AcDbEntity
  8
0
100
AcDbLine
 10
264.6999999999999
 20
106.6999999999999
 30
0.0
 11
265.0
 21
108.0
 31
0.0
  0
LINE
  5
22A
330
1E
100
AcDbEntity
  8
0
100
AcDbLine
 10
251.0
 20
108.0
 30
0.0
 11
251.3
 21
106.6999999999999
 31
0.0
  0
LINE
  5
22B
330
1E
100
AcDbEntity
  8
0
100
AcDbLine
 10
251.0
 20
108.0
 30
0.0
 11
251.3
 21
109.2999999999999
 31
0.0
  0
LINE
  5
22C
330
1E
100
AcDbEntity
  8
0
100
AcDbLine
 10
264.1
 20
110.4999999999999
 30
0.0
 11
264.6999999999999
 21
109.2999999999999
 31
0.0
  0
LINE
  5
22D
330
1E
100
AcDbEntity
  8
0
100
AcDbLine
 10
264.6999999999999
 20
109.2999999999999
 30
0.0
 11
265.0
 21
108.0
 31
0.0
  0
LINE
  5
22E
330
1E
100
AcDbEntity
  8
0
100
AcDbLine
 10
261.5
 20
112.2999999999999
 30
0.0
 11
262.9
 21
111.4999999999999
 31
0.0
  0
LINE
  5
22F
330
1E
100
AcDbEntity
  8
0
100
AcDbLine
 10
262.9
 20
111.4999999999999
 30
0.0
 11
264.1
 21
110.4999999999999
 31
0.0
  0
LINE
  5
230
330
1E
100
AcDbEntity
  8
0
100
AcDbLine
 10
258.0
 20
113.0
 30
0.0
 11
259.8
 21
112.7999999999999
 31
0.0
  0
LINE
  5
231
330
1E
100
AcDbEntity
  8
0
100
AcDbLine
 10
259.8
 20
112.7999999999999
 30
0.0
 11
261.5
 21
112.2999999999999
 31
0.0
  0
LINE
  5
232
330
1E
100
AcDbEntity
  8
0
100
AcDbLine
 10
256.1999999999999
 20
112.7999999999999
 30
0.0
 11
258.0
 21
113.0
 31
0.0
  0
LINE
  5
233
330
1E
100
AcDbEntity
  8
0
100
AcDbLine
 10
254.4999999999999
 20
112.2999999999999
 30
0.0
 11
256.1999999999999
 21
112.7999999999999
 31
0.0
  0
LINE
  5
234
330
1E
100
AcDbEntity
  8
0
100
AcDbLine
 10
253.1
 20
111.4999999999999
 30
0.0
 11
254.4999999999999
 21
112.2999999999999
 31
0.0
  0
LINE
  5
235
330
1E
100
AcDbEntity
  8
0
100
AcDbLine
 10
251.9
 20
110.4999999999999
 30
0.0
 11
253.1
 21
111.4999999999999
 31
0.0
  0
LINE
  5
236
330
1E
100
AcDbEntity
  8
0
100
AcDbLine
 10
251.3
 20
109.2999999999999
 30
0.0
 11
251.9
 21
110.4999999999999
 31
0.0
  0
LINE
  5
237
330
1E
100
AcDbEntity
  8
0
100
AcDbLine
 10
277.0
 20
113.4
 30
0.0
 11
277.0
 21
118.5
 31
0.0
  0
LINE
  5
238
330
1E
100
AcDbEntity
  8
0
100
AcDbLine
 10
277.0
 20
113.4
 30
0.0
 11
277.0
 21
108.0
 31
0.0
  0
LINE
  5
239
330
1E
100
AcDbEntity
  8
0
100
AcDbLine
 10
277.0
 20
118.5
 30
0.0
 11
277.0
 21
122.7999999999999
 31
0.0
  0
LINE
  5
23A
330
1E
100
AcDbEntity
  8
0
100
AcDbLine
 10
277.0
 20
118.5
 30
0.0
 11
277.0
 21
113.4
 31
0.0
  0
LINE
  5
23B
330
1E
100
AcDbEntity
  8
0
100
AcDbLine
 10
278.0
 20
113.2
 30
0.0
 11
278.0
 21
118.0
 31
0.0
  0
LINE
  5
23C
330
1E
100
AcDbEntity
  8
0
100
AcDbLine
 10
278.0
 20
113.2
 30
0.0
 11
278.0
 21
108.0
 31
0.0
  0
LINE
  5
23D
330
1E
100
AcDbEntity
  8
0
100
AcDbLine
 10
278.0
 20
118.0
 30
0.0
 11
278.0
 21
122.0999999999999
 31
0.0
  0
LINE
  5
23E
330
1E
100
AcDbEntity
  8
0
100
AcDbLine
 10
278.0
 20
118.0
 30
0.0
 11
278.0
 21
113.2
 31
0.0
  0
LINE
  5
23F
330
1E
100
AcDbEntity
  8
0
100
AcDbLine
 10
277.0
 20
122.7999999999999
 30
0.0
 11
277.0
 21
126.2
 31
0.0
  0
LINE
  5
240
330
1E
100
AcDbEntity
  8
0
100
AcDbLine
 10
277.0
 20
122.7999999999999
 30
0.0
 11
277.0
 21
118.5
 31
0.0
  0
LINE
  5
241
330
1E
100
AcDbEntity
  8
0
100
AcDbLine
 10
277.0
 20
126.2
 30
0.0
 11
277.0
 21
128.1999999999999
 31
0.0
  0
LINE
  5
242
330
1E
100
AcDbEntity
  8
0
100
AcDbLine
 10
277.0
 20
126.2
 30
0.0
 11
277.0
 21
122.7999999999999
 31
0.0
  0
LINE
  5
243
330
1E
100
AcDbEntity
  8
0
100
AcDbLine
 10
278.0
 20
122.0999999999999
 30
0.0
 11
278.0
 21
125.2999999999999
 31
0.0
  0
LINE
  5
244
330
1E
100
AcDbEntity
  8
0
100
AcDbLine
 10
278.0
 20
122.0999999999999
 30
0.0
 11
278.0
 21
118.0
 31
0.0
  0
LINE
  5
245
330
1E
100
AcDbEntity
  8
0
100
AcDbLine
 10
278.0
 20
125.2999999999999
 30
0.0
 11
278.0
 21
127.2999999999999
 31
0.0
  0
LINE
  5
246
330
1E
100
AcDbEntity
  8
0
100
AcDbLine
 10
278.0
 20
125.2999999999999
 30
0.0
 11
278.0
 21
122.0999999999999
 31
0.0
  0
LINE
  5
247
330
1E
100
AcDbEntity
  8
0
100
AcDbLine
 10
277.0
 20
128.1999999999999
 30
0.0
 11
277.0
 21
129.0
 31
0.0
  0
LINE
  5
248
330
1E
100
AcDbEntity
  8
0
100
AcDbLine
 10
277.0
 20
128.1999999999999
 30
0.0
 11
277.0
 21
126.2
 31
0.0
  0
LINE
  5
249
330
1E
100
AcDbEntity
  8
0
100
AcDbLine
 10
277.0
 20
129.0
 30
0.0
 11
278.0
 21
128.0
 31
0.0
  0
LINE
  5
24A
330
1E
100
AcDbEntity
  8
0
100
AcDbLine
 10
277.0
 20
129.0
 30
0.0
 11
277.0
 21
128.1999999999999
 31
0.0
  0
LINE
  5
24B
330
1E
100
AcDbEntity
  8
0
100
AcDbLine
 10
278.0
 20
127.2999999999999
 30
0.0
 11
278.0
 21
128.0
 31
0.0
  0
LINE
  5
24C
330
1E
100
AcDbEntity
  8
0
100
AcDbLine
 10
278.0
 20
127.2999999999999
 30
0.0
 11
278.0
 21
125.2999999999999
 31
0.0
  0
LINE
  5
24D
330
1E
100
AcDbEntity
  8
0
100
AcDbLine
 10
278.0
 20
128.0
 30
0.0
 11
279.4999999999999
 21
116.0
 31
0.0
  0
LINE
  5
24E
330
1E
100
AcDbEntity
  8
0
100
AcDbLine
 10
278.0
 20
128.0
 30
0.0
 11
278.0
 21
127.2999999999999
 31
0.0
  0
LINE
  5
24F
330
1E
100
AcDbEntity
  8
0
100
AcDbLine
 10
277.0
 20
108.0
 30
0.0
 11
277.0
 21
102.6
 31
0.0
  0
LINE
  5
250
330
1E
100
AcDbEntity
  8
0
100
AcDbLine
 10
277.0
 20
108.0
 30
0.0
 11
277.0
 21
113.4
 31
0.0
  0
LINE
  5
251
330
1E
100
AcDbEntity
  8
0
100
AcDbLine
 10
279.4999999999999
 20
110.0999999999999
 30
0.0
 11
279.4999999999999
 21
112.0
 31
0.0
  0
LINE
  5
252
330
1E
100
AcDbEntity
  8
0
100
AcDbLine
 10
279.4999999999999
 20
110.0999999999999
 30
0.0
 11
279.4999999999999
 21
108.0
 31
0.0
  0
LINE
  5
253
330
1E
100
AcDbEntity
  8
0
100
AcDbLine
 10
279.4999999999999
 20
112.0
 30
0.0
 11
279.4999999999999
 21
113.5999999999999
 31
0.0
  0
LINE
  5
254
330
1E
100
AcDbEntity
  8
0
100
AcDbLine
 10
279.4999999999999
 20
112.0
 30
0.0
 11
279.4999999999999
 21
110.0999999999999
 31
0.0
  0
LINE
  5
255
330
1E
100
AcDbEntity
  8
0
100
AcDbLine
 10
279.4999999999999
 20
113.5999999999999
 30
0.0
 11
279.4999999999999
 21
114.9
 31
0.0
  0
LINE
  5
256
330
1E
100
AcDbEntity
  8
0
100
AcDbLine
 10
279.4999999999999
 20
113.5999999999999
 30
0.0
 11
279.4999999999999
 21
112.0
 31
0.0
  0
LINE
  5
257
330
1E
100
AcDbEntity
  8
0
100
AcDbLine
 10
280.0
 20
110.0999999999999
 30
0.0
 11
280.0
 21
112.0
 31
0.0
  0
LINE
  5
258
330
1E
100
AcDbEntity
  8
0
100
AcDbLine
 10
280.0
 20
110.0999999999999
 30
0.0
 11
280.0
 21
108.0
 31
0.0
  0
LINE
  5
259
330
1E
100
AcDbEntity
  8
0
100
AcDbLine
 10
280.0
 20
112.0
 30
0.0
 11
280.0
 21
113.5999999999999
 31
0.0
  0
LINE
  5
25A
330
1E
100
AcDbEntity
  8
0
100
AcDbLine
 10
280.0
 20
112.0
 30
0.0
 11
280.0
 21
110.0999999999999
 31
0.0
  0
LINE
  5
25B
330
1E
100
AcDbEntity
  8
0
100
AcDbLine
 10
279.4999999999999
 20
114.9
 30
0.0
 11
279.4999999999999
 21
115.7
 31
0.0
  0
LINE
  5
25C
330
1E
100
AcDbEntity
  8
0
100
AcDbLine
 10
279.4999999999999
 20
114.9
 30
0.0
 11
279.4999999999999
 21
113.5999999999999
 31
0.0
  0
LINE
  5
25D
330
1E
100
AcDbEntity
  8
0
100
AcDbLine
 10
279.4999999999999
 20
115.7
 30
0.0
 11
279.4999999999999
 21
116.0
 31
0.0
  0
LINE
  5
25E
330
1E
100
AcDbEntity
  8
0
100
AcDbLine
 10
279.4999999999999
 20
115.7
 30
0.0
 11
279.4999999999999
 21
114.9
 31
0.0
  0
LINE
  5
25F
330
1E
100
AcDbEntity
  8
0
100
AcDbLine
 10
280.0
 20
113.5999999999999
 30
0.0
 11
280.0
 21
114.9
 31
0.0
  0
LINE
  5
260
330
1E
100
AcDbEntity
  8
0
100
AcDbLine
 10
280.0
 20
113.5999999999999
 30
0.0
 11
280.0
 21
112.0
 31
0.0
  0
LINE
  5
261
330
1E
100
AcDbEntity
  8
0
100
AcDbLine
 10
280.0
 20
114.9
 30
0.0
 11
280.0
 21
115.7
 31
0.0
  0
LINE
  5
262
330
1E
100
AcDbEntity
  8
0
100
AcDbLine
 10
280.0
 20
114.9
 30
0.0
 11
280.0
 21
113.5999999999999
 31
0.0
  0
LINE
  5
263
330
1E
100
AcDbEntity
  8
0
100
AcDbLine
 10
279.4999999999999
 20
116.0
 30
0.0
 11
280.0
 21
116.0
 31
0.0
  0
LINE
  5
264
330
1E
100
AcDbEntity
  8
0
100
AcDbLine
 10
279.4999999999999
 20
116.0
 30
0.0
 11
279.4999999999999
 21
115.7
 31
0.0
  0
LINE
  5
265
330
1E
100
AcDbEntity
  8
0
100
AcDbLine
 10
280.0
 20
116.0
 30
0.0
 11
280.0
 21
115.7
 31
0.0
  0
LINE
  5
266
330
1E
100
AcDbEntity
  8
0
100
AcDbLine
 10
280.0
 20
115.7
 30
0.0
 11
280.0
 21
116.0
 31
0.0
  0
LINE
  5
267
330
1E
100
AcDbEntity
  8
0
100
AcDbLine
 10
280.0
 20
115.7
 30
0.0
 11
280.0
 21
114.9
 31
0.0
  0
LINE
  5
268
330
1E
100
AcDbEntity
  8
0
100
AcDbLine
 10
278.0
 20
108.0
 30
0.0
 11
278.0
 21
102.8
 31
0.0
  0
LINE
  5
269
330
1E
100
AcDbEntity
  8
0
100
AcDbLine
 10
278.0
 20
108.0
 30
0.0
 11
278.0
 21
113.2
 31
0.0
  0
LINE
  5
26A
330
1E
100
AcDbEntity
  8
0
100
AcDbLine
 10
279.4999999999999
 20
108.0
 30
0.0
 11
279.4999999999999
 21
105.9
 31
0.0
  0
LINE
  5
26B
330
1E
100
AcDbEntity
  8
0
100
AcDbLine
 10
279.4999999999999
 20
108.0
 30
0.0
 11
279.4999999999999
 21
110.0999999999999
 31
0.0
  0
LINE
  5
26C
330
1E
100
AcDbEntity
  8
0
100
AcDbLine
 10
280.0
 20
108.0
 30
0.0
 11
280.0
 21
105.9
 31
0.0
  0
LINE
  5
26D
330
1E
100
AcDbEntity
  8
0
100
AcDbLine
 10
280.0
 20
108.0
 30
0.0
 11
280.0
 21
110.0999999999999
 31
0.0
  0
LINE
  5
26E
330
1E
100
AcDbEntity
  8
0
100
AcDbLine
 10
280.0
 20
105.9
 30
0.0
 11
280.0
 21
108.0
 31
0.0
  0
LINE
  5
26F
330
1E
100
AcDbEntity
  8
0
100
AcDbLine
 10
280.0
 20
105.9
 30
0.0
 11
280.0
 21
104.0
 31
0.0
  0
LINE
  5
270
330
1E
100
AcDbEntity
  8
0
100
AcDbLine
 10
280.0
 20
104.0
 30
0.0
 11
280.0
 21
105.9
 31
0.0
  0
LINE
  5
271
330
1E
100
AcDbEntity
  8
0
100
AcDbLine
 10
280.0
 20
104.0
 30
0.0
 11
280.0
 21
102.4
 31
0.0
  0
LINE
  5
272
330
1E
100
AcDbEntity
  8
0
100
AcDbLine
 10
280.0
 20
102.4
 30
0.0
 11
280.0
 21
104.0
 31
0.0
  0
LINE
  5
273
330
1E
100
AcDbEntity
  8
0
100
AcDbLine
 10
280.0
 20
102.4
 30
0.0
 11
280.0
 21
101.0999999999999
 31
0.0
  0
LINE
  5
274
330
1E
100
AcDbEntity
  8
0
100
AcDbLine
 10
280.0
 20
101.0999999999999
 30
0.0
 11
280.0
 21
102.4
 31
0.0
  0
LINE
  5
275
330
1E
100
AcDbEntity
  8
0
100
AcDbLine
 10
280.0
 20
101.0999999999999
 30
0.0
 11
280.0
 21
100.2999999999999
 31
0.0
  0
LINE
  5
276
330
1E
100
AcDbEntity
  8
0
100
AcDbLine
 10
280.0
 20
100.2999999999999
 30
0.0
 11
280.0
 21
101.0999999999999
 31
0.0
  0
LINE
  5
277
330
1E
100
AcDbEntity
  8
0
100
AcDbLine
 10
280.0
 20
100.2999999999999
 30
0.0
 11
280.0
 21
100.0
 31
0.0
  0
LINE
  5
278
330
1E
100
AcDbEntity
  8
0
100
AcDbLine
 10
280.0
 20
100.0
 30
0.0
 11
280.0
 21
100.2999999999999
 31
0.0
  0
LINE
  5
279
330
1E
100
AcDbEntity
  8
0
100
AcDbLine
 10
239.0
 20
132.0
 30
0.0
 11
241.2816901408449
 21
129.0
 31
0.0
  0
LINE
  5
27A
330
1E
100
AcDbEntity
  8
0
100
AcDbLine
 10
237.5999999999999
 20
130.6
 30
0.0
 11
238.817910447761
 21
129.0
 31
0.0
  0
LINE
  5
27B
330
1E
100
AcDbEntity
  8
0
100
AcDbLine
 10
129.9
 20
60.0
 30
0.0
 11
130.9
 21
60.0
 31
0.0
  0
LINE
  5
27C
330
1E
100
AcDbEntity
  8
0
100
AcDbLine
 10
129.4999999999999
 20
60.0
 30
0.0
 11
129.9
 21
60.0
 31
0.0
  0
LINE
  5
27D
330
1E
100
AcDbEntity
  8
0
100
AcDbLine
 10
129.4999999999999
 20
60.0
 30
0.0
 11
129.9
 21
60.0
 31
0.0
  0
LINE
  5
282
330
1E
100
AcDbEntity
  8
0
100
AcDbLine
 10
121.5999999999999
 20
106.6999999999999
 30
0.0
 11
119.7857391410417
 21
114.5204899066958
 31
0.0
  0
LINE
  5
283
330
1E
100
AcDbEntity
  8
0
100
AcDbLine
 10
119.7857391410417
 20
114.5204899066958
 30
0.0
 11
116.7816612465687
 21
120.9937349129674
 31
0.0
  0
LINE
  5
284
330
1E
100
AcDbEntity
  8
0
100
AcDbLine
 10
116.7816612465687
 20
120.9937349129674
 30
0.0
 11
114.15309334853
 21
126.2473828891488
 31
0.0
  0
LINE
  5
285
330
1E
100
AcDbEntity
  8
0
100
AcDbLine
 10
158.4
 20
106.6999999999999
 30
0.0
 11
159.3081345914808
 21
115.083380689896
 31
0.0
  0
LINE
  5
286
330
1E
100
AcDbEntity
  8
0
100
AcDbLine
 10
159.3081345914808
 20
115.083380689896
 30
0.0
 11
160.9979278446008
 21
122.0257016819907
 31
0.0
  0
LINE
  5
287
330
1E
100
AcDbEntity
  8
0
100
AcDbLine
 10
160.9979278446008
 20
122.0257016819907
 30
0.0
 11
162.6877217900545
 21
126.9040891360386
 31
0.0
  0
ENDSEC
  0
SECTION
  2
OBJECTS
  0
DICTIONARY
  5
C
330
0
100
AcDbDictionary
  3
ACAD_GROUP
350
D
  3
ACAD_LAYOUT
350
19
  3
ACAD_MLINESTYLE
350
16
  3
ACAD_PLOTSETTINGS
350
18
  3
ACAD_PLOTSTYLENAME
350
E
  3
ACDBHEADERROUNDTRIPXREC
350
28B
  3
ACDBVARIABLEDICTIONARY
350
288
  0
DICTIONARY
  5
2AD
330
1E
100
AcDbDictionary
280
     1
  3
ACAD_LAYOUTSELFREF
360
2AE
  0
DICTIONARY
  5
2AB
330
1A
100
AcDbDictionary
280
     1
  3
ACAD_LAYOUTSELFREF
360
2AC
  0
DICTIONARY
  5
D
102
{ACAD_REACTORS
330
C
102
}
330
C
100
AcDbDictionary
  0
DICTIONARY
  5
19
102
{ACAD_REACTORS
330
C
102
}
330
C
100
AcDbDictionary
  0
DICTIONARY
  5
16
102
{ACAD_REACTORS
330
C
102
}
330
C
100
AcDbDictionary
  3
STANDARD
350
17
  0
DICTIONARY
  5
18
102
{ACAD_REACTORS
330
C
102
}
330
C
100
AcDbDictionary
  0
ACDBDICTIONARYWDFLT
  5
E
102
{ACAD_REACTORS
330
C
102
}
330
C
100
AcDbDictionary
281
     1
  3
Normal
350
F
100
AcDbDictionaryWithDefault
340
F
  0
DICTIONARY
  5
28B
102
{ACAD_REACTORS
330
C
102
}
330
C
100
AcDbDictionary
  3
CEPSNTYPE
350
295
  3
FINGERPRINTGUID
350
296
  3
HYPERLINKBASE
350
28E
  3
INSUNITS
350
294
  3
LAYOUTDICT
350
290
  3
LWETCUNION
350
293
  3
PLOTSETDICT
350
291
  3
PLOTSTYLNAMDICT
350
292
  3
PSVPSCALE
350
298
  3
PUCSBASE
350
29B
  3
PUCSORGBACK
350
2A1
  3
PUCSORGBOTTOM
350
29D
  3
PUCSORGFRONT
350
2A0
  3
PUCSORGLEFT
350
29E
  3
PUCSORGRIGHT
350
29F
  3
PUCSORGTOP
350
29C
  3
PUCSORTHOREF
350
299
  3
PUCSORTHOVIEW
350
29A
  3
STYLESHEET
350
28F
  3
TSTACKALIGN
350
28C
  3
TSTACKSIZE
350
28D
  3
UCSBASE
350
2A4
  3
UCSORGBACK
350
2AA
  3
UCSORGBOTTOM
350
2A6
  3
UCSORGFRONT
350
2A9
  3
UCSORGLEFT
350
2A7
  3
UCSORGRIGHT
350
2A8
  3
UCSORGTOP
350
2A5
  3
UCSORTHOREF
350
2A2
  3
UCSORTHOVIEW
350
2A3
  3
VERSIONGUID
350
297
  0
DICTIONARY
  5
288
102
{ACAD_REACTORS
330
C
102
}
330
C
100
AcDbDictionary
  3
DIMASSOC
350
289
  0
XRECORD
  5
2AE
102
{ACAD_REACTORS
330
2AD
102
}
330
2AD
100
AcDbXrecord
340
1E
  0
XRECORD
  5
2AC
102
{ACAD_REACTORS
330
2AB
102
}
330
2AB
100
AcDbXrecord
340
1A
  0
MLINESTYLE
  5
17
102
{ACAD_REACTORS
330
16
102
}
330
16
100
AcDbMlineStyle
  2
STANDARD
 70
     0
  3

 62
   256
 51
90.0
 52
90.0
 71
     2
 49
0.5
 62
   256
  6
BYLAYER
 49
-0.5
 62
   256
  6
BYLAYER
  0
ACDBPLACEHOLDER
  5
F
102
{ACAD_REACTORS
330
E
102
}
330
E
100
AcDbPlaceHolder
280
     0
  0
XRECORD
  5
295
102
{ACAD_REACTORS
330
28B
102
}
330
28B
100
AcDbXrecord
 90
        0
  0
XRECORD
  5
296
102
{ACAD_REACTORS
330
28B
102
}
330
28B
100
AcDbXrecord
  1
{7E2554F7-7BF5-42E9-A750-0C8B6757ED3F}
  0
XRECORD
  5
28E
102
{ACAD_REACTORS
330
28B
102
}
330
28B
100
AcDbXrecord
  1

  0
XRECORD
  5
294
102
{ACAD_REACTORS
330
28B
102
}
330
28B
100
AcDbXrecord
 90
        0
  0
XRECORD
  5
290
102
{ACAD_REACTORS
330
28B
102
}
330
28B
100
AcDbXrecord
340
19
  0
XRECORD
  5
293
102
{ACAD_REACTORS
330
28B
102
}
330
28B
100
AcDbXrecord
 90
    10781
  0
XRECORD
  5
291
102
{ACAD_REACTORS
330
28B
102
}
330
28B
100
AcDbXrecord
340
18
  0
XRECORD
  5
292
102
{ACAD_REACTORS
330
28B
102
}
330
28B
100
AcDbXrecord
340
E
  0
XRECORD
  5
298
102
{ACAD_REACTORS
330
28B
102
}
330
28B
100
AcDbXrecord
 40
0.0
  0
XRECORD
  5
29B
102
{ACAD_REACTORS
330
28B
102
}
330
28B
100
AcDbXrecord
340
0
  0
XRECORD
  5
2A1
102
{ACAD_REACTORS
330
28B
102
}
330
28B
100
AcDbXrecord
 10
0.0
 20
0.0
 30
0.0
  0
XRECORD
  5
29D
102
{ACAD_REACTORS
330
28B
102
}
330
28B
100
AcDbXrecord
 10
0.0
 20
0.0
 30
0.0
  0
XRECORD
  5
2A0
102
{ACAD_REACTORS
330
28B
102
}
330
28B
100
AcDbXrecord
 10
0.0
 20
0.0
 30
0.0
  0
XRECORD
  5
29E
102
{ACAD_REACTORS
330
28B
102
}
330
28B
100
AcDbXrecord
 10
0.0
 20
0.0
 30
0.0
  0
XRECORD
  5
29F
102
{ACAD_REACTORS
330
28B
102
}
330
28B
100
AcDbXrecord
 10
0.0
 20
0.0
 30
0.0
  0
XRECORD
  5
29C
102
{ACAD_REACTORS
330
28B
102
}
330
28B
100
AcDbXrecord
 10
0.0
 20
0.0
 30
0.0
  0
XRECORD
  5
299
102
{ACAD_REACTORS
330
28B
102
}
330
28B
100
AcDbXrecord
340
0
  0
XRECORD
  5
29A
102
{ACAD_REACTORS
330
28B
102
}
330
28B
100
AcDbXrecord
 70
     0
  0
XRECORD
  5
28F
102
{ACAD_REACTORS
330
28B
102
}
330
28B
100
AcDbXrecord
  1

  0
XRECORD
  5
28C
102
{ACAD_REACTORS
330
28B
102
}
330
28B
100
AcDbXrecord
 90
        1
  0
XRECORD
  5
28D
102
{ACAD_REACTORS
330
28B
102
}
330
28B
100
AcDbXrecord
 90
       70
  0
XRECORD
  5
2A4
102
{ACAD_REACTORS
330
28B
102
}
330
28B
100
AcDbXrecord
340
0
  0
XRECORD
  5
2AA
102
{ACAD_REACTORS
330
28B
102
}
330
28B
100
AcDbXrecord
 10
0.0
 20
0.0
 30
0.0
  0
XRECORD
  5
2A6
102
{ACAD_REACTORS
330
28B
102
}
330
28B
100
AcDbXrecord
 10
0.0
 20
0.0
 30
0.0
  0
XRECORD
  5
2A9
102
{ACAD_REACTORS
330
28B
102
}
330
28B
100
AcDbXrecord
 10
0.0
 20
0.0
 30
0.0
  0
XRECORD
  5
2A7
102
{ACAD_REACTORS
330
28B
102
}
330
28B
100
AcDbXrecord
 10
0.0
 20
0.0
 30
0.0
  0
XRECORD
  5
2A8
102
{ACAD_REACTORS
330
28B
102
}
330
28B
100
AcDbXrecord
 10
0.0
 20
0.0
 30
0.0
  0
XRECORD
  5
2A5
102
{ACAD_REACTORS
330
28B
102
}
330
28B
100
AcDbXrecord
 10
0.0
 20
0.0
 30
0.0
  0
XRECORD
  5
2A2
102
{ACAD_REACTORS
330
28B
102
}
330
28B
100
AcDbXrecord
340
0
  0
XRECORD
  5
2A3
102
{ACAD_REACTORS
330
28B
102
}
330
28B
100
AcDbXrecord
 70
     1
  0
XRECORD
  5
297
102
{ACAD_REACTORS
330
28B
102
}
330
28B
100
AcDbXrecord
  1
{FAD81312-1473-43A3-8B49-3001C1AC40DE}
  0
DICTIONARYVAR
  5
289
102
{ACAD_REACTORS
330
288
102
}
330
288
100
DictionaryVariables
280
     0
  1
1
  0
ENDSEC
  0
EOF
