  0
SECTION
  2
HEADER
  9
$ACADVER
  1
AC1014
  9
$ACADMAINTVER
 70
     9
  9
$DWGCODEPAGE
  3
ANSI_1252
  9
$INSBASE
 10
0.0
 20
0.0
 30
0.0
  9
$EXTMIN
 10
0.0000000000000013
 20
-0.0000000000000023
 30
0.0
  9
$EXTMAX
 10
48.0
 20
168.0
 30
0.0
  9
$LIMMIN
 10
0.0
 20
0.0
  9
$LIMMAX
 10
12.0
 20
9.0
  9
$ORTHOMODE
 70
     0
  9
$REGENMODE
 70
     1
  9
$FILLMODE
 70
     1
  9
$QTEXTMODE
 70
     0
  9
$MIRRTEXT
 70
     1
  9
$DRAGMODE
 70
     2
  9
$LTSCALE
 40
1.0
  9
$OSMODE
 70
    37
  9
$ATTMODE
 70
     1
  9
$TEXTSIZE
 40
0.2
  9
$TRACEWID
 40
0.05
  9
$TEXTSTYLE
  7
STANDARD
  9
$CLAYER
  8
0
  9
$CELTYPE
  6
CONTINUOUS
  9
$CECOLOR
 62
   256
  9
$CELTSCALE
 40
1.0
  9
$DELOBJ
 70
     1
  9
$DISPSILH
 70
     0
  9
$DIMSCALE
 40
1.0
  9
$DIMASZ
 40
0.18
  9
$DIMEXO
 40
0.0625
  9
$DIMDLI
 40
0.38
  9
$DIMRND
 40
0.0
  9
$DIMDLE
 40
0.0
  9
$DIMEXE
 40
0.18
  9
$DIMTP
 40
0.0
  9
$DIMTM
 40
0.0
  9
$DIMTXT
 40
0.18
  9
$DIMCEN
 40
0.09
  9
$DIMTSZ
 40
0.0
  9
$DIMTOL
 70
     0
  9
$DIMLIM
 70
     0
  9
$DIMTIH
 70
     1
  9
$DIMTOH
 70
     1
  9
$DIMSE1
 70
     0
  9
$DIMSE2
 70
     0
  9
$DIMTAD
 70
     0
  9
$DIMZIN
 70
     0
  9
$DIMBLK
  1

  9
$DIMASO
 70
     1
  9
$DIMSHO
 70
     1
  9
$DIMPOST
  1

  9
$DIMAPOST
  1

  9
$DIMALT
 70
     0
  9
$DIMALTD
 70
     2
  9
$DIMALTF
 40
25.4
  9
$DIMLFAC
 40
1.0
  9
$DIMTOFL
 70
     0
  9
$DIMTVP
 40
0.0
  9
$DIMTIX
 70
     0
  9
$DIMSOXD
 70
     0
  9
$DIMSAH
 70
     0
  9
$DIMBLK1
  1

  9
$DIMBLK2
  1

  9
$DIMSTYLE
  2
STANDARD
  9
$DIMCLRD
 70
     0
  9
$DIMCLRE
 70
     0
  9
$DIMCLRT
 70
     0
  9
$DIMTFAC
 40
1.0
  9
$DIMGAP
 40
0.09
  9
$DIMJUST
 70
     0
  9
$DIMSD1
 70
     0
  9
$DIMSD2
 70
     0
  9
$DIMTOLJ
 70
     1
  9
$DIMTZIN
 70
     0
  9
$DIMALTZ
 70
     0
  9
$DIMALTTZ
 70
     0
  9
$DIMFIT
 70
     3
  9
$DIMUPT
 70
     0
  9
$DIMUNIT
 70
     2
  9
$DIMDEC
 70
     4
  9
$DIMTDEC
 70
     4
  9
$DIMALTU
 70
     2
  9
$DIMALTTD
 70
     2
  9
$DIMTXSTY
  7
STANDARD
  9
$DIMAUNIT
 70
     0
  9
$LUNITS
 70
     2
  9
$LUPREC
 70
     4
  9
$SKETCHINC
 40
0.1
  9
$FILLETRAD
 40
0.0
  9
$AUNITS
 70
     0
  9
$AUPREC
 70
     0
  9
$MENU
  1
.
  9
$ELEVATION
 40
0.0
  9
$PELEVATION
 40
0.0
  9
$THICKNESS
 40
0.0
  9
$LIMCHECK
 70
     0
  9
$BLIPMODE
 70
     0
  9
$CHAMFERA
 40
0.0
  9
$CHAMFERB
 40
0.0
  9
$CHAMFERC
 40
0.0
  9
$CHAMFERD
 40
0.0
  9
$SKPOLY
 70
     0
  9
$TDCREATE
 40
2454700.525086805
  9
$TDUPDATE
 40
2454700.527358391
  9
$TDINDWG
 40
0.0022717708
  9
$TDUSRTIMER
 40
0.0022717708
  9
$USRTIMER
 70
     1
  9
$ANGBASE
 50
0.0
  9
$ANGDIR
 70
     0
  9
$PDMODE
 70
     0
  9
$PDSIZE
 40
0.0
  9
$PLINEWID
 40
0.0
  9
$COORDS
 70
     1
  9
$SPLFRAME
 70
     0
  9
$SPLINETYPE
 70
     6
  9
$SPLINESEGS
 70
     8
  9
$ATTDIA
 70
     0
  9
$ATTREQ
 70
     1
  9
$HANDLING
 70
 22529
  9
$HANDSEED
  5
13E
  9
$SURFTAB1
 70
     6
  9
$SURFTAB2
 70
     6
  9
$SURFTYPE
 70
     6
  9
$SURFU
 70
     6
  9
$SURFV
 70
     6
  9
$UCSNAME
  2

  9
$UCSORG
 10
0.0
 20
0.0
 30
0.0
  9
$UCSXDIR
 10
1.0
 20
0.0
 30
0.0
  9
$UCSYDIR
 10
0.0
 20
1.0
 30
0.0
  9
$PUCSNAME
  2

  9
$PUCSORG
 10
0.0
 20
0.0
 30
0.0
  9
$PUCSXDIR
 10
1.0
 20
0.0
 30
0.0
  9
$PUCSYDIR
 10
0.0
 20
1.0
 30
0.0
  9
$USERI1
 70
     0
  9
$USERI2
 70
     0
  9
$USERI3
 70
     0
  9
$USERI4
 70
     0
  9
$USERI5
 70
     0
  9
$USERR1
 40
0.0
  9
$USERR2
 40
0.0
  9
$USERR3
 40
0.0
  9
$USERR4
 40
0.0
  9
$USERR5
 40
0.0
  9
$WORLDVIEW
 70
     1
  9
$SHADEDGE
 70
     3
  9
$SHADEDIF
 70
    70
  9
$TILEMODE
 70
     1
  9
$MAXACTVP
 70
    64
  9
$PINSBASE
 10
0.0
 20
0.0
 30
0.0
  9
$PLIMCHECK
 70
     0
  9
$PEXTMIN
 10
1.000000000000000E+20
 20
1.000000000000000E+20
 30
1.000000000000000E+20
  9
$PEXTMAX
 10
-1.000000000000000E+20
 20
-1.000000000000000E+20
 30
-1.000000000000000E+20
  9
$PLIMMIN
 10
0.0
 20
0.0
  9
$PLIMMAX
 10
12.0
 20
9.0
  9
$UNITMODE
 70
     0
  9
$VISRETAIN
 70
     1
  9
$PLINEGEN
 70
     0
  9
$PSLTSCALE
 70
     1
  9
$TREEDEPTH
 70
  3020
  9
$PICKSTYLE
 70
     1
  9
$CMLSTYLE
  2
STANDARD
  9
$CMLJUST
 70
     0
  9
$CMLSCALE
 40
1.0
  9
$PROXYGRAPHICS
 70
     1
  9
$MEASUREMENT
 70
     0
  0
ENDSEC
  0
SECTION
  2
CLASSES
  0
CLASS
  1
ACDBDICTIONARYWDFLT
  2
AcDbDictionaryWithDefault
  3
AutoCAD 2000
 90
        0
280
     0
281
     0
  0
CLASS
  1
ACDBPLACEHOLDER
  2
AcDbPlaceHolder
  3
AutoCAD 2000
 90
        0
280
     0
281
     0
  0
CLASS
  1
LAYOUT
  2
AcDbLayout
  3
AutoCAD 2000
 90
        0
280
     0
281
     0
  0
CLASS
  1
DICTIONARYVAR
  2
AcDbDictionaryVar
  3
AutoCAD 2000
 90
        0
280
     0
281
     0
  0
CLASS
  1
LONG_TRANSACTION
  2
AcDbLongTransaction
  3
AutoCAD 2000
 90
        0
280
     0
281
     0
  0
CLASS
  1
LWPOLYLINE
  2
AcDbPolyline
  3
AutoCAD 2000
 90
        0
280
     0
281
     1
  0
CLASS
  1
HATCH
  2
AcDbHatch
  3
AutoCAD 2000
 90
        0
280
     0
281
     1
  0
CLASS
  1
XRECORD
  2
AcDbXrecord
  3
AutoCAD 2000
 90
        0
280
     0
281
     0
  0
ENDSEC
  0
SECTION
  2
TABLES
  0
TABLE
  2
VPORT
  5
8
330
0
100
AcDbSymbolTable
 70
     2
  0
VPORT
  5
119
330
8
100
AcDbSymbolTableRecord
100
AcDbViewportTableRecord
  2
*ACTIVE
 70
     0
 10
0.0
 20
0.0
 11
1.0
 21
1.0
 12
24.0
 22
84.0
 13
0.0
 23
0.0
 14
1.0
 24
1.0
 15
0.0
 25
0.0
 16
0.0
 26
0.0
 36
1.0
 17
0.0
 27
0.0
 37
0.0
 40
169.2890025575447
 41
2.078104993597951
 42
50.0
 43
0.0
 44
0.0
 50
0.0
 51
0.0
 71
     0
 72
   100
 73
     1
 74
     3
 75
     0
 76
     0
 77
     0
 78
     0
  0
ENDTAB
  0
TABLE
  2
LTYPE
  5
5
330
0
100
AcDbSymbolTable
 70
     1
  0
LTYPE
  5
13
330
5
100
AcDbSymbolTableRecord
100
AcDbLinetypeTableRecord
  2
BYBLOCK
 70
     0
  3

 72
    65
 73
     0
 40
0.0
  0
LTYPE
  5
14
330
5
100
AcDbSymbolTableRecord
100
AcDbLinetypeTableRecord
  2
BYLAYER
 70
     0
  3

 72
    65
 73
     0
 40
0.0
  0
LTYPE
  5
15
330
5
100
AcDbSymbolTableRecord
100
AcDbLinetypeTableRecord
  2
CONTINUOUS
 70
     0
  3
Solid line
 72
    65
 73
     0
 40
0.0
  0
ENDTAB
  0
TABLE
  2
LAYER
  5
2
330
0
100
AcDbSymbolTable
 70
     1
  0
LAYER
  5
10
330
2
100
AcDbSymbolTableRecord
100
AcDbLayerTableRecord
  2
0
 70
     0
 62
     7
  6
CONTINUOUS
  0
ENDTAB
  0
TABLE
  2
STYLE
  5
3
330
0
100
AcDbSymbolTable
 70
     1
  0
STYLE
  5
11
330
3
100
AcDbSymbolTableRecord
100
AcDbTextStyleTableRecord
  2
STANDARD
 70
     0
 40
0.0
 41
1.0
 50
0.0
 71
     0
 42
0.2
  3
txt
  4

  0
ENDTAB
  0
TABLE
  2
VIEW
  5
6
330
0
100
AcDbSymbolTable
 70
     0
  0
ENDTAB
  0
TABLE
  2
UCS
  5
7
330
0
100
AcDbSymbolTable
 70
     0
  0
ENDTAB
  0
TABLE
  2
APPID
  5
9
330
0
100
AcDbSymbolTable
 70
     1
  0
APPID
  5
12
330
9
100
AcDbSymbolTableRecord
100
AcDbRegAppTableRecord
  2
ACAD
 70
     0
  0
ENDTAB
  0
TABLE
  2
DIMSTYLE
  5
A
330
0
100
AcDbSymbolTable
 70
     1
  0
DIMSTYLE
105
110
330
A
100
AcDbSymbolTableRecord
100
AcDbDimStyleTableRecord
  2
STANDARD
 70
     0
  3

  4

  5

  6

  7

 40
1.0
 41
0.18
 42
0.0625
 43
0.38
 44
0.18
 45
0.0
 46
0.0
 47
0.0
 48
0.0
140
0.18
141
0.09
142
0.0
143
25.4
144
1.0
145
0.0
146
1.0
147
0.09
 71
     0
 72
     0
 73
     1
 74
     1
 75
     0
 76
     0
 77
     0
 78
     0
170
     0
171
     2
172
     0
173
     0
174
     0
175
     0
176
     0
177
     0
178
     0
270
     2
271
     4
272
     4
273
     2
274
     2
340
11
275
     0
280
     0
281
     0
282
     0
283
     1
284
     0
285
     0
286
     0
287
     3
288
     0
  0
ENDTAB
  0
TABLE
  2
BLOCK_RECORD
  5
1
330
0
100
AcDbSymbolTable
 70
     0
  0
BLOCK_RECORD
  5
1E
102
{ACAD_XDICTIONARY
360
13C
102
}
330
1
100
AcDbSymbolTableRecord
100
AcDbBlockTableRecord
  2
*MODEL_SPACE
  0
BLOCK_RECORD
  5
1A
102
{ACAD_XDICTIONARY
360
13A
102
}
330
1
100
AcDbSymbolTableRecord
100
AcDbBlockTableRecord
  2
*PAPER_SPACE
  0
ENDTAB
  0
ENDSEC
  0
SECTION
  2
BLOCKS
  0
BLOCK
  5
1F
330
1E
100
AcDbEntity
  8
0
100
AcDbBlockBegin
  2
*MODEL_SPACE
 70
     0
 10
0.0
 20
0.0
 30
0.0
  3
*MODEL_SPACE
  1

  0
ENDBLK
  5
20
330
1E
100
AcDbEntity
  8
0
100
AcDbBlockEnd
  0
BLOCK
  5
1B
330
1A
100
AcDbEntity
 67
     1
  8
0
100
AcDbBlockBegin
  2
*PAPER_SPACE
 70
     0
 10
0.0
 20
0.0
 30
0.0
  3
*PAPER_SPACE
  1

  0
ENDBLK
  5
1C
330
1A
100
AcDbEntity
 67
     1
  8
0
100
AcDbBlockEnd
  0
ENDSEC
  0
SECTION
  2
ENTITIES
  0
LINE
  5
22
330
1E
100
AcDbEntity
  8
0
100
AcDbLine
 10
0.8470999999999989
 20
-0.0000000000000015
 30
0.0
 11
3.2471
 21
-0.0000000000000012
 31
0.0
  0
LINE
  5
23
330
1E
100
AcDbEntity
  8
0
100
AcDbLine
 10
0.8470999999999989
 20
-0.0000000000000015
 30
0.0
 11
3.2471
 21
-0.0000000000000012
 31
0.0
  0
LINE
  5
24
330
1E
100
AcDbEntity
  8
0
100
AcDbLine
 10
3.2471
 20
-0.0000000000000012
 30
0.0
 11
7.058799999999999
 21
-0.0000000000000008
 31
0.0
  0
LINE
  5
25
330
1E
100
AcDbEntity
  8
0
100
AcDbLine
 10
0.0000000000000013
 20
-0.0000000000000019
 30
0.0
 11
0.8470999999999989
 21
-0.0000000000000023
 31
0.0
  0
LINE
  5
26
330
1E
100
AcDbEntity
  8
0
100
AcDbLine
 10
0.0000000000000013
 20
-0.0000000000000019
 30
0.0
 11
0.0000000000000013
 21
127.5849999999999
 31
0.0
  0
LINE
  5
27
330
1E
100
AcDbEntity
  8
0
100
AcDbLine
 10
0.0000000000000013
 20
-0.0000000000000019
 30
0.0
 11
0.8470999999999989
 21
-0.0000000000000015
 31
0.0
  0
LINE
  5
28
330
1E
100
AcDbEntity
  8
0
100
AcDbLine
 10
12.0706
 20
-0.0000000000000006
 30
0.0
 11
17.85879999999999
 21
-0.0000000000000004
 31
0.0
  0
LINE
  5
29
330
1E
100
AcDbEntity
  8
0
100
AcDbLine
 10
7.058799999999999
 20
-0.0000000000000008
 30
0.0
 11
12.0706
 21
-0.0000000000000006
 31
0.0
  0
LINE
  5
2A
330
1E
100
AcDbEntity
  8
0
100
AcDbLine
 10
11.0
 20
74.68899999999999
 30
0.0
 11
13.4
 21
72.3443
 31
0.0
  0
LINE
  5
2B
330
1E
100
AcDbEntity
  8
0
100
AcDbLine
 10
11.5
 20
74.2847
 30
0.0
 11
13.8
 21
72.0307
 31
0.0
  0
LINE
  5
2C
330
1E
100
AcDbEntity
  8
0
100
AcDbLine
 10
12.9
 20
73.9606
 30
0.0
 11
14.05
 21
72.016
 31
0.0
  0
LINE
  5
2D
330
1E
100
AcDbEntity
  8
0
100
AcDbLine
 10
9.5
 20
79.71129999999999
 30
0.0
 11
10.0
 21
76.90739999999999
 31
0.0
  0
LINE
  5
2E
330
1E
100
AcDbEntity
  8
0
100
AcDbLine
 10
9.5
 20
79.71129999999999
 30
0.0
 11
10.0
 21
82.473
 31
0.0
  0
LINE
  5
2F
330
1E
100
AcDbEntity
  8
0
100
AcDbLine
 10
9.5
 20
77.4023
 30
0.0
 11
11.0
 21
74.68899999999999
 31
0.0
  0
LINE
  5
30
330
1E
100
AcDbEntity
  8
0
100
AcDbLine
 10
10.0
 20
76.90739999999999
 30
0.0
 11
11.5
 21
74.2847
 31
0.0
  0
LINE
  5
33
330
1E
100
AcDbEntity
  8
0
100
AcDbLine
 10
12.5
 20
76.04649999999999
 30
0.0
 11
12.9
 21
78.1325
 31
0.0
  0
LINE
  5
34
330
1E
100
AcDbEntity
  8
0
100
AcDbLine
 10
12.5
 20
76.04649999999999
 30
0.0
 11
12.9
 21
73.9606
 31
0.0
  0
LINE
  5
35
330
1E
100
AcDbEntity
  8
0
100
AcDbLine
 10
13.4
 20
72.3443
 30
0.0
 11
13.8
 21
72.0307
 31
0.0
  0
LINE
  5
36
330
1E
100
AcDbEntity
  8
0
100
AcDbLine
 10
13.8
 20
72.0307
 30
0.0
 11
14.4404198981169
 21
71.6578688826463
 31
0.0
  0
LINE
  5
37
330
1E
100
AcDbEntity
  8
0
100
AcDbLine
 10
14.05
 20
72.016
 30
0.0
 11
15.9
 21
70.319
 31
0.0
  0
LINE
  5
38
330
1E
100
AcDbEntity
  8
0
100
AcDbLine
 10
15.9
 20
70.319
 30
0.0
 11
18.3
 21
69.0108
 31
0.0
  0
LINE
  5
39
330
1E
100
AcDbEntity
  8
0
100
AcDbLine
 10
12.9
 20
78.1325
 30
0.0
 11
14.05
 21
80.07699999999999
 31
0.0
  0
LINE
  5
3A
330
1E
100
AcDbEntity
  8
0
100
AcDbLine
 10
10.0
 20
82.473
 30
0.0
 11
11.5
 21
85.0957
 31
0.0
  0
LINE
  5
3B
330
1E
100
AcDbEntity
  8
0
100
AcDbLine
 10
9.0
 20
80.3452
 30
0.0
 11
9.5
 21
77.4023
 31
0.0
  0
LINE
  5
3C
330
1E
100
AcDbEntity
  8
0
100
AcDbLine
 10
9.0
 20
80.3452
 30
0.0
 11
9.0
 21
98.46700000000002
 31
0.0
  0
LINE
  5
3D
330
1E
100
AcDbEntity
  8
0
100
AcDbLine
 10
14.05
 20
80.07699999999999
 30
0.0
 11
15.9
 21
81.7741
 31
0.0
  0
LINE
  5
3E
330
1E
100
AcDbEntity
  8
0
100
AcDbLine
 10
17.85879999999999
 20
-0.0000000000000004
 30
0.0
 11
24.0
 21
-0.0000000000000004
 31
0.0
  0
LINE
  5
3F
330
1E
100
AcDbEntity
  8
0
100
AcDbLine
 10
18.3
 20
69.0108
 30
0.0
 11
21.04999999999999
 21
68.19759999999999
 31
0.0
  0
LINE
  5
40
330
1E
100
AcDbEntity
  8
0
100
AcDbLine
 10
21.04999999999999
 20
68.19759999999999
 30
0.0
 11
24.0
 21
67.91479999999999
 31
0.0
  0
LINE
  5
41
330
1E
100
AcDbEntity
  8
0
100
AcDbLine
 10
15.9
 20
81.7741
 30
0.0
 11
18.3
 21
83.0822
 31
0.0
  0
LINE
  5
42
330
1E
100
AcDbEntity
  8
0
100
AcDbLine
 10
0.0000000000000013
 20
127.5849999999999
 30
0.0
 11
0.731839286831403
 21
128.957792618079
 31
0.0
  0
LINE
  5
43
330
1E
100
AcDbEntity
  8
0
100
AcDbLine
 10
0.0000000000000013
 20
127.5849999999999
 30
0.0
 11
0.731839286831403
 21
128.957792618079
 31
0.0
  0
LINE
  5
44
330
1E
100
AcDbEntity
  8
0
100
AcDbLine
 10
0.0000000000000013
 20
127.5849999999999
 30
0.0
 11
0.0000000000000013
 21
0.0
 31
0.0
  0
LINE
  5
45
330
1E
100
AcDbEntity
  8
0
100
AcDbLine
 10
0.3529
 20
128.1789999999999
 30
0.0
 11
1.199999999999999
 21
126.6079999999999
 31
0.0
  0
LINE
  5
46
330
1E
100
AcDbEntity
  8
0
100
AcDbLine
 10
0.3529
 20
128.1789999999999
 30
0.0
 11
0.751972201257856
 21
128.9195754933029
 31
0.0
  0
LINE
  5
47
330
1E
100
AcDbEntity
  8
0
100
AcDbLine
 10
0.3529
 20
128.1789999999999
 30
0.0
 11
1.199999999999999
 21
126.6079999999999
 31
0.0
  0
LINE
  5
48
330
1E
100
AcDbEntity
  8
0
100
AcDbLine
 10
0.3529
 20
128.1789999999999
 30
0.0
 11
0.751972201257856
 21
128.9195754933029
 31
0.0
  0
LINE
  5
49
330
1E
100
AcDbEntity
  8
0
100
AcDbLine
 10
0.0000000000000013
 20
130.347
 30
0.0
 11
0.0000000000000013
 21
160.4509999999999
 31
0.0
  0
LINE
  5
4A
330
1E
100
AcDbEntity
  8
0
100
AcDbLine
 10
0.0000000000000013
 20
130.347
 30
0.0
 11
0.8470999999999989
 21
128.739
 31
0.0
  0
LINE
  5
4B
330
1E
100
AcDbEntity
  8
0
100
AcDbLine
 10
0.0000000000000013
 20
160.4509999999999
 30
0.0
 11
0.470600000000002
 21
161.8199999999999
 31
0.0
  0
LINE
  5
4C
330
1E
100
AcDbEntity
  8
0
100
AcDbLine
 10
0.0000000000000013
 20
160.4509999999999
 30
0.0
 11
0.0000000000000013
 21
130.347
 31
0.0
  0
LINE
  5
4D
330
1E
100
AcDbEntity
  8
0
100
AcDbLine
 10
1.199999999999999
 20
126.6079999999999
 30
0.0
 11
3.529399999999999
 21
125.1279999999999
 31
0.0
  0
LINE
  5
4E
330
1E
100
AcDbEntity
  8
0
100
AcDbLine
 10
1.199999999999999
 20
126.6079999999999
 30
0.0
 11
3.529399999999999
 21
125.1279999999999
 31
0.0
  0
LINE
  5
4F
330
1E
100
AcDbEntity
  8
0
100
AcDbLine
 10
0.8470999999999989
 20
128.739
 30
0.0
 11
3.2
 21
127.2529999999999
 31
0.0
  0
LINE
  5
50
330
1E
100
AcDbEntity
  8
0
100
AcDbLine
 10
0.8470999999999989
 20
128.739
 30
0.0
 11
3.2
 21
127.2529999999999
 31
0.0
  0
LINE
  5
51
330
1E
100
AcDbEntity
  8
0
100
AcDbLine
 10
0.8470999999999989
 20
128.739
 30
0.0
 11
1.788199999999999
 21
127.9
 31
0.0
  0
LINE
  5
52
330
1E
100
AcDbEntity
  8
0
100
AcDbLine
 10
3.529399999999999
 20
125.1279999999999
 30
0.0
 11
7.270599999999999
 21
123.8499999999999
 31
0.0
  0
LINE
  5
53
330
1E
100
AcDbEntity
  8
0
100
AcDbLine
 10
1.788199999999999
 20
127.9
 30
0.0
 11
4.0471
 21
126.4629999999999
 31
0.0
  0
LINE
  5
54
330
1E
100
AcDbEntity
  8
0
100
AcDbLine
 10
3.2
 20
127.2529999999999
 30
0.0
 11
7.058799999999999
 21
125.9619999999999
 31
0.0
  0
LINE
  5
55
330
1E
100
AcDbEntity
  8
0
100
AcDbLine
 10
1.3176
 20
160.2599999999999
 30
0.0
 11
3.670599999999999
 21
158.7979999999999
 31
0.0
  0
LINE
  5
56
330
1E
100
AcDbEntity
  8
0
100
AcDbLine
 10
1.3176
 20
160.2599999999999
 30
0.0
 11
3.670599999999999
 21
158.7979999999999
 31
0.0
  0
LINE
  5
57
330
1E
100
AcDbEntity
  8
0
100
AcDbLine
 10
3.670599999999999
 20
158.7979999999999
 30
0.0
 11
7.341199999999999
 21
157.5079999999999
 31
0.0
  0
LINE
  5
58
330
1E
100
AcDbEntity
  8
0
100
AcDbLine
 10
1.3176
 20
163.3779999999999
 30
0.0
 11
3.670599999999999
 21
164.84
 31
0.0
  0
LINE
  5
59
330
1E
100
AcDbEntity
  8
0
100
AcDbLine
 10
0.470600000000002
 20
161.8199999999999
 30
0.0
 11
1.3176
 21
163.3779999999999
 31
0.0
  0
LINE
  5
5A
330
1E
100
AcDbEntity
  8
0
100
AcDbLine
 10
0.470600000000002
 20
161.8199999999999
 30
0.0
 11
1.3176
 21
160.2599999999999
 31
0.0
  0
LINE
  5
5B
330
1E
100
AcDbEntity
  8
0
100
AcDbLine
 10
1.3176
 20
163.3779999999999
 30
0.0
 11
3.670599999999999
 21
164.84
 31
0.0
  0
LINE
  5
5C
330
1E
100
AcDbEntity
  8
0
100
AcDbLine
 10
4.0471
 20
126.4629999999999
 30
0.0
 11
7.717600000000009
 21
125.221
 31
0.0
  0
LINE
  5
5D
330
1E
100
AcDbEntity
  8
0
100
AcDbLine
 10
7.270599999999999
 20
123.8499999999999
 30
0.0
 11
12.2118
 21
122.8809999999999
 31
0.0
  0
LINE
  5
5E
330
1E
100
AcDbEntity
  8
0
100
AcDbLine
 10
7.717600000000009
 20
125.221
 30
0.0
 11
12.51759999999999
 21
124.2699999999999
 31
0.0
  0
LINE
  5
5F
330
1E
100
AcDbEntity
  8
0
100
AcDbLine
 10
7.058799999999999
 20
125.9619999999999
 30
0.0
 11
12.0471
 21
124.963
 31
0.0
  0
LINE
  5
60
330
1E
100
AcDbEntity
  8
0
100
AcDbLine
 10
7.341199999999999
 20
157.5079999999999
 30
0.0
 11
12.3294
 21
156.557
 31
0.0
  0
LINE
  5
61
330
1E
100
AcDbEntity
  8
0
100
AcDbLine
 10
3.670599999999999
 20
164.84
 30
0.0
 11
7.341199999999999
 21
166.1309999999999
 31
0.0
  0
LINE
  5
62
330
1E
100
AcDbEntity
  8
0
100
AcDbLine
 10
7.341199999999999
 20
166.1309999999999
 30
0.0
 11
8.3765
 21
166.319
 31
0.0
  0
LINE
  5
63
330
1E
100
AcDbEntity
  8
0
100
AcDbLine
 10
7.341199999999999
 20
166.1309999999999
 30
0.0
 11
9.282200110660008
 21
166.500662424347
 31
0.0
  0
LINE
  5
64
330
1E
100
AcDbEntity
  8
0
100
AcDbLine
 10
7.341199999999999
 20
166.1309999999999
 30
0.0
 11
9.282200110660008
 21
166.500662424347
 31
0.0
  0
LINE
  5
65
330
1E
100
AcDbEntity
  8
0
100
AcDbLine
 10
8.3765
 20
166.319
 30
0.0
 11
12.9882
 21
167.244
 31
0.0
  0
LINE
  5
66
330
1E
100
AcDbEntity
  8
0
100
AcDbLine
 10
9.0
 20
98.46700000000002
 30
0.0
 11
9.0
 21
80.3452
 31
0.0
  0
LINE
  5
67
330
1E
100
AcDbEntity
  8
0
100
AcDbLine
 10
12.2118
 20
122.8809999999999
 30
0.0
 11
17.9294
 21
122.2779999999999
 31
0.0
  0
LINE
  5
68
330
1E
100
AcDbEntity
  8
0
100
AcDbLine
 10
12.0471
 20
124.963
 30
0.0
 11
17.78824
 21
124.354
 31
0.0
  0
LINE
  5
69
330
1E
100
AcDbEntity
  8
0
100
AcDbLine
 10
12.51759999999999
 20
124.2699999999999
 30
0.0
 11
18.07058999999999
 21
123.686
 31
0.0
  0
LINE
  5
6A
330
1E
100
AcDbEntity
  8
0
100
AcDbLine
 10
12.3294
 20
156.557
 30
0.0
 11
17.97647
 21
155.9489999999999
 31
0.0
  0
LINE
  5
6B
330
1E
100
AcDbEntity
  8
0
100
AcDbLine
 10
12.9882
 20
167.244
 30
0.0
 11
18.35294
 21
167.7809999999999
 31
0.0
  0
LINE
  5
6C
330
1E
100
AcDbEntity
  8
0
100
AcDbLine
 10
17.9294
 20
122.2779999999999
 30
0.0
 11
24.0
 21
122.059
 31
0.0
  0
LINE
  5
6D
330
1E
100
AcDbEntity
  8
0
100
AcDbLine
 10
18.07058999999999
 20
123.686
 30
0.0
 11
24.0
 21
123.466
 31
0.0
  0
LINE
  5
6E
330
1E
100
AcDbEntity
  8
0
100
AcDbLine
 10
17.78824
 20
124.354
 30
0.0
 11
24.0
 21
124.135
 31
0.0
  0
LINE
  5
6F
330
1E
100
AcDbEntity
  8
0
100
AcDbLine
 10
17.97647
 20
155.9489999999999
 30
0.0
 11
19.63750347848
 21
155.888333353488
 31
0.0
  0
LINE
  5
70
330
1E
100
AcDbEntity
  8
0
100
AcDbLine
 10
17.97647
 20
155.9489999999999
 30
0.0
 11
19.63750347848
 21
155.888333353488
 31
0.0
  0
LINE
  5
71
330
1E
100
AcDbEntity
  8
0
100
AcDbLine
 10
20.1
 20
152.866
 30
0.0
 11
20.8
 21
151.867
 31
0.0
  0
LINE
  5
72
330
1E
100
AcDbEntity
  8
0
100
AcDbLine
 10
21.0
 20
132.82
 30
0.0
 11
21.108
 21
132.078
 31
0.0
  0
LINE
  5
73
330
1E
100
AcDbEntity
  8
0
100
AcDbLine
 10
21.0
 20
132.82
 30
0.0
 11
21.108
 21
133.562
 31
0.0
  0
LINE
  5
74
330
1E
100
AcDbEntity
  8
0
100
AcDbLine
 10
20.8
 20
151.867
 30
0.0
 11
21.8
 21
151.167
 31
0.0
  0
LINE
  5
76
330
1E
100
AcDbEntity
  8
0
100
AcDbLine
 10
19.5
 20
155.064
 30
0.0
 11
19.69999999999999
 21
153.865
 31
0.0
  0
LINE
  5
78
330
1E
100
AcDbEntity
  8
0
100
AcDbLine
 10
19.5
 20
155.064
 30
0.0
 11
19.69999999999999
 21
156.263
 31
0.0
  0
LINE
  5
79
330
1E
100
AcDbEntity
  8
0
100
AcDbLine
 10
19.69999999999999
 20
153.865
 30
0.0
 11
20.1
 21
152.866
 31
0.0
  0
LINE
  5
7A
330
1E
100
AcDbEntity
  8
0
100
AcDbLine
 10
19.69999999999999
 20
156.263
 30
0.0
 11
20.1
 21
157.263
 31
0.0
  0
LINE
  5
7B
330
1E
100
AcDbEntity
  8
0
100
AcDbLine
 10
20.1
 20
157.263
 30
0.0
 11
20.8
 21
158.262
 31
0.0
  0
LINE
  5
7C
330
1E
100
AcDbEntity
  8
0
100
AcDbLine
 10
20.1
 20
156.0819999999999
 30
0.0
 11
20.5
 21
157.081
 31
0.0
  0
LINE
  5
7D
330
1E
100
AcDbEntity
  8
0
100
AcDbLine
 10
20.0
 20
155.0829999999999
 30
0.0
 11
20.1
 21
154.084
 31
0.0
  0
LINE
  5
7E
330
1E
100
AcDbEntity
  8
0
100
AcDbLine
 10
20.0
 20
155.0829999999999
 30
0.0
 11
20.1
 21
156.0819999999999
 31
0.0
  0
LINE
  5
7F
330
1E
100
AcDbEntity
  8
0
100
AcDbLine
 10
20.8
 20
158.262
 30
0.0
 11
21.8
 21
158.961
 31
0.0
  0
LINE
  5
80
330
1E
100
AcDbEntity
  8
0
100
AcDbLine
 10
20.5
 20
157.081
 30
0.0
 11
21.1
 21
157.9809999999999
 31
0.0
  0
LINE
  5
81
330
1E
100
AcDbEntity
  8
0
100
AcDbLine
 10
20.1
 20
154.084
 30
0.0
 11
20.5
 21
153.085
 31
0.0
  0
LINE
  5
82
330
1E
100
AcDbEntity
  8
0
100
AcDbLine
 10
20.5
 20
153.085
 30
0.0
 11
21.1
 21
152.185
 31
0.0
  0
LINE
  5
83
330
1E
100
AcDbEntity
  8
0
100
AcDbLine
 10
18.35294
 20
167.7809999999999
 30
0.0
 11
24.0
 21
168.0
 31
0.0
  0
LINE
  5
84
330
1E
100
AcDbEntity
  8
0
100
AcDbLine
 10
20.3
 20
90.2443
 30
0.0
 11
24.0
 21
90.61289999999999
 31
0.0
  0
LINE
  5
85
330
1E
100
AcDbEntity
  8
0
100
AcDbLine
 10
16.8
 20
89.1867
 30
0.0
 11
20.3
 21
90.2443
 31
0.0
  0
LINE
  5
86
330
1E
100
AcDbEntity
  8
0
100
AcDbLine
 10
13.8
 20
87.3497
 30
0.0
 11
16.8
 21
89.1867
 31
0.0
  0
LINE
  5
87
330
1E
100
AcDbEntity
  8
0
100
AcDbLine
 10
11.5
 20
85.0957
 30
0.0
 11
13.8
 21
87.3497
 31
0.0
  0
LINE
  5
88
330
1E
100
AcDbEntity
  8
0
100
AcDbLine
 10
18.3
 20
83.0822
 30
0.0
 11
21.04999999999999
 21
83.8954
 31
0.0
  0
LINE
  5
89
330
1E
100
AcDbEntity
  8
0
100
AcDbLine
 10
21.108
 20
133.562
 30
0.0
 11
21.396
 21
134.257
 31
0.0
  0
LINE
  5
8A
330
1E
100
AcDbEntity
  8
0
100
AcDbLine
 10
21.396
 20
134.257
 30
0.0
 11
21.87599999999999
 21
134.871
 31
0.0
  0
LINE
  5
8B
330
1E
100
AcDbEntity
  8
0
100
AcDbLine
 10
21.108
 20
132.078
 30
0.0
 11
21.396
 21
131.3819999999999
 31
0.0
  0
LINE
  5
8C
330
1E
100
AcDbEntity
  8
0
100
AcDbLine
 10
21.87599999999999
 20
134.871
 30
0.0
 11
22.51199999999999
 21
135.335
 31
0.0
  0
LINE
  5
8D
330
1E
100
AcDbEntity
  8
0
100
AcDbLine
 10
22.51199999999999
 20
135.335
 30
0.0
 11
23.23199999999999
 21
135.613
 31
0.0
  0
LINE
  5
8E
330
1E
100
AcDbEntity
  8
0
100
AcDbLine
 10
21.396
 20
131.3819999999999
 30
0.0
 11
21.87599999999999
 21
130.7679999999999
 31
0.0
  0
LINE
  5
8F
330
1E
100
AcDbEntity
  8
0
100
AcDbLine
 10
21.87599999999999
 20
130.7679999999999
 30
0.0
 11
22.51199999999999
 21
130.3039999999999
 31
0.0
  0
LINE
  5
90
330
1E
100
AcDbEntity
  8
0
100
AcDbLine
 10
22.51199999999999
 20
130.3039999999999
 30
0.0
 11
23.23199999999999
 21
130.026
 31
0.0
  0
LINE
  5
91
330
1E
100
AcDbEntity
  8
0
100
AcDbLine
 10
21.8
 20
151.167
 30
0.0
 11
22.8
 21
150.768
 31
0.0
  0
LINE
  5
92
330
1E
100
AcDbEntity
  8
0
100
AcDbLine
 10
35.9294
 20
-0.0000000000000006
 30
0.0
 11
40.9412
 21
-0.0000000000000008
 31
0.0
  0
LINE
  5
93
330
1E
100
AcDbEntity
  8
0
100
AcDbLine
 10
30.1412
 20
-0.0000000000000004
 30
0.0
 11
35.9294
 21
-0.0000000000000006
 31
0.0
  0
LINE
  5
94
330
1E
100
AcDbEntity
  8
0
100
AcDbLine
 10
40.9412
 20
-0.0000000000000008
 30
0.0
 11
44.7529
 21
-0.0000000000000012
 31
0.0
  0
LINE
  5
95
330
1E
100
AcDbEntity
  8
0
100
AcDbLine
 10
44.7529
 20
-0.0000000000000012
 30
0.0
 11
47.1529
 21
-0.0000000000000015
 31
0.0
  0
LINE
  5
96
330
1E
100
AcDbEntity
  8
0
100
AcDbLine
 10
47.1529
 20
-0.0000000000000023
 30
0.0
 11
48.0
 21
-0.0000000000000019
 31
0.0
  0
LINE
  5
97
330
1E
100
AcDbEntity
  8
0
100
AcDbLine
 10
47.1529
 20
-0.0000000000000015
 30
0.0
 11
48.0
 21
-0.0000000000000019
 31
0.0
  0
LINE
  5
98
330
1E
100
AcDbEntity
  8
0
100
AcDbLine
 10
48.0
 20
-0.0000000000000019
 30
0.0
 11
48.0
 21
127.5849999999999
 31
0.0
  0
LINE
  5
99
330
1E
100
AcDbEntity
  8
0
100
AcDbLine
 10
23.23199999999999
 20
135.613
 30
0.0
 11
24.0
 21
135.717
 31
0.0
  0
LINE
  5
9A
330
1E
100
AcDbEntity
  8
0
100
AcDbLine
 10
23.23199999999999
 20
130.026
 30
0.0
 11
24.0
 21
129.922
 31
0.0
  0
LINE
  5
9B
330
1E
100
AcDbEntity
  8
0
100
AcDbLine
 10
24.0
 20
67.91479999999999
 30
0.0
 11
26.95
 21
68.19759999999999
 31
0.0
  0
LINE
  5
9C
330
1E
100
AcDbEntity
  8
0
100
AcDbLine
 10
24.0
 20
122.059
 30
0.0
 11
30.0706
 21
122.2779999999999
 31
0.0
  0
LINE
  5
9D
330
1E
100
AcDbEntity
  8
0
100
AcDbLine
 10
24.0
 20
90.61289999999999
 30
0.0
 11
27.7
 21
90.2443
 31
0.0
  0
LINE
  5
9E
330
1E
100
AcDbEntity
  8
0
100
AcDbLine
 10
24.0
 20
123.466
 30
0.0
 11
29.92941
 21
123.686
 31
0.0
  0
LINE
  5
9F
330
1E
100
AcDbEntity
  8
0
100
AcDbLine
 10
24.0
 20
124.135
 30
0.0
 11
30.21176
 21
124.354
 31
0.0
  0
LINE
  5
A0
330
1E
100
AcDbEntity
  8
0
100
AcDbLine
 10
24.0
 20
84.1782
 30
0.0
 11
26.95
 21
83.8954
 31
0.0
  0
LINE
  5
A1
330
1E
100
AcDbEntity
  8
0
100
AcDbLine
 10
26.95
 20
68.19759999999999
 30
0.0
 11
29.7
 21
69.0108
 31
0.0
  0
LINE
  5
A2
330
1E
100
AcDbEntity
  8
0
100
AcDbLine
 10
32.1
 20
70.319
 30
0.0
 11
33.95
 21
72.016
 31
0.0
  0
LINE
  5
A3
330
1E
100
AcDbEntity
  8
0
100
AcDbLine
 10
29.7
 20
69.0108
 30
0.0
 11
32.1
 21
70.319
 31
0.0
  0
LINE
  5
A4
330
1E
100
AcDbEntity
  8
0
100
AcDbLine
 10
33.95
 20
72.016
 30
0.0
 11
35.1
 21
73.9606
 31
0.0
  0
LINE
  5
A5
330
1E
100
AcDbEntity
  8
0
100
AcDbLine
 10
33.55958010188309
 20
71.6578688826463
 30
0.0
 11
34.2
 21
72.0307
 31
0.0
  0
LINE
  5
A6
330
1E
100
AcDbEntity
  8
0
100
AcDbLine
 10
34.2
 20
72.0307
 30
0.0
 11
36.5
 21
74.2847
 31
0.0
  0
LINE
  5
A7
330
1E
100
AcDbEntity
  8
0
100
AcDbLine
 10
34.2
 20
72.0307
 30
0.0
 11
34.6
 21
72.3443
 31
0.0
  0
LINE
  5
A9
330
1E
100
AcDbEntity
  8
0
100
AcDbLine
 10
35.1
 20
73.9606
 30
0.0
 11
35.5
 21
76.04649999999999
 31
0.0
  0
LINE
  5
AA
330
1E
100
AcDbEntity
  8
0
100
AcDbLine
 10
36.5
 20
74.2847
 30
0.0
 11
38.0
 21
76.90739999999999
 31
0.0
  0
LINE
  5
AB
330
1E
100
AcDbEntity
  8
0
100
AcDbLine
 10
34.6
 20
72.3443
 30
0.0
 11
37.0
 21
74.68899999999999
 31
0.0
  0
LINE
  5
AC
330
1E
100
AcDbEntity
  8
0
100
AcDbLine
 10
38.0
 20
76.90739999999999
 30
0.0
 11
38.5
 21
79.71129999999999
 31
0.0
  0
LINE
  5
AD
330
1E
100
AcDbEntity
  8
0
100
AcDbLine
 10
37.0
 20
74.68899999999999
 30
0.0
 11
38.5
 21
77.4023
 31
0.0
  0
LINE
  5
AF
330
1E
100
AcDbEntity
  8
0
100
AcDbLine
 10
35.1
 20
78.1325
 30
0.0
 11
35.5
 21
76.04649999999999
 31
0.0
  0
LINE
  5
B0
330
1E
100
AcDbEntity
  8
0
100
AcDbLine
 10
33.95
 20
80.07699999999999
 30
0.0
 11
35.1
 21
78.1325
 31
0.0
  0
LINE
  5
B1
330
1E
100
AcDbEntity
  8
0
100
AcDbLine
 10
27.7
 20
90.2443
 30
0.0
 11
31.2
 21
89.1867
 31
0.0
  0
LINE
  5
B2
330
1E
100
AcDbEntity
  8
0
100
AcDbLine
 10
26.95
 20
83.8954
 30
0.0
 11
29.7
 21
83.0822
 31
0.0
  0
LINE
  5
B3
330
1E
100
AcDbEntity
  8
0
100
AcDbLine
 10
31.2
 20
89.1867
 30
0.0
 11
34.2
 21
87.3497
 31
0.0
  0
LINE
  5
B4
330
1E
100
AcDbEntity
  8
0
100
AcDbLine
 10
34.2
 20
87.3497
 30
0.0
 11
36.5
 21
85.0957
 31
0.0
  0
LINE
  5
B5
330
1E
100
AcDbEntity
  8
0
100
AcDbLine
 10
29.7
 20
83.0822
 30
0.0
 11
32.1
 21
81.7741
 31
0.0
  0
LINE
  5
B6
330
1E
100
AcDbEntity
  8
0
100
AcDbLine
 10
32.1
 20
81.7741
 30
0.0
 11
33.95
 21
80.07699999999999
 31
0.0
  0
LINE
  5
B7
330
1E
100
AcDbEntity
  8
0
100
AcDbLine
 10
38.0
 20
82.473
 30
0.0
 11
38.5
 21
79.71129999999999
 31
0.0
  0
LINE
  5
B8
330
1E
100
AcDbEntity
  8
0
100
AcDbLine
 10
36.5
 20
85.0957
 30
0.0
 11
38.0
 21
82.473
 31
0.0
  0
LINE
  5
B9
330
1E
100
AcDbEntity
  8
0
100
AcDbLine
 10
30.0706
 20
122.2779999999999
 30
0.0
 11
35.7882
 21
122.8809999999999
 31
0.0
  0
LINE
  5
BA
330
1E
100
AcDbEntity
  8
0
100
AcDbLine
 10
29.92941
 20
123.686
 30
0.0
 11
35.48239999999999
 21
124.2699999999999
 31
0.0
  0
LINE
  5
BB
330
1E
100
AcDbEntity
  8
0
100
AcDbLine
 10
35.7882
 20
122.8809999999999
 30
0.0
 11
40.7294
 21
123.8499999999999
 31
0.0
  0
LINE
  5
BC
330
1E
100
AcDbEntity
  8
0
100
AcDbLine
 10
35.48239999999999
 20
124.2699999999999
 30
0.0
 11
40.2824
 21
125.221
 31
0.0
  0
LINE
  5
BD
330
1E
100
AcDbEntity
  8
0
100
AcDbLine
 10
35.9529
 20
124.963
 30
0.0
 11
40.9412
 21
125.9619999999999
 31
0.0
  0
LINE
  5
BE
330
1E
100
AcDbEntity
  8
0
100
AcDbLine
 10
30.21176
 20
124.354
 30
0.0
 11
35.9529
 21
124.963
 31
0.0
  0
LINE
  5
BF
330
1E
100
AcDbEntity
  8
0
100
AcDbLine
 10
39.0
 20
98.46700000000002
 30
0.0
 11
39.0
 21
80.3452
 31
0.0
  0
LINE
  5
C0
330
1E
100
AcDbEntity
  8
0
100
AcDbLine
 10
40.7294
 20
123.8499999999999
 30
0.0
 11
44.47059999999999
 21
125.1279999999999
 31
0.0
  0
LINE
  5
C1
330
1E
100
AcDbEntity
  8
0
100
AcDbLine
 10
40.2824
 20
125.221
 30
0.0
 11
43.9529
 21
126.4629999999999
 31
0.0
  0
LINE
  5
C2
330
1E
100
AcDbEntity
  8
0
100
AcDbLine
 10
46.79999999999999
 20
126.6079999999999
 30
0.0
 11
47.6471
 21
128.1789999999999
 31
0.0
  0
LINE
  5
C3
330
1E
100
AcDbEntity
  8
0
100
AcDbLine
 10
43.9529
 20
126.4629999999999
 30
0.0
 11
46.21179999999999
 21
127.9
 31
0.0
  0
LINE
  5
C4
330
1E
100
AcDbEntity
  8
0
100
AcDbLine
 10
44.79999999999999
 20
127.2529999999999
 30
0.0
 11
47.1529
 21
128.739
 31
0.0
  0
LINE
  5
C5
330
1E
100
AcDbEntity
  8
0
100
AcDbLine
 10
40.9412
 20
125.9619999999999
 30
0.0
 11
44.79999999999999
 21
127.2529999999999
 31
0.0
  0
LINE
  5
C6
330
1E
100
AcDbEntity
  8
0
100
AcDbLine
 10
44.47059999999999
 20
125.1279999999999
 30
0.0
 11
46.79999999999999
 21
126.6079999999999
 31
0.0
  0
LINE
  5
C7
330
1E
100
AcDbEntity
  8
0
100
AcDbLine
 10
39.0
 20
80.3452
 30
0.0
 11
39.0
 21
98.46700000000002
 31
0.0
  0
LINE
  5
C8
330
1E
100
AcDbEntity
  8
0
100
AcDbLine
 10
38.5
 20
77.4023
 30
0.0
 11
39.0
 21
80.3452
 31
0.0
  0
LINE
  5
C9
330
1E
100
AcDbEntity
  8
0
100
AcDbLine
 10
24.0
 20
-0.0000000000000004
 30
0.0
 11
30.1412
 21
-0.0000000000000004
 31
0.0
  0
LINE
  5
CA
330
1E
100
AcDbEntity
  8
0
100
AcDbLine
 10
46.21179999999999
 20
127.9
 30
0.0
 11
47.1529
 21
128.739
 31
0.0
  0
LINE
  5
CB
330
1E
100
AcDbEntity
  8
0
100
AcDbLine
 10
24.0
 20
129.922
 30
0.0
 11
24.768
 21
130.026
 31
0.0
  0
LINE
  5
CC
330
1E
100
AcDbEntity
  8
0
100
AcDbLine
 10
24.0
 20
135.717
 30
0.0
 11
24.768
 21
135.613
 31
0.0
  0
LINE
  5
CD
330
1E
100
AcDbEntity
  8
0
100
AcDbLine
 10
24.768
 20
130.026
 30
0.0
 11
25.488
 21
130.3039999999999
 31
0.0
  0
LINE
  5
CE
330
1E
100
AcDbEntity
  8
0
100
AcDbLine
 10
26.124
 20
130.7679999999999
 30
0.0
 11
26.604
 21
131.3819999999999
 31
0.0
  0
LINE
  5
CF
330
1E
100
AcDbEntity
  8
0
100
AcDbLine
 10
25.488
 20
130.3039999999999
 30
0.0
 11
26.124
 21
130.7679999999999
 31
0.0
  0
LINE
  5
D0
330
1E
100
AcDbEntity
  8
0
100
AcDbLine
 10
26.892
 20
132.078
 30
0.0
 11
27.0
 21
132.82
 31
0.0
  0
LINE
  5
D1
330
1E
100
AcDbEntity
  8
0
100
AcDbLine
 10
26.604
 20
131.3819999999999
 30
0.0
 11
26.892
 21
132.078
 31
0.0
  0
LINE
  5
D2
330
1E
100
AcDbEntity
  8
0
100
AcDbLine
 10
26.892
 20
133.562
 30
0.0
 11
27.0
 21
132.82
 31
0.0
  0
LINE
  5
D3
330
1E
100
AcDbEntity
  8
0
100
AcDbLine
 10
26.604
 20
134.257
 30
0.0
 11
26.892
 21
133.562
 31
0.0
  0
LINE
  5
D4
330
1E
100
AcDbEntity
  8
0
100
AcDbLine
 10
26.124
 20
134.871
 30
0.0
 11
26.604
 21
134.257
 31
0.0
  0
LINE
  5
D5
330
1E
100
AcDbEntity
  8
0
100
AcDbLine
 10
25.488
 20
135.335
 30
0.0
 11
26.124
 21
134.871
 31
0.0
  0
LINE
  5
D6
330
1E
100
AcDbEntity
  8
0
100
AcDbLine
 10
24.768
 20
135.613
 30
0.0
 11
25.488
 21
135.335
 31
0.0
  0
LINE
  5
D7
330
1E
100
AcDbEntity
  8
0
100
AcDbLine
 10
25.2
 20
150.768
 30
0.0
 11
26.2
 21
151.167
 31
0.0
  0
LINE
  5
D8
330
1E
100
AcDbEntity
  8
0
100
AcDbLine
 10
24.0
 20
150.567
 30
0.0
 11
25.2
 21
150.768
 31
0.0
  0
LINE
  5
D9
330
1E
100
AcDbEntity
  8
0
100
AcDbLine
 10
26.2
 20
151.167
 30
0.0
 11
27.2
 21
151.867
 31
0.0
  0
LINE
  5
DA
330
1E
100
AcDbEntity
  8
0
100
AcDbLine
 10
25.0
 20
151.186
 30
0.0
 11
26.0
 21
151.586
 31
0.0
  0
LINE
  5
DB
330
1E
100
AcDbEntity
  8
0
100
AcDbLine
 10
24.0
 20
151.086
 30
0.0
 11
25.0
 21
151.186
 31
0.0
  0
LINE
  5
DC
330
1E
100
AcDbEntity
  8
0
100
AcDbLine
 10
47.2480277987421
 20
128.9195754933029
 30
0.0
 11
47.6471
 21
128.1789999999999
 31
0.0
  0
LINE
  5
DD
330
1E
100
AcDbEntity
  8
0
100
AcDbLine
 10
47.1529
 20
128.739
 30
0.0
 11
48.0
 21
130.347
 31
0.0
  0
LINE
  5
DE
330
1E
100
AcDbEntity
  8
0
100
AcDbLine
 10
48.0
 20
130.347
 30
0.0
 11
48.0
 21
160.4509999999999
 31
0.0
  0
LINE
  5
DF
330
1E
100
AcDbEntity
  8
0
100
AcDbLine
 10
47.2681607131686
 20
128.957792618079
 30
0.0
 11
48.0
 21
127.5849999999999
 31
0.0
  0
LINE
  5
E0
330
1E
100
AcDbEntity
  8
0
100
AcDbLine
 10
48.0
 20
127.5849999999999
 30
0.0
 11
48.0
 21
0.0
 31
0.0
  0
LINE
  5
E1
330
1E
100
AcDbEntity
  8
0
100
AcDbLine
 10
22.8
 20
150.768
 30
0.0
 11
24.0
 21
150.567
 31
0.0
  0
LINE
  5
E2
330
1E
100
AcDbEntity
  8
0
100
AcDbLine
 10
21.8
 20
158.961
 30
0.0
 11
22.8
 21
159.362
 31
0.0
  0
LINE
  5
E3
330
1E
100
AcDbEntity
  8
0
100
AcDbLine
 10
21.1
 20
157.9809999999999
 30
0.0
 11
22.0
 21
158.581
 31
0.0
  0
LINE
  5
E4
330
1E
100
AcDbEntity
  8
0
100
AcDbLine
 10
22.0
 20
158.581
 30
0.0
 11
23.0
 21
158.9809999999999
 31
0.0
  0
LINE
  5
E5
330
1E
100
AcDbEntity
  8
0
100
AcDbLine
 10
21.1
 20
152.185
 30
0.0
 11
22.0
 21
151.586
 31
0.0
  0
LINE
  5
E6
330
1E
100
AcDbEntity
  8
0
100
AcDbLine
 10
26.2
 20
158.961
 30
0.0
 11
27.2
 21
158.262
 31
0.0
  0
LINE
  5
E7
330
1E
100
AcDbEntity
  8
0
100
AcDbLine
 10
26.89999999999999
 20
157.9809999999999
 30
0.0
 11
27.5
 21
157.081
 31
0.0
  0
LINE
  5
E8
330
1E
100
AcDbEntity
  8
0
100
AcDbLine
 10
26.0
 20
158.581
 30
0.0
 11
26.89999999999999
 21
157.9809999999999
 31
0.0
  0
LINE
  5
E9
330
1E
100
AcDbEntity
  8
0
100
AcDbLine
 10
25.0
 20
158.9809999999999
 30
0.0
 11
26.0
 21
158.581
 31
0.0
  0
LINE
  5
EA
330
1E
100
AcDbEntity
  8
0
100
AcDbLine
 10
27.9
 20
152.866
 30
0.0
 11
28.3
 21
153.865
 31
0.0
  0
LINE
  5
EB
330
1E
100
AcDbEntity
  8
0
100
AcDbLine
 10
27.2
 20
151.867
 30
0.0
 11
27.9
 21
152.866
 31
0.0
  0
LINE
  5
EC
330
1E
100
AcDbEntity
  8
0
100
AcDbLine
 10
27.9
 20
156.0819999999999
 30
0.0
 11
28.0
 21
155.0829999999999
 31
0.0
  0
LINE
  5
ED
330
1E
100
AcDbEntity
  8
0
100
AcDbLine
 10
27.9
 20
157.263
 30
0.0
 11
28.3
 21
156.263
 31
0.0
  0
LINE
  5
EE
330
1E
100
AcDbEntity
  8
0
100
AcDbLine
 10
27.2
 20
158.262
 30
0.0
 11
27.9
 21
157.263
 31
0.0
  0
LINE
  5
EF
330
1E
100
AcDbEntity
  8
0
100
AcDbLine
 10
27.5
 20
157.081
 30
0.0
 11
27.9
 21
156.0819999999999
 31
0.0
  0
LINE
  5
F0
330
1E
100
AcDbEntity
  8
0
100
AcDbLine
 10
28.3
 20
156.263
 30
0.0
 11
28.5
 21
155.064
 31
0.0
  0
LINE
  5
F1
330
1E
100
AcDbEntity
  8
0
100
AcDbLine
 10
28.3
 20
153.865
 30
0.0
 11
28.5
 21
155.064
 31
0.0
  0
LINE
  5
F2
330
1E
100
AcDbEntity
  8
0
100
AcDbLine
 10
27.9
 20
154.084
 30
0.0
 11
28.0
 21
155.0829999999999
 31
0.0
  0
LINE
  5
F3
330
1E
100
AcDbEntity
  8
0
100
AcDbLine
 10
27.5
 20
153.085
 30
0.0
 11
27.9
 21
154.084
 31
0.0
  0
LINE
  5
F4
330
1E
100
AcDbEntity
  8
0
100
AcDbLine
 10
26.89999999999999
 20
152.185
 30
0.0
 11
27.5
 21
153.085
 31
0.0
  0
LINE
  5
F5
330
1E
100
AcDbEntity
  8
0
100
AcDbLine
 10
26.0
 20
151.586
 30
0.0
 11
26.89999999999999
 21
152.185
 31
0.0
  0
LINE
  5
F8
330
1E
100
AcDbEntity
  8
0
100
AcDbLine
 10
44.3294
 20
158.7979999999999
 30
0.0
 11
46.68239999999999
 21
160.2599999999999
 31
0.0
  0
LINE
  5
F9
330
1E
100
AcDbEntity
  8
0
100
AcDbLine
 10
40.65879999999999
 20
157.5079999999999
 30
0.0
 11
44.3294
 21
158.7979999999999
 31
0.0
  0
LINE
  5
FA
330
1E
100
AcDbEntity
  8
0
100
AcDbLine
 10
35.6706
 20
156.557
 30
0.0
 11
40.65879999999999
 21
157.5079999999999
 31
0.0
  0
LINE
  5
FB
330
1E
100
AcDbEntity
  8
0
100
AcDbLine
 10
30.02352999999999
 20
155.9489999999999
 30
0.0
 11
35.6706
 21
156.557
 31
0.0
  0
LINE
  5
FC
330
1E
100
AcDbEntity
  8
0
100
AcDbLine
 10
28.36249652152
 20
155.888333353488
 30
0.0
 11
30.02352999999999
 21
155.9489999999999
 31
0.0
  0
LINE
  5
FD
330
1E
100
AcDbEntity
  8
0
100
AcDbLine
 10
25.2
 20
159.362
 30
0.0
 11
26.2
 21
158.961
 31
0.0
  0
LINE
  5
FE
330
1E
100
AcDbEntity
  8
0
100
AcDbLine
 10
24.0
 20
159.561
 30
0.0
 11
25.2
 21
159.362
 31
0.0
  0
LINE
  5
FF
330
1E
100
AcDbEntity
  8
0
100
AcDbLine
 10
24.0
 20
159.08
 30
0.0
 11
25.0
 21
158.9809999999999
 31
0.0
  0
LINE
  5
100
330
1E
100
AcDbEntity
  8
0
100
AcDbLine
 10
38.71779988934
 20
166.500662424347
 30
0.0
 11
40.65879999999999
 21
166.1309999999999
 31
0.0
  0
LINE
  5
101
330
1E
100
AcDbEntity
  8
0
100
AcDbLine
 10
46.68239999999999
 20
160.2599999999999
 30
0.0
 11
47.5294
 21
161.8199999999999
 31
0.0
  0
LINE
  5
102
330
1E
100
AcDbEntity
  8
0
100
AcDbLine
 10
48.0
 20
160.4509999999999
 30
0.0
 11
48.0
 21
130.347
 31
0.0
  0
LINE
  5
103
330
1E
100
AcDbEntity
  8
0
100
AcDbLine
 10
47.5294
 20
161.8199999999999
 30
0.0
 11
48.0
 21
160.4509999999999
 31
0.0
  0
LINE
  5
104
330
1E
100
AcDbEntity
  8
0
100
AcDbLine
 10
46.68239999999999
 20
163.3779999999999
 30
0.0
 11
47.5294
 21
161.8199999999999
 31
0.0
  0
LINE
  5
105
330
1E
100
AcDbEntity
  8
0
100
AcDbLine
 10
44.3294
 20
164.84
 30
0.0
 11
46.68239999999999
 21
163.3779999999999
 31
0.0
  0
LINE
  5
106
330
1E
100
AcDbEntity
  8
0
100
AcDbLine
 10
40.65879999999999
 20
166.1309999999999
 30
0.0
 11
44.3294
 21
164.84
 31
0.0
  0
LINE
  5
107
330
1E
100
AcDbEntity
  8
0
100
AcDbLine
 10
39.6235
 20
166.319
 30
0.0
 11
40.65879999999999
 21
166.1309999999999
 31
0.0
  0
LINE
  5
108
330
1E
100
AcDbEntity
  8
0
100
AcDbLine
 10
35.0118
 20
167.244
 30
0.0
 11
39.6235
 21
166.319
 31
0.0
  0
LINE
  5
109
330
1E
100
AcDbEntity
  8
0
100
AcDbLine
 10
29.64705999999999
 20
167.7809999999999
 30
0.0
 11
35.0118
 21
167.244
 31
0.0
  0
LINE
  5
10A
330
1E
100
AcDbEntity
  8
0
100
AcDbLine
 10
24.0
 20
168.0
 30
0.0
 11
29.64705999999999
 21
167.7809999999999
 31
0.0
  0
LINE
  5
10B
330
1E
100
AcDbEntity
  8
0
100
AcDbLine
 10
22.8
 20
159.362
 30
0.0
 11
24.0
 21
159.561
 31
0.0
  0
LINE
  5
10C
330
1E
100
AcDbEntity
  8
0
100
AcDbLine
 10
23.0
 20
158.9809999999999
 30
0.0
 11
24.0
 21
159.08
 31
0.0
  0
LINE
  5
10D
330
1E
100
AcDbEntity
  8
0
100
AcDbLine
 10
22.0
 20
151.586
 30
0.0
 11
23.0
 21
151.186
 31
0.0
  0
LINE
  5
10E
330
1E
100
AcDbEntity
  8
0
100
AcDbLine
 10
23.0
 20
151.186
 30
0.0
 11
24.0
 21
151.086
 31
0.0
  0
LINE
  5
10F
330
1E
100
AcDbEntity
  8
0
100
AcDbLine
 10
21.04999999999999
 20
83.8954
 30
0.0
 11
24.0
 21
84.1782
 31
0.0
  0
LWPOLYLINE
  5
115
330
1E
100
AcDbEntity
  8
0
100
AcDbPolyline
 90
       10
 70
     0
 43
0.0
 10
9.000000000000001
 20
98.46699999999986
 10
9.328949493394588
 20
101.1880356368653
 10
9.930217271468563
 20
103.666619725558
 10
10.95237249419426
 20
105.9949867639721
 10
12.47057404338045
 20
108.0679840285993
 10
14.24431398869865
 20
109.8405471926696
 10
16.31868782305377
 20
111.3577413712662
 10
18.67866426154353
 20
112.4393053157417
 10
21.15889343654919
 20
113.1303045353363
 10
24.0
 20
113.3
  0
LWPOLYLINE
  5
116
330
1E
100
AcDbEntity
  8
0
100
AcDbPolyline
 90
       10
 70
     0
 43
0.0
 10
39.0
 20
98.46699999999986
 10
38.67105050660541
 20
101.1880356368653
 10
38.06978272853143
 20
103.666619725558
 10
37.04762750580573
 20
105.9949867639721
 10
35.52942595661955
 20
108.0679840285993
 10
33.75568601130135
 20
109.8405471926696
 10
31.68131217694622
 20
111.3577413712662
 10
29.32133573845646
 20
112.4393053157417
 10
26.8411065634508
 20
113.1303045353363
 10
24.0
 20
113.3
  0
ENDSEC
  0
SECTION
  2
OBJECTS
  0
DICTIONARY
  5
C
330
0
100
AcDbDictionary
  3
ACAD_GROUP
350
D
  3
ACAD_LAYOUT
350
19
  3
ACAD_MLINESTYLE
350
16
  3
ACAD_PLOTSETTINGS
350
18
  3
ACAD_PLOTSTYLENAME
350
E
  3
ACDBHEADERROUNDTRIPXREC
350
11A
  3
ACDBVARIABLEDICTIONARY
350
117
  0
DICTIONARY
  5
13C
330
1E
100
AcDbDictionary
280
     1
  3
ACAD_LAYOUTSELFREF
360
13D
  0
DICTIONARY
  5
13A
330
1A
100
AcDbDictionary
280
     1
  3
ACAD_LAYOUTSELFREF
360
13B
  0
DICTIONARY
  5
D
102
{ACAD_REACTORS
330
C
102
}
330
C
100
AcDbDictionary
  0
DICTIONARY
  5
19
102
{ACAD_REACTORS
330
C
102
}
330
C
100
AcDbDictionary
  0
DICTIONARY
  5
16
102
{ACAD_REACTORS
330
C
102
}
330
C
100
AcDbDictionary
  3
STANDARD
350
17
  0
DICTIONARY
  5
18
102
{ACAD_REACTORS
330
C
102
}
330
C
100
AcDbDictionary
  0
ACDBDICTIONARYWDFLT
  5
E
102
{ACAD_REACTORS
330
C
102
}
330
C
100
AcDbDictionary
281
     1
  3
Normal
350
F
100
AcDbDictionaryWithDefault
340
F
  0
DICTIONARY
  5
11A
102
{ACAD_REACTORS
330
C
102
}
330
C
100
AcDbDictionary
  3
CEPSNTYPE
350
124
  3
FINGERPRINTGUID
350
125
  3
HYPERLINKBASE
350
11D
  3
INSUNITS
350
123
  3
LAYOUTDICT
350
11F
  3
LWETCUNION
350
122
  3
PLOTSETDICT
350
120
  3
PLOTSTYLNAMDICT
350
121
  3
PSVPSCALE
350
127
  3
PUCSBASE
350
12A
  3
PUCSORGBACK
350
130
  3
PUCSORGBOTTOM
350
12C
  3
PUCSORGFRONT
350
12F
  3
PUCSORGLEFT
350
12D
  3
PUCSORGRIGHT
350
12E
  3
PUCSORGTOP
350
12B
  3
PUCSORTHOREF
350
128
  3
PUCSORTHOVIEW
350
129
  3
STYLESHEET
350
11E
  3
TSTACKALIGN
350
11B
  3
TSTACKSIZE
350
11C
  3
UCSBASE
350
133
  3
UCSORGBACK
350
139
  3
UCSORGBOTTOM
350
135
  3
UCSORGFRONT
350
138
  3
UCSORGLEFT
350
136
  3
UCSORGRIGHT
350
137
  3
UCSORGTOP
350
134
  3
UCSORTHOREF
350
131
  3
UCSORTHOVIEW
350
132
  3
VERSIONGUID
350
126
  0
DICTIONARY
  5
117
102
{ACAD_REACTORS
330
C
102
}
330
C
100
AcDbDictionary
  3
DIMASSOC
350
118
  0
XRECORD
  5
13D
102
{ACAD_REACTORS
330
13C
102
}
330
13C
100
AcDbXrecord
340
1E
  0
XRECORD
  5
13B
102
{ACAD_REACTORS
330
13A
102
}
330
13A
100
AcDbXrecord
340
1A
  0
MLINESTYLE
  5
17
102
{ACAD_REACTORS
330
16
102
}
330
16
100
AcDbMlineStyle
  2
STANDARD
 70
     0
  3

 62
   256
 51
90.0
 52
90.0
 71
     2
 49
0.5
 62
   256
  6
BYLAYER
 49
-0.5
 62
   256
  6
BYLAYER
  0
ACDBPLACEHOLDER
  5
F
102
{ACAD_REACTORS
330
E
102
}
330
E
100
AcDbPlaceHolder
280
     0
  0
XRECORD
  5
124
102
{ACAD_REACTORS
330
11A
102
}
330
11A
100
AcDbXrecord
 90
        0
  0
XRECORD
  5
125
102
{ACAD_REACTORS
330
11A
102
}
330
11A
100
AcDbXrecord
  1
{98EE1AA3-20AF-4980-BED3-B510296F1D27}
  0
XRECORD
  5
11D
102
{ACAD_REACTORS
330
11A
102
}
330
11A
100
AcDbXrecord
  1

  0
XRECORD
  5
123
102
{ACAD_REACTORS
330
11A
102
}
330
11A
100
AcDbXrecord
 90
        0
  0
XRECORD
  5
11F
102
{ACAD_REACTORS
330
11A
102
}
330
11A
100
AcDbXrecord
340
19
  0
XRECORD
  5
122
102
{ACAD_REACTORS
330
11A
102
}
330
11A
100
AcDbXrecord
 90
    10781
  0
XRECORD
  5
120
102
{ACAD_REACTORS
330
11A
102
}
330
11A
100
AcDbXrecord
340
18
  0
XRECORD
  5
121
102
{ACAD_REACTORS
330
11A
102
}
330
11A
100
AcDbXrecord
340
E
  0
XRECORD
  5
127
102
{ACAD_REACTORS
330
11A
102
}
330
11A
100
AcDbXrecord
 40
0.0
  0
XRECORD
  5
12A
102
{ACAD_REACTORS
330
11A
102
}
330
11A
100
AcDbXrecord
340
0
  0
XRECORD
  5
130
102
{ACAD_REACTORS
330
11A
102
}
330
11A
100
AcDbXrecord
 10
0.0
 20
0.0
 30
0.0
  0
XRECORD
  5
12C
102
{ACAD_REACTORS
330
11A
102
}
330
11A
100
AcDbXrecord
 10
0.0
 20
0.0
 30
0.0
  0
XRECORD
  5
12F
102
{ACAD_REACTORS
330
11A
102
}
330
11A
100
AcDbXrecord
 10
0.0
 20
0.0
 30
0.0
  0
XRECORD
  5
12D
102
{ACAD_REACTORS
330
11A
102
}
330
11A
100
AcDbXrecord
 10
0.0
 20
0.0
 30
0.0
  0
XRECORD
  5
12E
102
{ACAD_REACTORS
330
11A
102
}
330
11A
100
AcDbXrecord
 10
0.0
 20
0.0
 30
0.0
  0
XRECORD
  5
12B
102
{ACAD_REACTORS
330
11A
102
}
330
11A
100
AcDbXrecord
 10
0.0
 20
0.0
 30
0.0
  0
XRECORD
  5
128
102
{ACAD_REACTORS
330
11A
102
}
330
11A
100
AcDbXrecord
340
0
  0
XRECORD
  5
129
102
{ACAD_REACTORS
330
11A
102
}
330
11A
100
AcDbXrecord
 70
     0
  0
XRECORD
  5
11E
102
{ACAD_REACTORS
330
11A
102
}
330
11A
100
AcDbXrecord
  1

  0
XRECORD
  5
11B
102
{ACAD_REACTORS
330
11A
102
}
330
11A
100
AcDbXrecord
 90
        1
  0
XRECORD
  5
11C
102
{ACAD_REACTORS
330
11A
102
}
330
11A
100
AcDbXrecord
 90
       70
  0
XRECORD
  5
133
102
{ACAD_REACTORS
330
11A
102
}
330
11A
100
AcDbXrecord
340
0
  0
XRECORD
  5
139
102
{ACAD_REACTORS
330
11A
102
}
330
11A
100
AcDbXrecord
 10
0.0
 20
0.0
 30
0.0
  0
XRECORD
  5
135
102
{ACAD_REACTORS
330
11A
102
}
330
11A
100
AcDbXrecord
 10
0.0
 20
0.0
 30
0.0
  0
XRECORD
  5
138
102
{ACAD_REACTORS
330
11A
102
}
330
11A
100
AcDbXrecord
 10
0.0
 20
0.0
 30
0.0
  0
XRECORD
  5
136
102
{ACAD_REACTORS
330
11A
102
}
330
11A
100
AcDbXrecord
 10
0.0
 20
0.0
 30
0.0
  0
XRECORD
  5
137
102
{ACAD_REACTORS
330
11A
102
}
330
11A
100
AcDbXrecord
 10
0.0
 20
0.0
 30
0.0
  0
XRECORD
  5
134
102
{ACAD_REACTORS
330
11A
102
}
330
11A
100
AcDbXrecord
 10
0.0
 20
0.0
 30
0.0
  0
XRECORD
  5
131
102
{ACAD_REACTORS
330
11A
102
}
330
11A
100
AcDbXrecord
340
0
  0
XRECORD
  5
132
102
{ACAD_REACTORS
330
11A
102
}
330
11A
100
AcDbXrecord
 70
     1
  0
XRECORD
  5
126
102
{ACAD_REACTORS
330
11A
102
}
330
11A
100
AcDbXrecord
  1
{3BDD0448-261A-4B8E-A8EE-1094CCC40751}
  0
DICTIONARYVAR
  5
118
102
{ACAD_REACTORS
330
117
102
}
330
117
100
DictionaryVariables
280
     0
  1
1
  0
ENDSEC
  0
EOF
