  0
SECTION
  2
HEADER
  9
$ACADVER
  1
AC1014
  9
$ACADMAINTVER
 70
     9
  9
$DWGCODEPAGE
  3
ANSI_1252
  9
$INSBASE
 10
0.0
 20
0.0
 30
0.0
  9
$EXTMIN
 10
-0.0000000000000048
 20
-0.0965880000000028
 30
0.0
  9
$EXTMAX
 10
150.0
 20
72.09658799999999
 30
0.0
  9
$LIMMIN
 10
0.0
 20
0.0
  9
$LIMMAX
 10
12.0
 20
9.0
  9
$ORTHOMODE
 70
     0
  9
$REGENMODE
 70
     1
  9
$FILLMODE
 70
     1
  9
$QTEXTMODE
 70
     0
  9
$MIRRTEXT
 70
     1
  9
$DRAGMODE
 70
     2
  9
$LTSCALE
 40
1.0
  9
$OSMODE
 70
    37
  9
$ATTMODE
 70
     1
  9
$TEXTSIZE
 40
0.2
  9
$TRACEWID
 40
0.05
  9
$TEXTSTYLE
  7
STANDARD
  9
$CLAYER
  8
0
  9
$CELTYPE
  6
CONTINUOUS
  9
$CECOLOR
 62
   256
  9
$CELTSCALE
 40
1.0
  9
$DELOBJ
 70
     1
  9
$DISPSILH
 70
     0
  9
$DIMSCALE
 40
1.0
  9
$DIMASZ
 40
0.18
  9
$DIMEXO
 40
0.0625
  9
$DIMDLI
 40
0.38
  9
$DIMRND
 40
0.0
  9
$DIMDLE
 40
0.0
  9
$DIMEXE
 40
0.18
  9
$DIMTP
 40
0.0
  9
$DIMTM
 40
0.0
  9
$DIMTXT
 40
0.18
  9
$DIMCEN
 40
0.09
  9
$DIMTSZ
 40
0.0
  9
$DIMTOL
 70
     0
  9
$DIMLIM
 70
     0
  9
$DIMTIH
 70
     1
  9
$DIMTOH
 70
     1
  9
$DIMSE1
 70
     0
  9
$DIMSE2
 70
     0
  9
$DIMTAD
 70
     0
  9
$DIMZIN
 70
     0
  9
$DIMBLK
  1

  9
$DIMASO
 70
     1
  9
$DIMSHO
 70
     1
  9
$DIMPOST
  1

  9
$DIMAPOST
  1

  9
$DIMALT
 70
     0
  9
$DIMALTD
 70
     2
  9
$DIMALTF
 40
25.4
  9
$DIMLFAC
 40
1.0
  9
$DIMTOFL
 70
     0
  9
$DIMTVP
 40
0.0
  9
$DIMTIX
 70
     0
  9
$DIMSOXD
 70
     0
  9
$DIMSAH
 70
     0
  9
$DIMBLK1
  1

  9
$DIMBLK2
  1

  9
$DIMSTYLE
  2
STANDARD
  9
$DIMCLRD
 70
     0
  9
$DIMCLRE
 70
     0
  9
$DIMCLRT
 70
     0
  9
$DIMTFAC
 40
1.0
  9
$DIMGAP
 40
0.09
  9
$DIMJUST
 70
     0
  9
$DIMSD1
 70
     0
  9
$DIMSD2
 70
     0
  9
$DIMTOLJ
 70
     1
  9
$DIMTZIN
 70
     0
  9
$DIMALTZ
 70
     0
  9
$DIMALTTZ
 70
     0
  9
$DIMFIT
 70
     3
  9
$DIMUPT
 70
     0
  9
$DIMUNIT
 70
     2
  9
$DIMDEC
 70
     4
  9
$DIMTDEC
 70
     4
  9
$DIMALTU
 70
     2
  9
$DIMALTTD
 70
     2
  9
$DIMTXSTY
  7
STANDARD
  9
$DIMAUNIT
 70
     0
  9
$LUNITS
 70
     2
  9
$LUPREC
 70
     4
  9
$SKETCHINC
 40
0.1
  9
$FILLETRAD
 40
0.0
  9
$AUNITS
 70
     0
  9
$AUPREC
 70
     0
  9
$MENU
  1
.
  9
$ELEVATION
 40
0.0
  9
$PELEVATION
 40
0.0
  9
$THICKNESS
 40
0.0
  9
$LIMCHECK
 70
     0
  9
$BLIPMODE
 70
     0
  9
$CHAMFERA
 40
0.0
  9
$CHAMFERB
 40
0.0
  9
$CHAMFERC
 40
0.0
  9
$CHAMFERD
 40
0.0
  9
$SKPOLY
 70
     0
  9
$TDCREATE
 40
2454699.491620185
  9
$TDUPDATE
 40
2454699.493140914
  9
$TDINDWG
 40
0.0015209028
  9
$TDUSRTIMER
 40
0.0015209028
  9
$USRTIMER
 70
     1
  9
$ANGBASE
 50
0.0
  9
$ANGDIR
 70
     0
  9
$PDMODE
 70
     0
  9
$PDSIZE
 40
0.0
  9
$PLINEWID
 40
0.0
  9
$COORDS
 70
     1
  9
$SPLFRAME
 70
     0
  9
$SPLINETYPE
 70
     6
  9
$SPLINESEGS
 70
     8
  9
$ATTDIA
 70
     0
  9
$ATTREQ
 70
     1
  9
$HANDLING
 70
 22529
  9
$HANDSEED
  5
11F
  9
$SURFTAB1
 70
     6
  9
$SURFTAB2
 70
     6
  9
$SURFTYPE
 70
     6
  9
$SURFU
 70
     6
  9
$SURFV
 70
     6
  9
$UCSNAME
  2

  9
$UCSORG
 10
0.0
 20
0.0
 30
0.0
  9
$UCSXDIR
 10
1.0
 20
0.0
 30
0.0
  9
$UCSYDIR
 10
0.0
 20
1.0
 30
0.0
  9
$PUCSNAME
  2

  9
$PUCSORG
 10
0.0
 20
0.0
 30
0.0
  9
$PUCSXDIR
 10
1.0
 20
0.0
 30
0.0
  9
$PUCSYDIR
 10
0.0
 20
1.0
 30
0.0
  9
$USERI1
 70
     0
  9
$USERI2
 70
     0
  9
$USERI3
 70
     0
  9
$USERI4
 70
     0
  9
$USERI5
 70
     0
  9
$USERR1
 40
0.0
  9
$USERR2
 40
0.0
  9
$USERR3
 40
0.0
  9
$USERR4
 40
0.0
  9
$USERR5
 40
0.0
  9
$WORLDVIEW
 70
     1
  9
$SHADEDGE
 70
     3
  9
$SHADEDIF
 70
    70
  9
$TILEMODE
 70
     1
  9
$MAXACTVP
 70
    64
  9
$PINSBASE
 10
0.0
 20
0.0
 30
0.0
  9
$PLIMCHECK
 70
     0
  9
$PEXTMIN
 10
1.000000000000000E+20
 20
1.000000000000000E+20
 30
1.000000000000000E+20
  9
$PEXTMAX
 10
-1.000000000000000E+20
 20
-1.000000000000000E+20
 30
-1.000000000000000E+20
  9
$PLIMMIN
 10
0.0
 20
0.0
  9
$PLIMMAX
 10
12.0
 20
9.0
  9
$UNITMODE
 70
     0
  9
$VISRETAIN
 70
     1
  9
$PLINEGEN
 70
     0
  9
$PSLTSCALE
 70
     1
  9
$TREEDEPTH
 70
  3020
  9
$PICKSTYLE
 70
     1
  9
$CMLSTYLE
  2
STANDARD
  9
$CMLJUST
 70
     0
  9
$CMLSCALE
 40
1.0
  9
$PROXYGRAPHICS
 70
     1
  9
$MEASUREMENT
 70
     0
  0
ENDSEC
  0
SECTION
  2
CLASSES
  0
CLASS
  1
ACDBDICTIONARYWDFLT
  2
AcDbDictionaryWithDefault
  3
AutoCAD 2000
 90
        0
280
     0
281
     0
  0
CLASS
  1
ACDBPLACEHOLDER
  2
AcDbPlaceHolder
  3
AutoCAD 2000
 90
        0
280
     0
281
     0
  0
CLASS
  1
LAYOUT
  2
AcDbLayout
  3
AutoCAD 2000
 90
        0
280
     0
281
     0
  0
CLASS
  1
DICTIONARYVAR
  2
AcDbDictionaryVar
  3
AutoCAD 2000
 90
        0
280
     0
281
     0
  0
CLASS
  1
LONG_TRANSACTION
  2
AcDbLongTransaction
  3
AutoCAD 2000
 90
        0
280
     0
281
     0
  0
CLASS
  1
LWPOLYLINE
  2
AcDbPolyline
  3
AutoCAD 2000
 90
        0
280
     0
281
     1
  0
CLASS
  1
HATCH
  2
AcDbHatch
  3
AutoCAD 2000
 90
        0
280
     0
281
     1
  0
CLASS
  1
XRECORD
  2
AcDbXrecord
  3
AutoCAD 2000
 90
        0
280
     0
281
     0
  0
ENDSEC
  0
SECTION
  2
TABLES
  0
TABLE
  2
VPORT
  5
8
330
0
100
AcDbSymbolTable
 70
     2
  0
VPORT
  5
FA
330
8
100
AcDbSymbolTableRecord
100
AcDbViewportTableRecord
  2
*ACTIVE
 70
     0
 10
0.0
 20
0.0
 11
1.0
 21
1.0
 12
75.0
 22
35.99999999999999
 13
0.0
 23
0.0
 14
1.0
 24
1.0
 15
0.0
 25
0.0
 16
0.0
 26
0.0
 36
1.0
 17
0.0
 27
0.0
 37
0.0
 40
72.74708783631713
 41
2.078104993597951
 42
50.0
 43
0.0
 44
0.0
 50
0.0
 51
0.0
 71
     0
 72
   100
 73
     1
 74
     3
 75
     0
 76
     0
 77
     0
 78
     0
  0
ENDTAB
  0
TABLE
  2
LTYPE
  5
5
330
0
100
AcDbSymbolTable
 70
     1
  0
LTYPE
  5
13
330
5
100
AcDbSymbolTableRecord
100
AcDbLinetypeTableRecord
  2
BYBLOCK
 70
     0
  3

 72
    65
 73
     0
 40
0.0
  0
LTYPE
  5
14
330
5
100
AcDbSymbolTableRecord
100
AcDbLinetypeTableRecord
  2
BYLAYER
 70
     0
  3

 72
    65
 73
     0
 40
0.0
  0
LTYPE
  5
15
330
5
100
AcDbSymbolTableRecord
100
AcDbLinetypeTableRecord
  2
CONTINUOUS
 70
     0
  3
Solid line
 72
    65
 73
     0
 40
0.0
  0
ENDTAB
  0
TABLE
  2
LAYER
  5
2
330
0
100
AcDbSymbolTable
 70
     1
  0
LAYER
  5
10
330
2
100
AcDbSymbolTableRecord
100
AcDbLayerTableRecord
  2
0
 70
     0
 62
     7
  6
CONTINUOUS
  0
ENDTAB
  0
TABLE
  2
STYLE
  5
3
330
0
100
AcDbSymbolTable
 70
     1
  0
STYLE
  5
11
330
3
100
AcDbSymbolTableRecord
100
AcDbTextStyleTableRecord
  2
STANDARD
 70
     0
 40
0.0
 41
1.0
 50
0.0
 71
     0
 42
0.2
  3
txt
  4

  0
ENDTAB
  0
TABLE
  2
VIEW
  5
6
330
0
100
AcDbSymbolTable
 70
     0
  0
ENDTAB
  0
TABLE
  2
UCS
  5
7
330
0
100
AcDbSymbolTable
 70
     0
  0
ENDTAB
  0
TABLE
  2
APPID
  5
9
330
0
100
AcDbSymbolTable
 70
     1
  0
APPID
  5
12
330
9
100
AcDbSymbolTableRecord
100
AcDbRegAppTableRecord
  2
ACAD
 70
     0
  0
ENDTAB
  0
TABLE
  2
DIMSTYLE
  5
A
330
0
100
AcDbSymbolTable
 70
     1
  0
DIMSTYLE
105
F4
330
A
100
AcDbSymbolTableRecord
100
AcDbDimStyleTableRecord
  2
STANDARD
 70
     0
  3

  4

  5

  6

  7

 40
1.0
 41
0.18
 42
0.0625
 43
0.38
 44
0.18
 45
0.0
 46
0.0
 47
0.0
 48
0.0
140
0.18
141
0.09
142
0.0
143
25.4
144
1.0
145
0.0
146
1.0
147
0.09
 71
     0
 72
     0
 73
     1
 74
     1
 75
     0
 76
     0
 77
     0
 78
     0
170
     0
171
     2
172
     0
173
     0
174
     0
175
     0
176
     0
177
     0
178
     0
270
     2
271
     4
272
     4
273
     2
274
     2
340
11
275
     0
280
     0
281
     0
282
     0
283
     1
284
     0
285
     0
286
     0
287
     3
288
     0
  0
ENDTAB
  0
TABLE
  2
BLOCK_RECORD
  5
1
330
0
100
AcDbSymbolTable
 70
     0
  0
BLOCK_RECORD
  5
1E
102
{ACAD_XDICTIONARY
360
11D
102
}
330
1
100
AcDbSymbolTableRecord
100
AcDbBlockTableRecord
  2
*MODEL_SPACE
  0
BLOCK_RECORD
  5
1A
102
{ACAD_XDICTIONARY
360
11B
102
}
330
1
100
AcDbSymbolTableRecord
100
AcDbBlockTableRecord
  2
*PAPER_SPACE
  0
ENDTAB
  0
ENDSEC
  0
SECTION
  2
BLOCKS
  0
BLOCK
  5
1F
330
1E
100
AcDbEntity
  8
0
100
AcDbBlockBegin
  2
*MODEL_SPACE
 70
     0
 10
0.0
 20
0.0
 30
0.0
  3
*MODEL_SPACE
  1

  0
ENDBLK
  5
20
330
1E
100
AcDbEntity
  8
0
100
AcDbBlockEnd
  0
BLOCK
  5
1B
330
1A
100
AcDbEntity
 67
     1
  8
0
100
AcDbBlockBegin
  2
*PAPER_SPACE
 70
     0
 10
0.0
 20
0.0
 30
0.0
  3
*PAPER_SPACE
  1

  0
ENDBLK
  5
1C
330
1A
100
AcDbEntity
 67
     1
  8
0
100
AcDbBlockEnd
  0
ENDSEC
  0
SECTION
  2
ENTITIES
  0
LINE
  5
22
330
1E
100
AcDbEntity
  8
0
100
AcDbLine
 10
-0.0000000000000048
 20
62.09658799999999
 30
0.0
 11
0.4411759999999951
 21
60.696588
 31
0.0
  0
LINE
  5
23
330
1E
100
AcDbEntity
  8
0
100
AcDbLine
 10
-0.0000000000000048
 20
62.09658799999999
 30
0.0
 11
-0.0000000000000048
 21
72.09658799999999
 31
0.0
  0
LINE
  5
24
330
1E
100
AcDbEntity
  8
0
100
AcDbLine
 10
2.647059999999999
 20
59.09658799999999
 30
0.0
 11
3.35293999999999
 21
59.09658799999999
 31
0.0
  0
LINE
  5
25
330
1E
100
AcDbEntity
  8
0
100
AcDbLine
 10
1.41176
 20
59.59658799999999
 30
0.0
 11
2.647059999999999
 21
59.09658799999999
 31
0.0
  0
LINE
  5
26
330
1E
100
AcDbEntity
  8
0
100
AcDbLine
 10
0.4411759999999951
 20
60.696588
 30
0.0
 11
1.41176
 21
59.59658799999999
 31
0.0
  0
LINE
  5
27
330
1E
100
AcDbEntity
  8
0
100
AcDbLine
 10
3.35293999999999
 20
59.09658799999999
 30
0.0
 11
5.29411999999999
 21
59.09658799999999
 31
0.0
  0
LINE
  5
28
330
1E
100
AcDbEntity
  8
0
100
AcDbLine
 10
5.29411999999999
 20
59.09658799999999
 30
0.0
 11
8.29411999999999
 21
59.09658799999999
 31
0.0
  0
LINE
  5
29
330
1E
100
AcDbEntity
  8
0
100
AcDbLine
 10
8.29411999999999
 20
59.09658799999999
 30
0.0
 11
12.35289999999999
 21
59.09658799999999
 31
0.0
  0
LINE
  5
2A
330
1E
100
AcDbEntity
  8
0
100
AcDbLine
 10
12.35289999999999
 20
59.09658799999999
 30
0.0
 11
17.6471
 21
59.09658799999999
 31
0.0
  0
LINE
  5
2B
330
1E
100
AcDbEntity
  8
0
100
AcDbLine
 10
23.91179999999999
 20
59.09658799999999
 30
0.0
 11
31.0588
 21
59.09658799999999
 31
0.0
  0
LINE
  5
2C
330
1E
100
AcDbEntity
  8
0
100
AcDbLine
 10
17.6471
 20
59.09658799999999
 30
0.0
 11
23.91179999999999
 21
59.09658799999999
 31
0.0
  0
LINE
  5
2D
330
1E
100
AcDbEntity
  8
0
100
AcDbLine
 10
15.6176
 20
72.09658799999999
 30
0.0
 11
22.0588
 21
72.09658799999999
 31
0.0
  0
LINE
  5
2E
330
1E
100
AcDbEntity
  8
0
100
AcDbLine
 10
10.0588
 20
72.09658799999999
 30
0.0
 11
15.6176
 21
72.09658799999999
 31
0.0
  0
LINE
  5
2F
330
1E
100
AcDbEntity
  8
0
100
AcDbLine
 10
5.82352999999999
 20
72.09658799999999
 30
0.0
 11
10.0588
 21
72.09658799999999
 31
0.0
  0
LINE
  5
30
330
1E
100
AcDbEntity
  8
0
100
AcDbLine
 10
2.735289999999999
 20
72.09658799999999
 30
0.0
 11
5.82352999999999
 21
72.09658799999999
 31
0.0
  0
LINE
  5
31
330
1E
100
AcDbEntity
  8
0
100
AcDbLine
 10
0.7941179999999949
 20
72.09658799999999
 30
0.0
 11
2.735289999999999
 21
72.09658799999999
 31
0.0
  0
LINE
  5
32
330
1E
100
AcDbEntity
  8
0
100
AcDbLine
 10
-0.0000000000000048
 20
72.09658799999999
 30
0.0
 11
0.7941179999999949
 21
72.09658799999999
 31
0.0
  0
LINE
  5
33
330
1E
100
AcDbEntity
  8
0
100
AcDbLine
 10
-0.0000000000000048
 20
72.09658799999999
 30
0.0
 11
-0.0000000000000048
 21
62.09658799999999
 31
0.0
  0
LINE
  5
34
330
1E
100
AcDbEntity
  8
0
100
AcDbLine
 10
22.0588
 20
72.09658799999999
 30
0.0
 11
29.3824
 21
72.09658799999999
 31
0.0
  0
LINE
  5
35
330
1E
100
AcDbEntity
  8
0
100
AcDbLine
 10
39.0
 20
59.09658799999999
 30
0.0
 11
47.3824
 21
59.09658799999999
 31
0.0
  0
LINE
  5
36
330
1E
100
AcDbEntity
  8
0
100
AcDbLine
 10
31.0588
 20
59.09658799999999
 30
0.0
 11
39.0
 21
59.09658799999999
 31
0.0
  0
LINE
  5
37
330
1E
100
AcDbEntity
  8
0
100
AcDbLine
 10
29.3824
 20
72.09658799999999
 30
0.0
 11
37.67649999999999
 21
72.09658799999999
 31
0.0
  0
LINE
  5
38
330
1E
100
AcDbEntity
  8
0
100
AcDbLine
 10
37.67649999999999
 20
72.09658799999999
 30
0.0
 11
46.3235
 21
72.09658799999999
 31
0.0
  0
LINE
  5
39
330
1E
100
AcDbEntity
  8
0
100
AcDbLine
 10
51.5
 20
12.396388
 30
0.0
 11
52.4
 21
12.396388
 31
0.0
  0
LINE
  5
3A
330
1E
100
AcDbEntity
  8
0
100
AcDbLine
 10
50.0
 20
12.896388
 30
0.0
 11
50.89999999999999
 21
12.896388
 31
0.0
  0
LINE
  5
3B
330
1E
100
AcDbEntity
  8
0
100
AcDbLine
 10
50.0
 20
12.896388
 30
0.0
 11
51.5
 21
12.396388
 31
0.0
  0
LINE
  5
3C
330
1E
100
AcDbEntity
  8
0
100
AcDbLine
 10
49.5
 20
47.396388
 30
0.0
 11
50.4
 21
45.596388
 31
0.0
  0
LINE
  5
3D
330
1E
100
AcDbEntity
  8
0
100
AcDbLine
 10
49.5
 20
47.396388
 30
0.0
 11
50.5
 21
48.396388
 31
0.0
  0
LINE
  5
3E
330
1E
100
AcDbEntity
  8
0
100
AcDbLine
 10
49.5
 20
47.396388
 30
0.0
 11
49.5
 21
14.39638799999999
 31
0.0
  0
LINE
  5
3F
330
1E
100
AcDbEntity
  8
0
100
AcDbLine
 10
51.4
 20
48.396388
 30
0.0
 11
51.5
 21
48.396388
 31
0.0
  0
LINE
  5
40
330
1E
100
AcDbEntity
  8
0
100
AcDbLine
 10
51.0
 20
47.396388
 30
0.0
 11
51.5
 21
47.396388
 31
0.0
  0
LINE
  5
41
330
1E
100
AcDbEntity
  8
0
100
AcDbLine
 10
50.5
 20
48.396388
 30
0.0
 11
51.4
 21
46.59638799999999
 31
0.0
  0
LINE
  5
42
330
1E
100
AcDbEntity
  8
0
100
AcDbLine
 10
50.5
 20
48.396388
 30
0.0
 11
51.4
 21
48.396388
 31
0.0
  0
LINE
  5
43
330
1E
100
AcDbEntity
  8
0
100
AcDbLine
 10
51.4
 20
46.59638799999999
 30
0.0
 11
53.79999999999999
 21
44.996388
 31
0.0
  0
LINE
  5
44
330
1E
100
AcDbEntity
  8
0
100
AcDbLine
 10
50.4
 20
45.596388
 30
0.0
 11
52.9
 21
43.896388
 31
0.0
  0
LINE
  5
45
330
1E
100
AcDbEntity
  8
0
100
AcDbLine
 10
49.5
 20
14.39638799999999
 30
0.0
 11
50.0
 21
12.896388
 31
0.0
  0
LINE
  5
46
330
1E
100
AcDbEntity
  8
0
100
AcDbLine
 10
49.5
 20
14.39638799999999
 30
0.0
 11
49.5
 21
47.396388
 31
0.0
  0
LINE
  5
47
330
1E
100
AcDbEntity
  8
0
100
AcDbLine
 10
50.89999999999999
 20
12.896388
 30
0.0
 11
53.39999999999999
 21
12.896388
 31
0.0
  0
LINE
  5
48
330
1E
100
AcDbEntity
  8
0
100
AcDbLine
 10
52.4
 20
12.396388
 30
0.0
 11
54.6
 21
12.396388
 31
0.0
  0
LINE
  5
49
330
1E
100
AcDbEntity
  8
0
100
AcDbLine
 10
51.5
 20
47.396388
 30
0.0
 11
51.6625
 21
46.421388
 31
0.0
  0
LINE
  5
4A
330
1E
100
AcDbEntity
  8
0
100
AcDbLine
 10
51.5
 20
47.396388
 30
0.0
 11
51.5
 21
59.09658799999999
 31
0.0
  0
LINE
  5
4B
330
1E
100
AcDbEntity
  8
0
100
AcDbLine
 10
51.5
 20
59.09658799999999
 30
0.0
 11
51.5
 21
47.396388
 31
0.0
  0
LINE
  5
4C
330
1E
100
AcDbEntity
  8
0
100
AcDbLine
 10
51.5
 20
59.09658799999999
 30
0.0
 11
52.4
 21
59.09658799999999
 31
0.0
  0
LINE
  5
4D
330
1E
100
AcDbEntity
  8
0
100
AcDbLine
 10
54.6
 20
12.396388
 30
0.0
 11
58.39999999999999
 21
12.396388
 31
0.0
  0
LINE
  5
4E
330
1E
100
AcDbEntity
  8
0
100
AcDbLine
 10
58.39999999999999
 20
12.396388
 30
0.0
 11
63.3
 21
12.396388
 31
0.0
  0
LINE
  5
4F
330
1E
100
AcDbEntity
  8
0
100
AcDbLine
 10
53.39999999999999
 20
12.896388
 30
0.0
 11
57.3
 21
12.896388
 31
0.0
  0
LINE
  5
50
330
1E
100
AcDbEntity
  8
0
100
AcDbLine
 10
53.79999999999999
 20
44.996388
 30
0.0
 11
57.7
 21
43.59638799999999
 31
0.0
  0
LINE
  5
51
330
1E
100
AcDbEntity
  8
0
100
AcDbLine
 10
52.9
 20
43.896388
 30
0.0
 11
57.0
 21
42.396388
 31
0.0
  0
LINE
  5
52
330
1E
100
AcDbEntity
  8
0
100
AcDbLine
 10
58.0
 20
38.09658799999999
 30
0.0
 11
58.0
 21
25.096588
 31
0.0
  0
LINE
  5
53
330
1E
100
AcDbEntity
  8
0
100
AcDbLine
 10
58.0
 20
38.09658799999999
 30
0.0
 11
58.5667
 21
38.09658799999999
 31
0.0
  0
LINE
  5
54
330
1E
100
AcDbEntity
  8
0
100
AcDbLine
 10
58.0
 20
25.096588
 30
0.0
 11
60.2667
 21
23.596588
 31
0.0
  0
LINE
  5
55
330
1E
100
AcDbEntity
  8
0
100
AcDbLine
 10
58.0
 20
25.096588
 30
0.0
 11
58.0
 21
38.09658799999999
 31
0.0
  0
LINE
  5
56
330
1E
100
AcDbEntity
  8
0
100
AcDbLine
 10
58.0
 20
25.096588
 30
0.0
 11
58.5667
 21
25.096588
 31
0.0
  0
LINE
  5
57
330
1E
100
AcDbEntity
  8
0
100
AcDbLine
 10
57.7
 20
43.59638799999999
 30
0.0
 11
61.4
 21
42.8708978039216
 31
0.0
  0
LINE
  5
58
330
1E
100
AcDbEntity
  8
0
100
AcDbLine
 10
57.0
 20
42.396388
 30
0.0
 11
61.4
 21
41.4831804528302
 31
0.0
  0
LINE
  5
59
330
1E
100
AcDbEntity
  8
0
100
AcDbLine
 10
57.3
 20
12.896388
 30
0.0
 11
62.6
 21
12.896388
 31
0.0
  0
LINE
  5
5A
330
1E
100
AcDbEntity
  8
0
100
AcDbLine
 10
52.4
 20
59.09658799999999
 30
0.0
 11
54.6
 21
59.09658799999999
 31
0.0
  0
LINE
  5
5B
330
1E
100
AcDbEntity
  8
0
100
AcDbLine
 10
54.6
 20
59.09658799999999
 30
0.0
 11
58.39999999999999
 21
59.09658799999999
 31
0.0
  0
LINE
  5
5C
330
1E
100
AcDbEntity
  8
0
100
AcDbLine
 10
63.3
 20
12.396388
 30
0.0
 11
69.0
 21
12.396388
 31
0.0
  0
LINE
  5
5D
330
1E
100
AcDbEntity
  8
0
100
AcDbLine
 10
58.5667
 20
38.09658799999999
 30
0.0
 11
60.2667
 21
38.09658799999999
 31
0.0
  0
LINE
  5
5E
330
1E
100
AcDbEntity
  8
0
100
AcDbLine
 10
58.5667
 20
25.096588
 30
0.0
 11
60.2667
 21
25.096588
 31
0.0
  0
LINE
  5
5F
330
1E
100
AcDbEntity
  8
0
100
AcDbLine
 10
60.2667
 20
38.09658799999999
 30
0.0
 11
62.9867
 21
38.09658799999999
 31
0.0
  0
LINE
  5
60
330
1E
100
AcDbEntity
  8
0
100
AcDbLine
 10
60.2667
 20
25.096588
 30
0.0
 11
62.9867
 21
25.096588
 31
0.0
  0
LINE
  5
61
330
1E
100
AcDbEntity
  8
0
100
AcDbLine
 10
61.4
 20
38.09658799999999
 30
0.0
 11
61.4
 21
49.09658799999999
 31
0.0
  0
LINE
  5
62
330
1E
100
AcDbEntity
  8
0
100
AcDbLine
 10
60.2667
 20
23.596588
 30
0.0
 11
75.0
 21
23.096588
 31
0.0
  0
LINE
  5
63
330
1E
100
AcDbEntity
  8
0
100
AcDbLine
 10
61.4
 20
49.09658799999999
 30
0.0
 11
61.8533
 21
49.09658799999999
 31
0.0
  0
LINE
  5
64
330
1E
100
AcDbEntity
  8
0
100
AcDbLine
 10
61.4
 20
49.09658799999999
 30
0.0
 11
61.4
 21
38.09658799999999
 31
0.0
  0
LINE
  5
65
330
1E
100
AcDbEntity
  8
0
100
AcDbLine
 10
60.5
 20
50.096588
 30
0.0
 11
62.0
 21
50.096588
 31
0.0
  0
LINE
  5
66
330
1E
100
AcDbEntity
  8
0
100
AcDbLine
 10
62.9867
 20
38.09658799999999
 30
0.0
 11
66.5
 21
38.09658799999999
 31
0.0
  0
LINE
  5
67
330
1E
100
AcDbEntity
  8
0
100
AcDbLine
 10
62.9867
 20
25.096588
 30
0.0
 11
66.5
 21
25.096588
 31
0.0
  0
LINE
  5
68
330
1E
100
AcDbEntity
  8
0
100
AcDbLine
 10
61.8533
 20
49.09658799999999
 30
0.0
 11
63.21329999999999
 21
49.09658799999999
 31
0.0
  0
LINE
  5
69
330
1E
100
AcDbEntity
  8
0
100
AcDbLine
 10
62.0
 20
50.096588
 30
0.0
 11
64.40000000000001
 21
50.096588
 31
0.0
  0
LINE
  5
6A
330
1E
100
AcDbEntity
  8
0
100
AcDbLine
 10
63.21329999999999
 20
49.09658799999999
 30
0.0
 11
65.36669999999999
 21
49.09658799999999
 31
0.0
  0
LINE
  5
6B
330
1E
100
AcDbEntity
  8
0
100
AcDbLine
 10
64.40000000000001
 20
50.096588
 30
0.0
 11
67.5
 21
50.096588
 31
0.0
  0
LINE
  5
6C
330
1E
100
AcDbEntity
  8
0
100
AcDbLine
 10
60.0
 20
50.096588
 30
0.0
 11
61.4
 21
49.09658799999999
 31
0.0
  0
LINE
  5
6D
330
1E
100
AcDbEntity
  8
0
100
AcDbLine
 10
60.0
 20
50.096588
 30
0.0
 11
60.0
 21
59.09658799999999
 31
0.0
  0
LINE
  5
6E
330
1E
100
AcDbEntity
  8
0
100
AcDbLine
 10
60.0
 20
50.096588
 30
0.0
 11
60.5
 21
50.096588
 31
0.0
  0
LINE
  5
6F
330
1E
100
AcDbEntity
  8
0
100
AcDbLine
 10
62.6
 20
12.896388
 30
0.0
 11
68.59999999999999
 21
12.896388
 31
0.0
  0
LINE
  5
70
330
1E
100
AcDbEntity
  8
0
100
AcDbLine
 10
58.39999999999999
 20
59.09658799999999
 30
0.0
 11
90.0
 21
59.09658799999999
 31
0.0
  0
LINE
  5
71
330
1E
100
AcDbEntity
  8
0
100
AcDbLine
 10
60.0
 20
59.09658799999999
 30
0.0
 11
60.0
 21
50.096588
 31
0.0
  0
LINE
  5
72
330
1E
100
AcDbEntity
  8
0
100
AcDbLine
 10
47.3824
 20
59.09658799999999
 30
0.0
 11
51.5
 21
59.09658799999999
 31
0.0
  0
LINE
  5
73
330
1E
100
AcDbEntity
  8
0
100
AcDbLine
 10
46.3235
 20
72.09658799999999
 30
0.0
 11
55.6765
 21
72.09658799999999
 31
0.0
  0
LINE
  5
74
330
1E
100
AcDbEntity
  8
0
100
AcDbLine
 10
55.6765
 20
72.09658799999999
 30
0.0
 11
65.2059
 21
72.09658799999999
 31
0.0
  0
LINE
  5
75
330
1E
100
AcDbEntity
  8
0
100
AcDbLine
 10
66.5
 20
38.09658799999999
 30
0.0
 11
70.57999999999999
 21
38.09658799999999
 31
0.0
  0
LINE
  5
76
330
1E
100
AcDbEntity
  8
0
100
AcDbLine
 10
66.5
 20
25.096588
 30
0.0
 11
70.57999999999999
 21
25.096588
 31
0.0
  0
LINE
  5
77
330
1E
100
AcDbEntity
  8
0
100
AcDbLine
 10
65.36669999999999
 20
49.09658799999999
 30
0.0
 11
68.2
 21
49.09658799999999
 31
0.0
  0
LINE
  5
78
330
1E
100
AcDbEntity
  8
0
100
AcDbLine
 10
68.2
 20
49.09658799999999
 30
0.0
 11
71.4867
 21
49.09658799999999
 31
0.0
  0
LINE
  5
79
330
1E
100
AcDbEntity
  8
0
100
AcDbLine
 10
67.5
 20
50.096588
 30
0.0
 11
71.09999999999999
 21
50.096588
 31
0.0
  0
LINE
  5
7A
330
1E
100
AcDbEntity
  8
0
100
AcDbLine
 10
70.5
 20
12.396388
 30
0.0
 11
70.5
 21
4.250078
 31
0.0
  0
LINE
  5
7B
330
1E
100
AcDbEntity
  8
0
100
AcDbLine
 10
75.0
 20
-0.0965880000000028
 30
0.0
 11
76.2
 21
0.0965969999999972
 31
0.0
  0
LINE
  5
7C
330
1E
100
AcDbEntity
  8
0
100
AcDbLine
 10
75.0
 20
-0.0965880000000028
 30
0.0
 11
76.2
 21
0.0965969999999972
 31
0.0
  0
LINE
  5
7D
330
1E
100
AcDbEntity
  8
0
100
AcDbLine
 10
70.7
 20
3.090968
 30
0.0
 11
71.09999999999999
 21
2.125037999999999
 31
0.0
  0
LINE
  5
7E
330
1E
100
AcDbEntity
  8
0
100
AcDbLine
 10
71.09999999999999
 20
2.125037999999999
 30
0.0
 11
71.79999999999999
 21
1.159118
 31
0.0
  0
LINE
  5
7F
330
1E
100
AcDbEntity
  8
0
100
AcDbLine
 10
71.79999999999999
 20
1.159118
 30
0.0
 11
72.8
 21
0.4829679999999971
 31
0.0
  0
LINE
  5
80
330
1E
100
AcDbEntity
  8
0
100
AcDbLine
 10
71.79999999999999
 20
1.159118
 30
0.0
 11
72.8
 21
0.4829679999999971
 31
0.0
  0
LINE
  5
81
330
1E
100
AcDbEntity
  8
0
100
AcDbLine
 10
73.79999999999999
 20
0.0965969999999972
 30
0.0
 11
75.0
 21
-0.0965880000000028
 31
0.0
  0
LINE
  5
82
330
1E
100
AcDbEntity
  8
0
100
AcDbLine
 10
72.8
 20
0.4829679999999971
 30
0.0
 11
73.79999999999999
 21
0.0965969999999972
 31
0.0
  0
LINE
  5
83
330
1E
100
AcDbEntity
  8
0
100
AcDbLine
 10
73.79999999999999
 20
0.0965969999999972
 30
0.0
 11
75.0
 21
-0.0965880000000028
 31
0.0
  0
LINE
  5
84
330
1E
100
AcDbEntity
  8
0
100
AcDbLine
 10
70.5
 20
4.250078
 30
0.0
 11
70.5
 21
12.396388
 31
0.0
  0
LINE
  5
85
330
1E
100
AcDbEntity
  8
0
100
AcDbLine
 10
70.5
 20
4.250078
 30
0.0
 11
70.7
 21
3.090968
 31
0.0
  0
LINE
  5
86
330
1E
100
AcDbEntity
  8
0
100
AcDbLine
 10
70.57999999999999
 20
25.096588
 30
0.0
 11
75.0
 21
25.096588
 31
0.0
  0
LINE
  5
87
330
1E
100
AcDbEntity
  8
0
100
AcDbLine
 10
70.57999999999999
 20
38.09658799999999
 30
0.0
 11
75.0
 21
38.09658799999999
 31
0.0
  0
LINE
  5
88
330
1E
100
AcDbEntity
  8
0
100
AcDbLine
 10
75.0
 20
38.09658799999999
 30
0.0
 11
79.42
 21
38.09658799999999
 31
0.0
  0
LINE
  5
89
330
1E
100
AcDbEntity
  8
0
100
AcDbLine
 10
75.0
 20
25.096588
 30
0.0
 11
79.42
 21
25.096588
 31
0.0
  0
LINE
  5
8A
330
1E
100
AcDbEntity
  8
0
100
AcDbLine
 10
75.0
 20
23.096588
 30
0.0
 11
89.7333
 21
23.596588
 31
0.0
  0
LINE
  5
8B
330
1E
100
AcDbEntity
  8
0
100
AcDbLine
 10
75.0
 20
50.096588
 30
0.0
 11
78.9
 21
50.096588
 31
0.0
  0
LINE
  5
8C
330
1E
100
AcDbEntity
  8
0
100
AcDbLine
 10
75.0
 20
49.09658799999999
 30
0.0
 11
78.5133
 21
49.09658799999999
 31
0.0
  0
LINE
  5
8D
330
1E
100
AcDbEntity
  8
0
100
AcDbLine
 10
71.4867
 20
49.09658799999999
 30
0.0
 11
75.0
 21
49.09658799999999
 31
0.0
  0
LINE
  5
8E
330
1E
100
AcDbEntity
  8
0
100
AcDbLine
 10
71.09999999999999
 20
50.096588
 30
0.0
 11
75.0
 21
50.096588
 31
0.0
  0
LINE
  5
8F
330
1E
100
AcDbEntity
  8
0
100
AcDbLine
 10
75.0
 20
12.896388
 30
0.0
 11
81.4
 21
12.896388
 31
0.0
  0
LINE
  5
90
330
1E
100
AcDbEntity
  8
0
100
AcDbLine
 10
69.0
 20
12.396388
 30
0.0
 11
77.1140278988349
 21
12.396388
 31
0.0
  0
LINE
  5
91
330
1E
100
AcDbEntity
  8
0
100
AcDbLine
 10
68.59999999999999
 20
12.896388
 30
0.0
 11
75.0
 21
12.896388
 31
0.0
  0
LINE
  5
92
330
1E
100
AcDbEntity
  8
0
100
AcDbLine
 10
77.1140278988349
 20
12.396388
 30
0.0
 11
81.0
 21
12.396388
 31
0.0
  0
LINE
  5
93
330
1E
100
AcDbEntity
  8
0
100
AcDbLine
 10
77.2
 20
0.4829679999999971
 30
0.0
 11
78.2
 21
1.159118
 31
0.0
  0
LINE
  5
94
330
1E
100
AcDbEntity
  8
0
100
AcDbLine
 10
78.9
 20
50.096588
 30
0.0
 11
82.5
 21
50.096588
 31
0.0
  0
LINE
  5
95
330
1E
100
AcDbEntity
  8
0
100
AcDbLine
 10
78.5133
 20
49.09658799999999
 30
0.0
 11
81.79999999999999
 21
49.09658799999999
 31
0.0
  0
LINE
  5
96
330
1E
100
AcDbEntity
  8
0
100
AcDbLine
 10
79.42
 20
38.09658799999999
 30
0.0
 11
83.49999999999999
 21
38.09658799999999
 31
0.0
  0
LINE
  5
97
330
1E
100
AcDbEntity
  8
0
100
AcDbLine
 10
79.42
 20
25.096588
 30
0.0
 11
83.49999999999999
 21
25.096588
 31
0.0
  0
LINE
  5
98
330
1E
100
AcDbEntity
  8
0
100
AcDbLine
 10
79.5
 20
12.396388
 30
0.0
 11
79.5
 21
4.250078
 31
0.0
  0
LINE
  5
99
330
1E
100
AcDbEntity
  8
0
100
AcDbLine
 10
83.49999999999999
 20
25.096588
 30
0.0
 11
87.0133
 21
25.096588
 31
0.0
  0
LINE
  5
9A
330
1E
100
AcDbEntity
  8
0
100
AcDbLine
 10
83.49999999999999
 20
38.09658799999999
 30
0.0
 11
87.0133
 21
38.09658799999999
 31
0.0
  0
LINE
  5
9B
330
1E
100
AcDbEntity
  8
0
100
AcDbLine
 10
84.6333
 20
49.09658799999999
 30
0.0
 11
86.7867
 21
49.09658799999999
 31
0.0
  0
LINE
  5
9C
330
1E
100
AcDbEntity
  8
0
100
AcDbLine
 10
82.5
 20
50.096588
 30
0.0
 11
85.6
 21
50.096588
 31
0.0
  0
LINE
  5
9D
330
1E
100
AcDbEntity
  8
0
100
AcDbLine
 10
81.79999999999999
 20
49.09658799999999
 30
0.0
 11
84.6333
 21
49.09658799999999
 31
0.0
  0
LINE
  5
9E
330
1E
100
AcDbEntity
  8
0
100
AcDbLine
 10
81.4
 20
12.896388
 30
0.0
 11
87.4
 21
12.896388
 31
0.0
  0
LINE
  5
9F
330
1E
100
AcDbEntity
  8
0
100
AcDbLine
 10
81.0
 20
12.396388
 30
0.0
 11
86.69999999999999
 21
12.396388
 31
0.0
  0
LINE
  5
A0
330
1E
100
AcDbEntity
  8
0
100
AcDbLine
 10
79.5
 20
4.250078
 30
0.0
 11
79.5
 21
12.396388
 31
0.0
  0
LINE
  5
A1
330
1E
100
AcDbEntity
  8
0
100
AcDbLine
 10
79.29999999999999
 20
3.090968
 30
0.0
 11
79.5
 21
4.250078
 31
0.0
  0
LINE
  5
A2
330
1E
100
AcDbEntity
  8
0
100
AcDbLine
 10
78.9
 20
2.125037999999999
 30
0.0
 11
79.29999999999999
 21
3.090968
 31
0.0
  0
LINE
  5
A3
330
1E
100
AcDbEntity
  8
0
100
AcDbLine
 10
78.2
 20
1.159118
 30
0.0
 11
78.9
 21
2.125037999999999
 31
0.0
  0
LINE
  5
A4
330
1E
100
AcDbEntity
  8
0
100
AcDbLine
 10
77.2
 20
0.4829679999999971
 30
0.0
 11
78.2
 21
1.159118
 31
0.0
  0
LINE
  5
A5
330
1E
100
AcDbEntity
  8
0
100
AcDbLine
 10
76.2
 20
0.0965969999999972
 30
0.0
 11
77.2
 21
0.4829679999999971
 31
0.0
  0
LINE
  5
A6
330
1E
100
AcDbEntity
  8
0
100
AcDbLine
 10
91.6
 20
12.396388
 30
0.0
 11
95.4
 21
12.396388
 31
0.0
  0
LINE
  5
A7
330
1E
100
AcDbEntity
  8
0
100
AcDbLine
 10
87.0133
 20
38.09658799999999
 30
0.0
 11
89.7333
 21
38.09658799999999
 31
0.0
  0
LINE
  5
A8
330
1E
100
AcDbEntity
  8
0
100
AcDbLine
 10
87.0133
 20
25.096588
 30
0.0
 11
89.7333
 21
25.096588
 31
0.0
  0
LINE
  5
A9
330
1E
100
AcDbEntity
  8
0
100
AcDbLine
 10
86.7867
 20
49.09658799999999
 30
0.0
 11
88.14669999999999
 21
49.09658799999999
 31
0.0
  0
LINE
  5
AA
330
1E
100
AcDbEntity
  8
0
100
AcDbLine
 10
85.6
 20
50.096588
 30
0.0
 11
88.0
 21
50.096588
 31
0.0
  0
LINE
  5
AB
330
1E
100
AcDbEntity
  8
0
100
AcDbLine
 10
88.59999999999999
 20
38.09658799999999
 30
0.0
 11
88.59999999999999
 21
49.09658799999999
 31
0.0
  0
LINE
  5
AC
330
1E
100
AcDbEntity
  8
0
100
AcDbLine
 10
88.14669999999999
 20
49.09658799999999
 30
0.0
 11
88.59999999999999
 21
49.09658799999999
 31
0.0
  0
LINE
  5
AD
330
1E
100
AcDbEntity
  8
0
100
AcDbLine
 10
88.0
 20
50.096588
 30
0.0
 11
89.50000000000001
 21
50.096588
 31
0.0
  0
LINE
  5
AE
330
1E
100
AcDbEntity
  8
0
100
AcDbLine
 10
88.59999999999999
 20
49.09658799999999
 30
0.0
 11
90.0
 21
50.096588
 31
0.0
  0
LINE
  5
AF
330
1E
100
AcDbEntity
  8
0
100
AcDbLine
 10
88.59999999999999
 20
49.09658799999999
 30
0.0
 11
88.59999999999999
 21
38.09658799999999
 31
0.0
  0
LINE
  5
B0
330
1E
100
AcDbEntity
  8
0
100
AcDbLine
 10
88.59999999999999
 20
42.8708978039216
 30
0.0
 11
92.3
 21
43.59638799999999
 31
0.0
  0
LINE
  5
B1
330
1E
100
AcDbEntity
  8
0
100
AcDbLine
 10
92.0
 20
25.096588
 30
0.0
 11
92.0
 21
38.09658799999999
 31
0.0
  0
LINE
  5
B2
330
1E
100
AcDbEntity
  8
0
100
AcDbLine
 10
91.43299999999999
 20
25.096588
 30
0.0
 11
92.0
 21
25.096588
 31
0.0
  0
LINE
  5
B3
330
1E
100
AcDbEntity
  8
0
100
AcDbLine
 10
91.43299999999999
 20
38.09658799999999
 30
0.0
 11
92.0
 21
38.09658799999999
 31
0.0
  0
LINE
  5
B4
330
1E
100
AcDbEntity
  8
0
100
AcDbLine
 10
89.7333
 20
38.09658799999999
 30
0.0
 11
91.43299999999999
 21
38.09658799999999
 31
0.0
  0
LINE
  5
B5
330
1E
100
AcDbEntity
  8
0
100
AcDbLine
 10
89.7333
 20
25.096588
 30
0.0
 11
91.43299999999999
 21
25.096588
 31
0.0
  0
LINE
  5
B6
330
1E
100
AcDbEntity
  8
0
100
AcDbLine
 10
92.0
 20
38.09658799999999
 30
0.0
 11
92.0
 21
25.096588
 31
0.0
  0
LINE
  5
B7
330
1E
100
AcDbEntity
  8
0
100
AcDbLine
 10
89.7333
 20
23.596588
 30
0.0
 11
92.0
 21
25.096588
 31
0.0
  0
LINE
  5
B8
330
1E
100
AcDbEntity
  8
0
100
AcDbLine
 10
90.0
 20
50.096588
 30
0.0
 11
90.0
 21
59.09658799999999
 31
0.0
  0
LINE
  5
B9
330
1E
100
AcDbEntity
  8
0
100
AcDbLine
 10
89.50000000000001
 20
50.096588
 30
0.0
 11
90.0
 21
50.096588
 31
0.0
  0
LINE
  5
BA
330
1E
100
AcDbEntity
  8
0
100
AcDbLine
 10
91.6
 20
59.09658799999999
 30
0.0
 11
95.4
 21
59.09658799999999
 31
0.0
  0
LINE
  5
BB
330
1E
100
AcDbEntity
  8
0
100
AcDbLine
 10
90.0
 20
59.09658799999999
 30
0.0
 11
90.0
 21
50.096588
 31
0.0
  0
LINE
  5
BC
330
1E
100
AcDbEntity
  8
0
100
AcDbLine
 10
90.0
 20
59.09658799999999
 30
0.0
 11
91.6
 21
59.09658799999999
 31
0.0
  0
LINE
  5
BD
330
1E
100
AcDbEntity
  8
0
100
AcDbLine
 10
92.3
 20
43.59638799999999
 30
0.0
 11
96.2
 21
44.996388
 31
0.0
  0
LINE
  5
BE
330
1E
100
AcDbEntity
  8
0
100
AcDbLine
 10
93.0
 20
42.396388
 30
0.0
 11
97.1
 21
43.896388
 31
0.0
  0
LINE
  5
BF
330
1E
100
AcDbEntity
  8
0
100
AcDbLine
 10
88.59999999999999
 20
41.4831804528302
 30
0.0
 11
93.0
 21
42.396388
 31
0.0
  0
LINE
  5
C0
330
1E
100
AcDbEntity
  8
0
100
AcDbLine
 10
92.70000000000001
 20
12.896388
 30
0.0
 11
96.6
 21
12.896388
 31
0.0
  0
LINE
  5
C1
330
1E
100
AcDbEntity
  8
0
100
AcDbLine
 10
87.4
 20
12.896388
 30
0.0
 11
92.70000000000001
 21
12.896388
 31
0.0
  0
LINE
  5
C2
330
1E
100
AcDbEntity
  8
0
100
AcDbLine
 10
86.69999999999999
 20
12.396388
 30
0.0
 11
91.6
 21
12.396388
 31
0.0
  0
LINE
  5
C3
330
1E
100
AcDbEntity
  8
0
100
AcDbLine
 10
95.4
 20
59.09658799999999
 30
0.0
 11
97.59999999999999
 21
59.09658799999999
 31
0.0
  0
LINE
  5
C4
330
1E
100
AcDbEntity
  8
0
100
AcDbLine
 10
96.2
 20
44.996388
 30
0.0
 11
98.59999999999999
 21
46.59638799999999
 31
0.0
  0
LINE
  5
C5
330
1E
100
AcDbEntity
  8
0
100
AcDbLine
 10
97.59999999999999
 20
59.09658799999999
 30
0.0
 11
98.50000000000001
 21
59.09658799999999
 31
0.0
  0
LINE
  5
C6
330
1E
100
AcDbEntity
  8
0
100
AcDbLine
 10
97.1
 20
43.896388
 30
0.0
 11
99.6
 21
45.596388
 31
0.0
  0
LINE
  5
C7
330
1E
100
AcDbEntity
  8
0
100
AcDbLine
 10
96.6
 20
12.896388
 30
0.0
 11
99.1
 21
12.896388
 31
0.0
  0
LINE
  5
C8
330
1E
100
AcDbEntity
  8
0
100
AcDbLine
 10
98.33750000000001
 20
46.421388
 30
0.0
 11
98.50000000000001
 21
47.396388
 31
0.0
  0
LINE
  5
C9
330
1E
100
AcDbEntity
  8
0
100
AcDbLine
 10
98.50000000000001
 20
48.396388
 30
0.0
 11
98.59999999999999
 21
48.396388
 31
0.0
  0
LINE
  5
CA
330
1E
100
AcDbEntity
  8
0
100
AcDbLine
 10
98.50000000000001
 20
47.396388
 30
0.0
 11
99.0
 21
47.396388
 31
0.0
  0
LINE
  5
CB
330
1E
100
AcDbEntity
  8
0
100
AcDbLine
 10
98.50000000000001
 20
47.396388
 30
0.0
 11
98.50000000000001
 21
59.09658799999999
 31
0.0
  0
LINE
  5
CC
330
1E
100
AcDbEntity
  8
0
100
AcDbLine
 10
98.50000000000001
 20
12.396388
 30
0.0
 11
100.0
 21
12.896388
 31
0.0
  0
LINE
  5
CD
330
1E
100
AcDbEntity
  8
0
100
AcDbLine
 10
97.59999999999999
 20
12.396388
 30
0.0
 11
98.50000000000001
 21
12.396388
 31
0.0
  0
LINE
  5
CE
330
1E
100
AcDbEntity
  8
0
100
AcDbLine
 10
95.4
 20
12.396388
 30
0.0
 11
97.59999999999999
 21
12.396388
 31
0.0
  0
LINE
  5
CF
330
1E
100
AcDbEntity
  8
0
100
AcDbLine
 10
98.59999999999999
 20
46.59638799999999
 30
0.0
 11
99.50000000000001
 21
48.396388
 31
0.0
  0
LINE
  5
D0
330
1E
100
AcDbEntity
  8
0
100
AcDbLine
 10
99.6
 20
45.596388
 30
0.0
 11
100.5
 21
47.396388
 31
0.0
  0
LINE
  5
D1
330
1E
100
AcDbEntity
  8
0
100
AcDbLine
 10
99.1
 20
12.896388
 30
0.0
 11
100.0
 21
12.896388
 31
0.0
  0
LINE
  5
D2
330
1E
100
AcDbEntity
  8
0
100
AcDbLine
 10
98.59999999999999
 20
48.396388
 30
0.0
 11
99.50000000000001
 21
48.396388
 31
0.0
  0
LINE
  5
D3
330
1E
100
AcDbEntity
  8
0
100
AcDbLine
 10
99.50000000000001
 20
48.396388
 30
0.0
 11
100.5
 21
47.396388
 31
0.0
  0
LINE
  5
D4
330
1E
100
AcDbEntity
  8
0
100
AcDbLine
 10
100.5
 20
47.396388
 30
0.0
 11
100.5
 21
14.39638799999999
 31
0.0
  0
LINE
  5
D5
330
1E
100
AcDbEntity
  8
0
100
AcDbLine
 10
100.5
 20
14.39638799999999
 30
0.0
 11
100.5
 21
47.396388
 31
0.0
  0
LINE
  5
D6
330
1E
100
AcDbEntity
  8
0
100
AcDbLine
 10
100.0
 20
12.896388
 30
0.0
 11
100.5
 21
14.39638799999999
 31
0.0
  0
LINE
  5
D7
330
1E
100
AcDbEntity
  8
0
100
AcDbLine
 10
111.0
 20
59.09658799999999
 30
0.0
 11
118.941
 21
59.09658799999999
 31
0.0
  0
LINE
  5
D8
330
1E
100
AcDbEntity
  8
0
100
AcDbLine
 10
102.6179999999999
 20
59.09658799999999
 30
0.0
 11
111.0
 21
59.09658799999999
 31
0.0
  0
LINE
  5
D9
330
1E
100
AcDbEntity
  8
0
100
AcDbLine
 10
98.50000000000001
 20
59.09658799999999
 30
0.0
 11
102.6179999999999
 21
59.09658799999999
 31
0.0
  0
LINE
  5
DA
330
1E
100
AcDbEntity
  8
0
100
AcDbLine
 10
98.50000000000001
 20
59.09658799999999
 30
0.0
 11
98.50000000000001
 21
47.396388
 31
0.0
  0
LINE
  5
DB
330
1E
100
AcDbEntity
  8
0
100
AcDbLine
 10
94.32349999999999
 20
72.09658799999999
 30
0.0
 11
103.676
 21
72.09658799999999
 31
0.0
  0
LINE
  5
DC
330
1E
100
AcDbEntity
  8
0
100
AcDbLine
 10
84.79409999999999
 20
72.09658799999999
 30
0.0
 11
94.32349999999999
 21
72.09658799999999
 31
0.0
  0
LINE
  5
DD
330
1E
100
AcDbEntity
  8
0
100
AcDbLine
 10
75.0
 20
72.09658799999999
 30
0.0
 11
84.79409999999999
 21
72.09658799999999
 31
0.0
  0
LINE
  5
DE
330
1E
100
AcDbEntity
  8
0
100
AcDbLine
 10
103.676
 20
72.09658799999999
 30
0.0
 11
112.324
 21
72.09658799999999
 31
0.0
  0
LINE
  5
DF
330
1E
100
AcDbEntity
  8
0
100
AcDbLine
 10
126.088
 20
59.09658799999999
 30
0.0
 11
132.3529999999999
 21
59.09658799999999
 31
0.0
  0
LINE
  5
E0
330
1E
100
AcDbEntity
  8
0
100
AcDbLine
 10
118.941
 20
59.09658799999999
 30
0.0
 11
126.088
 21
59.09658799999999
 31
0.0
  0
LINE
  5
E1
330
1E
100
AcDbEntity
  8
0
100
AcDbLine
 10
132.3529999999999
 20
59.09658799999999
 30
0.0
 11
137.647
 21
59.09658799999999
 31
0.0
  0
LINE
  5
E2
330
1E
100
AcDbEntity
  8
0
100
AcDbLine
 10
112.324
 20
72.09658799999999
 30
0.0
 11
120.618
 21
72.09658799999999
 31
0.0
  0
LINE
  5
E3
330
1E
100
AcDbEntity
  8
0
100
AcDbLine
 10
127.941
 20
72.09658799999999
 30
0.0
 11
134.382
 21
72.09658799999999
 31
0.0
  0
LINE
  5
E4
330
1E
100
AcDbEntity
  8
0
100
AcDbLine
 10
137.647
 20
59.09658799999999
 30
0.0
 11
141.706
 21
59.09658799999999
 31
0.0
  0
LINE
  5
E5
330
1E
100
AcDbEntity
  8
0
100
AcDbLine
 10
141.706
 20
59.09658799999999
 30
0.0
 11
144.706
 21
59.09658799999999
 31
0.0
  0
LINE
  5
E6
330
1E
100
AcDbEntity
  8
0
100
AcDbLine
 10
134.382
 20
72.09658799999999
 30
0.0
 11
139.941
 21
72.09658799999999
 31
0.0
  0
LINE
  5
E7
330
1E
100
AcDbEntity
  8
0
100
AcDbLine
 10
139.941
 20
72.09658799999999
 30
0.0
 11
144.176
 21
72.09658799999999
 31
0.0
  0
LINE
  5
E8
330
1E
100
AcDbEntity
  8
0
100
AcDbLine
 10
144.706
 20
59.09658799999999
 30
0.0
 11
146.647
 21
59.09658799999999
 31
0.0
  0
LINE
  5
E9
330
1E
100
AcDbEntity
  8
0
100
AcDbLine
 10
146.647
 20
59.09658799999999
 30
0.0
 11
147.3529999999999
 21
59.09658799999999
 31
0.0
  0
LINE
  5
EA
330
1E
100
AcDbEntity
  8
0
100
AcDbLine
 10
148.5879999999999
 20
59.59658799999999
 30
0.0
 11
149.5589999999999
 21
60.696588
 31
0.0
  0
LINE
  5
EB
330
1E
100
AcDbEntity
  8
0
100
AcDbLine
 10
147.3529999999999
 20
59.09658799999999
 30
0.0
 11
148.5879999999999
 21
59.59658799999999
 31
0.0
  0
LINE
  5
EC
330
1E
100
AcDbEntity
  8
0
100
AcDbLine
 10
144.176
 20
72.09658799999999
 30
0.0
 11
147.2649999999999
 21
72.09658799999999
 31
0.0
  0
LINE
  5
ED
330
1E
100
AcDbEntity
  8
0
100
AcDbLine
 10
147.2649999999999
 20
72.09658799999999
 30
0.0
 11
149.206
 21
72.09658799999999
 31
0.0
  0
LINE
  5
EE
330
1E
100
AcDbEntity
  8
0
100
AcDbLine
 10
149.5589999999999
 20
60.696588
 30
0.0
 11
150.0
 21
62.09658799999999
 31
0.0
  0
LINE
  5
EF
330
1E
100
AcDbEntity
  8
0
100
AcDbLine
 10
150.0
 20
72.09658799999999
 30
0.0
 11
150.0
 21
62.09658799999999
 31
0.0
  0
LINE
  5
F0
330
1E
100
AcDbEntity
  8
0
100
AcDbLine
 10
150.0
 20
62.09658799999999
 30
0.0
 11
150.0
 21
72.09658799999999
 31
0.0
  0
LINE
  5
F1
330
1E
100
AcDbEntity
  8
0
100
AcDbLine
 10
149.206
 20
72.09658799999999
 30
0.0
 11
150.0
 21
72.09658799999999
 31
0.0
  0
LINE
  5
F2
330
1E
100
AcDbEntity
  8
0
100
AcDbLine
 10
120.618
 20
72.09658799999999
 30
0.0
 11
127.941
 21
72.09658799999999
 31
0.0
  0
LINE
  5
F3
330
1E
100
AcDbEntity
  8
0
100
AcDbLine
 10
65.2059
 20
72.09658799999999
 30
0.0
 11
75.0
 21
72.09658799999999
 31
0.0
  0
ENDSEC
  0
SECTION
  2
OBJECTS
  0
DICTIONARY
  5
C
330
0
100
AcDbDictionary
  3
ACAD_GROUP
350
D
  3
ACAD_LAYOUT
350
19
  3
ACAD_MLINESTYLE
350
16
  3
ACAD_PLOTSETTINGS
350
18
  3
ACAD_PLOTSTYLENAME
350
E
  3
ACDBHEADERROUNDTRIPXREC
350
FB
  3
ACDBVARIABLEDICTIONARY
350
F8
  0
DICTIONARY
  5
11D
330
1E
100
AcDbDictionary
280
     1
  3
ACAD_LAYOUTSELFREF
360
11E
  0
DICTIONARY
  5
11B
330
1A
100
AcDbDictionary
280
     1
  3
ACAD_LAYOUTSELFREF
360
11C
  0
DICTIONARY
  5
D
102
{ACAD_REACTORS
330
C
102
}
330
C
100
AcDbDictionary
  0
DICTIONARY
  5
19
102
{ACAD_REACTORS
330
C
102
}
330
C
100
AcDbDictionary
  0
DICTIONARY
  5
16
102
{ACAD_REACTORS
330
C
102
}
330
C
100
AcDbDictionary
  3
STANDARD
350
17
  0
DICTIONARY
  5
18
102
{ACAD_REACTORS
330
C
102
}
330
C
100
AcDbDictionary
  0
ACDBDICTIONARYWDFLT
  5
E
102
{ACAD_REACTORS
330
C
102
}
330
C
100
AcDbDictionary
281
     1
  3
Normal
350
F
100
AcDbDictionaryWithDefault
340
F
  0
DICTIONARY
  5
FB
102
{ACAD_REACTORS
330
C
102
}
330
C
100
AcDbDictionary
  3
CEPSNTYPE
350
105
  3
FINGERPRINTGUID
350
106
  3
HYPERLINKBASE
350
FE
  3
INSUNITS
350
104
  3
LAYOUTDICT
350
100
  3
LWETCUNION
350
103
  3
PLOTSETDICT
350
101
  3
PLOTSTYLNAMDICT
350
102
  3
PSVPSCALE
350
108
  3
PUCSBASE
350
10B
  3
PUCSORGBACK
350
111
  3
PUCSORGBOTTOM
350
10D
  3
PUCSORGFRONT
350
110
  3
PUCSORGLEFT
350
10E
  3
PUCSORGRIGHT
350
10F
  3
PUCSORGTOP
350
10C
  3
PUCSORTHOREF
350
109
  3
PUCSORTHOVIEW
350
10A
  3
STYLESHEET
350
FF
  3
TSTACKALIGN
350
FC
  3
TSTACKSIZE
350
FD
  3
UCSBASE
350
114
  3
UCSORGBACK
350
11A
  3
UCSORGBOTTOM
350
116
  3
UCSORGFRONT
350
119
  3
UCSORGLEFT
350
117
  3
UCSORGRIGHT
350
118
  3
UCSORGTOP
350
115
  3
UCSORTHOREF
350
112
  3
UCSORTHOVIEW
350
113
  3
VERSIONGUID
350
107
  0
DICTIONARY
  5
F8
102
{ACAD_REACTORS
330
C
102
}
330
C
100
AcDbDictionary
  3
DIMASSOC
350
F9
  0
XRECORD
  5
11E
102
{ACAD_REACTORS
330
11D
102
}
330
11D
100
AcDbXrecord
340
1E
  0
XRECORD
  5
11C
102
{ACAD_REACTORS
330
11B
102
}
330
11B
100
AcDbXrecord
340
1A
  0
MLINESTYLE
  5
17
102
{ACAD_REACTORS
330
16
102
}
330
16
100
AcDbMlineStyle
  2
STANDARD
 70
     0
  3

 62
   256
 51
90.0
 52
90.0
 71
     2
 49
0.5
 62
   256
  6
BYLAYER
 49
-0.5
 62
   256
  6
BYLAYER
  0
ACDBPLACEHOLDER
  5
F
102
{ACAD_REACTORS
330
E
102
}
330
E
100
AcDbPlaceHolder
280
     0
  0
XRECORD
  5
105
102
{ACAD_REACTORS
330
FB
102
}
330
FB
100
AcDbXrecord
 90
        0
  0
XRECORD
  5
106
102
{ACAD_REACTORS
330
FB
102
}
330
FB
100
AcDbXrecord
  1
{3BD556AC-923D-410D-A369-85D2357DAF9B}
  0
XRECORD
  5
FE
102
{ACAD_REACTORS
330
FB
102
}
330
FB
100
AcDbXrecord
  1

  0
XRECORD
  5
104
102
{ACAD_REACTORS
330
FB
102
}
330
FB
100
AcDbXrecord
 90
        0
  0
XRECORD
  5
100
102
{ACAD_REACTORS
330
FB
102
}
330
FB
100
AcDbXrecord
340
19
  0
XRECORD
  5
103
102
{ACAD_REACTORS
330
FB
102
}
330
FB
100
AcDbXrecord
 90
    10781
  0
XRECORD
  5
101
102
{ACAD_REACTORS
330
FB
102
}
330
FB
100
AcDbXrecord
340
18
  0
XRECORD
  5
102
102
{ACAD_REACTORS
330
FB
102
}
330
FB
100
AcDbXrecord
340
E
  0
XRECORD
  5
108
102
{ACAD_REACTORS
330
FB
102
}
330
FB
100
AcDbXrecord
 40
0.0
  0
XRECORD
  5
10B
102
{ACAD_REACTORS
330
FB
102
}
330
FB
100
AcDbXrecord
340
0
  0
XRECORD
  5
111
102
{ACAD_REACTORS
330
FB
102
}
330
FB
100
AcDbXrecord
 10
0.0
 20
0.0
 30
0.0
  0
XRECORD
  5
10D
102
{ACAD_REACTORS
330
FB
102
}
330
FB
100
AcDbXrecord
 10
0.0
 20
0.0
 30
0.0
  0
XRECORD
  5
110
102
{ACAD_REACTORS
330
FB
102
}
330
FB
100
AcDbXrecord
 10
0.0
 20
0.0
 30
0.0
  0
XRECORD
  5
10E
102
{ACAD_REACTORS
330
FB
102
}
330
FB
100
AcDbXrecord
 10
0.0
 20
0.0
 30
0.0
  0
XRECORD
  5
10F
102
{ACAD_REACTORS
330
FB
102
}
330
FB
100
AcDbXrecord
 10
0.0
 20
0.0
 30
0.0
  0
XRECORD
  5
10C
102
{ACAD_REACTORS
330
FB
102
}
330
FB
100
AcDbXrecord
 10
0.0
 20
0.0
 30
0.0
  0
XRECORD
  5
109
102
{ACAD_REACTORS
330
FB
102
}
330
FB
100
AcDbXrecord
340
0
  0
XRECORD
  5
10A
102
{ACAD_REACTORS
330
FB
102
}
330
FB
100
AcDbXrecord
 70
     0
  0
XRECORD
  5
FF
102
{ACAD_REACTORS
330
FB
102
}
330
FB
100
AcDbXrecord
  1

  0
XRECORD
  5
FC
102
{ACAD_REACTORS
330
FB
102
}
330
FB
100
AcDbXrecord
 90
        1
  0
XRECORD
  5
FD
102
{ACAD_REACTORS
330
FB
102
}
330
FB
100
AcDbXrecord
 90
       70
  0
XRECORD
  5
114
102
{ACAD_REACTORS
330
FB
102
}
330
FB
100
AcDbXrecord
340
0
  0
XRECORD
  5
11A
102
{ACAD_REACTORS
330
FB
102
}
330
FB
100
AcDbXrecord
 10
0.0
 20
0.0
 30
0.0
  0
XRECORD
  5
116
102
{ACAD_REACTORS
330
FB
102
}
330
FB
100
AcDbXrecord
 10
0.0
 20
0.0
 30
0.0
  0
XRECORD
  5
119
102
{ACAD_REACTORS
330
FB
102
}
330
FB
100
AcDbXrecord
 10
0.0
 20
0.0
 30
0.0
  0
XRECORD
  5
117
102
{ACAD_REACTORS
330
FB
102
}
330
FB
100
AcDbXrecord
 10
0.0
 20
0.0
 30
0.0
  0
XRECORD
  5
118
102
{ACAD_REACTORS
330
FB
102
}
330
FB
100
AcDbXrecord
 10
0.0
 20
0.0
 30
0.0
  0
XRECORD
  5
115
102
{ACAD_REACTORS
330
FB
102
}
330
FB
100
AcDbXrecord
 10
0.0
 20
0.0
 30
0.0
  0
XRECORD
  5
112
102
{ACAD_REACTORS
330
FB
102
}
330
FB
100
AcDbXrecord
340
0
  0
XRECORD
  5
113
102
{ACAD_REACTORS
330
FB
102
}
330
FB
100
AcDbXrecord
 70
     1
  0
XRECORD
  5
107
102
{ACAD_REACTORS
330
FB
102
}
330
FB
100
AcDbXrecord
  1
{A4096D67-DB53-4D5D-8E78-EF185974B50D}
  0
DICTIONARYVAR
  5
F9
102
{ACAD_REACTORS
330
F8
102
}
330
F8
100
DictionaryVariables
280
     0
  1
1
  0
ENDSEC
  0
EOF
