  0
SECTION
  2
HEADER
  9
$ACADVER
  1
AC1014
  9
$ACADMAINTVER
 70
     9
  9
$DWGCODEPAGE
  3
ANSI_1252
  9
$INSBASE
 10
0.0
 20
0.0
 30
0.0
  9
$EXTMIN
 10
-0.249974999999997
 20
-0.0225000000000063
 30
0.0
  9
$EXTMAX
 10
147.249975
 20
159.0225
 30
0.0
  9
$LIMMIN
 10
0.0
 20
0.0
  9
$LIMMAX
 10
12.0
 20
9.0
  9
$ORTHOMODE
 70
     0
  9
$REGENMODE
 70
     1
  9
$FILLMODE
 70
     1
  9
$QTEXTMODE
 70
     0
  9
$MIRRTEXT
 70
     1
  9
$DRAGMODE
 70
     2
  9
$LTSCALE
 40
1.0
  9
$OSMODE
 70
    37
  9
$ATTMODE
 70
     1
  9
$TEXTSIZE
 40
0.2
  9
$TRACEWID
 40
0.05
  9
$TEXTSTYLE
  7
STANDARD
  9
$CLAYER
  8
0
  9
$CELTYPE
  6
CONTINUOUS
  9
$CECOLOR
 62
   256
  9
$CELTSCALE
 40
1.0
  9
$DELOBJ
 70
     1
  9
$DISPSILH
 70
     0
  9
$DIMSCALE
 40
1.0
  9
$DIMASZ
 40
0.18
  9
$DIMEXO
 40
0.0625
  9
$DIMDLI
 40
0.38
  9
$DIMRND
 40
0.0
  9
$DIMDLE
 40
0.0
  9
$DIMEXE
 40
0.18
  9
$DIMTP
 40
0.0
  9
$DIMTM
 40
0.0
  9
$DIMTXT
 40
0.18
  9
$DIMCEN
 40
0.09
  9
$DIMTSZ
 40
0.0
  9
$DIMTOL
 70
     0
  9
$DIMLIM
 70
     0
  9
$DIMTIH
 70
     1
  9
$DIMTOH
 70
     1
  9
$DIMSE1
 70
     0
  9
$DIMSE2
 70
     0
  9
$DIMTAD
 70
     0
  9
$DIMZIN
 70
     0
  9
$DIMBLK
  1

  9
$DIMASO
 70
     1
  9
$DIMSHO
 70
     1
  9
$DIMPOST
  1

  9
$DIMAPOST
  1

  9
$DIMALT
 70
     0
  9
$DIMALTD
 70
     2
  9
$DIMALTF
 40
25.4
  9
$DIMLFAC
 40
1.0
  9
$DIMTOFL
 70
     0
  9
$DIMTVP
 40
0.0
  9
$DIMTIX
 70
     0
  9
$DIMSOXD
 70
     0
  9
$DIMSAH
 70
     0
  9
$DIMBLK1
  1

  9
$DIMBLK2
  1

  9
$DIMSTYLE
  2
STANDARD
  9
$DIMCLRD
 70
     0
  9
$DIMCLRE
 70
     0
  9
$DIMCLRT
 70
     0
  9
$DIMTFAC
 40
1.0
  9
$DIMGAP
 40
0.09
  9
$DIMJUST
 70
     0
  9
$DIMSD1
 70
     0
  9
$DIMSD2
 70
     0
  9
$DIMTOLJ
 70
     1
  9
$DIMTZIN
 70
     0
  9
$DIMALTZ
 70
     0
  9
$DIMALTTZ
 70
     0
  9
$DIMFIT
 70
     3
  9
$DIMUPT
 70
     0
  9
$DIMUNIT
 70
     2
  9
$DIMDEC
 70
     4
  9
$DIMTDEC
 70
     4
  9
$DIMALTU
 70
     2
  9
$DIMALTTD
 70
     2
  9
$DIMTXSTY
  7
STANDARD
  9
$DIMAUNIT
 70
     0
  9
$LUNITS
 70
     2
  9
$LUPREC
 70
     4
  9
$SKETCHINC
 40
0.1
  9
$FILLETRAD
 40
0.0
  9
$AUNITS
 70
     0
  9
$AUPREC
 70
     0
  9
$MENU
  1
.
  9
$ELEVATION
 40
0.0
  9
$PELEVATION
 40
0.0
  9
$THICKNESS
 40
0.0
  9
$LIMCHECK
 70
     0
  9
$BLIPMODE
 70
     0
  9
$CHAMFERA
 40
0.0
  9
$CHAMFERB
 40
0.0
  9
$CHAMFERC
 40
0.0
  9
$CHAMFERD
 40
0.0
  9
$SKPOLY
 70
     0
  9
$TDCREATE
 40
2454699.450401828
  9
$TDUPDATE
 40
2454699.453072731
  9
$TDINDWG
 40
0.0026710880
  9
$TDUSRTIMER
 40
0.0026710880
  9
$USRTIMER
 70
     1
  9
$ANGBASE
 50
0.0
  9
$ANGDIR
 70
     0
  9
$PDMODE
 70
     0
  9
$PDSIZE
 40
0.0
  9
$PLINEWID
 40
0.0
  9
$COORDS
 70
     1
  9
$SPLFRAME
 70
     0
  9
$SPLINETYPE
 70
     6
  9
$SPLINESEGS
 70
     8
  9
$ATTDIA
 70
     0
  9
$ATTREQ
 70
     1
  9
$HANDLING
 70
 22529
  9
$HANDSEED
  5
1E5
  9
$SURFTAB1
 70
     6
  9
$SURFTAB2
 70
     6
  9
$SURFTYPE
 70
     6
  9
$SURFU
 70
     6
  9
$SURFV
 70
     6
  9
$UCSNAME
  2

  9
$UCSORG
 10
0.0
 20
0.0
 30
0.0
  9
$UCSXDIR
 10
1.0
 20
0.0
 30
0.0
  9
$UCSYDIR
 10
0.0
 20
1.0
 30
0.0
  9
$PUCSNAME
  2

  9
$PUCSORG
 10
0.0
 20
0.0
 30
0.0
  9
$PUCSXDIR
 10
1.0
 20
0.0
 30
0.0
  9
$PUCSYDIR
 10
0.0
 20
1.0
 30
0.0
  9
$USERI1
 70
     0
  9
$USERI2
 70
     0
  9
$USERI3
 70
     0
  9
$USERI4
 70
     0
  9
$USERI5
 70
     0
  9
$USERR1
 40
0.0
  9
$USERR2
 40
0.0
  9
$USERR3
 40
0.0
  9
$USERR4
 40
0.0
  9
$USERR5
 40
0.0
  9
$WORLDVIEW
 70
     1
  9
$SHADEDGE
 70
     3
  9
$SHADEDIF
 70
    70
  9
$TILEMODE
 70
     1
  9
$MAXACTVP
 70
    64
  9
$PINSBASE
 10
0.0
 20
0.0
 30
0.0
  9
$PLIMCHECK
 70
     0
  9
$PEXTMIN
 10
1.000000000000000E+20
 20
1.000000000000000E+20
 30
1.000000000000000E+20
  9
$PEXTMAX
 10
-1.000000000000000E+20
 20
-1.000000000000000E+20
 30
-1.000000000000000E+20
  9
$PLIMMIN
 10
0.0
 20
0.0
  9
$PLIMMAX
 10
12.0
 20
9.0
  9
$UNITMODE
 70
     0
  9
$VISRETAIN
 70
     1
  9
$PLINEGEN
 70
     0
  9
$PSLTSCALE
 70
     1
  9
$TREEDEPTH
 70
  3020
  9
$PICKSTYLE
 70
     1
  9
$CMLSTYLE
  2
STANDARD
  9
$CMLJUST
 70
     0
  9
$CMLSCALE
 40
1.0
  9
$PROXYGRAPHICS
 70
     1
  9
$MEASUREMENT
 70
     0
  0
ENDSEC
  0
SECTION
  2
CLASSES
  0
CLASS
  1
ACDBDICTIONARYWDFLT
  2
AcDbDictionaryWithDefault
  3
AutoCAD 2000
 90
        0
280
     0
281
     0
  0
CLASS
  1
ACDBPLACEHOLDER
  2
AcDbPlaceHolder
  3
AutoCAD 2000
 90
        0
280
     0
281
     0
  0
CLASS
  1
LAYOUT
  2
AcDbLayout
  3
AutoCAD 2000
 90
        0
280
     0
281
     0
  0
CLASS
  1
DICTIONARYVAR
  2
AcDbDictionaryVar
  3
AutoCAD 2000
 90
        0
280
     0
281
     0
  0
CLASS
  1
LONG_TRANSACTION
  2
AcDbLongTransaction
  3
AutoCAD 2000
 90
        0
280
     0
281
     0
  0
CLASS
  1
LWPOLYLINE
  2
AcDbPolyline
  3
AutoCAD 2000
 90
        0
280
     0
281
     1
  0
CLASS
  1
HATCH
  2
AcDbHatch
  3
AutoCAD 2000
 90
        0
280
     0
281
     1
  0
CLASS
  1
XRECORD
  2
AcDbXrecord
  3
AutoCAD 2000
 90
        0
280
     0
281
     0
  0
ENDSEC
  0
SECTION
  2
TABLES
  0
TABLE
  2
VPORT
  5
8
330
0
100
AcDbSymbolTable
 70
     7
  0
VPORT
  5
1C0
330
8
100
AcDbSymbolTableRecord
100
AcDbViewportTableRecord
  2
*ACTIVE
 70
     0
 10
0.0
 20
0.0
 11
1.0
 21
1.0
 12
73.50000000000001
 22
79.5
 13
0.0
 23
0.0
 14
1.0
 24
1.0
 15
0.0
 25
0.0
 16
0.0
 26
0.0
 36
1.0
 17
0.0
 27
0.0
 37
0.0
 40
160.265294117647
 41
2.078104993597951
 42
50.0
 43
0.0
 44
0.0
 50
0.0
 51
0.0
 71
     0
 72
   100
 73
     1
 74
     3
 75
     0
 76
     0
 77
     0
 78
     0
  0
ENDTAB
  0
TABLE
  2
LTYPE
  5
5
330
0
100
AcDbSymbolTable
 70
     1
  0
LTYPE
  5
13
330
5
100
AcDbSymbolTableRecord
100
AcDbLinetypeTableRecord
  2
BYBLOCK
 70
     0
  3

 72
    65
 73
     0
 40
0.0
  0
LTYPE
  5
14
330
5
100
AcDbSymbolTableRecord
100
AcDbLinetypeTableRecord
  2
BYLAYER
 70
     0
  3

 72
    65
 73
     0
 40
0.0
  0
LTYPE
  5
15
330
5
100
AcDbSymbolTableRecord
100
AcDbLinetypeTableRecord
  2
CONTINUOUS
 70
     0
  3
Solid line
 72
    65
 73
     0
 40
0.0
  0
ENDTAB
  0
TABLE
  2
LAYER
  5
2
330
0
100
AcDbSymbolTable
 70
     1
  0
LAYER
  5
10
330
2
100
AcDbSymbolTableRecord
100
AcDbLayerTableRecord
  2
0
 70
     0
 62
     7
  6
CONTINUOUS
  0
ENDTAB
  0
TABLE
  2
STYLE
  5
3
330
0
100
AcDbSymbolTable
 70
     1
  0
STYLE
  5
11
330
3
100
AcDbSymbolTableRecord
100
AcDbTextStyleTableRecord
  2
STANDARD
 70
     0
 40
0.0
 41
1.0
 50
0.0
 71
     0
 42
0.2
  3
txt
  4

  0
ENDTAB
  0
TABLE
  2
VIEW
  5
6
330
0
100
AcDbSymbolTable
 70
     0
  0
ENDTAB
  0
TABLE
  2
UCS
  5
7
330
0
100
AcDbSymbolTable
 70
     0
  0
ENDTAB
  0
TABLE
  2
APPID
  5
9
330
0
100
AcDbSymbolTable
 70
     1
  0
APPID
  5
12
330
9
100
AcDbSymbolTableRecord
100
AcDbRegAppTableRecord
  2
ACAD
 70
     0
  0
ENDTAB
  0
TABLE
  2
DIMSTYLE
  5
A
330
0
100
AcDbSymbolTable
 70
     1
  0
DIMSTYLE
105
101
330
A
100
AcDbSymbolTableRecord
100
AcDbDimStyleTableRecord
  2
STANDARD
 70
     0
  3

  4

  5

  6

  7

 40
1.0
 41
0.18
 42
0.0625
 43
0.38
 44
0.18
 45
0.0
 46
0.0
 47
0.0
 48
0.0
140
0.18
141
0.09
142
0.0
143
25.4
144
1.0
145
0.0
146
1.0
147
0.09
 71
     0
 72
     0
 73
     1
 74
     1
 75
     0
 76
     0
 77
     0
 78
     0
170
     0
171
     2
172
     0
173
     0
174
     0
175
     0
176
     0
177
     0
178
     0
270
     2
271
     4
272
     4
273
     2
274
     2
340
11
275
     0
280
     0
281
     0
282
     0
283
     1
284
     0
285
     0
286
     0
287
     3
288
     0
  0
ENDTAB
  0
TABLE
  2
BLOCK_RECORD
  5
1
330
0
100
AcDbSymbolTable
 70
     0
  0
BLOCK_RECORD
  5
1E
102
{ACAD_XDICTIONARY
360
1E3
102
}
330
1
100
AcDbSymbolTableRecord
100
AcDbBlockTableRecord
  2
*MODEL_SPACE
  0
BLOCK_RECORD
  5
1A
102
{ACAD_XDICTIONARY
360
1E1
102
}
330
1
100
AcDbSymbolTableRecord
100
AcDbBlockTableRecord
  2
*PAPER_SPACE
  0
ENDTAB
  0
ENDSEC
  0
SECTION
  2
BLOCKS
  0
BLOCK
  5
1F
330
1E
100
AcDbEntity
  8
0
100
AcDbBlockBegin
  2
*MODEL_SPACE
 70
     0
 10
0.0
 20
0.0
 30
0.0
  3
*MODEL_SPACE
  1

  0
ENDBLK
  5
20
330
1E
100
AcDbEntity
  8
0
100
AcDbBlockEnd
  0
BLOCK
  5
1B
330
1A
100
AcDbEntity
 67
     1
  8
0
100
AcDbBlockBegin
  2
*PAPER_SPACE
 70
     0
 10
0.0
 20
0.0
 30
0.0
  3
*PAPER_SPACE
  1

  0
ENDBLK
  5
1C
330
1A
100
AcDbEntity
 67
     1
  8
0
100
AcDbBlockEnd
  0
ENDSEC
  0
SECTION
  2
ENTITIES
  0
LINE
  5
22
330
1E
100
AcDbEntity
  8
0
100
AcDbLine
 10
0.250025000000003
 20
138.7105
 30
0.0
 11
0.250025000000003
 21
139.1105
 31
0.0
  0
LINE
  5
23
330
1E
100
AcDbEntity
  8
0
100
AcDbLine
 10
0.250025000000003
 20
138.7105
 30
0.0
 11
0.250025000000003
 21
138.5105
 31
0.0
  0
LINE
  5
24
330
1E
100
AcDbEntity
  8
0
100
AcDbLine
 10
0.250025000000003
 20
138.5105
 30
0.0
 11
0.250025000000003
 21
138.7105
 31
0.0
  0
LINE
  5
25
330
1E
100
AcDbEntity
  8
0
100
AcDbLine
 10
0.250025000000003
 20
138.5105
 30
0.0
 11
46.2509303708119
 21
138.5105
 31
0.0
  0
LINE
  5
26
330
1E
100
AcDbEntity
  8
0
100
AcDbLine
 10
0.250025000000001
 20
138.5105
 30
0.0
 11
46.2509303708119
 21
138.5105
 31
0.0
  0
LINE
  5
27
330
1E
100
AcDbEntity
  8
0
100
AcDbLine
 10
0.250025000000003
 20
139.1105
 30
0.0
 11
0.250025000000003
 21
139.8104999999999
 31
0.0
  0
LINE
  5
28
330
1E
100
AcDbEntity
  8
0
100
AcDbLine
 10
-0.249974999999997
 20
139.0105
 30
0.0
 11
0.250025000000003
 21
138.5105
 31
0.0
  0
LINE
  5
29
330
1E
100
AcDbEntity
  8
0
100
AcDbLine
 10
-0.249974999999997
 20
139.0105
 30
0.0
 11
-0.249974999999997
 21
139.1105
 31
0.0
  0
LINE
  5
2A
330
1E
100
AcDbEntity
  8
0
100
AcDbLine
 10
-0.249974999999997
 20
139.0105
 30
0.0
 11
0.250025000000003
 21
138.5105
 31
0.0
  0
LINE
  5
2B
330
1E
100
AcDbEntity
  8
0
100
AcDbLine
 10
0.250025000000003
 20
139.8104999999999
 30
0.0
 11
0.250025000000003
 21
140.8104999999999
 31
0.0
  0
LINE
  5
2C
330
1E
100
AcDbEntity
  8
0
100
AcDbLine
 10
0.250025000000003
 20
141.8104999999999
 30
0.0
 11
0.250025000000004
 21
143.0105
 31
0.0
  0
LINE
  5
2D
330
1E
100
AcDbEntity
  8
0
100
AcDbLine
 10
0.250025000000003
 20
140.8104999999999
 30
0.0
 11
0.250025000000003
 21
141.8104999999999
 31
0.0
  0
LINE
  5
2E
330
1E
100
AcDbEntity
  8
0
100
AcDbLine
 10
-0.249974999999996
 20
143.0105
 30
0.0
 11
-0.249974999999996
 21
144.0105
 31
0.0
  0
LINE
  5
2F
330
1E
100
AcDbEntity
  8
0
100
AcDbLine
 10
-0.249974999999996
 20
145.0105
 30
0.0
 11
-0.249974999999996
 21
145.9105
 31
0.0
  0
LINE
  5
30
330
1E
100
AcDbEntity
  8
0
100
AcDbLine
 10
-0.249974999999996
 20
144.0105
 30
0.0
 11
-0.249974999999996
 21
145.0105
 31
0.0
  0
LINE
  5
31
330
1E
100
AcDbEntity
  8
0
100
AcDbLine
 10
-0.249974999999996
 20
147.0105
 30
0.0
 11
0.250025000000004
 21
147.5105
 31
0.0
  0
LINE
  5
32
330
1E
100
AcDbEntity
  8
0
100
AcDbLine
 10
-0.249974999999996
 20
146.5105
 30
0.0
 11
-0.249974999999996
 21
146.9105
 31
0.0
  0
LINE
  5
33
330
1E
100
AcDbEntity
  8
0
100
AcDbLine
 10
-0.249974999999996
 20
146.9105
 30
0.0
 11
-0.249974999999996
 21
147.0105
 31
0.0
  0
LINE
  5
34
330
1E
100
AcDbEntity
  8
0
100
AcDbLine
 10
-0.249974999999996
 20
145.9105
 30
0.0
 11
-0.249974999999996
 21
146.5105
 31
0.0
  0
LINE
  5
35
330
1E
100
AcDbEntity
  8
0
100
AcDbLine
 10
0.250025000000004
 20
143.0105
 30
0.0
 11
0.250025000000004
 21
144.2104999999999
 31
0.0
  0
LINE
  5
36
330
1E
100
AcDbEntity
  8
0
100
AcDbLine
 10
0.250025000000004
 20
144.2104999999999
 30
0.0
 11
0.250025000000004
 21
145.2104999999999
 31
0.0
  0
LINE
  5
37
330
1E
100
AcDbEntity
  8
0
100
AcDbLine
 10
0.250025000000004
 20
145.2104999999999
 30
0.0
 11
0.250025000000004
 21
146.2105
 31
0.0
  0
LINE
  5
38
330
1E
100
AcDbEntity
  8
0
100
AcDbLine
 10
0.250025000000004
 20
146.2105
 30
0.0
 11
0.250025000000004
 21
146.9105
 31
0.0
  0
LINE
  5
39
330
1E
100
AcDbEntity
  8
0
100
AcDbLine
 10
0.250025000000001
 20
147.5105
 30
0.0
 11
48.51996447368421
 21
147.5105
 31
0.0
  0
LINE
  5
3A
330
1E
100
AcDbEntity
  8
0
100
AcDbLine
 10
0.250025000000004
 20
146.9105
 30
0.0
 11
0.250025000000004
 21
147.3104999999999
 31
0.0
  0
LINE
  5
3B
330
1E
100
AcDbEntity
  8
0
100
AcDbLine
 10
0.250025000000004
 20
147.3104999999999
 30
0.0
 11
0.250025000000004
 21
147.5105
 31
0.0
  0
LINE
  5
3C
330
1E
100
AcDbEntity
  8
0
100
AcDbLine
 10
0.250025000000004
 20
147.5105
 30
0.0
 11
48.51996447368421
 21
147.5105
 31
0.0
  0
LINE
  5
3D
330
1E
100
AcDbEntity
  8
0
100
AcDbLine
 10
0.250025000000004
 20
147.5105
 30
0.0
 11
0.250025000000004
 21
147.3104999999999
 31
0.0
  0
LINE
  5
3E
330
1E
100
AcDbEntity
  8
0
100
AcDbLine
 10
-0.249974999999996
 20
147.0105
 30
0.0
 11
-0.249974999999996
 21
146.9105
 31
0.0
  0
LINE
  5
3F
330
1E
100
AcDbEntity
  8
0
100
AcDbLine
 10
-0.249974999999996
 20
147.0105
 30
0.0
 11
0.250025000000004
 21
147.5105
 31
0.0
  0
LINE
  5
40
330
1E
100
AcDbEntity
  8
0
100
AcDbLine
 10
-0.249974999999996
 20
142.0105
 30
0.0
 11
-0.249974999999996
 21
143.0105
 31
0.0
  0
LINE
  5
41
330
1E
100
AcDbEntity
  8
0
100
AcDbLine
 10
-0.249974999999997
 20
141.0105
 30
0.0
 11
-0.249974999999996
 21
142.0105
 31
0.0
  0
LINE
  5
42
330
1E
100
AcDbEntity
  8
0
100
AcDbLine
 10
-0.249974999999997
 20
140.1105
 30
0.0
 11
-0.249974999999997
 21
141.0105
 31
0.0
  0
LINE
  5
43
330
1E
100
AcDbEntity
  8
0
100
AcDbLine
 10
-0.249974999999997
 20
139.5105
 30
0.0
 11
-0.249974999999997
 21
140.1105
 31
0.0
  0
LINE
  5
44
330
1E
100
AcDbEntity
  8
0
100
AcDbLine
 10
-0.249974999999997
 20
139.1105
 30
0.0
 11
-0.249974999999997
 21
139.0105
 31
0.0
  0
LINE
  5
45
330
1E
100
AcDbEntity
  8
0
100
AcDbLine
 10
-0.249974999999997
 20
139.1105
 30
0.0
 11
-0.249974999999997
 21
139.5105
 31
0.0
  0
LINE
  5
47
330
1E
100
AcDbEntity
  8
0
100
AcDbLine
 10
83.64997499999999
 20
-0.0225000000000032
 30
0.0
 11
86.249975
 21
-0.0225000000000033
 31
0.0
  0
LINE
  5
48
330
1E
100
AcDbEntity
  8
0
100
AcDbLine
 10
82.64997499999999
 20
-0.0225000000000031
 30
0.0
 11
83.64997499999999
 21
-0.0225000000000032
 31
0.0
  0
LINE
  5
49
330
1E
100
AcDbEntity
  8
0
100
AcDbLine
 10
82.64997499999999
 20
-0.0225000000000031
 30
0.0
 11
95.94997499999999
 21
-0.0225000000000039
 31
0.0
  0
LINE
  5
4A
330
1E
100
AcDbEntity
  8
0
100
AcDbLine
 10
82.64997499999999
 20
-0.0225000000000031
 30
0.0
 11
86.249975
 21
-0.0225000000000033
 31
0.0
  0
LINE
  5
4B
330
1E
100
AcDbEntity
  8
0
100
AcDbLine
 10
86.249975
 20
-0.0225000000000033
 30
0.0
 11
95.94997499999999
 21
-0.0225000000000039
 31
0.0
  0
LINE
  5
4C
330
1E
100
AcDbEntity
  8
0
100
AcDbLine
 10
86.249975
 20
-0.0225000000000033
 30
0.0
 11
90.44997499999999
 21
-0.0225000000000036
 31
0.0
  0
LINE
  5
4D
330
1E
100
AcDbEntity
  8
0
100
AcDbLine
 10
90.44997499999999
 20
-0.0225000000000036
 30
0.0
 11
95.94997499999999
 21
-0.0225000000000039
 31
0.0
  0
LINE
  5
4E
330
1E
100
AcDbEntity
  8
0
100
AcDbLine
 10
90.44997499999999
 20
-0.0225000000000036
 30
0.0
 11
102.249975
 21
-0.0225000000000043
 31
0.0
  0
LINE
  5
4F
330
1E
100
AcDbEntity
  8
0
100
AcDbLine
 10
95.94997499999999
 20
-0.0225000000000039
 30
0.0
 11
102.249975
 21
-0.0225000000000043
 31
0.0
  0
LINE
  5
50
330
1E
100
AcDbEntity
  8
0
100
AcDbLine
 10
95.94997499999999
 20
-0.0225000000000039
 30
0.0
 11
109.149975
 21
-0.0225000000000047
 31
0.0
  0
LINE
  5
51
330
1E
100
AcDbEntity
  8
0
100
AcDbLine
 10
102.249975
 20
-0.0225000000000043
 30
0.0
 11
109.149975
 21
-0.0225000000000047
 31
0.0
  0
LINE
  5
53
330
1E
100
AcDbEntity
  8
0
100
AcDbLine
 10
115.849975
 20
-0.0225000000000051
 30
0.0
 11
122.1499749999999
 21
-0.0225000000000055
 31
0.0
  0
LINE
  5
54
330
1E
100
AcDbEntity
  8
0
100
AcDbLine
 10
122.1499749999999
 20
-0.0225000000000055
 30
0.0
 11
127.6499749999999
 21
-0.0225000000000059
 31
0.0
  0
LINE
  5
55
330
1E
100
AcDbEntity
  8
0
100
AcDbLine
 10
126.249684140574
 20
35.7450527340786
 30
0.0
 11
135.749975
 21
-0.0225000000000048
 31
0.0
  0
LINE
  5
57
330
1E
100
AcDbEntity
  8
0
100
AcDbLine
 10
131.8499749999999
 20
-0.0225000000000061
 30
0.0
 11
134.349975
 21
-0.0225000000000063
 31
0.0
  0
LINE
  5
61
330
1E
100
AcDbEntity
  8
0
100
AcDbLine
 10
126.249684140574
 20
35.7450527340786
 30
0.0
 11
135.749975
 21
-0.0225000000000048
 31
0.0
  0
LINE
  5
62
330
1E
100
AcDbEntity
  8
0
100
AcDbLine
 10
127.6499749999999
 20
-0.0225000000000059
 30
0.0
 11
131.8499749999999
 21
-0.0225000000000061
 31
0.0
  0
LINE
  5
63
330
1E
100
AcDbEntity
  8
0
100
AcDbLine
 10
127.6499749999999
 20
-0.0225000000000059
 30
0.0
 11
131.8499749999999
 21
-0.0225000000000061
 31
0.0
  0
LINE
  5
64
330
1E
100
AcDbEntity
  8
0
100
AcDbLine
 10
134.349975
 20
-0.0225000000000063
 30
0.0
 11
135.749975
 21
-0.0225000000000063
 31
0.0
  0
LINE
  5
65
330
1E
100
AcDbEntity
  8
0
100
AcDbLine
 10
109.149975
 20
-0.0225000000000047
 30
0.0
 11
131.8499749999999
 21
-0.0225000000000061
 31
0.0
  0
LINE
  5
66
330
1E
100
AcDbEntity
  8
0
100
AcDbLine
 10
109.149975
 20
-0.0225000000000047
 30
0.0
 11
122.1499749999999
 21
-0.0225000000000055
 31
0.0
  0
LINE
  5
67
330
1E
100
AcDbEntity
  8
0
100
AcDbLine
 10
109.149975
 20
-0.0225000000000047
 30
0.0
 11
127.6499749999999
 21
-0.0225000000000059
 31
0.0
  0
LINE
  5
68
330
1E
100
AcDbEntity
  8
0
100
AcDbLine
 10
109.149975
 20
-0.0225000000000047
 30
0.0
 11
131.8499749999999
 21
-0.0225000000000061
 31
0.0
  0
LINE
  5
69
330
1E
100
AcDbEntity
  8
0
100
AcDbLine
 10
109.149975
 20
-0.0225000000000047
 30
0.0
 11
115.849975
 21
-0.0225000000000051
 31
0.0
  0
LINE
  5
76
330
1E
100
AcDbEntity
  8
0
100
AcDbLine
 10
25.04387499999999
 20
47.74499999999999
 30
0.0
 11
26.79597499999999
 21
48.0103
 31
0.0
  0
LINE
  5
87
330
1E
100
AcDbEntity
  8
0
100
AcDbLine
 10
33.865175
 20
51.3067
 30
0.0
 11
61.228175
 21
64.1224
 31
0.0
  0
LINE
  5
8A
330
1E
100
AcDbEntity
  8
0
100
AcDbLine
 10
23.503675
 20
48.6818
 30
0.0
 11
25.04387499999999
 21
47.74499999999999
 31
0.0
  0
LINE
  5
8B
330
1E
100
AcDbEntity
  8
0
100
AcDbLine
 10
26.79597499999999
 20
48.0103
 30
0.0
 11
33.865175
 21
51.3067
 31
0.0
  0
LINE
  5
8D
330
1E
100
AcDbEntity
  8
0
100
AcDbLine
 10
18.42817499999999
 20
46.8923
 30
0.0
 11
21.853158521989
 21
50.3171853596113
 31
0.0
  0
LINE
  5
94
330
1E
100
AcDbEntity
  8
0
100
AcDbLine
 10
66.2144222868325
 20
62.7260923227717
 30
0.0
 11
82.64997499999999
 21
-0.0225000000000048
 31
0.0
  0
LINE
  5
95
330
1E
100
AcDbEntity
  8
0
100
AcDbLine
 10
66.2144222868325
 20
62.7260923227717
 30
0.0
 11
82.64997499999999
 21
-0.0225000000000031
 31
0.0
  0
LINE
  5
A0
330
1E
100
AcDbEntity
  8
0
100
AcDbLine
 10
4.238624999999999
 20
70.593
 30
0.0
 11
21.186575
 21
78.4959
 31
0.0
  0
LINE
  5
A2
330
1E
100
AcDbEntity
  8
0
100
AcDbLine
 10
3.271735
 20
69.5904
 30
0.0
 11
4.238624999999999
 21
70.593
 31
0.0
  0
LINE
  5
A3
330
1E
100
AcDbEntity
  8
0
100
AcDbLine
 10
3.271735
 20
69.5904
 30
0.0
 11
23.503675
 21
48.6818
 31
0.0
  0
LINE
  5
A5
330
1E
100
AcDbEntity
  8
0
100
AcDbLine
 10
53.211675
 20
112.5324999999999
 30
0.0
 11
54.436375
 21
111.8254999999999
 31
0.0
  0
LINE
  5
A6
330
1E
100
AcDbEntity
  8
0
100
AcDbLine
 10
53.211675
 20
112.5324999999999
 30
0.0
 11
54.080975
 21
112.7655
 31
0.0
  0
LINE
  5
A7
330
1E
100
AcDbEntity
  8
0
100
AcDbLine
 10
21.186575
 20
78.4959
 30
0.0
 11
53.84857499999999
 21
93.77740000000001
 31
0.0
  0
LINE
  5
A8
330
1E
100
AcDbEntity
  8
0
100
AcDbLine
 10
54.080975
 20
112.7655
 30
0.0
 11
56.495775
 21
113.4125
 31
0.0
  0
LINE
  5
A9
330
1E
100
AcDbEntity
  8
0
100
AcDbLine
 10
54.436375
 20
111.8254999999999
 30
0.0
 11
55.30577499999999
 21
112.0584999999999
 31
0.0
  0
LINE
  5
AA
330
1E
100
AcDbEntity
  8
0
100
AcDbLine
 10
53.84857499999999
 20
93.77740000000001
 30
0.0
 11
54.963275
 21
94.73930000000001
 31
0.0
  0
LINE
  5
AB
330
1E
100
AcDbEntity
  8
0
100
AcDbLine
 10
4.238624999999999
 20
70.593
 30
0.0
 11
21.186575
 21
78.4959
 31
0.0
  0
LINE
  5
AC
330
1E
100
AcDbEntity
  8
0
100
AcDbLine
 10
54.963275
 20
94.73930000000001
 30
0.0
 11
56.185575
 21
96.01130000000001
 31
0.0
  0
LINE
  5
AD
330
1E
100
AcDbEntity
  8
0
100
AcDbLine
 10
61.228175
 20
64.1224
 30
0.0
 11
62.949975
 21
64.2775
 31
0.0
  0
LINE
  5
AE
330
1E
100
AcDbEntity
  8
0
100
AcDbLine
 10
62.949975
 20
64.2775
 30
0.0
 11
64.759975
 21
63.7775
 31
0.0
  0
LINE
  5
AF
330
1E
100
AcDbEntity
  8
0
100
AcDbLine
 10
64.759975
 20
63.7775
 30
0.0
 11
66.2144222868325
 21
62.7260923227717
 31
0.0
  0
LINE
  5
B0
330
1E
100
AcDbEntity
  8
0
100
AcDbLine
 10
56.185575
 20
96.01130000000001
 30
0.0
 11
57.0067558068889
 21
97.87964756227051
 31
0.0
  0
LINE
  5
B1
330
1E
100
AcDbEntity
  8
0
100
AcDbLine
 10
55.30577499999999
 20
112.0584999999999
 30
0.0
 11
57.623975
 21
112.6794999999999
 31
0.0
  0
LINE
  5
B2
330
1E
100
AcDbEntity
  8
0
100
AcDbLine
 10
55.4023357134943
 20
112.084366708256
 30
0.0
 11
56.12272630523371
 21
109.395687826308
 31
0.0
  0
LINE
  5
B3
330
1E
100
AcDbEntity
  8
0
100
AcDbLine
 10
55.649975
 20
108.6775
 30
0.0
 11
57.949975
 21
109.3774999999999
 31
0.0
  0
LINE
  5
B4
330
1E
100
AcDbEntity
  8
0
100
AcDbLine
 10
56.1224072042381
 20
109.396878791485
 30
0.0
 11
67.449975
 21
112.3774999999999
 31
0.0
  0
LINE
  5
B5
330
1E
100
AcDbEntity
  8
0
100
AcDbLine
 10
57.949975
 20
109.3774999999999
 30
0.0
 11
61.849975
 21
110.3774999999999
 31
0.0
  0
LINE
  5
B6
330
1E
100
AcDbEntity
  8
0
100
AcDbLine
 10
57.623975
 20
112.6794999999999
 30
0.0
 11
61.391075
 21
113.6894999999999
 31
0.0
  0
LINE
  5
B7
330
1E
100
AcDbEntity
  8
0
100
AcDbLine
 10
61.849975
 20
110.3774999999999
 30
0.0
 11
66.849975
 21
111.6775
 31
0.0
  0
LINE
  5
B8
330
1E
100
AcDbEntity
  8
0
100
AcDbLine
 10
67.449975
 20
112.3774999999999
 30
0.0
 11
72.949975
 21
113.8775
 31
0.0
  0
LINE
  5
B9
330
1E
100
AcDbEntity
  8
0
100
AcDbLine
 10
66.849975
 20
111.6775
 30
0.0
 11
72.64997499999999
 21
113.2775
 31
0.0
  0
LINE
  5
BA
330
1E
100
AcDbEntity
  8
0
100
AcDbLine
 10
66.317275
 20
115.0095
 30
0.0
 11
72.01627499999999
 21
116.5364999999999
 31
0.0
  0
LINE
  5
BB
330
1E
100
AcDbEntity
  8
0
100
AcDbLine
 10
61.391075
 20
113.6894999999999
 30
0.0
 11
66.317275
 21
115.0095
 31
0.0
  0
LINE
  5
BC
330
1E
100
AcDbEntity
  8
0
100
AcDbLine
 10
72.01627499999999
 20
116.5364999999999
 30
0.0
 11
78.10157499999999
 21
118.1664999999999
 31
0.0
  0
LINE
  5
BD
330
1E
100
AcDbEntity
  8
0
100
AcDbLine
 10
65.575475
 20
115.8455
 30
0.0
 11
71.467675
 21
117.4244999999999
 31
0.0
  0
LINE
  5
BE
330
1E
100
AcDbEntity
  8
0
100
AcDbLine
 10
60.456075
 20
114.4735
 30
0.0
 11
65.575475
 21
115.8455
 31
0.0
  0
LINE
  5
BF
330
1E
100
AcDbEntity
  8
0
100
AcDbLine
 10
56.495775
 20
113.4125
 30
0.0
 11
60.456075
 21
114.4735
 31
0.0
  0
LINE
  5
C0
330
1E
100
AcDbEntity
  8
0
100
AcDbLine
 10
72.949975
 20
113.8775
 30
0.0
 11
101.544804216922
 21
121.4715731739419
 31
0.0
  0
LINE
  5
C1
330
1E
100
AcDbEntity
  8
0
100
AcDbLine
 10
72.64997499999999
 20
113.2775
 30
0.0
 11
78.94997499999999
 21
114.8775
 31
0.0
  0
LINE
  5
C2
330
1E
100
AcDbEntity
  8
0
100
AcDbLine
 10
78.94997499999999
 20
114.8775
 30
0.0
 11
85.14997499999999
 21
116.5775
 31
0.0
  0
LINE
  5
C3
330
1E
100
AcDbEntity
  8
0
100
AcDbLine
 10
78.10157499999999
 20
118.1664999999999
 30
0.0
 11
83.721075
 21
121.5354999999999
 31
0.0
  0
LINE
  5
C4
330
1E
100
AcDbEntity
  8
0
100
AcDbLine
 10
77.842775
 20
119.1324999999999
 30
0.0
 11
83.751975
 21
122.5794999999999
 31
0.0
  0
LINE
  5
C5
330
1E
100
AcDbEntity
  8
0
100
AcDbLine
 10
71.467675
 20
117.4244999999999
 30
0.0
 11
77.842775
 21
119.1324999999999
 31
0.0
  0
LINE
  5
C6
330
1E
100
AcDbEntity
  8
0
100
AcDbLine
 10
85.14997499999999
 20
116.5775
 30
0.0
 11
90.94997499999999
 21
118.1775
 31
0.0
  0
LINE
  5
C7
330
1E
100
AcDbEntity
  8
0
100
AcDbLine
 10
90.94997499999999
 20
118.1775
 30
0.0
 11
95.94997499999999
 21
119.4775
 31
0.0
  0
LINE
  5
C8
330
1E
100
AcDbEntity
  8
0
100
AcDbLine
 10
95.94997499999999
 20
119.4775
 30
0.0
 11
99.849975
 21
120.5775
 31
0.0
  0
LINE
  5
C9
330
1E
100
AcDbEntity
  8
0
100
AcDbLine
 10
56.049975
 20
109.3774999999999
 30
0.0
 11
56.1224072042381
 21
109.396878791485
 31
0.0
  0
LINE
  5
CA
330
1E
100
AcDbEntity
  8
0
100
AcDbLine
 10
54.749975
 20
108.4775
 30
0.0
 11
56.049975
 21
109.3774999999999
 31
0.0
  0
LINE
  5
CB
330
1E
100
AcDbEntity
  8
0
100
AcDbLine
 10
54.749975
 20
108.4775
 30
0.0
 11
55.649975
 21
108.6775
 31
0.0
  0
LINE
  5
CC
330
1E
100
AcDbEntity
  8
0
100
AcDbLine
 10
54.64997499999999
 20
106.8775
 30
0.0
 11
57.0067558068889
 21
97.87964756227051
 31
0.0
  0
LINE
  5
CD
330
1E
100
AcDbEntity
  8
0
100
AcDbLine
 10
54.64997499999999
 20
106.8775
 30
0.0
 11
54.749975
 21
108.4775
 31
0.0
  0
LINE
  5
CE
330
1E
100
AcDbEntity
  8
0
100
AcDbLine
 10
54.64997499999999
 20
106.8775
 30
0.0
 11
57.0067558068889
 21
97.87964756227051
 31
0.0
  0
LINE
  5
CF
330
1E
100
AcDbEntity
  8
0
100
AcDbLine
 10
99.849975
 20
120.5775
 30
0.0
 11
102.149975
 21
121.1775
 31
0.0
  0
LINE
  5
D0
330
1E
100
AcDbEntity
  8
0
100
AcDbLine
 10
102.149975
 20
121.1775
 30
0.0
 11
103.049975
 21
121.3775
 31
0.0
  0
LINE
  5
D1
330
1E
100
AcDbEntity
  8
0
100
AcDbLine
 10
83.721075
 20
121.5354999999999
 30
0.0
 11
89.005875
 21
124.6085
 31
0.0
  0
LINE
  5
D2
330
1E
100
AcDbEntity
  8
0
100
AcDbLine
 10
89.005875
 20
124.6085
 30
0.0
 11
93.56977500000001
 21
127.2804999999999
 31
0.0
  0
LINE
  5
D3
330
1E
100
AcDbEntity
  8
0
100
AcDbLine
 10
83.751975
 20
122.5794999999999
 30
0.0
 11
89.204175
 21
125.8005
 31
0.0
  0
LINE
  5
D4
330
1E
100
AcDbEntity
  8
0
100
AcDbLine
 10
93.56977500000001
 20
127.2804999999999
 30
0.0
 11
97.07807500000001
 21
129.2564999999999
 31
0.0
  0
LINE
  5
D5
330
1E
100
AcDbEntity
  8
0
100
AcDbLine
 10
89.204175
 20
125.8005
 30
0.0
 11
93.93527500000001
 21
128.6215
 31
0.0
  0
LINE
  5
D6
330
1E
100
AcDbEntity
  8
0
100
AcDbLine
 10
45.634675
 20
146.2195
 30
0.0
 11
48.049475
 21
146.8665
 31
0.0
  0
LINE
  5
D7
330
1E
100
AcDbEntity
  8
0
100
AcDbLine
 10
45.1903560992612
 20
146.100408427617
 30
0.0
 11
45.634675
 21
146.2195
 31
0.0
  0
LINE
  5
D8
330
1E
100
AcDbEntity
  8
0
100
AcDbLine
 10
48.049475
 20
146.8665
 30
0.0
 11
51.816575
 21
147.8764999999999
 31
0.0
  0
LINE
  5
D9
330
1E
100
AcDbEntity
  8
0
100
AcDbLine
 10
56.935975
 20
149.2474999999999
 30
0.0
 11
62.73157499999999
 21
150.8004999999999
 31
0.0
  0
LINE
  5
DA
330
1E
100
AcDbEntity
  8
0
100
AcDbLine
 10
51.816575
 20
147.8764999999999
 30
0.0
 11
56.935975
 21
149.2474999999999
 31
0.0
  0
LINE
  5
DB
330
1E
100
AcDbEntity
  8
0
100
AcDbLine
 10
46.954175
 20
147.0904999999999
 30
0.0
 11
49.07917499999999
 21
147.6605
 31
0.0
  0
LINE
  5
DC
330
1E
100
AcDbEntity
  8
0
100
AcDbLine
 10
46.2826127682402
 20
146.9105
 30
0.0
 11
46.954175
 21
147.0904999999999
 31
0.0
  0
LINE
  5
DD
330
1E
100
AcDbEntity
  8
0
100
AcDbLine
 10
46.2509303708119
 20
138.5105
 30
0.0
 11
53.211675
 21
112.5324999999999
 31
0.0
  0
LINE
  5
DE
330
1E
100
AcDbEntity
  8
0
100
AcDbLine
 10
62.73157499999999
 20
150.8004999999999
 30
0.0
 11
68.91347500000001
 21
152.4575
 31
0.0
  0
LINE
  5
DF
330
1E
100
AcDbEntity
  8
0
100
AcDbLine
 10
68.91347500000001
 20
152.4575
 30
0.0
 11
75.095475
 21
154.1134999999999
 31
0.0
  0
LINE
  5
E0
330
1E
100
AcDbEntity
  8
0
100
AcDbLine
 10
68.784075
 20
152.9404999999999
 30
0.0
 11
74.57967499999999
 21
154.4935
 31
0.0
  0
LINE
  5
E1
330
1E
100
AcDbEntity
  8
0
100
AcDbLine
 10
62.988575
 20
151.3874999999999
 30
0.0
 11
68.784075
 21
152.9404999999999
 31
0.0
  0
LINE
  5
E2
330
1E
100
AcDbEntity
  8
0
100
AcDbLine
 10
49.07917499999999
 20
147.6605
 30
0.0
 11
62.988575
 21
151.3874999999999
 31
0.0
  0
LINE
  5
E3
330
1E
100
AcDbEntity
  8
0
100
AcDbLine
 10
75.095475
 20
154.1134999999999
 30
0.0
 11
80.89097499999999
 21
155.6665
 31
0.0
  0
LINE
  5
E4
330
1E
100
AcDbEntity
  8
0
100
AcDbLine
 10
97.07807500000001
 20
129.2564999999999
 30
0.0
 11
99.215075
 21
130.5535
 31
0.0
  0
LINE
  5
E5
330
1E
100
AcDbEntity
  8
0
100
AcDbLine
 10
93.93527500000001
 20
128.6215
 30
0.0
 11
97.610875
 21
130.7444999999999
 31
0.0
  0
LINE
  5
E6
330
1E
100
AcDbEntity
  8
0
100
AcDbLine
 10
97.610875
 20
130.7444999999999
 30
0.0
 11
99.86997500000001
 21
131.9714999999999
 31
0.0
  0
LINE
  5
E7
330
1E
100
AcDbEntity
  8
0
100
AcDbLine
 10
80.89097499999999
 20
155.6665
 30
0.0
 11
86.010375
 21
157.0384999999999
 31
0.0
  0
LINE
  5
E8
330
1E
100
AcDbEntity
  8
0
100
AcDbLine
 10
86.010375
 20
157.0384999999999
 30
0.0
 11
89.77747499999999
 21
158.0475
 31
0.0
  0
LINE
  5
E9
330
1E
100
AcDbEntity
  8
0
100
AcDbLine
 10
80.085375
 20
155.9684999999999
 30
0.0
 11
84.818475
 21
157.2365
 31
0.0
  0
LINE
  5
EA
330
1E
100
AcDbEntity
  8
0
100
AcDbLine
 10
74.57967499999999
 20
154.4935
 30
0.0
 11
80.085375
 21
155.9684999999999
 31
0.0
  0
LINE
  5
EB
330
1E
100
AcDbEntity
  8
0
100
AcDbLine
 10
89.77747499999999
 20
158.0475
 30
0.0
 11
92.192275
 21
158.6945
 31
0.0
  0
LINE
  5
EC
330
1E
100
AcDbEntity
  8
0
100
AcDbLine
 10
92.192275
 20
158.6945
 30
0.0
 11
93.06167499999999
 21
158.9275
 31
0.0
  0
LINE
  5
ED
330
1E
100
AcDbEntity
  8
0
100
AcDbLine
 10
93.93287499999999
 20
157.6084999999999
 30
0.0
 11
100.661975
 21
132.4944999999999
 31
0.0
  0
LINE
  5
EE
330
1E
100
AcDbEntity
  8
0
100
AcDbLine
 10
93.06167499999999
 20
158.9275
 30
0.0
 11
93.93287499999999
 21
157.6084999999999
 31
0.0
  0
LINE
  5
EF
330
1E
100
AcDbEntity
  8
0
100
AcDbLine
 10
91.483375
 20
159.0225
 30
0.0
 11
93.06167499999999
 21
158.9275
 31
0.0
  0
LINE
  5
F0
330
1E
100
AcDbEntity
  8
0
100
AcDbLine
 10
84.818475
 20
157.2365
 30
0.0
 11
91.483375
 21
159.0225
 31
0.0
  0
LINE
  5
F1
330
1E
100
AcDbEntity
  8
0
100
AcDbLine
 10
99.215075
 20
130.5535
 30
0.0
 11
100.0329749999999
 21
130.9795
 31
0.0
  0
LINE
  5
F2
330
1E
100
AcDbEntity
  8
0
100
AcDbLine
 10
99.86997500000001
 20
131.9714999999999
 30
0.0
 11
100.661975
 21
132.4944999999999
 31
0.0
  0
LINE
  5
F3
330
1E
100
AcDbEntity
  8
0
100
AcDbLine
 10
100.0329749999999
 20
130.9795
 30
0.0
 11
100.661975
 21
132.4944999999999
 31
0.0
  0
LINE
  5
F4
330
1E
100
AcDbEntity
  8
0
100
AcDbLine
 10
98.1984413920356
 20
129.9364790409309
 30
0.0
 11
99.282575
 21
127.9835
 31
0.0
  0
LINE
  5
F5
330
1E
100
AcDbEntity
  8
0
100
AcDbLine
 10
98.1984413920356
 20
129.9364790409309
 30
0.0
 11
99.215075
 21
130.5535
 31
0.0
  0
LINE
  5
F6
330
1E
100
AcDbEntity
  8
0
100
AcDbLine
 10
99.282575
 20
127.9835
 30
0.0
 11
100.5419749999999
 21
125.2145
 31
0.0
  0
LINE
  5
F7
330
1E
100
AcDbEntity
  8
0
100
AcDbLine
 10
100.5419749999999
 20
125.2145
 30
0.0
 11
101.544804216922
 21
121.4715731739419
 31
0.0
  0
LINE
  5
F8
330
1E
100
AcDbEntity
  8
0
100
AcDbLine
 10
101.544804216922
 20
121.4715731739419
 30
0.0
 11
103.049975
 21
121.3775
 31
0.0
  0
LINE
  5
F9
330
1E
100
AcDbEntity
  8
0
100
AcDbLine
 10
103.049975
 20
121.3775
 30
0.0
 11
103.8499749999999
 21
120.0774999999999
 31
0.0
  0
LINE
  5
FA
330
1E
100
AcDbEntity
  8
0
100
AcDbLine
 10
103.8499749999999
 20
120.0774999999999
 30
0.0
 11
126.249684140574
 21
35.7450527340786
 31
0.0
  0
LINE
  5
FB
330
1E
100
AcDbEntity
  8
0
100
AcDbLine
 10
103.8499749999999
 20
120.0774999999999
 30
0.0
 11
126.249684140574
 21
35.7450527340786
 31
0.0
  0
LINE
  5
FD
330
1E
100
AcDbEntity
  8
0
100
AcDbLine
 10
2.447604999999999
 20
62.8729
 30
0.0
 11
18.42817499999999
 21
46.8923
 31
0.0
  0
LINE
  5
FE
330
1E
100
AcDbEntity
  8
0
100
AcDbLine
 10
2.164765
 20
63.15570000000001
 30
0.0
 11
2.447604999999999
 21
62.8729
 31
0.0
  0
LINE
  5
FF
330
1E
100
AcDbEntity
  8
0
100
AcDbLine
 10
2.164765
 20
63.15570000000001
 30
0.0
 11
5.589332705580689
 21
66.5803462277492
 31
0.0
  0
ENDSEC
  0
SECTION
  2
OBJECTS
  0
DICTIONARY
  5
C
330
0
100
AcDbDictionary
  3
ACAD_GROUP
350
D
  3
ACAD_LAYOUT
350
19
  3
ACAD_MLINESTYLE
350
16
  3
ACAD_PLOTSETTINGS
350
18
  3
ACAD_PLOTSTYLENAME
350
E
  3
ACDBHEADERROUNDTRIPXREC
350
1C1
  3
ACDBVARIABLEDICTIONARY
350
105
  0
DICTIONARY
  5
1E3
330
1E
100
AcDbDictionary
280
     1
  3
ACAD_LAYOUTSELFREF
360
1E4
  0
DICTIONARY
  5
1E1
330
1A
100
AcDbDictionary
280
     1
  3
ACAD_LAYOUTSELFREF
360
1E2
  0
DICTIONARY
  5
D
102
{ACAD_REACTORS
330
C
102
}
330
C
100
AcDbDictionary
  0
DICTIONARY
  5
19
102
{ACAD_REACTORS
330
C
102
}
330
C
100
AcDbDictionary
  0
DICTIONARY
  5
16
102
{ACAD_REACTORS
330
C
102
}
330
C
100
AcDbDictionary
  3
STANDARD
350
17
  0
DICTIONARY
  5
18
102
{ACAD_REACTORS
330
C
102
}
330
C
100
AcDbDictionary
  0
ACDBDICTIONARYWDFLT
  5
E
102
{ACAD_REACTORS
330
C
102
}
330
C
100
AcDbDictionary
281
     1
  3
Normal
350
F
100
AcDbDictionaryWithDefault
340
F
  0
DICTIONARY
  5
1C1
102
{ACAD_REACTORS
330
C
102
}
330
C
100
AcDbDictionary
  3
CEPSNTYPE
350
1CB
  3
FINGERPRINTGUID
350
1CC
  3
HYPERLINKBASE
350
1C4
  3
INSUNITS
350
1CA
  3
LAYOUTDICT
350
1C6
  3
LWETCUNION
350
1C9
  3
PLOTSETDICT
350
1C7
  3
PLOTSTYLNAMDICT
350
1C8
  3
PSVPSCALE
350
1CE
  3
PUCSBASE
350
1D1
  3
PUCSORGBACK
350
1D7
  3
PUCSORGBOTTOM
350
1D3
  3
PUCSORGFRONT
350
1D6
  3
PUCSORGLEFT
350
1D4
  3
PUCSORGRIGHT
350
1D5
  3
PUCSORGTOP
350
1D2
  3
PUCSORTHOREF
350
1CF
  3
PUCSORTHOVIEW
350
1D0
  3
STYLESHEET
350
1C5
  3
TSTACKALIGN
350
1C2
  3
TSTACKSIZE
350
1C3
  3
UCSBASE
350
1DA
  3
UCSORGBACK
350
1E0
  3
UCSORGBOTTOM
350
1DC
  3
UCSORGFRONT
350
1DF
  3
UCSORGLEFT
350
1DD
  3
UCSORGRIGHT
350
1DE
  3
UCSORGTOP
350
1DB
  3
UCSORTHOREF
350
1D8
  3
UCSORTHOVIEW
350
1D9
  3
VERSIONGUID
350
1CD
  0
DICTIONARY
  5
105
102
{ACAD_REACTORS
330
C
102
}
330
C
100
AcDbDictionary
  3
DIMASSOC
350
106
  0
XRECORD
  5
1E4
102
{ACAD_REACTORS
330
1E3
102
}
330
1E3
100
AcDbXrecord
340
1E
  0
XRECORD
  5
1E2
102
{ACAD_REACTORS
330
1E1
102
}
330
1E1
100
AcDbXrecord
340
1A
  0
MLINESTYLE
  5
17
102
{ACAD_REACTORS
330
16
102
}
330
16
100
AcDbMlineStyle
  2
STANDARD
 70
     0
  3

 62
   256
 51
90.0
 52
90.0
 71
     2
 49
0.5
 62
   256
  6
BYLAYER
 49
-0.5
 62
   256
  6
BYLAYER
  0
ACDBPLACEHOLDER
  5
F
102
{ACAD_REACTORS
330
E
102
}
330
E
100
AcDbPlaceHolder
280
     0
  0
XRECORD
  5
1CB
102
{ACAD_REACTORS
330
1C1
102
}
330
1C1
100
AcDbXrecord
 90
        0
  0
XRECORD
  5
1CC
102
{ACAD_REACTORS
330
1C1
102
}
330
1C1
100
AcDbXrecord
  1
{5CDE225A-261F-48DC-B210-05B27B73C89E}
  0
XRECORD
  5
1C4
102
{ACAD_REACTORS
330
1C1
102
}
330
1C1
100
AcDbXrecord
  1

  0
XRECORD
  5
1CA
102
{ACAD_REACTORS
330
1C1
102
}
330
1C1
100
AcDbXrecord
 90
        0
  0
XRECORD
  5
1C6
102
{ACAD_REACTORS
330
1C1
102
}
330
1C1
100
AcDbXrecord
340
19
  0
XRECORD
  5
1C9
102
{ACAD_REACTORS
330
1C1
102
}
330
1C1
100
AcDbXrecord
 90
    10781
  0
XRECORD
  5
1C7
102
{ACAD_REACTORS
330
1C1
102
}
330
1C1
100
AcDbXrecord
340
18
  0
XRECORD
  5
1C8
102
{ACAD_REACTORS
330
1C1
102
}
330
1C1
100
AcDbXrecord
340
E
  0
XRECORD
  5
1CE
102
{ACAD_REACTORS
330
1C1
102
}
330
1C1
100
AcDbXrecord
 40
0.0
  0
XRECORD
  5
1D1
102
{ACAD_REACTORS
330
1C1
102
}
330
1C1
100
AcDbXrecord
340
0
  0
XRECORD
  5
1D7
102
{ACAD_REACTORS
330
1C1
102
}
330
1C1
100
AcDbXrecord
 10
0.0
 20
0.0
 30
0.0
  0
XRECORD
  5
1D3
102
{ACAD_REACTORS
330
1C1
102
}
330
1C1
100
AcDbXrecord
 10
0.0
 20
0.0
 30
0.0
  0
XRECORD
  5
1D6
102
{ACAD_REACTORS
330
1C1
102
}
330
1C1
100
AcDbXrecord
 10
0.0
 20
0.0
 30
0.0
  0
XRECORD
  5
1D4
102
{ACAD_REACTORS
330
1C1
102
}
330
1C1
100
AcDbXrecord
 10
0.0
 20
0.0
 30
0.0
  0
XRECORD
  5
1D5
102
{ACAD_REACTORS
330
1C1
102
}
330
1C1
100
AcDbXrecord
 10
0.0
 20
0.0
 30
0.0
  0
XRECORD
  5
1D2
102
{ACAD_REACTORS
330
1C1
102
}
330
1C1
100
AcDbXrecord
 10
0.0
 20
0.0
 30
0.0
  0
XRECORD
  5
1CF
102
{ACAD_REACTORS
330
1C1
102
}
330
1C1
100
AcDbXrecord
340
0
  0
XRECORD
  5
1D0
102
{ACAD_REACTORS
330
1C1
102
}
330
1C1
100
AcDbXrecord
 70
     0
  0
XRECORD
  5
1C5
102
{ACAD_REACTORS
330
1C1
102
}
330
1C1
100
AcDbXrecord
  1

  0
XRECORD
  5
1C2
102
{ACAD_REACTORS
330
1C1
102
}
330
1C1
100
AcDbXrecord
 90
        1
  0
XRECORD
  5
1C3
102
{ACAD_REACTORS
330
1C1
102
}
330
1C1
100
AcDbXrecord
 90
       70
  0
XRECORD
  5
1DA
102
{ACAD_REACTORS
330
1C1
102
}
330
1C1
100
AcDbXrecord
340
0
  0
XRECORD
  5
1E0
102
{ACAD_REACTORS
330
1C1
102
}
330
1C1
100
AcDbXrecord
 10
0.0
 20
0.0
 30
0.0
  0
XRECORD
  5
1DC
102
{ACAD_REACTORS
330
1C1
102
}
330
1C1
100
AcDbXrecord
 10
0.0
 20
0.0
 30
0.0
  0
XRECORD
  5
1DF
102
{ACAD_REACTORS
330
1C1
102
}
330
1C1
100
AcDbXrecord
 10
0.0
 20
0.0
 30
0.0
  0
XRECORD
  5
1DD
102
{ACAD_REACTORS
330
1C1
102
}
330
1C1
100
AcDbXrecord
 10
0.0
 20
0.0
 30
0.0
  0
XRECORD
  5
1DE
102
{ACAD_REACTORS
330
1C1
102
}
330
1C1
100
AcDbXrecord
 10
0.0
 20
0.0
 30
0.0
  0
XRECORD
  5
1DB
102
{ACAD_REACTORS
330
1C1
102
}
330
1C1
100
AcDbXrecord
 10
0.0
 20
0.0
 30
0.0
  0
XRECORD
  5
1D8
102
{ACAD_REACTORS
330
1C1
102
}
330
1C1
100
AcDbXrecord
340
0
  0
XRECORD
  5
1D9
102
{ACAD_REACTORS
330
1C1
102
}
330
1C1
100
AcDbXrecord
 70
     1
  0
XRECORD
  5
1CD
102
{ACAD_REACTORS
330
1C1
102
}
330
1C1
100
AcDbXrecord
  1
{E774F439-EFD2-497A-B422-0C3B50B03E6F}
  0
DICTIONARYVAR
  5
106
102
{ACAD_REACTORS
330
105
102
}
330
105
100
DictionaryVariables
280
     0
  1
1
  0
ENDSEC
  0
EOF
