  0
SECTION
  2
HEADER
  9
$ACADVER
  1
AC1014
  9
$ACADMAINTVER
 70
     9
  9
$DWGCODEPAGE
  3
ANSI_1252
  9
$INSBASE
 10
0.0
 20
0.0
 30
0.0
  9
$EXTMIN
 10
-0.125999999999996
 20
-0.0000000000000062
 30
0.0
  9
$EXTMAX
 10
156.126
 20
140.0
 30
0.0
  9
$LIMMIN
 10
0.0
 20
0.0
  9
$LIMMAX
 10
12.0
 20
9.0
  9
$ORTHOMODE
 70
     0
  9
$REGENMODE
 70
     1
  9
$FILLMODE
 70
     1
  9
$QTEXTMODE
 70
     0
  9
$MIRRTEXT
 70
     1
  9
$DRAGMODE
 70
     2
  9
$LTSCALE
 40
1.0
  9
$OSMODE
 70
    37
  9
$ATTMODE
 70
     1
  9
$TEXTSIZE
 40
0.2
  9
$TRACEWID
 40
0.05
  9
$TEXTSTYLE
  7
STANDARD
  9
$CLAYER
  8
0
  9
$CELTYPE
  6
CONTINUOUS
  9
$CECOLOR
 62
   256
  9
$CELTSCALE
 40
1.0
  9
$DELOBJ
 70
     1
  9
$DISPSILH
 70
     0
  9
$DIMSCALE
 40
1.0
  9
$DIMASZ
 40
0.18
  9
$DIMEXO
 40
0.0625
  9
$DIMDLI
 40
0.38
  9
$DIMRND
 40
0.0
  9
$DIMDLE
 40
0.0
  9
$DIMEXE
 40
0.18
  9
$DIMTP
 40
0.0
  9
$DIMTM
 40
0.0
  9
$DIMTXT
 40
0.18
  9
$DIMCEN
 40
0.09
  9
$DIMTSZ
 40
0.0
  9
$DIMTOL
 70
     0
  9
$DIMLIM
 70
     0
  9
$DIMTIH
 70
     1
  9
$DIMTOH
 70
     1
  9
$DIMSE1
 70
     0
  9
$DIMSE2
 70
     0
  9
$DIMTAD
 70
     0
  9
$DIMZIN
 70
     0
  9
$DIMBLK
  1

  9
$DIMASO
 70
     1
  9
$DIMSHO
 70
     1
  9
$DIMPOST
  1

  9
$DIMAPOST
  1

  9
$DIMALT
 70
     0
  9
$DIMALTD
 70
     2
  9
$DIMALTF
 40
25.4
  9
$DIMLFAC
 40
1.0
  9
$DIMTOFL
 70
     0
  9
$DIMTVP
 40
0.0
  9
$DIMTIX
 70
     0
  9
$DIMSOXD
 70
     0
  9
$DIMSAH
 70
     0
  9
$DIMBLK1
  1

  9
$DIMBLK2
  1

  9
$DIMSTYLE
  2
STANDARD
  9
$DIMCLRD
 70
     0
  9
$DIMCLRE
 70
     0
  9
$DIMCLRT
 70
     0
  9
$DIMTFAC
 40
1.0
  9
$DIMGAP
 40
0.09
  9
$DIMJUST
 70
     0
  9
$DIMSD1
 70
     0
  9
$DIMSD2
 70
     0
  9
$DIMTOLJ
 70
     1
  9
$DIMTZIN
 70
     0
  9
$DIMALTZ
 70
     0
  9
$DIMALTTZ
 70
     0
  9
$DIMFIT
 70
     3
  9
$DIMUPT
 70
     0
  9
$DIMUNIT
 70
     2
  9
$DIMDEC
 70
     4
  9
$DIMTDEC
 70
     4
  9
$DIMALTU
 70
     2
  9
$DIMALTTD
 70
     2
  9
$DIMTXSTY
  7
STANDARD
  9
$DIMAUNIT
 70
     0
  9
$LUNITS
 70
     2
  9
$LUPREC
 70
     4
  9
$SKETCHINC
 40
0.1
  9
$FILLETRAD
 40
0.0
  9
$AUNITS
 70
     0
  9
$AUPREC
 70
     0
  9
$MENU
  1
.
  9
$ELEVATION
 40
0.0
  9
$PELEVATION
 40
0.0
  9
$THICKNESS
 40
0.0
  9
$LIMCHECK
 70
     0
  9
$BLIPMODE
 70
     0
  9
$CHAMFERA
 40
0.0
  9
$CHAMFERB
 40
0.0
  9
$CHAMFERC
 40
0.0
  9
$CHAMFERD
 40
0.0
  9
$SKPOLY
 70
     0
  9
$TDCREATE
 40
2454699.544481875
  9
$TDUPDATE
 40
2454699.546127199
  9
$TDINDWG
 40
0.0016455093
  9
$TDUSRTIMER
 40
0.0016455093
  9
$USRTIMER
 70
     1
  9
$ANGBASE
 50
0.0
  9
$ANGDIR
 70
     0
  9
$PDMODE
 70
     0
  9
$PDSIZE
 40
0.0
  9
$PLINEWID
 40
0.0
  9
$COORDS
 70
     1
  9
$SPLFRAME
 70
     0
  9
$SPLINETYPE
 70
     6
  9
$SPLINESEGS
 70
     8
  9
$ATTDIA
 70
     0
  9
$ATTREQ
 70
     1
  9
$HANDLING
 70
 22529
  9
$HANDSEED
  5
160
  9
$SURFTAB1
 70
     6
  9
$SURFTAB2
 70
     6
  9
$SURFTYPE
 70
     6
  9
$SURFU
 70
     6
  9
$SURFV
 70
     6
  9
$UCSNAME
  2

  9
$UCSORG
 10
0.0
 20
0.0
 30
0.0
  9
$UCSXDIR
 10
1.0
 20
0.0
 30
0.0
  9
$UCSYDIR
 10
0.0
 20
1.0
 30
0.0
  9
$PUCSNAME
  2

  9
$PUCSORG
 10
0.0
 20
0.0
 30
0.0
  9
$PUCSXDIR
 10
1.0
 20
0.0
 30
0.0
  9
$PUCSYDIR
 10
0.0
 20
1.0
 30
0.0
  9
$USERI1
 70
     0
  9
$USERI2
 70
     0
  9
$USERI3
 70
     0
  9
$USERI4
 70
     0
  9
$USERI5
 70
     0
  9
$USERR1
 40
0.0
  9
$USERR2
 40
0.0
  9
$USERR3
 40
0.0
  9
$USERR4
 40
0.0
  9
$USERR5
 40
0.0
  9
$WORLDVIEW
 70
     1
  9
$SHADEDGE
 70
     3
  9
$SHADEDIF
 70
    70
  9
$TILEMODE
 70
     1
  9
$MAXACTVP
 70
    64
  9
$PINSBASE
 10
0.0
 20
0.0
 30
0.0
  9
$PLIMCHECK
 70
     0
  9
$PEXTMIN
 10
1.000000000000000E+20
 20
1.000000000000000E+20
 30
1.000000000000000E+20
  9
$PEXTMAX
 10
-1.000000000000000E+20
 20
-1.000000000000000E+20
 30
-1.000000000000000E+20
  9
$PLIMMIN
 10
0.0
 20
0.0
  9
$PLIMMAX
 10
12.0
 20
9.0
  9
$UNITMODE
 70
     0
  9
$VISRETAIN
 70
     1
  9
$PLINEGEN
 70
     0
  9
$PSLTSCALE
 70
     1
  9
$TREEDEPTH
 70
  3020
  9
$PICKSTYLE
 70
     1
  9
$CMLSTYLE
  2
STANDARD
  9
$CMLJUST
 70
     0
  9
$CMLSCALE
 40
1.0
  9
$PROXYGRAPHICS
 70
     1
  9
$MEASUREMENT
 70
     0
  0
ENDSEC
  0
SECTION
  2
CLASSES
  0
CLASS
  1
ACDBDICTIONARYWDFLT
  2
AcDbDictionaryWithDefault
  3
AutoCAD 2000
 90
        0
280
     0
281
     0
  0
CLASS
  1
ACDBPLACEHOLDER
  2
AcDbPlaceHolder
  3
AutoCAD 2000
 90
        0
280
     0
281
     0
  0
CLASS
  1
LAYOUT
  2
AcDbLayout
  3
AutoCAD 2000
 90
        0
280
     0
281
     0
  0
CLASS
  1
DICTIONARYVAR
  2
AcDbDictionaryVar
  3
AutoCAD 2000
 90
        0
280
     0
281
     0
  0
CLASS
  1
LONG_TRANSACTION
  2
AcDbLongTransaction
  3
AutoCAD 2000
 90
        0
280
     0
281
     0
  0
CLASS
  1
LWPOLYLINE
  2
AcDbPolyline
  3
AutoCAD 2000
 90
        0
280
     0
281
     1
  0
CLASS
  1
HATCH
  2
AcDbHatch
  3
AutoCAD 2000
 90
        0
280
     0
281
     1
  0
CLASS
  1
XRECORD
  2
AcDbXrecord
  3
AutoCAD 2000
 90
        0
280
     0
281
     0
  0
ENDSEC
  0
SECTION
  2
TABLES
  0
TABLE
  2
VPORT
  5
8
330
0
100
AcDbSymbolTable
 70
     2
  0
VPORT
  5
13B
330
8
100
AcDbSymbolTableRecord
100
AcDbViewportTableRecord
  2
*ACTIVE
 70
     0
 10
0.0
 20
0.0
 11
1.0
 21
1.0
 12
78.00000000000001
 22
70.0
 13
0.0
 23
0.0
 14
1.0
 24
1.0
 15
0.0
 25
0.0
 16
0.0
 26
0.0
 36
1.0
 17
0.0
 27
0.0
 37
0.0
 40
141.0741687979539
 41
2.078104993597951
 42
50.0
 43
0.0
 44
0.0
 50
0.0
 51
0.0
 71
     0
 72
   100
 73
     1
 74
     3
 75
     0
 76
     0
 77
     0
 78
     0
  0
ENDTAB
  0
TABLE
  2
LTYPE
  5
5
330
0
100
AcDbSymbolTable
 70
     1
  0
LTYPE
  5
13
330
5
100
AcDbSymbolTableRecord
100
AcDbLinetypeTableRecord
  2
BYBLOCK
 70
     0
  3

 72
    65
 73
     0
 40
0.0
  0
LTYPE
  5
14
330
5
100
AcDbSymbolTableRecord
100
AcDbLinetypeTableRecord
  2
BYLAYER
 70
     0
  3

 72
    65
 73
     0
 40
0.0
  0
LTYPE
  5
15
330
5
100
AcDbSymbolTableRecord
100
AcDbLinetypeTableRecord
  2
CONTINUOUS
 70
     0
  3
Solid line
 72
    65
 73
     0
 40
0.0
  0
ENDTAB
  0
TABLE
  2
LAYER
  5
2
330
0
100
AcDbSymbolTable
 70
     1
  0
LAYER
  5
10
330
2
100
AcDbSymbolTableRecord
100
AcDbLayerTableRecord
  2
0
 70
     0
 62
     7
  6
CONTINUOUS
  0
ENDTAB
  0
TABLE
  2
STYLE
  5
3
330
0
100
AcDbSymbolTable
 70
     1
  0
STYLE
  5
11
330
3
100
AcDbSymbolTableRecord
100
AcDbTextStyleTableRecord
  2
STANDARD
 70
     0
 40
0.0
 41
1.0
 50
0.0
 71
     0
 42
0.2
  3
txt
  4

  0
ENDTAB
  0
TABLE
  2
VIEW
  5
6
330
0
100
AcDbSymbolTable
 70
     0
  0
ENDTAB
  0
TABLE
  2
UCS
  5
7
330
0
100
AcDbSymbolTable
 70
     0
  0
ENDTAB
  0
TABLE
  2
APPID
  5
9
330
0
100
AcDbSymbolTable
 70
     1
  0
APPID
  5
12
330
9
100
AcDbSymbolTableRecord
100
AcDbRegAppTableRecord
  2
ACAD
 70
     0
  0
ENDTAB
  0
TABLE
  2
DIMSTYLE
  5
A
330
0
100
AcDbSymbolTable
 70
     1
  0
DIMSTYLE
105
132
330
A
100
AcDbSymbolTableRecord
100
AcDbDimStyleTableRecord
  2
STANDARD
 70
     0
  3

  4

  5

  6

  7

 40
1.0
 41
0.18
 42
0.0625
 43
0.38
 44
0.18
 45
0.0
 46
0.0
 47
0.0
 48
0.0
140
0.18
141
0.09
142
0.0
143
25.4
144
1.0
145
0.0
146
1.0
147
0.09
 71
     0
 72
     0
 73
     1
 74
     1
 75
     0
 76
     0
 77
     0
 78
     0
170
     0
171
     2
172
     0
173
     0
174
     0
175
     0
176
     0
177
     0
178
     0
270
     2
271
     4
272
     4
273
     2
274
     2
340
11
275
     0
280
     0
281
     0
282
     0
283
     1
284
     0
285
     0
286
     0
287
     3
288
     0
  0
ENDTAB
  0
TABLE
  2
BLOCK_RECORD
  5
1
330
0
100
AcDbSymbolTable
 70
     0
  0
BLOCK_RECORD
  5
1E
102
{ACAD_XDICTIONARY
360
15E
102
}
330
1
100
AcDbSymbolTableRecord
100
AcDbBlockTableRecord
  2
*MODEL_SPACE
  0
BLOCK_RECORD
  5
1A
102
{ACAD_XDICTIONARY
360
15C
102
}
330
1
100
AcDbSymbolTableRecord
100
AcDbBlockTableRecord
  2
*PAPER_SPACE
  0
ENDTAB
  0
ENDSEC
  0
SECTION
  2
BLOCKS
  0
BLOCK
  5
1F
330
1E
100
AcDbEntity
  8
0
100
AcDbBlockBegin
  2
*MODEL_SPACE
 70
     0
 10
0.0
 20
0.0
 30
0.0
  3
*MODEL_SPACE
  1

  0
ENDBLK
  5
20
330
1E
100
AcDbEntity
  8
0
100
AcDbBlockEnd
  0
BLOCK
  5
1B
330
1A
100
AcDbEntity
 67
     1
  8
0
100
AcDbBlockBegin
  2
*PAPER_SPACE
 70
     0
 10
0.0
 20
0.0
 30
0.0
  3
*PAPER_SPACE
  1

  0
ENDBLK
  5
1C
330
1A
100
AcDbEntity
 67
     1
  8
0
100
AcDbBlockEnd
  0
ENDSEC
  0
SECTION
  2
ENTITIES
  0
LINE
  5
22
330
1E
100
AcDbEntity
  8
0
100
AcDbLine
 10
1.174
 20
88.49999999999999
 30
0.0
 11
2.873999999999999
 21
84.50000000000001
 31
0.0
  0
LINE
  5
23
330
1E
100
AcDbEntity
  8
0
100
AcDbLine
 10
0.274000000000004
 20
93.0
 30
0.0
 11
1.174
 21
88.49999999999999
 31
0.0
  0
LINE
  5
24
330
1E
100
AcDbEntity
  8
0
100
AcDbLine
 10
-0.125999999999996
 20
98.0
 30
0.0
 11
0.274000000000004
 21
93.0
 31
0.0
  0
LINE
  5
25
330
1E
100
AcDbEntity
  8
0
100
AcDbLine
 10
0.274000000000004
 20
93.0
 30
0.0
 11
1.174
 21
88.49999999999999
 31
0.0
  0
LINE
  5
26
330
1E
100
AcDbEntity
  8
0
100
AcDbLine
 10
1.174
 20
88.49999999999999
 30
0.0
 11
2.873999999999999
 21
84.50000000000001
 31
0.0
  0
LINE
  5
27
330
1E
100
AcDbEntity
  8
0
100
AcDbLine
 10
23.306
 20
73.89399999999999
 30
0.0
 11
25.1969
 21
73.56059999999999
 31
0.0
  0
LINE
  5
28
330
1E
100
AcDbEntity
  8
0
100
AcDbLine
 10
23.0046
 20
73.5664
 30
0.0
 11
24.84809999999999
 21
73.2413
 31
0.0
  0
LINE
  5
29
330
1E
100
AcDbEntity
  8
0
100
AcDbLine
 10
20.8007
 20
74.3358
 30
0.0
 11
23.306
 21
73.89399999999999
 31
0.0
  0
LINE
  5
2A
330
1E
100
AcDbEntity
  8
0
100
AcDbLine
 10
17.9644
 20
74.83589999999999
 30
0.0
 11
20.8007
 21
74.3358
 31
0.0
  0
LINE
  5
2B
330
1E
100
AcDbEntity
  8
0
100
AcDbLine
 10
20.5938
 20
73.9915
 30
0.0
 11
23.0046
 21
73.5664
 31
0.0
  0
LINE
  5
2C
330
1E
100
AcDbEntity
  8
0
100
AcDbLine
 10
17.8521
 20
74.47490000000001
 30
0.0
 11
20.5938
 21
73.9915
 31
0.0
  0
LINE
  5
2D
330
1E
100
AcDbEntity
  8
0
100
AcDbLine
 10
14.9391
 20
75.36929999999999
 30
0.0
 11
17.9644
 21
74.83589999999999
 31
0.0
  0
LINE
  5
2E
330
1E
100
AcDbEntity
  8
0
100
AcDbLine
 10
14.874
 20
75.0
 30
0.0
 11
17.8521
 21
74.47490000000001
 31
0.0
  0
LINE
  5
2F
330
1E
100
AcDbEntity
  8
0
100
AcDbLine
 10
11.89589999999999
 20
75.52509999999999
 30
0.0
 11
14.874
 21
75.0
 31
0.0
  0
LINE
  5
30
330
1E
100
AcDbEntity
  8
0
100
AcDbLine
 10
4.899899999999999
 20
76.7587
 30
0.0
 11
6.7434
 21
76.4336
 31
0.0
  0
LINE
  5
31
330
1E
100
AcDbEntity
  8
0
100
AcDbLine
 10
6.7434
 20
76.4336
 30
0.0
 11
9.154199999999999
 21
76.0085
 31
0.0
  0
LINE
  5
32
330
1E
100
AcDbEntity
  8
0
100
AcDbLine
 10
3.33993
 20
77.0338
 30
0.0
 11
3.765369999999999
 21
76.95879999999999
 31
0.0
  0
LINE
  5
33
330
1E
100
AcDbEntity
  8
0
100
AcDbLine
 10
3.765369999999999
 20
76.95879999999999
 30
0.0
 11
4.899899999999999
 21
76.7587
 31
0.0
  0
LINE
  5
34
330
1E
100
AcDbEntity
  8
0
100
AcDbLine
 10
3.12143
 20
77.4531
 30
0.0
 11
3.546859999999999
 21
77.3781
 31
0.0
  0
LINE
  5
35
330
1E
100
AcDbEntity
  8
0
100
AcDbLine
 10
3.12143
 20
77.4531
 30
0.0
 11
4.05984842373088
 21
82.77512956548241
 31
0.0
  0
LINE
  5
36
330
1E
100
AcDbEntity
  8
0
100
AcDbLine
 10
3.12143
 20
77.4531
 30
0.0
 11
3.33993
 21
77.0338
 31
0.0
  0
LINE
  5
37
330
1E
100
AcDbEntity
  8
0
100
AcDbLine
 10
3.546859999999999
 20
77.3781
 30
0.0
 11
4.6814
 21
77.178
 31
0.0
  0
LINE
  5
38
330
1E
100
AcDbEntity
  8
0
100
AcDbLine
 10
4.6814
 20
77.178
 30
0.0
 11
6.572199999999999
 21
76.8446
 31
0.0
  0
LINE
  5
39
330
1E
100
AcDbEntity
  8
0
100
AcDbLine
 10
6.572199999999999
 20
76.8446
 30
0.0
 11
9.0775
 21
76.4029
 31
0.0
  0
LINE
  5
3A
330
1E
100
AcDbEntity
  8
0
100
AcDbLine
 10
9.154199999999999
 20
76.0085
 30
0.0
 11
11.89589999999999
 21
75.52509999999999
 31
0.0
  0
LINE
  5
3B
330
1E
100
AcDbEntity
  8
0
100
AcDbLine
 10
9.0775
 20
76.4029
 30
0.0
 11
11.9138
 21
75.9027
 31
0.0
  0
LINE
  5
3C
330
1E
100
AcDbEntity
  8
0
100
AcDbLine
 10
11.9138
 20
75.9027
 30
0.0
 11
14.9391
 21
75.36929999999999
 31
0.0
  0
LINE
  5
3D
330
1E
100
AcDbEntity
  8
0
100
AcDbLine
 10
26.4081
 20
72.9662
 30
0.0
 11
26.75679999999999
 21
73.28549999999999
 31
0.0
  0
LINE
  5
3E
330
1E
100
AcDbEntity
  8
0
100
AcDbLine
 10
25.9826
 20
73.04120000000001
 30
0.0
 11
26.4081
 21
72.9662
 31
0.0
  0
LINE
  5
3F
330
1E
100
AcDbEntity
  8
0
100
AcDbLine
 10
24.84809999999999
 20
73.2413
 30
0.0
 11
25.9826
 21
73.04120000000001
 31
0.0
  0
LINE
  5
40
330
1E
100
AcDbEntity
  8
0
100
AcDbLine
 10
26.3314
 20
73.3605
 30
0.0
 11
26.75679999999999
 21
73.28549999999999
 31
0.0
  0
LINE
  5
41
330
1E
100
AcDbEntity
  8
0
100
AcDbLine
 10
25.1969
 20
73.56059999999999
 30
0.0
 11
26.3314
 21
73.3605
 31
0.0
  0
LINE
  5
42
330
1E
100
AcDbEntity
  8
0
100
AcDbLine
 10
26.75679999999999
 20
73.28549999999999
 30
0.0
 11
27.76443971177789
 21
79.0
 31
0.0
  0
LINE
  5
43
330
1E
100
AcDbEntity
  8
0
100
AcDbLine
 10
27.76443971177789
 20
79.0
 30
0.0
 11
67.374
 21
79.0
 31
0.0
  0
LINE
  5
44
330
1E
100
AcDbEntity
  8
0
100
AcDbLine
 10
27.76443971177789
 20
79.0
 30
0.0
 11
67.374
 21
79.0
 31
0.0
  0
LINE
  5
45
330
1E
100
AcDbEntity
  8
0
100
AcDbLine
 10
2.873999999999999
 20
84.50000000000001
 30
0.0
 11
4.05984842373088
 21
82.77512956548241
 31
0.0
  0
LINE
  5
46
330
1E
100
AcDbEntity
  8
0
100
AcDbLine
 10
-0.125999999999996
 20
99.50000000000001
 30
0.0
 11
0.296200000000004
 21
100.0
 31
0.0
  0
LINE
  5
47
330
1E
100
AcDbEntity
  8
0
100
AcDbLine
 10
2.4073
 20
99.50000000000001
 30
0.0
 11
5.4473
 21
99.50000000000001
 31
0.0
  0
LINE
  5
48
330
1E
100
AcDbEntity
  8
0
100
AcDbLine
 10
13.9762
 20
99.50000000000001
 30
0.0
 11
18.874
 21
99.50000000000001
 31
0.0
  0
LINE
  5
49
330
1E
100
AcDbEntity
  8
0
100
AcDbLine
 10
9.416219999999999
 20
99.50000000000001
 30
0.0
 11
13.9762
 21
99.50000000000001
 31
0.0
  0
LINE
  5
4A
330
1E
100
AcDbEntity
  8
0
100
AcDbLine
 10
5.4473
 20
99.50000000000001
 30
0.0
 11
9.416219999999999
 21
99.50000000000001
 31
0.0
  0
LINE
  5
4B
330
1E
100
AcDbEntity
  8
0
100
AcDbLine
 10
2.4073
 20
99.50000000000001
 30
0.0
 11
5.4473
 21
99.50000000000001
 31
0.0
  0
LINE
  5
4C
330
1E
100
AcDbEntity
  8
0
100
AcDbLine
 10
0.549600000000004
 20
99.50000000000001
 30
0.0
 11
2.4073
 21
99.50000000000001
 31
0.0
  0
LINE
  5
4D
330
1E
100
AcDbEntity
  8
0
100
AcDbLine
 10
0.296200000000004
 20
100.0
 30
0.0
 11
4.518399999999999
 21
100.5
 31
0.0
  0
LINE
  5
4E
330
1E
100
AcDbEntity
  8
0
100
AcDbLine
 10
0.9718000000000039
 20
100.0
 30
0.0
 11
2.745099999999999
 21
100.0
 31
0.0
  0
LINE
  5
4F
330
1E
100
AcDbEntity
  8
0
100
AcDbLine
 10
14.0607
 20
100.0
 30
0.0
 11
18.874
 21
100.0
 31
0.0
  0
LINE
  5
50
330
1E
100
AcDbEntity
  8
0
100
AcDbLine
 10
9.669549999999999
 20
100.0
 30
0.0
 11
14.0607
 21
100.0
 31
0.0
  0
LINE
  5
51
330
1E
100
AcDbEntity
  8
0
100
AcDbLine
 10
5.785099999999999
 20
100.0
 30
0.0
 11
9.669549999999999
 21
100.0
 31
0.0
  0
LINE
  5
52
330
1E
100
AcDbEntity
  8
0
100
AcDbLine
 10
2.745099999999999
 20
100.0
 30
0.0
 11
5.785099999999999
 21
100.0
 31
0.0
  0
LINE
  5
53
330
1E
100
AcDbEntity
  8
0
100
AcDbLine
 10
0.9718000000000039
 20
100.0
 30
0.0
 11
2.745099999999999
 21
100.0
 31
0.0
  0
LINE
  5
54
330
1E
100
AcDbEntity
  8
0
100
AcDbLine
 10
0.296200000000004
 20
100.0
 30
0.0
 11
0.9718000000000039
 21
100.0
 31
0.0
  0
LINE
  5
55
330
1E
100
AcDbEntity
  8
0
100
AcDbLine
 10
18.874
 20
99.50000000000001
 30
0.0
 11
114.8739999999999
 21
99.50000000000001
 31
0.0
  0
LINE
  5
56
330
1E
100
AcDbEntity
  8
0
100
AcDbLine
 10
18.874
 20
99.50000000000001
 30
0.0
 11
114.8739999999999
 21
99.50000000000001
 31
0.0
  0
LINE
  5
57
330
1E
100
AcDbEntity
  8
0
100
AcDbLine
 10
18.874
 20
100.0
 30
0.0
 11
114.8739999999999
 21
100.0
 31
0.0
  0
LINE
  5
58
330
1E
100
AcDbEntity
  8
0
100
AcDbLine
 10
18.874
 20
100.0
 30
0.0
 11
114.8739999999999
 21
100.0
 31
0.0
  0
LINE
  5
59
330
1E
100
AcDbEntity
  8
0
100
AcDbLine
 10
17.354
 20
101.0
 30
0.0
 11
18.874
 21
101.0
 31
0.0
  0
LINE
  5
5A
330
1E
100
AcDbEntity
  8
0
100
AcDbLine
 10
15.91849999999999
 20
101.0
 30
0.0
 11
17.354
 21
101.0
 31
0.0
  0
LINE
  5
5B
330
1E
100
AcDbEntity
  8
0
100
AcDbLine
 10
14.7362
 20
101.0
 30
0.0
 11
15.91849999999999
 21
101.0
 31
0.0
  0
LINE
  5
5C
330
1E
100
AcDbEntity
  8
0
100
AcDbLine
 10
13.7229
 20
101.0
 30
0.0
 11
14.7362
 21
101.0
 31
0.0
  0
LINE
  5
5D
330
1E
100
AcDbEntity
  8
0
100
AcDbLine
 10
13.2162
 20
101.0
 30
0.0
 11
13.7229
 21
101.0
 31
0.0
  0
LINE
  5
5E
330
1E
100
AcDbEntity
  8
0
100
AcDbLine
 10
12.96289999999999
 20
101.0
 30
0.0
 11
13.2162
 21
101.0
 31
0.0
  0
LINE
  5
5F
330
1E
100
AcDbEntity
  8
0
100
AcDbLine
 10
18.874
 20
101.0
 30
0.0
 11
94.18029999999999
 21
101.0
 31
0.0
  0
LINE
  5
60
330
1E
100
AcDbEntity
  8
0
100
AcDbLine
 10
18.874
 20
101.0
 30
0.0
 11
94.18029999999999
 21
101.0
 31
0.0
  0
LINE
  5
61
330
1E
100
AcDbEntity
  8
0
100
AcDbLine
 10
4.518399999999999
 20
100.5
 30
0.0
 11
12.96289999999999
 21
101.0
 31
0.0
  0
LINE
  5
62
330
1E
100
AcDbEntity
  8
0
100
AcDbLine
 10
0.296200000000004
 20
100.0
 30
0.0
 11
4.518399999999999
 21
100.5
 31
0.0
  0
LINE
  5
63
330
1E
100
AcDbEntity
  8
0
100
AcDbLine
 10
0.296200000000004
 20
100.0
 30
0.0
 11
0.9718000000000039
 21
100.0
 31
0.0
  0
LINE
  5
64
330
1E
100
AcDbEntity
  8
0
100
AcDbLine
 10
-0.125999999999996
 20
99.50000000000001
 30
0.0
 11
0.296200000000004
 21
100.0
 31
0.0
  0
LINE
  5
65
330
1E
100
AcDbEntity
  8
0
100
AcDbLine
 10
-0.125999999999996
 20
99.50000000000001
 30
0.0
 11
0.549600000000004
 21
99.50000000000001
 31
0.0
  0
LINE
  5
66
330
1E
100
AcDbEntity
  8
0
100
AcDbLine
 10
-0.125999999999996
 20
98.0
 30
0.0
 11
-0.125999999999996
 21
99.50000000000001
 31
0.0
  0
LINE
  5
67
330
1E
100
AcDbEntity
  8
0
100
AcDbLine
 10
-0.125999999999996
 20
98.0
 30
0.0
 11
0.274000000000004
 21
93.0
 31
0.0
  0
LINE
  5
68
330
1E
100
AcDbEntity
  8
0
100
AcDbLine
 10
37.374
 20
135.4999999999999
 30
0.0
 11
37.374
 21
137.0
 31
0.0
  0
LINE
  5
69
330
1E
100
AcDbEntity
  8
0
100
AcDbLine
 10
37.374
 20
135.4999999999999
 30
0.0
 11
37.70729999999999
 21
135.0
 31
0.0
  0
LINE
  5
6A
330
1E
100
AcDbEntity
  8
0
100
AcDbLine
 10
37.374
 20
138.5
 30
0.0
 11
37.70729999999999
 21
139.0
 31
0.0
  0
LINE
  5
6B
330
1E
100
AcDbEntity
  8
0
100
AcDbLine
 10
37.374
 20
138.5
 30
0.0
 11
37.374
 21
137.0
 31
0.0
  0
LINE
  5
6C
330
1E
100
AcDbEntity
  8
0
100
AcDbLine
 10
93.17399999999999
 20
-0.0000000000000035
 30
0.0
 11
95.37399999999999
 21
-0.0000000000000037
 31
0.0
  0
LINE
  5
6D
330
1E
100
AcDbEntity
  8
0
100
AcDbLine
 10
92.37399999999999
 20
0.0
 30
0.0
 11
92.37399999999999
 21
54.0
 31
0.0
  0
LINE
  5
6E
330
1E
100
AcDbEntity
  8
0
100
AcDbLine
 10
85.05169999999999
 20
71.6777
 30
0.0
 11
89.02460000000001
 21
66.5
 31
0.0
  0
LINE
  5
6F
330
1E
100
AcDbEntity
  8
0
100
AcDbLine
 10
79.874
 20
75.65059999999999
 30
0.0
 11
85.05169999999999
 21
71.6777
 31
0.0
  0
LINE
  5
70
330
1E
100
AcDbEntity
  8
0
100
AcDbLine
 10
89.02460000000001
 20
66.5
 30
0.0
 11
91.5221
 21
60.4705
 31
0.0
  0
LINE
  5
71
330
1E
100
AcDbEntity
  8
0
100
AcDbLine
 10
73.8445
 20
78.1481
 30
0.0
 11
79.874
 21
75.65059999999999
 31
0.0
  0
LINE
  5
72
330
1E
100
AcDbEntity
  8
0
100
AcDbLine
 10
91.5221
 20
60.4705
 30
0.0
 11
92.37399999999999
 21
54.0
 31
0.0
  0
LINE
  5
73
330
1E
100
AcDbEntity
  8
0
100
AcDbLine
 10
67.374
 20
79.0
 30
0.0
 11
73.8445
 21
78.1481
 31
0.0
  0
LINE
  5
74
330
1E
100
AcDbEntity
  8
0
100
AcDbLine
 10
92.37399999999999
 20
-0.0000000000000035
 30
0.0
 11
93.17399999999999
 21
-0.0000000000000035
 31
0.0
  0
LINE
  5
75
330
1E
100
AcDbEntity
  8
0
100
AcDbLine
 10
92.37399999999999
 20
-0.0000000000000035
 30
0.0
 11
92.37399999999999
 21
54.0
 31
0.0
  0
LINE
  5
76
330
1E
100
AcDbEntity
  8
0
100
AcDbLine
 10
98.97399999999999
 20
-0.0000000000000039
 30
0.0
 11
103.6739999999999
 21
-0.0000000000000042
 31
0.0
  0
LINE
  5
77
330
1E
100
AcDbEntity
  8
0
100
AcDbLine
 10
95.37399999999999
 20
-0.0000000000000037
 30
0.0
 11
98.97399999999999
 21
-0.0000000000000039
 31
0.0
  0
LINE
  5
78
330
1E
100
AcDbEntity
  8
0
100
AcDbLine
 10
103.6739999999999
 20
-0.0000000000000042
 30
0.0
 11
109.074
 21
-0.0000000000000045
 31
0.0
  0
LINE
  5
79
330
1E
100
AcDbEntity
  8
0
100
AcDbLine
 10
109.074
 20
-0.0000000000000045
 30
0.0
 11
114.8739999999999
 21
-0.0000000000000049
 31
0.0
  0
LINE
  5
7A
330
1E
100
AcDbEntity
  8
0
100
AcDbLine
 10
114.8739999999999
 20
100.0
 30
0.0
 11
120.574
 21
100.0
 31
0.0
  0
LINE
  5
7B
330
1E
100
AcDbEntity
  8
0
100
AcDbLine
 10
114.8739999999999
 20
99.50000000000001
 30
0.0
 11
120.6739999999999
 21
99.50000000000001
 31
0.0
  0
LINE
  5
7C
330
1E
100
AcDbEntity
  8
0
100
AcDbLine
 10
114.8739999999999
 20
-0.0000000000000049
 30
0.0
 11
120.6739999999999
 21
-0.0000000000000052
 31
0.0
  0
LINE
  5
7D
330
1E
100
AcDbEntity
  8
0
100
AcDbLine
 10
109.1739999999999
 20
101.0
 30
0.0
 11
114.8739999999999
 21
101.0
 31
0.0
  0
LINE
  5
7E
330
1E
100
AcDbEntity
  8
0
100
AcDbLine
 10
103.9739999999999
 20
101.0
 30
0.0
 11
109.1739999999999
 21
101.0
 31
0.0
  0
LINE
  5
7F
330
1E
100
AcDbEntity
  8
0
100
AcDbLine
 10
99.374
 20
101.0
 30
0.0
 11
103.9739999999999
 21
101.0
 31
0.0
  0
LINE
  5
80
330
1E
100
AcDbEntity
  8
0
100
AcDbLine
 10
95.774
 20
101.0
 30
0.0
 11
99.374
 21
101.0
 31
0.0
  0
LINE
  5
81
330
1E
100
AcDbEntity
  8
0
100
AcDbLine
 10
93.67399999999999
 20
101.0
 30
0.0
 11
95.774
 21
101.0
 31
0.0
  0
LINE
  5
82
330
1E
100
AcDbEntity
  8
0
100
AcDbLine
 10
109.074
 20
101.5
 30
0.0
 11
114.8739999999999
 21
101.5
 31
0.0
  0
LINE
  5
83
330
1E
100
AcDbEntity
  8
0
100
AcDbLine
 10
103.6739999999999
 20
101.5
 30
0.0
 11
109.074
 21
101.5
 31
0.0
  0
LINE
  5
84
330
1E
100
AcDbEntity
  8
0
100
AcDbLine
 10
98.97399999999999
 20
101.5
 30
0.0
 11
103.6739999999999
 21
101.5
 31
0.0
  0
LINE
  5
85
330
1E
100
AcDbEntity
  8
0
100
AcDbLine
 10
95.37399999999999
 20
101.5
 30
0.0
 11
98.97399999999999
 21
101.5
 31
0.0
  0
LINE
  5
86
330
1E
100
AcDbEntity
  8
0
100
AcDbLine
 10
93.17399999999999
 20
101.5
 30
0.0
 11
95.37399999999999
 21
101.5
 31
0.0
  0
LINE
  5
87
330
1E
100
AcDbEntity
  8
0
100
AcDbLine
 10
114.8739999999999
 20
101.0
 30
0.0
 11
120.6229999999999
 21
102.9229999999999
 31
0.0
  0
LINE
  5
88
330
1E
100
AcDbEntity
  8
0
100
AcDbLine
 10
130.774
 20
-0.0000000000000058
 30
0.0
 11
134.3739999999999
 21
-0.000000000000006
 31
0.0
  0
LINE
  5
89
330
1E
100
AcDbEntity
  8
0
100
AcDbLine
 10
120.574
 20
100.0
 30
0.0
 11
125.774
 21
100.0
 31
0.0
  0
LINE
  5
8A
330
1E
100
AcDbEntity
  8
0
100
AcDbLine
 10
120.6739999999999
 20
99.50000000000001
 30
0.0
 11
126.0739999999999
 21
99.50000000000001
 31
0.0
  0
LINE
  5
8B
330
1E
100
AcDbEntity
  8
0
100
AcDbLine
 10
126.0739999999999
 20
99.50000000000001
 30
0.0
 11
130.774
 21
99.50000000000001
 31
0.0
  0
LINE
  5
8C
330
1E
100
AcDbEntity
  8
0
100
AcDbLine
 10
130.774
 20
99.50000000000001
 30
0.0
 11
134.3739999999999
 21
99.50000000000001
 31
0.0
  0
LINE
  5
8D
330
1E
100
AcDbEntity
  8
0
100
AcDbLine
 10
125.774
 20
100.0
 30
0.0
 11
130.3739999999999
 21
100.0
 31
0.0
  0
LINE
  5
8E
330
1E
100
AcDbEntity
  8
0
100
AcDbLine
 10
130.3739999999999
 20
100.0
 30
0.0
 11
133.9739999999999
 21
100.0
 31
0.0
  0
LINE
  5
8F
330
1E
100
AcDbEntity
  8
0
100
AcDbLine
 10
133.9739999999999
 20
100.0
 30
0.0
 11
136.0739999999999
 21
100.0
 31
0.0
  0
LINE
  5
90
330
1E
100
AcDbEntity
  8
0
100
AcDbLine
 10
134.3739999999999
 20
99.50000000000001
 30
0.0
 11
136.5739999999999
 21
99.50000000000001
 31
0.0
  0
LINE
  5
91
330
1E
100
AcDbEntity
  8
0
100
AcDbLine
 10
120.6739999999999
 20
-0.0000000000000052
 30
0.0
 11
126.0739999999999
 21
-0.0000000000000055
 31
0.0
  0
LINE
  5
92
330
1E
100
AcDbEntity
  8
0
100
AcDbLine
 10
126.0739999999999
 20
-0.0000000000000055
 30
0.0
 11
130.774
 21
-0.0000000000000058
 31
0.0
  0
LINE
  5
93
330
1E
100
AcDbEntity
  8
0
100
AcDbLine
 10
136.0739999999999
 20
100.0
 30
0.0
 11
136.874
 21
100.0
 31
0.0
  0
LINE
  5
94
330
1E
100
AcDbEntity
  8
0
100
AcDbLine
 10
134.3739999999999
 20
-0.000000000000006
 30
0.0
 11
136.5739999999999
 21
-0.0000000000000062
 31
0.0
  0
LINE
  5
95
330
1E
100
AcDbEntity
  8
0
100
AcDbLine
 10
136.3661279837479
 20
100.0507872016249
 30
0.0
 11
136.874
 21
100.0
 31
0.0
  0
LINE
  5
96
330
1E
100
AcDbEntity
  8
0
100
AcDbLine
 10
114.8739999999999
 20
101.5
 30
0.0
 11
120.702
 21
103.4399999999999
 31
0.0
  0
LINE
  5
97
330
1E
100
AcDbEntity
  8
0
100
AcDbLine
 10
120.6229999999999
 20
102.9229999999999
 30
0.0
 11
125.838
 21
104.6329999999999
 31
0.0
  0
LINE
  5
98
330
1E
100
AcDbEntity
  8
0
100
AcDbLine
 10
125.838
 20
104.6329999999999
 30
0.0
 11
130.2959999999999
 21
106.105
 31
0.0
  0
LINE
  5
99
330
1E
100
AcDbEntity
  8
0
100
AcDbLine
 10
120.702
 20
103.4399999999999
 30
0.0
 11
126.076
 21
105.23
 31
0.0
  0
LINE
  5
A0
330
1E
100
AcDbEntity
  8
0
100
AcDbLine
 10
92.37399999999999
 20
107.487
 30
0.0
 11
92.37399999999999
 21
101.5
 31
0.0
  0
LINE
  5
A1
330
1E
100
AcDbEntity
  8
0
100
AcDbLine
 10
130.2959999999999
 20
106.105
 30
0.0
 11
133.8789999999999
 21
107.2989999999999
 31
0.0
  0
LINE
  5
A2
330
1E
100
AcDbEntity
  8
0
100
AcDbLine
 10
126.076
 20
105.23
 30
0.0
 11
130.6939999999999
 21
106.782
 31
0.0
  0
LINE
  5
A3
330
1E
100
AcDbEntity
  8
0
100
AcDbLine
 10
133.8789999999999
 20
107.2989999999999
 30
0.0
 11
136.0679999999999
 21
108.0149999999999
 31
0.0
  0
LINE
  5
A4
330
1E
100
AcDbEntity
  8
0
100
AcDbLine
 10
130.6939999999999
 20
106.782
 30
0.0
 11
134.317
 21
108.0149999999999
 31
0.0
  0
LINE
  5
A5
330
1E
100
AcDbEntity
  8
0
100
AcDbLine
 10
92.37399999999999
 20
101.5
 30
0.0
 11
92.37399999999999
 21
107.487
 31
0.0
  0
LINE
  5
A6
330
1E
100
AcDbEntity
  8
0
100
AcDbLine
 10
92.37399999999999
 20
101.5
 30
0.0
 11
92.87399999999999
 21
101.0
 31
0.0
  0
LINE
  5
A7
330
1E
100
AcDbEntity
  8
0
100
AcDbLine
 10
92.37399999999999
 20
101.5
 30
0.0
 11
93.17399999999999
 21
101.5
 31
0.0
  0
LINE
  5
A8
330
1E
100
AcDbEntity
  8
0
100
AcDbLine
 10
136.3739999999999
 20
105.2
 30
0.0
 11
136.3739999999999
 21
100.044642857143
 31
0.0
  0
LINE
  5
A9
330
1E
100
AcDbEntity
  8
0
100
AcDbLine
 10
51.17399999999999
 20
134.0
 30
0.0
 11
52.374
 21
134.0
 31
0.0
  0
LINE
  5
AA
330
1E
100
AcDbEntity
  8
0
100
AcDbLine
 10
50.0407
 20
134.0
 30
0.0
 11
51.17399999999999
 21
134.0
 31
0.0
  0
LINE
  5
AB
330
1E
100
AcDbEntity
  8
0
100
AcDbLine
 10
49.1073
 20
134.0
 30
0.0
 11
50.0407
 21
134.0
 31
0.0
  0
LINE
  5
AC
330
1E
100
AcDbEntity
  8
0
100
AcDbLine
 10
48.30729999999999
 20
134.0
 30
0.0
 11
49.1073
 21
134.0
 31
0.0
  0
LINE
  5
AD
330
1E
100
AcDbEntity
  8
0
100
AcDbLine
 10
47.90729999999999
 20
134.0
 30
0.0
 11
48.30729999999999
 21
134.0
 31
0.0
  0
LINE
  5
AE
330
1E
100
AcDbEntity
  8
0
100
AcDbLine
 10
47.70729999999999
 20
134.0
 30
0.0
 11
47.90729999999999
 21
134.0
 31
0.0
  0
LINE
  5
C4
330
1E
100
AcDbEntity
  8
0
100
AcDbLine
 10
52.374
 20
134.0
 30
0.0
 11
92.37399999999999
 21
134.0
 31
0.0
  0
LINE
  5
C5
330
1E
100
AcDbEntity
  8
0
100
AcDbLine
 10
92.37399999999999
 20
134.0
 30
0.0
 11
92.37399999999999
 21
107.487
 31
0.0
  0
LINE
  5
C6
330
1E
100
AcDbEntity
  8
0
100
AcDbLine
 10
136.0679999999999
 20
108.0149999999999
 30
0.0
 11
136.904
 21
108.3339999999999
 31
0.0
  0
LINE
  5
C7
330
1E
100
AcDbEntity
  8
0
100
AcDbLine
 10
134.317
 20
108.0149999999999
 30
0.0
 11
136.586
 21
108.731
 31
0.0
  0
LINE
  5
C8
330
1E
100
AcDbEntity
  8
0
100
AcDbLine
 10
92.37399999999999
 20
107.487
 30
0.0
 11
92.37399999999999
 21
134.0
 31
0.0
  0
LINE
  5
C9
330
1E
100
AcDbEntity
  8
0
100
AcDbLine
 10
136.0291042948929
 20
108.002277603994
 30
0.0
 11
136.3739999999999
 21
105.2
 31
0.0
  0
LINE
  5
CA
330
1E
100
AcDbEntity
  8
0
100
AcDbLine
 10
137.3739999999999
 20
20.0503814510854
 30
0.0
 11
141.447
 21
37.60419999999999
 31
0.0
  0
LINE
  5
CB
330
1E
100
AcDbEntity
  8
0
100
AcDbLine
 10
137.3739999999999
 20
-0.0000000000000062
 30
0.0
 11
137.3739999999999
 21
20.0503814510854
 31
0.0
  0
LINE
  5
CC
330
1E
100
AcDbEntity
  8
0
100
AcDbLine
 10
136.5739999999999
 20
-0.0000000000000062
 30
0.0
 11
137.3739999999999
 21
-0.0000000000000062
 31
0.0
  0
LINE
  5
CD
330
1E
100
AcDbEntity
  8
0
100
AcDbLine
 10
136.5739999999999
 20
99.50000000000001
 30
0.0
 11
137.3739999999999
 21
99.50000000000001
 31
0.0
  0
LINE
  5
CE
330
1E
100
AcDbEntity
  8
0
100
AcDbLine
 10
137.3739999999999
 20
40.52290955315871
 30
0.0
 11
137.3739999999999
 21
98.0
 31
0.0
  0
LINE
  5
CF
330
1E
100
AcDbEntity
  8
0
100
AcDbLine
 10
137.3739999999999
 20
20.0503814510854
 30
0.0
 11
137.3739999999999
 21
0.0
 31
0.0
  0
LINE
  5
D0
330
1E
100
AcDbEntity
  8
0
100
AcDbLine
 10
137.3739999999999
 20
20.0503814510854
 30
0.0
 11
141.447
 21
37.60419999999999
 31
0.0
  0
LINE
  5
D1
330
1E
100
AcDbEntity
  8
0
100
AcDbLine
 10
137.3739999999999
 20
98.0
 30
0.0
 11
137.3739999999999
 21
40.52290955315871
 31
0.0
  0
LINE
  5
D2
330
1E
100
AcDbEntity
  8
0
100
AcDbLine
 10
137.3739999999999
 20
98.0
 30
0.0
 11
137.3739999999999
 21
99.50000000000001
 31
0.0
  0
LINE
  5
D3
330
1E
100
AcDbEntity
  8
0
100
AcDbLine
 10
136.874
 20
100.0
 30
0.0
 11
137.3739999999999
 21
99.50000000000001
 31
0.0
  0
LINE
  5
D4
330
1E
100
AcDbEntity
  8
0
100
AcDbLine
 10
137.3739999999999
 20
99.50000000000001
 30
0.0
 11
137.3739999999999
 21
98.0
 31
0.0
  0
LINE
  5
D5
330
1E
100
AcDbEntity
  8
0
100
AcDbLine
 10
137.3739999999999
 20
109.0
 30
0.0
 11
137.3739999999999
 21
137.0
 31
0.0
  0
LINE
  5
D6
330
1E
100
AcDbEntity
  8
0
100
AcDbLine
 10
136.586
 20
108.731
 30
0.0
 11
137.3739999999999
 21
109.0
 31
0.0
  0
LINE
  5
D7
330
1E
100
AcDbEntity
  8
0
100
AcDbLine
 10
136.904
 20
108.3339999999999
 30
0.0
 11
137.3739999999999
 21
109.0
 31
0.0
  0
LINE
  5
D8
330
1E
100
AcDbEntity
  8
0
100
AcDbLine
 10
136.3739999999999
 20
100.044642857143
 30
0.0
 11
136.3739999999999
 21
105.2
 31
0.0
  0
LINE
  5
DF
330
1E
100
AcDbEntity
  8
0
100
AcDbLine
 10
38.24069999999999
 20
139.0
 30
0.0
 11
39.6407
 21
139.0
 31
0.0
  0
LINE
  5
E0
330
1E
100
AcDbEntity
  8
0
100
AcDbLine
 10
48.574
 20
139.0
 30
0.0
 11
52.374
 21
139.0
 31
0.0
  0
LINE
  5
E1
330
1E
100
AcDbEntity
  8
0
100
AcDbLine
 10
45.1073
 20
139.0
 30
0.0
 11
48.574
 21
139.0
 31
0.0
  0
LINE
  5
E2
330
1E
100
AcDbEntity
  8
0
100
AcDbLine
 10
42.0407
 20
139.0
 30
0.0
 11
45.1073
 21
139.0
 31
0.0
  0
LINE
  5
E3
330
1E
100
AcDbEntity
  8
0
100
AcDbLine
 10
39.6407
 20
139.0
 30
0.0
 11
42.0407
 21
139.0
 31
0.0
  0
LINE
  5
E8
330
1E
100
AcDbEntity
  8
0
100
AcDbLine
 10
52.374
 20
139.0
 30
0.0
 11
114.8739999999999
 21
139.0
 31
0.0
  0
LINE
  5
ED
330
1E
100
AcDbEntity
  8
0
100
AcDbLine
 10
114.8739999999999
 20
139.0
 30
0.0
 11
120.574
 21
139.0
 31
0.0
  0
LINE
  5
EE
330
1E
100
AcDbEntity
  8
0
100
AcDbLine
 10
120.574
 20
139.0
 30
0.0
 11
125.774
 21
139.0
 31
0.0
  0
LINE
  5
EF
330
1E
100
AcDbEntity
  8
0
100
AcDbLine
 10
125.774
 20
139.0
 30
0.0
 11
130.3739999999999
 21
139.0
 31
0.0
  0
LINE
  5
F0
330
1E
100
AcDbEntity
  8
0
100
AcDbLine
 10
130.3739999999999
 20
139.0
 30
0.0
 11
133.9739999999999
 21
139.0
 31
0.0
  0
LINE
  5
F1
330
1E
100
AcDbEntity
  8
0
100
AcDbLine
 10
133.9739999999999
 20
139.0
 30
0.0
 11
136.0739999999999
 21
139.0
 31
0.0
  0
LINE
  5
F2
330
1E
100
AcDbEntity
  8
0
100
AcDbLine
 10
136.0739999999999
 20
139.0
 30
0.0
 11
136.874
 21
139.0
 31
0.0
  0
LINE
  5
F8
330
1E
100
AcDbEntity
  8
0
100
AcDbLine
 10
137.3739999999999
 20
137.0
 30
0.0
 11
137.3739999999999
 21
109.0
 31
0.0
  0
LINE
  5
F9
330
1E
100
AcDbEntity
  8
0
100
AcDbLine
 10
137.3739999999999
 20
137.0
 30
0.0
 11
137.3739999999999
 21
138.5
 31
0.0
  0
LINE
  5
FA
330
1E
100
AcDbEntity
  8
0
100
AcDbLine
 10
41.0407
 20
134.4999999999999
 30
0.0
 11
47.70729999999999
 21
134.0
 31
0.0
  0
LINE
  5
FB
330
1E
100
AcDbEntity
  8
0
100
AcDbLine
 10
37.70729999999999
 20
135.0
 30
0.0
 11
41.0407
 21
134.4999999999999
 31
0.0
  0
LINE
  5
FD
330
1E
100
AcDbEntity
  8
0
100
AcDbLine
 10
37.70729999999999
 20
139.0
 30
0.0
 11
41.0407
 21
139.5
 31
0.0
  0
LINE
  5
FE
330
1E
100
AcDbEntity
  8
0
100
AcDbLine
 10
37.70729999999999
 20
139.0
 30
0.0
 11
38.24069999999999
 21
139.0
 31
0.0
  0
LINE
  5
FF
330
1E
100
AcDbEntity
  8
0
100
AcDbLine
 10
37.374
 20
137.0
 30
0.0
 11
37.374
 21
138.5
 31
0.0
  0
LINE
  5
100
330
1E
100
AcDbEntity
  8
0
100
AcDbLine
 10
37.374
 20
137.0
 30
0.0
 11
37.374
 21
135.4999999999999
 31
0.0
  0
LINE
  5
116
330
1E
100
AcDbEntity
  8
0
100
AcDbLine
 10
114.8739999999999
 20
140.0
 30
0.0
 11
116.6739999999999
 21
140.0
 31
0.0
  0
LINE
  5
117
330
1E
100
AcDbEntity
  8
0
100
AcDbLine
 10
116.6739999999999
 20
140.0
 30
0.0
 11
118.374
 21
140.0
 31
0.0
  0
LINE
  5
118
330
1E
100
AcDbEntity
  8
0
100
AcDbLine
 10
118.374
 20
140.0
 30
0.0
 11
119.774
 21
140.0
 31
0.0
  0
LINE
  5
119
330
1E
100
AcDbEntity
  8
0
100
AcDbLine
 10
119.774
 20
140.0
 30
0.0
 11
120.9739999999999
 21
140.0
 31
0.0
  0
LINE
  5
11A
330
1E
100
AcDbEntity
  8
0
100
AcDbLine
 10
120.9739999999999
 20
140.0
 30
0.0
 11
121.574
 21
140.0
 31
0.0
  0
LINE
  5
11B
330
1E
100
AcDbEntity
  8
0
100
AcDbLine
 10
121.574
 20
140.0
 30
0.0
 11
121.8739999999999
 21
140.0
 31
0.0
  0
LINE
  5
11C
330
1E
100
AcDbEntity
  8
0
100
AcDbLine
 10
41.0407
 20
139.5
 30
0.0
 11
47.70729999999999
 21
140.0
 31
0.0
  0
LINE
  5
11D
330
1E
100
AcDbEntity
  8
0
100
AcDbLine
 10
51.17399999999999
 20
140.0
 30
0.0
 11
52.374
 21
140.0
 31
0.0
  0
LINE
  5
11E
330
1E
100
AcDbEntity
  8
0
100
AcDbLine
 10
50.0407
 20
140.0
 30
0.0
 11
51.17399999999999
 21
140.0
 31
0.0
  0
LINE
  5
11F
330
1E
100
AcDbEntity
  8
0
100
AcDbLine
 10
49.1073
 20
140.0
 30
0.0
 11
50.0407
 21
140.0
 31
0.0
  0
LINE
  5
120
330
1E
100
AcDbEntity
  8
0
100
AcDbLine
 10
48.30729999999999
 20
140.0
 30
0.0
 11
49.1073
 21
140.0
 31
0.0
  0
LINE
  5
121
330
1E
100
AcDbEntity
  8
0
100
AcDbLine
 10
47.90729999999999
 20
140.0
 30
0.0
 11
48.30729999999999
 21
140.0
 31
0.0
  0
LINE
  5
122
330
1E
100
AcDbEntity
  8
0
100
AcDbLine
 10
47.70729999999999
 20
140.0
 30
0.0
 11
47.90729999999999
 21
140.0
 31
0.0
  0
LINE
  5
123
330
1E
100
AcDbEntity
  8
0
100
AcDbLine
 10
52.374
 20
140.0
 30
0.0
 11
114.8739999999999
 21
140.0
 31
0.0
  0
LINE
  5
124
330
1E
100
AcDbEntity
  8
0
100
AcDbLine
 10
121.8739999999999
 20
140.0
 30
0.0
 11
131.874
 21
139.5
 31
0.0
  0
LINE
  5
125
330
1E
100
AcDbEntity
  8
0
100
AcDbLine
 10
131.874
 20
139.5
 30
0.0
 11
136.874
 21
139.0
 31
0.0
  0
LINE
  5
126
330
1E
100
AcDbEntity
  8
0
100
AcDbLine
 10
136.874
 20
139.0
 30
0.0
 11
137.3739999999999
 21
138.5
 31
0.0
  0
LINE
  5
127
330
1E
100
AcDbEntity
  8
0
100
AcDbLine
 10
141.447
 20
37.60419999999999
 30
0.0
 11
141.4579999999999
 21
37.8039
 31
0.0
  0
LINE
  5
128
330
1E
100
AcDbEntity
  8
0
100
AcDbLine
 10
141.5729999999999
 20
38.0983
 30
0.0
 11
141.8829999999999
 21
38.28229999999999
 31
0.0
  0
LINE
  5
129
330
1E
100
AcDbEntity
  8
0
100
AcDbLine
 10
141.8829999999999
 20
38.28229999999999
 30
0.0
 11
155.864
 21
37.5496
 31
0.0
  0
LINE
  5
12A
330
1E
100
AcDbEntity
  8
0
100
AcDbLine
 10
155.901
 20
38.2486
 30
0.0
 11
155.9579999999999
 21
39.34709999999999
 31
0.0
  0
LINE
  5
12B
330
1E
100
AcDbEntity
  8
0
100
AcDbLine
 10
155.9579999999999
 20
39.34709999999999
 30
0.0
 11
156.032
 21
40.74519999999999
 31
0.0
  0
LINE
  5
12C
330
1E
100
AcDbEntity
  8
0
100
AcDbLine
 10
155.864
 20
37.5496
 30
0.0
 11
155.901
 21
38.2486
 31
0.0
  0
LINE
  5
12D
330
1E
100
AcDbEntity
  8
0
100
AcDbLine
 10
138.2609999999999
 20
41.7766
 30
0.0
 11
140.227
 21
42.9754
 31
0.0
  0
LINE
  5
12E
330
1E
100
AcDbEntity
  8
0
100
AcDbLine
 10
156.089
 20
41.8437
 30
0.0
 11
156.126
 21
42.5427
 31
0.0
  0
LINE
  5
12F
330
1E
100
AcDbEntity
  8
0
100
AcDbLine
 10
142.145
 20
43.27539999999999
 30
0.0
 11
156.126
 21
42.5427
 31
0.0
  0
LINE
  5
130
330
1E
100
AcDbEntity
  8
0
100
AcDbLine
 10
156.032
 20
40.74519999999999
 30
0.0
 11
156.089
 21
41.8437
 31
0.0
  0
LINE
  5
131
330
1E
100
AcDbEntity
  8
0
100
AcDbLine
 10
137.3739999999999
 20
138.5
 30
0.0
 11
137.3739999999999
 21
137.0
 31
0.0
  0
LINE
  5
136
330
1E
100
AcDbEntity
  8
0
100
AcDbLine
 10
137.3739999999999
 20
40.52290955315871
 30
0.0
 11
137.3739999999999
 21
20.0503814510854
 31
0.0
  0
LINE
  5
137
330
1E
100
AcDbEntity
  8
0
100
AcDbLine
 10
142.145
 20
43.27539999999999
 30
0.0
 11
140.227
 21
42.9754
 31
0.0
  0
LINE
  5
138
330
1E
100
AcDbEntity
  8
0
100
AcDbLine
 10
138.2609999999999
 20
41.7766
 30
0.0
 11
137.3739999999999
 21
40.52290955315871
 31
0.0
  0
ENDSEC
  0
SECTION
  2
OBJECTS
  0
DICTIONARY
  5
C
330
0
100
AcDbDictionary
  3
ACAD_GROUP
350
D
  3
ACAD_LAYOUT
350
19
  3
ACAD_MLINESTYLE
350
16
  3
ACAD_PLOTSETTINGS
350
18
  3
ACAD_PLOTSTYLENAME
350
E
  3
ACDBHEADERROUNDTRIPXREC
350
13C
  3
ACDBVARIABLEDICTIONARY
350
139
  0
DICTIONARY
  5
15E
330
1E
100
AcDbDictionary
280
     1
  3
ACAD_LAYOUTSELFREF
360
15F
  0
DICTIONARY
  5
15C
330
1A
100
AcDbDictionary
280
     1
  3
ACAD_LAYOUTSELFREF
360
15D
  0
DICTIONARY
  5
D
102
{ACAD_REACTORS
330
C
102
}
330
C
100
AcDbDictionary
  0
DICTIONARY
  5
19
102
{ACAD_REACTORS
330
C
102
}
330
C
100
AcDbDictionary
  0
DICTIONARY
  5
16
102
{ACAD_REACTORS
330
C
102
}
330
C
100
AcDbDictionary
  3
STANDARD
350
17
  0
DICTIONARY
  5
18
102
{ACAD_REACTORS
330
C
102
}
330
C
100
AcDbDictionary
  0
ACDBDICTIONARYWDFLT
  5
E
102
{ACAD_REACTORS
330
C
102
}
330
C
100
AcDbDictionary
281
     1
  3
Normal
350
F
100
AcDbDictionaryWithDefault
340
F
  0
DICTIONARY
  5
13C
102
{ACAD_REACTORS
330
C
102
}
330
C
100
AcDbDictionary
  3
CEPSNTYPE
350
146
  3
FINGERPRINTGUID
350
147
  3
HYPERLINKBASE
350
13F
  3
INSUNITS
350
145
  3
LAYOUTDICT
350
141
  3
LWETCUNION
350
144
  3
PLOTSETDICT
350
142
  3
PLOTSTYLNAMDICT
350
143
  3
PSVPSCALE
350
149
  3
PUCSBASE
350
14C
  3
PUCSORGBACK
350
152
  3
PUCSORGBOTTOM
350
14E
  3
PUCSORGFRONT
350
151
  3
PUCSORGLEFT
350
14F
  3
PUCSORGRIGHT
350
150
  3
PUCSORGTOP
350
14D
  3
PUCSORTHOREF
350
14A
  3
PUCSORTHOVIEW
350
14B
  3
STYLESHEET
350
140
  3
TSTACKALIGN
350
13D
  3
TSTACKSIZE
350
13E
  3
UCSBASE
350
155
  3
UCSORGBACK
350
15B
  3
UCSORGBOTTOM
350
157
  3
UCSORGFRONT
350
15A
  3
UCSORGLEFT
350
158
  3
UCSORGRIGHT
350
159
  3
UCSORGTOP
350
156
  3
UCSORTHOREF
350
153
  3
UCSORTHOVIEW
350
154
  3
VERSIONGUID
350
148
  0
DICTIONARY
  5
139
102
{ACAD_REACTORS
330
C
102
}
330
C
100
AcDbDictionary
  3
DIMASSOC
350
13A
  0
XRECORD
  5
15F
102
{ACAD_REACTORS
330
15E
102
}
330
15E
100
AcDbXrecord
340
1E
  0
XRECORD
  5
15D
102
{ACAD_REACTORS
330
15C
102
}
330
15C
100
AcDbXrecord
340
1A
  0
MLINESTYLE
  5
17
102
{ACAD_REACTORS
330
16
102
}
330
16
100
AcDbMlineStyle
  2
STANDARD
 70
     0
  3

 62
   256
 51
90.0
 52
90.0
 71
     2
 49
0.5
 62
   256
  6
BYLAYER
 49
-0.5
 62
   256
  6
BYLAYER
  0
ACDBPLACEHOLDER
  5
F
102
{ACAD_REACTORS
330
E
102
}
330
E
100
AcDbPlaceHolder
280
     0
  0
XRECORD
  5
146
102
{ACAD_REACTORS
330
13C
102
}
330
13C
100
AcDbXrecord
 90
        0
  0
XRECORD
  5
147
102
{ACAD_REACTORS
330
13C
102
}
330
13C
100
AcDbXrecord
  1
{4A2584E9-79B8-42D9-A3AE-25456A2B0A12}
  0
XRECORD
  5
13F
102
{ACAD_REACTORS
330
13C
102
}
330
13C
100
AcDbXrecord
  1

  0
XRECORD
  5
145
102
{ACAD_REACTORS
330
13C
102
}
330
13C
100
AcDbXrecord
 90
        0
  0
XRECORD
  5
141
102
{ACAD_REACTORS
330
13C
102
}
330
13C
100
AcDbXrecord
340
19
  0
XRECORD
  5
144
102
{ACAD_REACTORS
330
13C
102
}
330
13C
100
AcDbXrecord
 90
    10781
  0
XRECORD
  5
142
102
{ACAD_REACTORS
330
13C
102
}
330
13C
100
AcDbXrecord
340
18
  0
XRECORD
  5
143
102
{ACAD_REACTORS
330
13C
102
}
330
13C
100
AcDbXrecord
340
E
  0
XRECORD
  5
149
102
{ACAD_REACTORS
330
13C
102
}
330
13C
100
AcDbXrecord
 40
0.0
  0
XRECORD
  5
14C
102
{ACAD_REACTORS
330
13C
102
}
330
13C
100
AcDbXrecord
340
0
  0
XRECORD
  5
152
102
{ACAD_REACTORS
330
13C
102
}
330
13C
100
AcDbXrecord
 10
0.0
 20
0.0
 30
0.0
  0
XRECORD
  5
14E
102
{ACAD_REACTORS
330
13C
102
}
330
13C
100
AcDbXrecord
 10
0.0
 20
0.0
 30
0.0
  0
XRECORD
  5
151
102
{ACAD_REACTORS
330
13C
102
}
330
13C
100
AcDbXrecord
 10
0.0
 20
0.0
 30
0.0
  0
XRECORD
  5
14F
102
{ACAD_REACTORS
330
13C
102
}
330
13C
100
AcDbXrecord
 10
0.0
 20
0.0
 30
0.0
  0
XRECORD
  5
150
102
{ACAD_REACTORS
330
13C
102
}
330
13C
100
AcDbXrecord
 10
0.0
 20
0.0
 30
0.0
  0
XRECORD
  5
14D
102
{ACAD_REACTORS
330
13C
102
}
330
13C
100
AcDbXrecord
 10
0.0
 20
0.0
 30
0.0
  0
XRECORD
  5
14A
102
{ACAD_REACTORS
330
13C
102
}
330
13C
100
AcDbXrecord
340
0
  0
XRECORD
  5
14B
102
{ACAD_REACTORS
330
13C
102
}
330
13C
100
AcDbXrecord
 70
     0
  0
XRECORD
  5
140
102
{ACAD_REACTORS
330
13C
102
}
330
13C
100
AcDbXrecord
  1

  0
XRECORD
  5
13D
102
{ACAD_REACTORS
330
13C
102
}
330
13C
100
AcDbXrecord
 90
        1
  0
XRECORD
  5
13E
102
{ACAD_REACTORS
330
13C
102
}
330
13C
100
AcDbXrecord
 90
       70
  0
XRECORD
  5
155
102
{ACAD_REACTORS
330
13C
102
}
330
13C
100
AcDbXrecord
340
0
  0
XRECORD
  5
15B
102
{ACAD_REACTORS
330
13C
102
}
330
13C
100
AcDbXrecord
 10
0.0
 20
0.0
 30
0.0
  0
XRECORD
  5
157
102
{ACAD_REACTORS
330
13C
102
}
330
13C
100
AcDbXrecord
 10
0.0
 20
0.0
 30
0.0
  0
XRECORD
  5
15A
102
{ACAD_REACTORS
330
13C
102
}
330
13C
100
AcDbXrecord
 10
0.0
 20
0.0
 30
0.0
  0
XRECORD
  5
158
102
{ACAD_REACTORS
330
13C
102
}
330
13C
100
AcDbXrecord
 10
0.0
 20
0.0
 30
0.0
  0
XRECORD
  5
159
102
{ACAD_REACTORS
330
13C
102
}
330
13C
100
AcDbXrecord
 10
0.0
 20
0.0
 30
0.0
  0
XRECORD
  5
156
102
{ACAD_REACTORS
330
13C
102
}
330
13C
100
AcDbXrecord
 10
0.0
 20
0.0
 30
0.0
  0
XRECORD
  5
153
102
{ACAD_REACTORS
330
13C
102
}
330
13C
100
AcDbXrecord
340
0
  0
XRECORD
  5
154
102
{ACAD_REACTORS
330
13C
102
}
330
13C
100
AcDbXrecord
 70
     1
  0
XRECORD
  5
148
102
{ACAD_REACTORS
330
13C
102
}
330
13C
100
AcDbXrecord
  1
{397A1460-E58C-43BE-A1FB-2B147E48E837}
  0
DICTIONARYVAR
  5
13A
102
{ACAD_REACTORS
330
139
102
}
330
139
100
DictionaryVariables
280
     0
  1
1
  0
ENDSEC
  0
EOF
