  0
SECTION
  2
HEADER
  9
$ACADVER
  1
AC1014
  9
$ACADMAINTVER
 70
     9
  9
$DWGCODEPAGE
  3
ANSI_1252
  9
$INSBASE
 10
0.0
 20
0.0
 30
0.0
  9
$EXTMIN
 10
0.0000000000000015
 20
0.249999999999984
 30
0.0
  9
$EXTMAX
 10
54.0
 20
325.75
 30
0.0
  9
$LIMMIN
 10
0.0
 20
0.0
  9
$LIMMAX
 10
12.0
 20
9.0
  9
$ORTHOMODE
 70
     0
  9
$REGENMODE
 70
     1
  9
$FILLMODE
 70
     1
  9
$QTEXTMODE
 70
     0
  9
$MIRRTEXT
 70
     1
  9
$DRAGMODE
 70
     2
  9
$LTSCALE
 40
1.0
  9
$OSMODE
 70
    37
  9
$ATTMODE
 70
     1
  9
$TEXTSIZE
 40
0.2
  9
$TRACEWID
 40
0.05
  9
$TEXTSTYLE
  7
STANDARD
  9
$CLAYER
  8
0
  9
$CELTYPE
  6
CONTINUOUS
  9
$CECOLOR
 62
   256
  9
$CELTSCALE
 40
1.0
  9
$DELOBJ
 70
     1
  9
$DISPSILH
 70
     0
  9
$DIMSCALE
 40
1.0
  9
$DIMASZ
 40
0.18
  9
$DIMEXO
 40
0.0625
  9
$DIMDLI
 40
0.38
  9
$DIMRND
 40
0.0
  9
$DIMDLE
 40
0.0
  9
$DIMEXE
 40
0.18
  9
$DIMTP
 40
0.0
  9
$DIMTM
 40
0.0
  9
$DIMTXT
 40
0.18
  9
$DIMCEN
 40
0.09
  9
$DIMTSZ
 40
0.0
  9
$DIMTOL
 70
     0
  9
$DIMLIM
 70
     0
  9
$DIMTIH
 70
     1
  9
$DIMTOH
 70
     1
  9
$DIMSE1
 70
     0
  9
$DIMSE2
 70
     0
  9
$DIMTAD
 70
     0
  9
$DIMZIN
 70
     0
  9
$DIMBLK
  1

  9
$DIMASO
 70
     1
  9
$DIMSHO
 70
     1
  9
$DIMPOST
  1

  9
$DIMAPOST
  1

  9
$DIMALT
 70
     0
  9
$DIMALTD
 70
     2
  9
$DIMALTF
 40
25.4
  9
$DIMLFAC
 40
1.0
  9
$DIMTOFL
 70
     0
  9
$DIMTVP
 40
0.0
  9
$DIMTIX
 70
     0
  9
$DIMSOXD
 70
     0
  9
$DIMSAH
 70
     0
  9
$DIMBLK1
  1

  9
$DIMBLK2
  1

  9
$DIMSTYLE
  2
STANDARD
  9
$DIMCLRD
 70
     0
  9
$DIMCLRE
 70
     0
  9
$DIMCLRT
 70
     0
  9
$DIMTFAC
 40
1.0
  9
$DIMGAP
 40
0.09
  9
$DIMJUST
 70
     0
  9
$DIMSD1
 70
     0
  9
$DIMSD2
 70
     0
  9
$DIMTOLJ
 70
     1
  9
$DIMTZIN
 70
     0
  9
$DIMALTZ
 70
     0
  9
$DIMALTTZ
 70
     0
  9
$DIMFIT
 70
     3
  9
$DIMUPT
 70
     0
  9
$DIMUNIT
 70
     2
  9
$DIMDEC
 70
     4
  9
$DIMTDEC
 70
     4
  9
$DIMALTU
 70
     2
  9
$DIMALTTD
 70
     2
  9
$DIMTXSTY
  7
STANDARD
  9
$DIMAUNIT
 70
     0
  9
$LUNITS
 70
     2
  9
$LUPREC
 70
     4
  9
$SKETCHINC
 40
0.1
  9
$FILLETRAD
 40
0.0
  9
$AUNITS
 70
     0
  9
$AUPREC
 70
     0
  9
$MENU
  1
.
  9
$ELEVATION
 40
0.0
  9
$PELEVATION
 40
0.0
  9
$THICKNESS
 40
0.0
  9
$LIMCHECK
 70
     0
  9
$BLIPMODE
 70
     0
  9
$CHAMFERA
 40
0.0
  9
$CHAMFERB
 40
0.0
  9
$CHAMFERC
 40
0.0
  9
$CHAMFERD
 40
0.0
  9
$SKPOLY
 70
     0
  9
$TDCREATE
 40
2454698.386676064
  9
$TDUPDATE
 40
2454698.387998587
  9
$TDINDWG
 40
0.0013226968
  9
$TDUSRTIMER
 40
0.0013226968
  9
$USRTIMER
 70
     1
  9
$ANGBASE
 50
0.0
  9
$ANGDIR
 70
     0
  9
$PDMODE
 70
     0
  9
$PDSIZE
 40
0.0
  9
$PLINEWID
 40
0.0
  9
$COORDS
 70
     1
  9
$SPLFRAME
 70
     0
  9
$SPLINETYPE
 70
     6
  9
$SPLINESEGS
 70
     8
  9
$ATTDIA
 70
     0
  9
$ATTREQ
 70
     1
  9
$HANDLING
 70
 22529
  9
$HANDSEED
  5
1D9
  9
$SURFTAB1
 70
     6
  9
$SURFTAB2
 70
     6
  9
$SURFTYPE
 70
     6
  9
$SURFU
 70
     6
  9
$SURFV
 70
     6
  9
$UCSNAME
  2

  9
$UCSORG
 10
0.0
 20
0.0
 30
0.0
  9
$UCSXDIR
 10
1.0
 20
0.0
 30
0.0
  9
$UCSYDIR
 10
0.0
 20
1.0
 30
0.0
  9
$PUCSNAME
  2

  9
$PUCSORG
 10
0.0
 20
0.0
 30
0.0
  9
$PUCSXDIR
 10
1.0
 20
0.0
 30
0.0
  9
$PUCSYDIR
 10
0.0
 20
1.0
 30
0.0
  9
$USERI1
 70
     0
  9
$USERI2
 70
     0
  9
$USERI3
 70
     0
  9
$USERI4
 70
     0
  9
$USERI5
 70
     0
  9
$USERR1
 40
0.0
  9
$USERR2
 40
0.0
  9
$USERR3
 40
0.0
  9
$USERR4
 40
0.0
  9
$USERR5
 40
0.0
  9
$WORLDVIEW
 70
     1
  9
$SHADEDGE
 70
     3
  9
$SHADEDIF
 70
    70
  9
$TILEMODE
 70
     1
  9
$MAXACTVP
 70
    64
  9
$PINSBASE
 10
0.0
 20
0.0
 30
0.0
  9
$PLIMCHECK
 70
     0
  9
$PEXTMIN
 10
1.000000000000000E+20
 20
1.000000000000000E+20
 30
1.000000000000000E+20
  9
$PEXTMAX
 10
-1.000000000000000E+20
 20
-1.000000000000000E+20
 30
-1.000000000000000E+20
  9
$PLIMMIN
 10
0.0
 20
0.0
  9
$PLIMMAX
 10
12.0
 20
9.0
  9
$UNITMODE
 70
     0
  9
$VISRETAIN
 70
     1
  9
$PLINEGEN
 70
     0
  9
$PSLTSCALE
 70
     1
  9
$TREEDEPTH
 70
  3020
  9
$PICKSTYLE
 70
     1
  9
$CMLSTYLE
  2
STANDARD
  9
$CMLJUST
 70
     0
  9
$CMLSCALE
 40
1.0
  9
$PROXYGRAPHICS
 70
     1
  9
$MEASUREMENT
 70
     0
  0
ENDSEC
  0
SECTION
  2
CLASSES
  0
CLASS
  1
ACDBDICTIONARYWDFLT
  2
AcDbDictionaryWithDefault
  3
AutoCAD 2000
 90
        0
280
     0
281
     0
  0
CLASS
  1
ACDBPLACEHOLDER
  2
AcDbPlaceHolder
  3
AutoCAD 2000
 90
        0
280
     0
281
     0
  0
CLASS
  1
LAYOUT
  2
AcDbLayout
  3
AutoCAD 2000
 90
        0
280
     0
281
     0
  0
CLASS
  1
DICTIONARYVAR
  2
AcDbDictionaryVar
  3
AutoCAD 2000
 90
        0
280
     0
281
     0
  0
CLASS
  1
LONG_TRANSACTION
  2
AcDbLongTransaction
  3
AutoCAD 2000
 90
        0
280
     0
281
     0
  0
CLASS
  1
LWPOLYLINE
  2
AcDbPolyline
  3
AutoCAD 2000
 90
        0
280
     0
281
     1
  0
CLASS
  1
HATCH
  2
AcDbHatch
  3
AutoCAD 2000
 90
        0
280
     0
281
     1
  0
CLASS
  1
XRECORD
  2
AcDbXrecord
  3
AutoCAD 2000
 90
        0
280
     0
281
     0
  0
ENDSEC
  0
SECTION
  2
TABLES
  0
TABLE
  2
VPORT
  5
8
330
0
100
AcDbSymbolTable
 70
     2
  0
VPORT
  5
1B4
330
8
100
AcDbSymbolTableRecord
100
AcDbViewportTableRecord
  2
*ACTIVE
 70
     0
 10
0.0
 20
0.0
 11
1.0
 21
1.0
 12
27.0
 22
162.9999999999999
 13
0.0
 23
0.0
 14
1.0
 24
1.0
 15
0.0
 25
0.0
 16
0.0
 26
0.0
 36
1.0
 17
0.0
 27
0.0
 37
0.0
 40
327.9974424552429
 41
2.078104993597951
 42
50.0
 43
0.0
 44
0.0
 50
0.0
 51
0.0
 71
     0
 72
   100
 73
     1
 74
     3
 75
     0
 76
     0
 77
     0
 78
     0
  0
ENDTAB
  0
TABLE
  2
LTYPE
  5
5
330
0
100
AcDbSymbolTable
 70
     1
  0
LTYPE
  5
13
330
5
100
AcDbSymbolTableRecord
100
AcDbLinetypeTableRecord
  2
BYBLOCK
 70
     0
  3

 72
    65
 73
     0
 40
0.0
  0
LTYPE
  5
14
330
5
100
AcDbSymbolTableRecord
100
AcDbLinetypeTableRecord
  2
BYLAYER
 70
     0
  3

 72
    65
 73
     0
 40
0.0
  0
LTYPE
  5
15
330
5
100
AcDbSymbolTableRecord
100
AcDbLinetypeTableRecord
  2
CONTINUOUS
 70
     0
  3
Solid line
 72
    65
 73
     0
 40
0.0
  0
ENDTAB
  0
TABLE
  2
LAYER
  5
2
330
0
100
AcDbSymbolTable
 70
     1
  0
LAYER
  5
10
330
2
100
AcDbSymbolTableRecord
100
AcDbLayerTableRecord
  2
0
 70
     0
 62
     7
  6
CONTINUOUS
  0
ENDTAB
  0
TABLE
  2
STYLE
  5
3
330
0
100
AcDbSymbolTable
 70
     1
  0
STYLE
  5
11
330
3
100
AcDbSymbolTableRecord
100
AcDbTextStyleTableRecord
  2
STANDARD
 70
     0
 40
0.0
 41
1.0
 50
0.0
 71
     0
 42
0.2
  3
txt
  4

  0
ENDTAB
  0
TABLE
  2
VIEW
  5
6
330
0
100
AcDbSymbolTable
 70
     0
  0
ENDTAB
  0
TABLE
  2
UCS
  5
7
330
0
100
AcDbSymbolTable
 70
     0
  0
ENDTAB
  0
TABLE
  2
APPID
  5
9
330
0
100
AcDbSymbolTable
 70
     1
  0
APPID
  5
12
330
9
100
AcDbSymbolTableRecord
100
AcDbRegAppTableRecord
  2
ACAD
 70
     0
  0
ENDTAB
  0
TABLE
  2
DIMSTYLE
  5
A
330
0
100
AcDbSymbolTable
 70
     1
  0
DIMSTYLE
105
1AB
330
A
100
AcDbSymbolTableRecord
100
AcDbDimStyleTableRecord
  2
STANDARD
 70
     0
  3

  4

  5

  6

  7

 40
1.0
 41
0.18
 42
0.0625
 43
0.38
 44
0.18
 45
0.0
 46
0.0
 47
0.0
 48
0.0
140
0.18
141
0.09
142
0.0
143
25.4
144
1.0
145
0.0
146
1.0
147
0.09
 71
     0
 72
     0
 73
     1
 74
     1
 75
     0
 76
     0
 77
     0
 78
     0
170
     0
171
     2
172
     0
173
     0
174
     0
175
     0
176
     0
177
     0
178
     0
270
     2
271
     4
272
     4
273
     2
274
     2
340
11
275
     0
280
     0
281
     0
282
     0
283
     1
284
     0
285
     0
286
     0
287
     3
288
     0
  0
ENDTAB
  0
TABLE
  2
BLOCK_RECORD
  5
1
330
0
100
AcDbSymbolTable
 70
     0
  0
BLOCK_RECORD
  5
1E
102
{ACAD_XDICTIONARY
360
1D7
102
}
330
1
100
AcDbSymbolTableRecord
100
AcDbBlockTableRecord
  2
*MODEL_SPACE
  0
BLOCK_RECORD
  5
1A
102
{ACAD_XDICTIONARY
360
1D5
102
}
330
1
100
AcDbSymbolTableRecord
100
AcDbBlockTableRecord
  2
*PAPER_SPACE
  0
ENDTAB
  0
ENDSEC
  0
SECTION
  2
BLOCKS
  0
BLOCK
  5
1F
330
1E
100
AcDbEntity
  8
0
100
AcDbBlockBegin
  2
*MODEL_SPACE
 70
     0
 10
0.0
 20
0.0
 30
0.0
  3
*MODEL_SPACE
  1

  0
ENDBLK
  5
20
330
1E
100
AcDbEntity
  8
0
100
AcDbBlockEnd
  0
BLOCK
  5
1B
330
1A
100
AcDbEntity
 67
     1
  8
0
100
AcDbBlockBegin
  2
*PAPER_SPACE
 70
     0
 10
0.0
 20
0.0
 30
0.0
  3
*PAPER_SPACE
  1

  0
ENDBLK
  5
1C
330
1A
100
AcDbEntity
 67
     1
  8
0
100
AcDbBlockEnd
  0
ENDSEC
  0
SECTION
  2
ENTITIES
  0
LINE
  5
22
330
1E
100
AcDbEntity
  8
0
100
AcDbLine
 10
1.0
 20
0.249999999999985
 30
0.0
 11
3.6
 21
0.249999999999985
 31
0.0
  0
LINE
  5
23
330
1E
100
AcDbEntity
  8
0
100
AcDbLine
 10
3.6
 20
0.249999999999985
 30
0.0
 11
8.0
 21
0.249999999999984
 31
0.0
  0
LINE
  5
24
330
1E
100
AcDbEntity
  8
0
100
AcDbLine
 10
1.0
 20
0.249999999999985
 30
0.0
 11
3.6
 21
0.249999999999985
 31
0.0
  0
LINE
  5
25
330
1E
100
AcDbEntity
  8
0
100
AcDbLine
 10
1.0
 20
0.749999999999986
 30
0.0
 11
3.6
 21
0.749999999999986
 31
0.0
  0
LINE
  5
26
330
1E
100
AcDbEntity
  8
0
100
AcDbLine
 10
1.0
 20
0.2499999999999861
 30
0.0
 11
3.6
 21
0.2499999999999861
 31
0.0
  0
LINE
  5
27
330
1E
100
AcDbEntity
  8
0
100
AcDbLine
 10
1.0
 20
0.749999999999986
 30
0.0
 11
3.6
 21
0.749999999999986
 31
0.0
  0
LINE
  5
28
330
1E
100
AcDbEntity
  8
0
100
AcDbLine
 10
3.6
 20
0.749999999999986
 30
0.0
 11
8.0
 21
0.7499999999999871
 31
0.0
  0
LINE
  5
29
330
1E
100
AcDbEntity
  8
0
100
AcDbLine
 10
3.6
 20
0.2499999999999861
 30
0.0
 11
8.0
 21
0.249999999999987
 31
0.0
  0
LINE
  5
2A
330
1E
100
AcDbEntity
  8
0
100
AcDbLine
 10
1.0
 20
0.2499999999999861
 30
0.0
 11
3.6
 21
0.2499999999999861
 31
0.0
  0
LINE
  5
2B
330
1E
100
AcDbEntity
  8
0
100
AcDbLine
 10
2.0
 20
1.749999999999989
 30
0.0
 11
6.0
 21
5.24999999999999
 31
0.0
  0
LINE
  5
2C
330
1E
100
AcDbEntity
  8
0
100
AcDbLine
 10
8.0
 20
0.7499999999999871
 30
0.0
 11
13.6
 21
0.7499999999999871
 31
0.0
  0
LINE
  5
2D
330
1E
100
AcDbEntity
  8
0
100
AcDbLine
 10
8.0
 20
0.249999999999987
 30
0.0
 11
13.6
 21
0.249999999999987
 31
0.0
  0
LINE
  5
2E
330
1E
100
AcDbEntity
  8
0
100
AcDbLine
 10
7.5
 20
7.74999999999999
 30
0.0
 11
8.5
 21
10.25
 31
0.0
  0
LINE
  5
2F
330
1E
100
AcDbEntity
  8
0
100
AcDbLine
 10
6.0
 20
5.24999999999999
 30
0.0
 11
7.5
 21
7.74999999999999
 31
0.0
  0
LINE
  5
30
330
1E
100
AcDbEntity
  8
0
100
AcDbLine
 10
2.0
 20
1.749999999999989
 30
0.0
 11
6.0
 21
5.24999999999999
 31
0.0
  0
LINE
  5
31
330
1E
100
AcDbEntity
  8
0
100
AcDbLine
 10
0.0000000000000015
 20
0.749999999999986
 30
0.0
 11
2.0
 21
1.749999999999989
 31
0.0
  0
LINE
  5
32
330
1E
100
AcDbEntity
  8
0
100
AcDbLine
 10
0.0000000000000015
 20
0.749999999999986
 30
0.0
 11
0.0000000000000015
 21
0.2499999999999861
 31
0.0
  0
LINE
  5
33
330
1E
100
AcDbEntity
  8
0
100
AcDbLine
 10
0.0000000000000015
 20
0.749999999999986
 30
0.0
 11
1.0
 21
0.749999999999986
 31
0.0
  0
LINE
  5
34
330
1E
100
AcDbEntity
  8
0
100
AcDbLine
 10
0.0000000000000015
 20
0.2499999999999861
 30
0.0
 11
1.0
 21
0.249999999999985
 31
0.0
  0
LINE
  5
35
330
1E
100
AcDbEntity
  8
0
100
AcDbLine
 10
0.0000000000000015
 20
0.2499999999999861
 30
0.0
 11
0.0000000000000015
 21
0.749999999999986
 31
0.0
  0
LINE
  5
36
330
1E
100
AcDbEntity
  8
0
100
AcDbLine
 10
0.0000000000000015
 20
0.2499999999999861
 30
0.0
 11
1.0
 21
0.2499999999999861
 31
0.0
  0
LINE
  5
37
330
1E
100
AcDbEntity
  8
0
100
AcDbLine
 10
8.5
 20
10.25
 30
0.0
 11
9.0
 21
13.25
 31
0.0
  0
LINE
  5
38
330
1E
100
AcDbEntity
  8
0
100
AcDbLine
 10
9.0
 20
286.25
 30
0.0
 11
9.5
 21
286.75
 31
0.0
  0
LINE
  5
39
330
1E
100
AcDbEntity
  8
0
100
AcDbLine
 10
9.0
 20
286.25
 30
0.0
 11
9.0
 21
13.25
 31
0.0
  0
LINE
  5
3A
330
1E
100
AcDbEntity
  8
0
100
AcDbLine
 10
9.0
 20
286.25
 30
0.0
 11
9.699999999999999
 21
286.25
 31
0.0
  0
LINE
  5
3B
330
1E
100
AcDbEntity
  8
0
100
AcDbLine
 10
13.6
 20
0.7499999999999871
 30
0.0
 11
20.1
 21
0.7499999999999871
 31
0.0
  0
LINE
  5
3C
330
1E
100
AcDbEntity
  8
0
100
AcDbLine
 10
13.6
 20
0.249999999999987
 30
0.0
 11
20.1
 21
0.249999999999987
 31
0.0
  0
LINE
  5
3D
330
1E
100
AcDbEntity
  8
0
100
AcDbLine
 10
20.1
 20
0.7499999999999871
 30
0.0
 11
27.0
 21
0.7499999999999871
 31
0.0
  0
LINE
  5
3E
330
1E
100
AcDbEntity
  8
0
100
AcDbLine
 10
20.1
 20
0.249999999999987
 30
0.0
 11
27.0
 21
0.249999999999987
 31
0.0
  0
LINE
  5
3F
330
1E
100
AcDbEntity
  8
0
100
AcDbLine
 10
15.72
 20
230.0759999999999
 30
0.0
 11
16.87199999999999
 21
228.9
 31
0.0
  0
LINE
  5
40
330
1E
100
AcDbEntity
  8
0
100
AcDbLine
 10
16.584
 20
229.1109999999999
 30
0.0
 11
16.87199999999999
 21
228.9
 31
0.0
  0
LINE
  5
41
330
1E
100
AcDbEntity
  8
0
100
AcDbLine
 10
16.87199999999999
 20
228.9
 30
0.0
 11
18.74399999999999
 21
227.865
 31
0.0
  0
LINE
  5
42
330
1E
100
AcDbEntity
  8
0
100
AcDbLine
 10
18.74399999999999
 20
227.865
 30
0.0
 11
21.19199999999999
 21
227.0739999999999
 31
0.0
  0
LINE
  5
43
330
1E
100
AcDbEntity
  8
0
100
AcDbLine
 10
15.432
 20
230.3279999999999
 30
0.0
 11
16.584
 21
229.1109999999999
 31
0.0
  0
LINE
  5
44
330
1E
100
AcDbEntity
  8
0
100
AcDbLine
 10
15.288
 20
231.354
 30
0.0
 11
15.72
 21
232.6319999999999
 31
0.0
  0
LINE
  5
45
330
1E
100
AcDbEntity
  8
0
100
AcDbLine
 10
15.288
 20
231.354
 30
0.0
 11
15.72
 21
230.0759999999999
 31
0.0
  0
LINE
  5
46
330
1E
100
AcDbEntity
  8
0
100
AcDbLine
 10
15.0
 20
231.6259999999999
 30
0.0
 11
15.0
 21
235.087
 31
0.0
  0
LINE
  5
47
330
1E
100
AcDbEntity
  8
0
100
AcDbLine
 10
15.0
 20
231.6259999999999
 30
0.0
 11
15.432
 21
232.9239999999999
 31
0.0
  0
LINE
  5
48
330
1E
100
AcDbEntity
  8
0
100
AcDbLine
 10
15.0
 20
231.6259999999999
 30
0.0
 11
15.432
 21
230.3279999999999
 31
0.0
  0
LINE
  5
49
330
1E
100
AcDbEntity
  8
0
100
AcDbLine
 10
9.5
 20
286.75
 30
0.0
 11
10.1
 21
286.75
 31
0.0
  0
LINE
  5
4A
330
1E
100
AcDbEntity
  8
0
100
AcDbLine
 10
10.1
 20
286.75
 30
0.0
 11
11.8
 21
286.75
 31
0.0
  0
LINE
  5
4B
330
1E
100
AcDbEntity
  8
0
100
AcDbLine
 10
11.4
 20
286.25
 30
0.0
 11
14.3
 21
286.25
 31
0.0
  0
LINE
  5
4C
330
1E
100
AcDbEntity
  8
0
100
AcDbLine
 10
9.699999999999999
 20
286.25
 30
0.0
 11
11.4
 21
286.25
 31
0.0
  0
LINE
  5
4D
330
1E
100
AcDbEntity
  8
0
100
AcDbLine
 10
11.5
 20
236.447
 30
0.0
 11
11.5
 21
235.9929999999999
 31
0.0
  0
LINE
  5
4E
330
1E
100
AcDbEntity
  8
0
100
AcDbLine
 10
11.5
 20
236.447
 30
0.0
 11
12.09999999999999
 21
238.1369999999999
 31
0.0
  0
LINE
  5
4F
330
1E
100
AcDbEntity
  8
0
100
AcDbLine
 10
15.72
 20
232.6319999999999
 30
0.0
 11
16.87199999999999
 21
233.809
 31
0.0
  0
LINE
  5
50
330
1E
100
AcDbEntity
  8
0
100
AcDbLine
 10
11.8
 20
286.75
 30
0.0
 11
14.59999999999999
 21
286.75
 31
0.0
  0
LINE
  5
51
330
1E
100
AcDbEntity
  8
0
100
AcDbLine
 10
12.09999999999999
 20
238.1369999999999
 30
0.0
 11
13.6
 21
239.7009999999999
 31
0.0
  0
LINE
  5
52
330
1E
100
AcDbEntity
  8
0
100
AcDbLine
 10
12.09999999999999
 20
237.684
 30
0.0
 11
13.6
 21
239.2479999999999
 31
0.0
  0
LINE
  5
53
330
1E
100
AcDbEntity
  8
0
100
AcDbLine
 10
13.6
 20
239.7009999999999
 30
0.0
 11
16.1
 21
241.053
 31
0.0
  0
LINE
  5
54
330
1E
100
AcDbEntity
  8
0
100
AcDbLine
 10
13.6
 20
239.7009999999999
 30
0.0
 11
14.0
 21
240.069
 31
0.0
  0
LINE
  5
55
330
1E
100
AcDbEntity
  8
0
100
AcDbLine
 10
15.0
 20
235.087
 30
0.0
 11
15.0
 21
231.6259999999999
 31
0.0
  0
LINE
  5
56
330
1E
100
AcDbEntity
  8
0
100
AcDbLine
 10
15.432
 20
232.9239999999999
 30
0.0
 11
16.584
 21
234.1409999999999
 31
0.0
  0
LINE
  5
57
330
1E
100
AcDbEntity
  8
0
100
AcDbLine
 10
16.87199999999999
 20
233.809
 30
0.0
 11
18.74399999999999
 21
234.843
 31
0.0
  0
LINE
  5
58
330
1E
100
AcDbEntity
  8
0
100
AcDbLine
 10
18.74399999999999
 20
234.843
 30
0.0
 11
21.19199999999999
 21
235.634
 31
0.0
  0
LINE
  5
59
330
1E
100
AcDbEntity
  8
0
100
AcDbLine
 10
16.584
 20
234.1409999999999
 30
0.0
 11
18.504
 21
235.217
 31
0.0
  0
LINE
  5
5A
330
1E
100
AcDbEntity
  8
0
100
AcDbLine
 10
18.504
 20
235.217
 30
0.0
 11
21.048
 21
236.0279999999999
 31
0.0
  0
LINE
  5
5B
330
1E
100
AcDbEntity
  8
0
100
AcDbLine
 10
13.6
 20
239.2479999999999
 30
0.0
 11
16.1
 21
240.6
 31
0.0
  0
LINE
  5
5D
330
1E
100
AcDbEntity
  8
0
100
AcDbLine
 10
14.0
 20
255.252
 30
0.0
 11
14.0
 21
257.5129999999999
 31
0.0
  0
LINE
  5
5E
330
1E
100
AcDbEntity
  8
0
100
AcDbLine
 10
14.0
 20
255.252
 30
0.0
 11
14.0
 21
252.7499999999999
 31
0.0
  0
LINE
  5
5F
330
1E
100
AcDbEntity
  8
0
100
AcDbLine
 10
14.0
 20
262.499
 30
0.0
 11
14.0
 21
263.466
 31
0.0
  0
LINE
  5
60
330
1E
100
AcDbEntity
  8
0
100
AcDbLine
 10
14.0
 20
262.499
 30
0.0
 11
14.0
 21
261.169
 31
0.0
  0
LINE
  5
61
330
1E
100
AcDbEntity
  8
0
100
AcDbLine
 10
14.0
 20
263.466
 30
0.0
 11
14.0
 21
264.053
 31
0.0
  0
LINE
  5
62
330
1E
100
AcDbEntity
  8
0
100
AcDbLine
 10
14.0
 20
263.466
 30
0.0
 11
14.0
 21
262.499
 31
0.0
  0
LINE
  5
63
330
1E
100
AcDbEntity
  8
0
100
AcDbLine
 10
14.0
 20
264.053
 30
0.0
 11
14.0
 21
263.466
 31
0.0
  0
LINE
  5
64
330
1E
100
AcDbEntity
  8
0
100
AcDbLine
 10
14.0
 20
264.053
 30
0.0
 11
14.0
 21
264.25
 31
0.0
  0
LINE
  5
65
330
1E
100
AcDbEntity
  8
0
100
AcDbLine
 10
14.0
 20
261.169
 30
0.0
 11
14.0
 21
259.4969999999999
 31
0.0
  0
LINE
  5
66
330
1E
100
AcDbEntity
  8
0
100
AcDbLine
 10
14.0
 20
261.169
 30
0.0
 11
14.0
 21
262.499
 31
0.0
  0
LINE
  5
67
330
1E
100
AcDbEntity
  8
0
100
AcDbLine
 10
14.0
 20
264.25
 30
0.0
 11
14.5
 21
267.5499999999999
 31
0.0
  0
LINE
  5
68
330
1E
100
AcDbEntity
  8
0
100
AcDbLine
 10
14.0
 20
264.25
 30
0.0
 11
14.0
 21
264.053
 31
0.0
  0
LINE
  5
69
330
1E
100
AcDbEntity
  8
0
100
AcDbLine
 10
14.0
 20
257.5129999999999
 30
0.0
 11
14.0
 21
259.4969999999999
 31
0.0
  0
LINE
  5
6A
330
1E
100
AcDbEntity
  8
0
100
AcDbLine
 10
14.0
 20
257.5129999999999
 30
0.0
 11
14.0
 21
255.252
 31
0.0
  0
LINE
  5
6B
330
1E
100
AcDbEntity
  8
0
100
AcDbLine
 10
14.59999999999999
 20
286.75
 30
0.0
 11
18.3
 21
286.75
 31
0.0
  0
LINE
  5
6C
330
1E
100
AcDbEntity
  8
0
100
AcDbLine
 10
14.3
 20
286.25
 30
0.0
 11
18.1
 21
286.25
 31
0.0
  0
LINE
  5
6D
330
1E
100
AcDbEntity
  8
0
100
AcDbLine
 10
15.7
 20
270.75
 30
0.0
 11
17.8
 21
273.45
 31
0.0
  0
LINE
  5
6E
330
1E
100
AcDbEntity
  8
0
100
AcDbLine
 10
14.0
 20
259.4969999999999
 30
0.0
 11
14.0
 21
257.5129999999999
 31
0.0
  0
LINE
  5
6F
330
1E
100
AcDbEntity
  8
0
100
AcDbLine
 10
14.0
 20
259.4969999999999
 30
0.0
 11
14.0
 21
261.169
 31
0.0
  0
LINE
  5
70
330
1E
100
AcDbEntity
  8
0
100
AcDbLine
 10
14.0
 20
252.7499999999999
 30
0.0
 11
14.0
 21
240.069
 31
0.0
  0
LINE
  5
71
330
1E
100
AcDbEntity
  8
0
100
AcDbLine
 10
14.0
 20
252.7499999999999
 30
0.0
 11
14.0
 21
255.252
 31
0.0
  0
LINE
  5
72
330
1E
100
AcDbEntity
  8
0
100
AcDbLine
 10
18.3
 20
286.75
 30
0.0
 11
22.5
 21
286.75
 31
0.0
  0
LINE
  5
73
330
1E
100
AcDbEntity
  8
0
100
AcDbLine
 10
18.1
 20
286.25
 30
0.0
 11
22.39999999999999
 21
286.25
 31
0.0
  0
LINE
  5
74
330
1E
100
AcDbEntity
  8
0
100
AcDbLine
 10
17.8
 20
273.45
 30
0.0
 11
20.5
 21
275.55
 31
0.0
  0
LINE
  5
75
330
1E
100
AcDbEntity
  8
0
100
AcDbLine
 10
16.39999999999999
 20
241.38
 30
0.0
 11
19.5
 21
242.3939999999999
 31
0.0
  0
LINE
  5
76
330
1E
100
AcDbEntity
  8
0
100
AcDbLine
 10
16.1
 20
241.053
 30
0.0
 11
19.3
 21
242.11
 31
0.0
  0
LINE
  5
77
330
1E
100
AcDbEntity
  8
0
100
AcDbLine
 10
19.3
 20
242.11
 30
0.0
 11
23.0
 21
242.744
 31
0.0
  0
LINE
  5
78
330
1E
100
AcDbEntity
  8
0
100
AcDbLine
 10
16.1
 20
240.6
 30
0.0
 11
19.3
 21
241.657
 31
0.0
  0
LINE
  5
79
330
1E
100
AcDbEntity
  8
0
100
AcDbLine
 10
19.5
 20
242.3939999999999
 30
0.0
 11
23.1
 21
243.0279999999999
 31
0.0
  0
LINE
  5
7A
330
1E
100
AcDbEntity
  8
0
100
AcDbLine
 10
19.3
 20
241.657
 30
0.0
 11
23.0
 21
242.2909999999999
 31
0.0
  0
LINE
  5
7B
330
1E
100
AcDbEntity
  8
0
100
AcDbLine
 10
14.0
 20
240.069
 30
0.0
 11
14.0
 21
252.7499999999999
 31
0.0
  0
LINE
  5
7C
330
1E
100
AcDbEntity
  8
0
100
AcDbLine
 10
14.0
 20
240.069
 30
0.0
 11
16.39999999999999
 21
241.38
 31
0.0
  0
LINE
  5
7D
330
1E
100
AcDbEntity
  8
0
100
AcDbLine
 10
12.09999999999999
 20
234.303
 30
0.0
 11
13.6
 21
232.739
 31
0.0
  0
LINE
  5
7E
330
1E
100
AcDbEntity
  8
0
100
AcDbLine
 10
13.6
 20
232.739
 30
0.0
 11
14.0
 21
232.3709999999999
 31
0.0
  0
LINE
  5
7F
330
1E
100
AcDbEntity
  8
0
100
AcDbLine
 10
13.6
 20
232.739
 30
0.0
 11
13.6794590025359
 21
232.696028571429
 31
0.0
  0
LINE
  5
80
330
1E
100
AcDbEntity
  8
0
100
AcDbLine
 10
11.5
 20
235.9929999999999
 30
0.0
 11
12.09999999999999
 21
234.303
 31
0.0
  0
LINE
  5
81
330
1E
100
AcDbEntity
  8
0
100
AcDbLine
 10
11.5
 20
235.9929999999999
 30
0.0
 11
11.5
 21
236.447
 31
0.0
  0
LINE
  5
82
330
1E
100
AcDbEntity
  8
0
100
AcDbLine
 10
11.5
 20
235.9929999999999
 30
0.0
 11
12.09999999999999
 21
237.684
 31
0.0
  0
LINE
  5
83
330
1E
100
AcDbEntity
  8
0
100
AcDbLine
 10
14.0
 20
232.3709999999999
 30
0.0
 11
15.0
 21
231.8251666666669
 31
0.0
  0
LINE
  5
84
330
1E
100
AcDbEntity
  8
0
100
AcDbLine
 10
9.0
 20
13.25
 30
0.0
 11
9.0
 21
286.25
 31
0.0
  0
LINE
  5
85
330
1E
100
AcDbEntity
  8
0
100
AcDbLine
 10
9.699999999999999
 20
288.75
 30
0.0
 11
11.4
 21
288.75
 31
0.0
  0
LINE
  5
86
330
1E
100
AcDbEntity
  8
0
100
AcDbLine
 10
9.699999999999999
 20
323.2499999999999
 30
0.0
 11
11.4
 21
323.2499999999999
 31
0.0
  0
LINE
  5
87
330
1E
100
AcDbEntity
  8
0
100
AcDbLine
 10
9.0
 20
288.75
 30
0.0
 11
9.0
 21
323.2499999999999
 31
0.0
  0
LINE
  5
88
330
1E
100
AcDbEntity
  8
0
100
AcDbLine
 10
9.0
 20
288.75
 30
0.0
 11
9.699999999999999
 21
288.75
 31
0.0
  0
LINE
  5
89
330
1E
100
AcDbEntity
  8
0
100
AcDbLine
 10
9.5
 20
323.75
 30
0.0
 11
10.1
 21
323.75
 31
0.0
  0
LINE
  5
8A
330
1E
100
AcDbEntity
  8
0
100
AcDbLine
 10
10.1
 20
323.75
 30
0.0
 11
11.8
 21
323.75
 31
0.0
  0
LINE
  5
8B
330
1E
100
AcDbEntity
  8
0
100
AcDbLine
 10
11.0
 20
325.2499999999999
 30
0.0
 11
11.5
 21
325.75
 31
0.0
  0
LINE
  5
8C
330
1E
100
AcDbEntity
  8
0
100
AcDbLine
 10
10.5
 20
324.25
 30
0.0
 11
11.0
 21
325.2499999999999
 31
0.0
  0
LINE
  5
8D
330
1E
100
AcDbEntity
  8
0
100
AcDbLine
 10
10.0
 20
323.75
 30
0.0
 11
10.5
 21
324.25
 31
0.0
  0
LINE
  5
8E
330
1E
100
AcDbEntity
  8
0
100
AcDbLine
 10
9.0
 20
323.2499999999999
 30
0.0
 11
9.0
 21
288.75
 31
0.0
  0
LINE
  5
8F
330
1E
100
AcDbEntity
  8
0
100
AcDbLine
 10
9.0
 20
323.2499999999999
 30
0.0
 11
9.5
 21
323.75
 31
0.0
  0
LINE
  5
90
330
1E
100
AcDbEntity
  8
0
100
AcDbLine
 10
9.0
 20
323.2499999999999
 30
0.0
 11
9.699999999999999
 21
323.2499999999999
 31
0.0
  0
LINE
  5
91
330
1E
100
AcDbEntity
  8
0
100
AcDbLine
 10
14.3
 20
288.75
 30
0.0
 11
18.1
 21
288.75
 31
0.0
  0
LINE
  5
92
330
1E
100
AcDbEntity
  8
0
100
AcDbLine
 10
14.3
 20
323.2499999999999
 30
0.0
 11
18.1
 21
323.2499999999999
 31
0.0
  0
LINE
  5
93
330
1E
100
AcDbEntity
  8
0
100
AcDbLine
 10
18.1
 20
288.75
 30
0.0
 11
22.39999999999999
 21
288.75
 31
0.0
  0
LINE
  5
94
330
1E
100
AcDbEntity
  8
0
100
AcDbLine
 10
18.1
 20
323.2499999999999
 30
0.0
 11
22.39999999999999
 21
323.2499999999999
 31
0.0
  0
LINE
  5
95
330
1E
100
AcDbEntity
  8
0
100
AcDbLine
 10
11.4
 20
288.75
 30
0.0
 11
14.3
 21
288.75
 31
0.0
  0
LINE
  5
96
330
1E
100
AcDbEntity
  8
0
100
AcDbLine
 10
11.5
 20
325.75
 30
0.0
 11
12.09999999999999
 21
325.75
 31
0.0
  0
LINE
  5
97
330
1E
100
AcDbEntity
  8
0
100
AcDbLine
 10
14.59999999999999
 20
323.75
 30
0.0
 11
18.3
 21
323.75
 31
0.0
  0
LINE
  5
98
330
1E
100
AcDbEntity
  8
0
100
AcDbLine
 10
16.1
 20
325.75
 30
0.0
 11
19.3
 21
325.75
 31
0.0
  0
LINE
  5
99
330
1E
100
AcDbEntity
  8
0
100
AcDbLine
 10
19.3
 20
325.75
 30
0.0
 11
23.0
 21
325.75
 31
0.0
  0
LINE
  5
9A
330
1E
100
AcDbEntity
  8
0
100
AcDbLine
 10
18.3
 20
323.75
 30
0.0
 11
22.5
 21
323.75
 31
0.0
  0
LINE
  5
9B
330
1E
100
AcDbEntity
  8
0
100
AcDbLine
 10
13.6
 20
325.75
 30
0.0
 11
16.1
 21
325.75
 31
0.0
  0
LINE
  5
9C
330
1E
100
AcDbEntity
  8
0
100
AcDbLine
 10
12.09999999999999
 20
325.75
 30
0.0
 11
13.6
 21
325.75
 31
0.0
  0
LINE
  5
9D
330
1E
100
AcDbEntity
  8
0
100
AcDbLine
 10
11.8
 20
323.75
 30
0.0
 11
14.59999999999999
 21
323.75
 31
0.0
  0
LINE
  5
9E
330
1E
100
AcDbEntity
  8
0
100
AcDbLine
 10
11.4
 20
323.2499999999999
 30
0.0
 11
14.3
 21
323.2499999999999
 31
0.0
  0
LINE
  5
9F
330
1E
100
AcDbEntity
  8
0
100
AcDbLine
 10
11.0
 20
288.75
 30
0.0
 11
11.0
 21
286.75
 31
0.0
  0
LINE
  5
A0
330
1E
100
AcDbEntity
  8
0
100
AcDbLine
 10
11.0
 20
286.75
 30
0.0
 11
11.0
 21
288.75
 31
0.0
  0
LINE
  5
A1
330
1E
100
AcDbEntity
  8
0
100
AcDbLine
 10
8.0
 20
0.249999999999984
 30
0.0
 11
13.6
 21
0.249999999999984
 31
0.0
  0
LINE
  5
A2
330
1E
100
AcDbEntity
  8
0
100
AcDbLine
 10
13.6
 20
0.249999999999984
 30
0.0
 11
20.1
 21
0.249999999999984
 31
0.0
  0
LINE
  5
A3
330
1E
100
AcDbEntity
  8
0
100
AcDbLine
 10
21.19199999999999
 20
227.0739999999999
 30
0.0
 11
23.976
 21
226.587
 31
0.0
  0
LINE
  5
A4
330
1E
100
AcDbEntity
  8
0
100
AcDbLine
 10
21.19199999999999
 20
235.634
 30
0.0
 11
23.976
 21
236.1209999999999
 31
0.0
  0
LINE
  5
A5
330
1E
100
AcDbEntity
  8
0
100
AcDbLine
 10
21.048
 20
236.0279999999999
 30
0.0
 11
23.928
 21
236.5149999999999
 31
0.0
  0
LINE
  5
A6
330
1E
100
AcDbEntity
  8
0
100
AcDbLine
 10
27.0
 20
0.249999999999984
 30
0.0
 11
33.9
 21
0.249999999999984
 31
0.0
  0
LINE
  5
A7
330
1E
100
AcDbEntity
  8
0
100
AcDbLine
 10
27.0
 20
0.7499999999999871
 30
0.0
 11
33.9
 21
0.7499999999999871
 31
0.0
  0
LINE
  5
A8
330
1E
100
AcDbEntity
  8
0
100
AcDbLine
 10
40.4
 20
0.249999999999984
 30
0.0
 11
46.0
 21
0.249999999999984
 31
0.0
  0
LINE
  5
A9
330
1E
100
AcDbEntity
  8
0
100
AcDbLine
 10
33.9
 20
0.249999999999984
 30
0.0
 11
40.4
 21
0.249999999999984
 31
0.0
  0
LINE
  5
AA
330
1E
100
AcDbEntity
  8
0
100
AcDbLine
 10
46.0
 20
0.249999999999984
 30
0.0
 11
50.4
 21
0.249999999999985
 31
0.0
  0
LINE
  5
AB
330
1E
100
AcDbEntity
  8
0
100
AcDbLine
 10
50.4
 20
0.249999999999985
 30
0.0
 11
53.0
 21
0.249999999999985
 31
0.0
  0
LINE
  5
AC
330
1E
100
AcDbEntity
  8
0
100
AcDbLine
 10
53.0
 20
0.249999999999985
 30
0.0
 11
54.0
 21
0.2499999999999861
 31
0.0
  0
LINE
  5
AD
330
1E
100
AcDbEntity
  8
0
100
AcDbLine
 10
54.0
 20
0.2499999999999861
 30
0.0
 11
54.0
 21
0.749999999999986
 31
0.0
  0
LINE
  5
AE
330
1E
100
AcDbEntity
  8
0
100
AcDbLine
 10
46.0
 20
0.249999999999987
 30
0.0
 11
50.4
 21
0.2499999999999861
 31
0.0
  0
LINE
  5
AF
330
1E
100
AcDbEntity
  8
0
100
AcDbLine
 10
50.4
 20
0.2499999999999861
 30
0.0
 11
53.0
 21
0.2499999999999861
 31
0.0
  0
LINE
  5
B0
330
1E
100
AcDbEntity
  8
0
100
AcDbLine
 10
53.0
 20
0.2499999999999861
 30
0.0
 11
54.0
 21
0.2499999999999861
 31
0.0
  0
LINE
  5
B1
330
1E
100
AcDbEntity
  8
0
100
AcDbLine
 10
40.4
 20
0.249999999999987
 30
0.0
 11
46.0
 21
0.249999999999987
 31
0.0
  0
LINE
  5
B2
330
1E
100
AcDbEntity
  8
0
100
AcDbLine
 10
46.0
 20
0.7499999999999871
 30
0.0
 11
50.4
 21
0.749999999999986
 31
0.0
  0
LINE
  5
B3
330
1E
100
AcDbEntity
  8
0
100
AcDbLine
 10
50.4
 20
0.749999999999986
 30
0.0
 11
53.0
 21
0.749999999999986
 31
0.0
  0
LINE
  5
B4
330
1E
100
AcDbEntity
  8
0
100
AcDbLine
 10
54.0
 20
0.749999999999986
 30
0.0
 11
54.0
 21
0.2499999999999861
 31
0.0
  0
LINE
  5
B5
330
1E
100
AcDbEntity
  8
0
100
AcDbLine
 10
53.0
 20
0.749999999999986
 30
0.0
 11
54.0
 21
0.749999999999986
 31
0.0
  0
LINE
  5
B6
330
1E
100
AcDbEntity
  8
0
100
AcDbLine
 10
45.49999999999999
 20
10.25
 30
0.0
 11
46.5
 21
7.74999999999999
 31
0.0
  0
LINE
  5
B7
330
1E
100
AcDbEntity
  8
0
100
AcDbLine
 10
46.5
 20
7.74999999999999
 30
0.0
 11
48.0
 21
5.24999999999999
 31
0.0
  0
LINE
  5
B8
330
1E
100
AcDbEntity
  8
0
100
AcDbLine
 10
48.0
 20
5.24999999999999
 30
0.0
 11
52.0
 21
1.749999999999989
 31
0.0
  0
LINE
  5
B9
330
1E
100
AcDbEntity
  8
0
100
AcDbLine
 10
48.0
 20
5.24999999999999
 30
0.0
 11
52.0
 21
1.749999999999989
 31
0.0
  0
LINE
  5
BA
330
1E
100
AcDbEntity
  8
0
100
AcDbLine
 10
52.0
 20
1.749999999999989
 30
0.0
 11
54.0
 21
0.749999999999986
 31
0.0
  0
LINE
  5
BB
330
1E
100
AcDbEntity
  8
0
100
AcDbLine
 10
40.4
 20
0.7499999999999871
 30
0.0
 11
46.0
 21
0.7499999999999871
 31
0.0
  0
LINE
  5
BC
330
1E
100
AcDbEntity
  8
0
100
AcDbLine
 10
33.9
 20
0.7499999999999871
 30
0.0
 11
40.4
 21
0.7499999999999871
 31
0.0
  0
LINE
  5
BD
330
1E
100
AcDbEntity
  8
0
100
AcDbLine
 10
33.9
 20
0.249999999999987
 30
0.0
 11
40.4
 21
0.249999999999987
 31
0.0
  0
LINE
  5
BE
330
1E
100
AcDbEntity
  8
0
100
AcDbLine
 10
27.0
 20
0.249999999999987
 30
0.0
 11
33.9
 21
0.249999999999987
 31
0.0
  0
LINE
  5
BF
330
1E
100
AcDbEntity
  8
0
100
AcDbLine
 10
35.256
 20
227.865
 30
0.0
 11
37.128
 21
228.9
 31
0.0
  0
LINE
  5
C0
330
1E
100
AcDbEntity
  8
0
100
AcDbLine
 10
32.808
 20
227.0739999999999
 30
0.0
 11
35.256
 21
227.865
 31
0.0
  0
LINE
  5
C1
330
1E
100
AcDbEntity
  8
0
100
AcDbLine
 10
30.024
 20
226.587
 30
0.0
 11
32.808
 21
227.0739999999999
 31
0.0
  0
LINE
  5
C2
330
1E
100
AcDbEntity
  8
0
100
AcDbLine
 10
27.0
 20
226.404
 30
0.0
 11
30.024
 21
226.587
 31
0.0
  0
LINE
  5
C3
330
1E
100
AcDbEntity
  8
0
100
AcDbLine
 10
35.256
 20
234.843
 30
0.0
 11
37.128
 21
233.809
 31
0.0
  0
LINE
  5
C4
330
1E
100
AcDbEntity
  8
0
100
AcDbLine
 10
32.808
 20
235.634
 30
0.0
 11
35.256
 21
234.843
 31
0.0
  0
LINE
  5
C5
330
1E
100
AcDbEntity
  8
0
100
AcDbLine
 10
37.128
 20
228.9
 30
0.0
 11
37.416
 21
229.1109999999999
 31
0.0
  0
LINE
  5
C6
330
1E
100
AcDbEntity
  8
0
100
AcDbLine
 10
37.128
 20
228.9
 30
0.0
 11
38.28
 21
230.0759999999999
 31
0.0
  0
LINE
  5
C7
330
1E
100
AcDbEntity
  8
0
100
AcDbLine
 10
38.28
 20
230.0759999999999
 30
0.0
 11
38.71199999999999
 21
231.354
 31
0.0
  0
LINE
  5
C8
330
1E
100
AcDbEntity
  8
0
100
AcDbLine
 10
37.416
 20
229.1109999999999
 30
0.0
 11
38.568
 21
230.3279999999999
 31
0.0
  0
LINE
  5
C9
330
1E
100
AcDbEntity
  8
0
100
AcDbLine
 10
38.568
 20
230.3279999999999
 30
0.0
 11
39.0
 21
231.6259999999999
 31
0.0
  0
LINE
  5
CA
330
1E
100
AcDbEntity
  8
0
100
AcDbLine
 10
38.28
 20
232.6319999999999
 30
0.0
 11
38.71199999999999
 21
231.354
 31
0.0
  0
LINE
  5
CB
330
1E
100
AcDbEntity
  8
0
100
AcDbLine
 10
37.128
 20
233.809
 30
0.0
 11
38.28
 21
232.6319999999999
 31
0.0
  0
LINE
  5
CC
330
1E
100
AcDbEntity
  8
0
100
AcDbLine
 10
40.3205409974641
 20
232.696028571429
 30
0.0
 11
40.4
 21
232.739
 31
0.0
  0
LINE
  5
CD
330
1E
100
AcDbEntity
  8
0
100
AcDbLine
 10
40.0
 20
232.3709999999999
 30
0.0
 11
40.4
 21
232.739
 31
0.0
  0
LINE
  5
CE
330
1E
100
AcDbEntity
  8
0
100
AcDbLine
 10
40.4
 20
232.739
 30
0.0
 11
41.9
 21
234.303
 31
0.0
  0
LINE
  5
CF
330
1E
100
AcDbEntity
  8
0
100
AcDbLine
 10
39.0
 20
231.8251666666669
 30
0.0
 11
40.0
 21
232.3709999999999
 31
0.0
  0
LINE
  5
D0
330
1E
100
AcDbEntity
  8
0
100
AcDbLine
 10
39.0
 20
231.6259999999999
 30
0.0
 11
39.0
 21
235.087
 31
0.0
  0
LINE
  5
D1
330
1E
100
AcDbEntity
  8
0
100
AcDbLine
 10
38.568
 20
232.9239999999999
 30
0.0
 11
39.0
 21
231.6259999999999
 31
0.0
  0
LINE
  5
D2
330
1E
100
AcDbEntity
  8
0
100
AcDbLine
 10
41.9
 20
234.303
 30
0.0
 11
42.5
 21
235.9929999999999
 31
0.0
  0
LINE
  5
D3
330
1E
100
AcDbEntity
  8
0
100
AcDbLine
 10
39.0
 20
235.087
 30
0.0
 11
39.0
 21
231.6259999999999
 31
0.0
  0
LINE
  5
D4
330
1E
100
AcDbEntity
  8
0
100
AcDbLine
 10
37.416
 20
234.1409999999999
 30
0.0
 11
38.568
 21
232.9239999999999
 31
0.0
  0
LINE
  5
D5
330
1E
100
AcDbEntity
  8
0
100
AcDbLine
 10
35.496
 20
235.217
 30
0.0
 11
37.416
 21
234.1409999999999
 31
0.0
  0
LINE
  5
D6
330
1E
100
AcDbEntity
  8
0
100
AcDbLine
 10
30.024
 20
236.1209999999999
 30
0.0
 11
32.808
 21
235.634
 31
0.0
  0
LINE
  5
D7
330
1E
100
AcDbEntity
  8
0
100
AcDbLine
 10
32.95199999999999
 20
236.0279999999999
 30
0.0
 11
35.496
 21
235.217
 31
0.0
  0
LINE
  5
DA
330
1E
100
AcDbEntity
  8
0
100
AcDbLine
 10
42.5
 20
235.9929999999999
 30
0.0
 11
42.5
 21
236.447
 31
0.0
  0
LINE
  5
DB
330
1E
100
AcDbEntity
  8
0
100
AcDbLine
 10
45.0
 20
13.25
 30
0.0
 11
45.0
 21
286.25
 31
0.0
  0
LINE
  5
DC
330
1E
100
AcDbEntity
  8
0
100
AcDbLine
 10
45.0
 20
13.25
 30
0.0
 11
45.49999999999999
 21
10.25
 31
0.0
  0
LINE
  5
DD
330
1E
100
AcDbEntity
  8
0
100
AcDbLine
 10
23.976
 20
226.587
 30
0.0
 11
27.0
 21
226.404
 31
0.0
  0
LINE
  5
DE
330
1E
100
AcDbEntity
  8
0
100
AcDbLine
 10
27.0
 20
236.304
 30
0.0
 11
30.024
 21
236.1209999999999
 31
0.0
  0
LINE
  5
DF
330
1E
100
AcDbEntity
  8
0
100
AcDbLine
 10
30.072
 20
236.5149999999999
 30
0.0
 11
32.95199999999999
 21
236.0279999999999
 31
0.0
  0
LINE
  5
E0
330
1E
100
AcDbEntity
  8
0
100
AcDbLine
 10
27.0
 20
236.697
 30
0.0
 11
30.072
 21
236.5149999999999
 31
0.0
  0
LINE
  5
E1
330
1E
100
AcDbEntity
  8
0
100
AcDbLine
 10
41.9
 20
238.1369999999999
 30
0.0
 11
42.5
 21
236.447
 31
0.0
  0
LINE
  5
E2
330
1E
100
AcDbEntity
  8
0
100
AcDbLine
 10
37.6
 20
241.38
 30
0.0
 11
40.0
 21
240.069
 31
0.0
  0
LINE
  5
E3
330
1E
100
AcDbEntity
  8
0
100
AcDbLine
 10
37.9
 20
241.053
 30
0.0
 11
40.4
 21
239.7009999999999
 31
0.0
  0
LINE
  5
E5
330
1E
100
AcDbEntity
  8
0
100
AcDbLine
 10
40.0
 20
240.069
 30
0.0
 11
40.4
 21
239.7009999999999
 31
0.0
  0
LINE
  5
E6
330
1E
100
AcDbEntity
  8
0
100
AcDbLine
 10
40.0
 20
240.069
 30
0.0
 11
40.0
 21
252.7499999999999
 31
0.0
  0
LINE
  5
E7
330
1E
100
AcDbEntity
  8
0
100
AcDbLine
 10
40.4
 20
239.7009999999999
 30
0.0
 11
41.9
 21
238.1369999999999
 31
0.0
  0
LINE
  5
E8
330
1E
100
AcDbEntity
  8
0
100
AcDbLine
 10
37.9
 20
240.6
 30
0.0
 11
40.4
 21
239.2479999999999
 31
0.0
  0
LINE
  5
E9
330
1E
100
AcDbEntity
  8
0
100
AcDbLine
 10
40.4
 20
239.2479999999999
 30
0.0
 11
41.9
 21
237.684
 31
0.0
  0
LINE
  5
EA
330
1E
100
AcDbEntity
  8
0
100
AcDbLine
 10
42.5
 20
236.447
 30
0.0
 11
42.5
 21
235.9929999999999
 31
0.0
  0
LINE
  5
EB
330
1E
100
AcDbEntity
  8
0
100
AcDbLine
 10
41.9
 20
237.684
 30
0.0
 11
42.5
 21
235.9929999999999
 31
0.0
  0
LINE
  5
EC
330
1E
100
AcDbEntity
  8
0
100
AcDbLine
 10
34.7
 20
242.11
 30
0.0
 11
37.9
 21
241.053
 31
0.0
  0
LINE
  5
ED
330
1E
100
AcDbEntity
  8
0
100
AcDbLine
 10
34.7
 20
241.657
 30
0.0
 11
37.9
 21
240.6
 31
0.0
  0
LINE
  5
EE
330
1E
100
AcDbEntity
  8
0
100
AcDbLine
 10
31.0
 20
242.2909999999999
 30
0.0
 11
34.7
 21
241.657
 31
0.0
  0
LINE
  5
EF
330
1E
100
AcDbEntity
  8
0
100
AcDbLine
 10
23.976
 20
236.1209999999999
 30
0.0
 11
27.0
 21
236.304
 31
0.0
  0
LINE
  5
F0
330
1E
100
AcDbEntity
  8
0
100
AcDbLine
 10
23.928
 20
236.5149999999999
 30
0.0
 11
27.0
 21
236.697
 31
0.0
  0
LINE
  5
F1
330
1E
100
AcDbEntity
  8
0
100
AcDbLine
 10
22.39999999999999
 20
286.25
 30
0.0
 11
27.0
 21
286.25
 31
0.0
  0
LINE
  5
F2
330
1E
100
AcDbEntity
  8
0
100
AcDbLine
 10
22.1667
 20
315.2059999999999
 30
0.0
 11
22.66669999999999
 21
313.9559999999999
 31
0.0
  0
LINE
  5
F3
330
1E
100
AcDbEntity
  8
0
100
AcDbLine
 10
22.1667
 20
317.7059999999999
 30
0.0
 11
22.66669999999999
 21
318.9559999999999
 31
0.0
  0
LINE
  5
F4
330
1E
100
AcDbEntity
  8
0
100
AcDbLine
 10
22.25
 20
316.4559999999999
 30
0.0
 11
22.4167
 21
317.7059999999999
 31
0.0
  0
LINE
  5
F5
330
1E
100
AcDbEntity
  8
0
100
AcDbLine
 10
22.25
 20
316.4559999999999
 30
0.0
 11
22.4167
 21
315.2059999999999
 31
0.0
  0
LINE
  5
F6
330
1E
100
AcDbEntity
  8
0
100
AcDbLine
 10
22.0
 20
316.4559999999999
 30
0.0
 11
22.1667
 21
315.2059999999999
 31
0.0
  0
LINE
  5
F7
330
1E
100
AcDbEntity
  8
0
100
AcDbLine
 10
22.0
 20
316.4559999999999
 30
0.0
 11
22.1667
 21
317.7059999999999
 31
0.0
  0
LINE
  5
F8
330
1E
100
AcDbEntity
  8
0
100
AcDbLine
 10
22.39999999999999
 20
288.75
 30
0.0
 11
27.0
 21
288.75
 31
0.0
  0
LINE
  5
F9
330
1E
100
AcDbEntity
  8
0
100
AcDbLine
 10
22.5
 20
286.75
 30
0.0
 11
27.0
 21
286.75
 31
0.0
  0
LINE
  5
FA
330
1E
100
AcDbEntity
  8
0
100
AcDbLine
 10
22.66669999999999
 20
313.9559999999999
 30
0.0
 11
23.5
 21
312.9559999999999
 31
0.0
  0
LINE
  5
FB
330
1E
100
AcDbEntity
  8
0
100
AcDbLine
 10
22.4167
 20
315.2059999999999
 30
0.0
 11
22.91669999999999
 21
314.122
 31
0.0
  0
LINE
  5
FC
330
1E
100
AcDbEntity
  8
0
100
AcDbLine
 10
22.66669999999999
 20
318.9559999999999
 30
0.0
 11
23.5
 21
319.9559999999999
 31
0.0
  0
LINE
  5
FD
330
1E
100
AcDbEntity
  8
0
100
AcDbLine
 10
22.4167
 20
317.7059999999999
 30
0.0
 11
22.91669999999999
 21
318.7889999999999
 31
0.0
  0
LINE
  5
FE
330
1E
100
AcDbEntity
  8
0
100
AcDbLine
 10
22.91669999999999
 20
314.122
 30
0.0
 11
23.6667
 21
313.122
 31
0.0
  0
LINE
  5
FF
330
1E
100
AcDbEntity
  8
0
100
AcDbLine
 10
22.91669999999999
 20
318.7889999999999
 30
0.0
 11
23.6667
 21
319.789
 31
0.0
  0
LINE
  5
100
330
1E
100
AcDbEntity
  8
0
100
AcDbLine
 10
22.66669999999999
 20
313.9559999999999
 30
0.0
 11
23.5
 21
312.9559999999999
 31
0.0
  0
LINE
  5
101
330
1E
100
AcDbEntity
  8
0
100
AcDbLine
 10
23.0
 20
325.75
 30
0.0
 11
27.0
 21
325.75
 31
0.0
  0
LINE
  5
102
330
1E
100
AcDbEntity
  8
0
100
AcDbLine
 10
22.5
 20
323.75
 30
0.0
 11
27.0
 21
323.75
 31
0.0
  0
LINE
  5
103
330
1E
100
AcDbEntity
  8
0
100
AcDbLine
 10
22.39999999999999
 20
323.2499999999999
 30
0.0
 11
27.0
 21
323.2499999999999
 31
0.0
  0
LINE
  5
104
330
1E
100
AcDbEntity
  8
0
100
AcDbLine
 10
20.5
 20
275.55
 30
0.0
 11
23.7
 21
276.75
 31
0.0
  0
LINE
  5
105
330
1E
100
AcDbEntity
  8
0
100
AcDbLine
 10
27.0
 20
242.997
 30
0.0
 11
31.0
 21
242.744
 31
0.0
  0
LINE
  5
106
330
1E
100
AcDbEntity
  8
0
100
AcDbLine
 10
34.5
 20
242.3939999999999
 30
0.0
 11
37.6
 21
241.38
 31
0.0
  0
LINE
  5
107
330
1E
100
AcDbEntity
  8
0
100
AcDbLine
 10
30.89999999999999
 20
243.0279999999999
 30
0.0
 11
34.5
 21
242.3939999999999
 31
0.0
  0
LINE
  5
108
330
1E
100
AcDbEntity
  8
0
100
AcDbLine
 10
31.0
 20
242.744
 30
0.0
 11
34.7
 21
242.11
 31
0.0
  0
LINE
  5
109
330
1E
100
AcDbEntity
  8
0
100
AcDbLine
 10
27.0
 20
242.544
 30
0.0
 11
31.0
 21
242.2909999999999
 31
0.0
  0
LINE
  5
10A
330
1E
100
AcDbEntity
  8
0
100
AcDbLine
 10
26.968368625327
 20
243.2866099910032
 30
0.0
 11
30.89999999999999
 21
243.0279999999999
 31
0.0
  0
LINE
  5
10B
330
1E
100
AcDbEntity
  8
0
100
AcDbLine
 10
26.968368625327
 20
243.2866099910032
 30
0.0
 11
30.7150110236221
 21
243.0380083779529
 31
0.0
  0
LINE
  5
10C
330
1E
100
AcDbEntity
  8
0
100
AcDbLine
 10
40.0
 20
257.5129999999999
 30
0.0
 11
40.0
 21
255.252
 31
0.0
  0
LINE
  5
10D
330
1E
100
AcDbEntity
  8
0
100
AcDbLine
 10
40.0
 20
257.5129999999999
 30
0.0
 11
40.0
 21
259.4969999999999
 31
0.0
  0
LINE
  5
10E
330
1E
100
AcDbEntity
  8
0
100
AcDbLine
 10
40.0
 20
263.466
 30
0.0
 11
40.0
 21
262.499
 31
0.0
  0
LINE
  5
10F
330
1E
100
AcDbEntity
  8
0
100
AcDbLine
 10
40.0
 20
263.466
 30
0.0
 11
40.0
 21
264.053
 31
0.0
  0
LINE
  5
110
330
1E
100
AcDbEntity
  8
0
100
AcDbLine
 10
40.0
 20
264.053
 30
0.0
 11
40.0
 21
263.466
 31
0.0
  0
LINE
  5
111
330
1E
100
AcDbEntity
  8
0
100
AcDbLine
 10
40.0
 20
264.053
 30
0.0
 11
40.0
 21
264.25
 31
0.0
  0
LINE
  5
112
330
1E
100
AcDbEntity
  8
0
100
AcDbLine
 10
40.0
 20
262.499
 30
0.0
 11
40.0
 21
261.169
 31
0.0
  0
LINE
  5
113
330
1E
100
AcDbEntity
  8
0
100
AcDbLine
 10
40.0
 20
262.499
 30
0.0
 11
40.0
 21
263.466
 31
0.0
  0
LINE
  5
114
330
1E
100
AcDbEntity
  8
0
100
AcDbLine
 10
40.0
 20
261.169
 30
0.0
 11
40.0
 21
259.4969999999999
 31
0.0
  0
LINE
  5
115
330
1E
100
AcDbEntity
  8
0
100
AcDbLine
 10
40.0
 20
261.169
 30
0.0
 11
40.0
 21
262.499
 31
0.0
  0
LINE
  5
116
330
1E
100
AcDbEntity
  8
0
100
AcDbLine
 10
40.0
 20
259.4969999999999
 30
0.0
 11
40.0
 21
257.5129999999999
 31
0.0
  0
LINE
  5
117
330
1E
100
AcDbEntity
  8
0
100
AcDbLine
 10
40.0
 20
259.4969999999999
 30
0.0
 11
40.0
 21
261.169
 31
0.0
  0
LINE
  5
118
330
1E
100
AcDbEntity
  8
0
100
AcDbLine
 10
40.0
 20
255.252
 30
0.0
 11
40.0
 21
257.5129999999999
 31
0.0
  0
LINE
  5
119
330
1E
100
AcDbEntity
  8
0
100
AcDbLine
 10
40.0
 20
255.252
 30
0.0
 11
40.0
 21
252.7499999999999
 31
0.0
  0
LINE
  5
11A
330
1E
100
AcDbEntity
  8
0
100
AcDbLine
 10
40.0
 20
252.7499999999999
 30
0.0
 11
40.0
 21
255.252
 31
0.0
  0
LINE
  5
11B
330
1E
100
AcDbEntity
  8
0
100
AcDbLine
 10
40.0
 20
252.7499999999999
 30
0.0
 11
40.0
 21
240.069
 31
0.0
  0
LINE
  5
11C
330
1E
100
AcDbEntity
  8
0
100
AcDbLine
 10
40.0
 20
264.25
 30
0.0
 11
40.0
 21
264.053
 31
0.0
  0
LINE
  5
11D
330
1E
100
AcDbEntity
  8
0
100
AcDbLine
 10
36.2
 20
273.45
 30
0.0
 11
38.3
 21
270.75
 31
0.0
  0
LINE
  5
11E
330
1E
100
AcDbEntity
  8
0
100
AcDbLine
 10
38.3
 20
270.75
 30
0.0
 11
39.5
 21
267.5499999999999
 31
0.0
  0
LINE
  5
11F
330
1E
100
AcDbEntity
  8
0
100
AcDbLine
 10
39.5
 20
267.5499999999999
 30
0.0
 11
40.0
 21
264.25
 31
0.0
  0
LINE
  5
120
330
1E
100
AcDbEntity
  8
0
100
AcDbLine
 10
30.3
 20
276.75
 30
0.0
 11
33.5
 21
275.55
 31
0.0
  0
LINE
  5
121
330
1E
100
AcDbEntity
  8
0
100
AcDbLine
 10
27.0
 20
277.2499999999999
 30
0.0
 11
30.3
 21
276.75
 31
0.0
  0
LINE
  5
122
330
1E
100
AcDbEntity
  8
0
100
AcDbLine
 10
35.89999999999999
 20
286.25
 30
0.0
 11
39.7
 21
286.25
 31
0.0
  0
LINE
  5
123
330
1E
100
AcDbEntity
  8
0
100
AcDbLine
 10
31.6
 20
286.25
 30
0.0
 11
35.89999999999999
 21
286.25
 31
0.0
  0
LINE
  5
124
330
1E
100
AcDbEntity
  8
0
100
AcDbLine
 10
27.0
 20
286.25
 30
0.0
 11
31.6
 21
286.25
 31
0.0
  0
LINE
  5
125
330
1E
100
AcDbEntity
  8
0
100
AcDbLine
 10
35.7
 20
286.75
 30
0.0
 11
39.39999999999999
 21
286.75
 31
0.0
  0
LINE
  5
126
330
1E
100
AcDbEntity
  8
0
100
AcDbLine
 10
31.5
 20
286.75
 30
0.0
 11
35.7
 21
286.75
 31
0.0
  0
LINE
  5
127
330
1E
100
AcDbEntity
  8
0
100
AcDbLine
 10
27.0
 20
286.75
 30
0.0
 11
31.5
 21
286.75
 31
0.0
  0
LINE
  5
128
330
1E
100
AcDbEntity
  8
0
100
AcDbLine
 10
39.39999999999999
 20
286.75
 30
0.0
 11
42.2
 21
286.75
 31
0.0
  0
LINE
  5
129
330
1E
100
AcDbEntity
  8
0
100
AcDbLine
 10
42.2
 20
286.75
 30
0.0
 11
43.89999999999999
 21
286.75
 31
0.0
  0
LINE
  5
12A
330
1E
100
AcDbEntity
  8
0
100
AcDbLine
 10
39.7
 20
286.25
 30
0.0
 11
42.6
 21
286.25
 31
0.0
  0
LINE
  5
12B
330
1E
100
AcDbEntity
  8
0
100
AcDbLine
 10
42.6
 20
286.25
 30
0.0
 11
44.29999999999999
 21
286.25
 31
0.0
  0
LINE
  5
12C
330
1E
100
AcDbEntity
  8
0
100
AcDbLine
 10
23.5
 20
319.9559999999999
 30
0.0
 11
24.5
 21
320.7889999999999
 31
0.0
  0
LINE
  5
12D
330
1E
100
AcDbEntity
  8
0
100
AcDbLine
 10
23.6667
 20
313.122
 30
0.0
 11
24.6667
 21
312.372
 31
0.0
  0
LINE
  5
12E
330
1E
100
AcDbEntity
  8
0
100
AcDbLine
 10
23.6667
 20
319.789
 30
0.0
 11
24.6667
 21
320.5389999999999
 31
0.0
  0
LINE
  5
12F
330
1E
100
AcDbEntity
  8
0
100
AcDbLine
 10
25.072
 20
297.369
 30
0.0
 11
25.264
 21
297.8489999999999
 31
0.0
  0
LINE
  5
130
330
1E
100
AcDbEntity
  8
0
100
AcDbLine
 10
25.0
 20
296.857
 30
0.0
 11
25.072
 21
296.345
 31
0.0
  0
LINE
  5
131
330
1E
100
AcDbEntity
  8
0
100
AcDbLine
 10
25.0
 20
296.857
 30
0.0
 11
25.072
 21
297.369
 31
0.0
  0
LINE
  5
132
330
1E
100
AcDbEntity
  8
0
100
AcDbLine
 10
25.264
 20
297.8489999999999
 30
0.0
 11
25.584
 21
298.2729999999999
 31
0.0
  0
LINE
  5
133
330
1E
100
AcDbEntity
  8
0
100
AcDbLine
 10
25.584
 20
298.2729999999999
 30
0.0
 11
26.008
 21
298.593
 31
0.0
  0
LINE
  5
134
330
1E
100
AcDbEntity
  8
0
100
AcDbLine
 10
25.072
 20
296.345
 30
0.0
 11
25.264
 21
295.865
 31
0.0
  0
LINE
  5
135
330
1E
100
AcDbEntity
  8
0
100
AcDbLine
 10
25.264
 20
295.865
 30
0.0
 11
25.584
 21
295.4409999999999
 31
0.0
  0
LINE
  5
136
330
1E
100
AcDbEntity
  8
0
100
AcDbLine
 10
25.584
 20
295.4409999999999
 30
0.0
 11
26.008
 21
295.1209999999999
 31
0.0
  0
LINE
  5
137
330
1E
100
AcDbEntity
  8
0
100
AcDbLine
 10
24.5
 20
312.122
 30
0.0
 11
25.75
 21
311.622
 31
0.0
  0
LINE
  5
138
330
1E
100
AcDbEntity
  8
0
100
AcDbLine
 10
25.75
 20
311.622
 30
0.0
 11
27.0
 21
311.4559999999999
 31
0.0
  0
LINE
  5
139
330
1E
100
AcDbEntity
  8
0
100
AcDbLine
 10
24.6667
 20
312.372
 30
0.0
 11
25.75
 21
311.872
 31
0.0
  0
LINE
  5
13A
330
1E
100
AcDbEntity
  8
0
100
AcDbLine
 10
26.008
 20
298.593
 30
0.0
 11
26.488
 21
298.785
 31
0.0
  0
LINE
  5
13B
330
1E
100
AcDbEntity
  8
0
100
AcDbLine
 10
26.008
 20
295.1209999999999
 30
0.0
 11
26.488
 21
294.929
 31
0.0
  0
LINE
  5
13C
330
1E
100
AcDbEntity
  8
0
100
AcDbLine
 10
25.75
 20
311.872
 30
0.0
 11
27.0
 21
311.7059999999999
 31
0.0
  0
LINE
  5
13D
330
1E
100
AcDbEntity
  8
0
100
AcDbLine
 10
24.0833
 20
314.7889999999999
 30
0.0
 11
24.5833
 21
314.039
 31
0.0
  0
LINE
  5
13E
330
1E
100
AcDbEntity
  8
0
100
AcDbLine
 10
23.75
 20
315.622
 30
0.0
 11
24.0833
 21
314.7889999999999
 31
0.0
  0
LINE
  5
13F
330
1E
100
AcDbEntity
  8
0
100
AcDbLine
 10
24.5833
 20
314.039
 30
0.0
 11
25.3333
 21
313.539
 31
0.0
  0
LINE
  5
140
330
1E
100
AcDbEntity
  8
0
100
AcDbLine
 10
25.3333
 20
313.539
 30
0.0
 11
26.1667
 21
313.2059999999999
 31
0.0
  0
LINE
  5
141
330
1E
100
AcDbEntity
  8
0
100
AcDbLine
 10
26.488
 20
298.785
 30
0.0
 11
27.0
 21
298.857
 31
0.0
  0
LINE
  5
142
330
1E
100
AcDbEntity
  8
0
100
AcDbLine
 10
26.488
 20
294.929
 30
0.0
 11
27.0
 21
294.857
 31
0.0
  0
LINE
  5
143
330
1E
100
AcDbEntity
  8
0
100
AcDbLine
 10
27.0
 20
294.857
 30
0.0
 11
27.51199999999999
 21
294.929
 31
0.0
  0
LINE
  5
144
330
1E
100
AcDbEntity
  8
0
100
AcDbLine
 10
27.0
 20
298.857
 30
0.0
 11
27.51199999999999
 21
298.785
 31
0.0
  0
LINE
  5
145
330
1E
100
AcDbEntity
  8
0
100
AcDbLine
 10
27.0
 20
311.4559999999999
 30
0.0
 11
28.25
 21
311.622
 31
0.0
  0
LINE
  5
146
330
1E
100
AcDbEntity
  8
0
100
AcDbLine
 10
27.0
 20
311.7059999999999
 30
0.0
 11
28.25
 21
311.872
 31
0.0
  0
LINE
  5
147
330
1E
100
AcDbEntity
  8
0
100
AcDbLine
 10
27.0
 20
313.122
 30
0.0
 11
27.8333
 21
313.2059999999999
 31
0.0
  0
LINE
  5
148
330
1E
100
AcDbEntity
  8
0
100
AcDbLine
 10
26.1667
 20
313.2059999999999
 30
0.0
 11
27.0
 21
313.122
 31
0.0
  0
LINE
  5
149
330
1E
100
AcDbEntity
  8
0
100
AcDbLine
 10
24.5833
 20
318.8719999999999
 30
0.0
 11
25.3333
 21
319.372
 31
0.0
  0
LINE
  5
14A
330
1E
100
AcDbEntity
  8
0
100
AcDbLine
 10
25.3333
 20
319.372
 30
0.0
 11
26.1667
 21
319.7059999999999
 31
0.0
  0
LINE
  5
14B
330
1E
100
AcDbEntity
  8
0
100
AcDbLine
 10
27.0
 20
319.789
 30
0.0
 11
27.8333
 21
319.7059999999999
 31
0.0
  0
LINE
  5
14C
330
1E
100
AcDbEntity
  8
0
100
AcDbLine
 10
24.6667
 20
320.5389999999999
 30
0.0
 11
25.75
 21
321.0389999999999
 31
0.0
  0
LINE
  5
14D
330
1E
100
AcDbEntity
  8
0
100
AcDbLine
 10
26.1667
 20
319.7059999999999
 30
0.0
 11
27.0
 21
319.789
 31
0.0
  0
LINE
  5
14E
330
1E
100
AcDbEntity
  8
0
100
AcDbLine
 10
24.0833
 20
318.122
 30
0.0
 11
24.5833
 21
318.8719999999999
 31
0.0
  0
LINE
  5
14F
330
1E
100
AcDbEntity
  8
0
100
AcDbLine
 10
23.75
 20
317.2889999999999
 30
0.0
 11
24.0833
 21
318.122
 31
0.0
  0
LINE
  5
150
330
1E
100
AcDbEntity
  8
0
100
AcDbLine
 10
23.6667
 20
316.4559999999999
 30
0.0
 11
23.75
 21
317.2889999999999
 31
0.0
  0
LINE
  5
151
330
1E
100
AcDbEntity
  8
0
100
AcDbLine
 10
23.6667
 20
316.4559999999999
 30
0.0
 11
23.75
 21
315.622
 31
0.0
  0
LINE
  5
152
330
1E
100
AcDbEntity
  8
0
100
AcDbLine
 10
25.75
 20
321.2889999999999
 30
0.0
 11
27.0
 21
321.4559999999999
 31
0.0
  0
LINE
  5
153
330
1E
100
AcDbEntity
  8
0
100
AcDbLine
 10
27.0
 20
321.4559999999999
 30
0.0
 11
28.25
 21
321.2889999999999
 31
0.0
  0
LINE
  5
154
330
1E
100
AcDbEntity
  8
0
100
AcDbLine
 10
27.0
 20
321.2059999999999
 30
0.0
 11
28.25
 21
321.0389999999999
 31
0.0
  0
LINE
  5
155
330
1E
100
AcDbEntity
  8
0
100
AcDbLine
 10
25.75
 20
321.0389999999999
 30
0.0
 11
27.0
 21
321.2059999999999
 31
0.0
  0
LINE
  5
156
330
1E
100
AcDbEntity
  8
0
100
AcDbLine
 10
24.5
 20
320.7889999999999
 30
0.0
 11
25.75
 21
321.2889999999999
 31
0.0
  0
LINE
  5
157
330
1E
100
AcDbEntity
  8
0
100
AcDbLine
 10
23.5
 20
312.9559999999999
 30
0.0
 11
24.5
 21
312.122
 31
0.0
  0
LINE
  5
158
330
1E
100
AcDbEntity
  8
0
100
AcDbLine
 10
27.0
 20
325.75
 30
0.0
 11
31.0
 21
325.75
 31
0.0
  0
LINE
  5
159
330
1E
100
AcDbEntity
  8
0
100
AcDbLine
 10
27.0
 20
323.75
 30
0.0
 11
31.5
 21
323.75
 31
0.0
  0
LINE
  5
15A
330
1E
100
AcDbEntity
  8
0
100
AcDbLine
 10
27.0
 20
288.75
 30
0.0
 11
31.6
 21
288.75
 31
0.0
  0
LINE
  5
15B
330
1E
100
AcDbEntity
  8
0
100
AcDbLine
 10
27.51199999999999
 20
294.929
 30
0.0
 11
27.99199999999999
 21
295.1209999999999
 31
0.0
  0
LINE
  5
15C
330
1E
100
AcDbEntity
  8
0
100
AcDbLine
 10
27.99199999999999
 20
295.1209999999999
 30
0.0
 11
28.416
 21
295.4409999999999
 31
0.0
  0
LINE
  5
15D
330
1E
100
AcDbEntity
  8
0
100
AcDbLine
 10
27.99199999999999
 20
298.593
 30
0.0
 11
28.416
 21
298.2729999999999
 31
0.0
  0
LINE
  5
15E
330
1E
100
AcDbEntity
  8
0
100
AcDbLine
 10
27.51199999999999
 20
298.785
 30
0.0
 11
27.99199999999999
 21
298.593
 31
0.0
  0
LINE
  5
15F
330
1E
100
AcDbEntity
  8
0
100
AcDbLine
 10
28.25
 20
311.622
 30
0.0
 11
29.5
 21
312.122
 31
0.0
  0
LINE
  5
160
330
1E
100
AcDbEntity
  8
0
100
AcDbLine
 10
28.736
 20
295.865
 30
0.0
 11
28.928
 21
296.345
 31
0.0
  0
LINE
  5
161
330
1E
100
AcDbEntity
  8
0
100
AcDbLine
 10
28.416
 20
295.4409999999999
 30
0.0
 11
28.736
 21
295.865
 31
0.0
  0
LINE
  5
162
330
1E
100
AcDbEntity
  8
0
100
AcDbLine
 10
28.928
 20
296.345
 30
0.0
 11
29.0
 21
296.857
 31
0.0
  0
LINE
  5
163
330
1E
100
AcDbEntity
  8
0
100
AcDbLine
 10
28.928
 20
297.369
 30
0.0
 11
29.0
 21
296.857
 31
0.0
  0
LINE
  5
164
330
1E
100
AcDbEntity
  8
0
100
AcDbLine
 10
28.736
 20
297.8489999999999
 30
0.0
 11
28.928
 21
297.369
 31
0.0
  0
LINE
  5
165
330
1E
100
AcDbEntity
  8
0
100
AcDbLine
 10
28.416
 20
298.2729999999999
 30
0.0
 11
28.736
 21
297.8489999999999
 31
0.0
  0
LINE
  5
166
330
1E
100
AcDbEntity
  8
0
100
AcDbLine
 10
29.5
 20
312.122
 30
0.0
 11
30.5
 21
312.9559999999999
 31
0.0
  0
LINE
  5
167
330
1E
100
AcDbEntity
  8
0
100
AcDbLine
 10
29.3333
 20
312.372
 30
0.0
 11
30.3333
 21
313.122
 31
0.0
  0
LINE
  5
168
330
1E
100
AcDbEntity
  8
0
100
AcDbLine
 10
28.25
 20
311.872
 30
0.0
 11
29.3333
 21
312.372
 31
0.0
  0
LINE
  5
169
330
1E
100
AcDbEntity
  8
0
100
AcDbLine
 10
27.8333
 20
313.2059999999999
 30
0.0
 11
28.6667
 21
313.539
 31
0.0
  0
LINE
  5
16A
330
1E
100
AcDbEntity
  8
0
100
AcDbLine
 10
28.25
 20
321.0389999999999
 30
0.0
 11
29.3333
 21
320.5389999999999
 31
0.0
  0
LINE
  5
16B
330
1E
100
AcDbEntity
  8
0
100
AcDbLine
 10
27.8333
 20
319.7059999999999
 30
0.0
 11
28.6667
 21
319.372
 31
0.0
  0
LINE
  5
16C
330
1E
100
AcDbEntity
  8
0
100
AcDbLine
 10
28.6667
 20
313.539
 30
0.0
 11
29.4167
 21
314.039
 31
0.0
  0
LINE
  5
16D
330
1E
100
AcDbEntity
  8
0
100
AcDbLine
 10
29.4167
 20
314.039
 30
0.0
 11
29.9167
 21
314.7889999999999
 31
0.0
  0
LINE
  5
16E
330
1E
100
AcDbEntity
  8
0
100
AcDbLine
 10
29.9167
 20
314.7889999999999
 30
0.0
 11
30.25
 21
315.622
 31
0.0
  0
LINE
  5
16F
330
1E
100
AcDbEntity
  8
0
100
AcDbLine
 10
30.3333
 20
313.122
 30
0.0
 11
31.0833
 21
314.122
 31
0.0
  0
LINE
  5
170
330
1E
100
AcDbEntity
  8
0
100
AcDbLine
 10
31.3333
 20
313.9559999999999
 30
0.0
 11
31.8333
 21
315.2059999999999
 31
0.0
  0
LINE
  5
171
330
1E
100
AcDbEntity
  8
0
100
AcDbLine
 10
31.0833
 20
314.122
 30
0.0
 11
31.5833
 21
315.2059999999999
 31
0.0
  0
LINE
  5
172
330
1E
100
AcDbEntity
  8
0
100
AcDbLine
 10
31.5833
 20
315.2059999999999
 30
0.0
 11
31.75
 21
316.4559999999999
 31
0.0
  0
LINE
  5
173
330
1E
100
AcDbEntity
  8
0
100
AcDbLine
 10
30.25
 20
315.622
 30
0.0
 11
30.3333
 21
316.4559999999999
 31
0.0
  0
LINE
  5
174
330
1E
100
AcDbEntity
  8
0
100
AcDbLine
 10
29.5
 20
320.7889999999999
 30
0.0
 11
30.5
 21
319.9559999999999
 31
0.0
  0
LINE
  5
175
330
1E
100
AcDbEntity
  8
0
100
AcDbLine
 10
29.3333
 20
320.5389999999999
 30
0.0
 11
30.3333
 21
319.789
 31
0.0
  0
LINE
  5
176
330
1E
100
AcDbEntity
  8
0
100
AcDbLine
 10
28.6667
 20
319.372
 30
0.0
 11
29.4167
 21
318.8719999999999
 31
0.0
  0
LINE
  5
177
330
1E
100
AcDbEntity
  8
0
100
AcDbLine
 10
29.4167
 20
318.8719999999999
 30
0.0
 11
29.9167
 21
318.122
 31
0.0
  0
LINE
  5
178
330
1E
100
AcDbEntity
  8
0
100
AcDbLine
 10
30.5
 20
319.9559999999999
 30
0.0
 11
31.3333
 21
318.9559999999999
 31
0.0
  0
LINE
  5
179
330
1E
100
AcDbEntity
  8
0
100
AcDbLine
 10
30.3333
 20
319.789
 30
0.0
 11
31.0833
 21
318.7889999999999
 31
0.0
  0
LINE
  5
17A
330
1E
100
AcDbEntity
  8
0
100
AcDbLine
 10
31.3333
 20
318.9559999999999
 30
0.0
 11
31.8333
 21
317.7059999999999
 31
0.0
  0
LINE
  5
17B
330
1E
100
AcDbEntity
  8
0
100
AcDbLine
 10
31.0833
 20
318.7889999999999
 30
0.0
 11
31.5833
 21
317.7059999999999
 31
0.0
  0
LINE
  5
17C
330
1E
100
AcDbEntity
  8
0
100
AcDbLine
 10
31.5833
 20
317.7059999999999
 30
0.0
 11
31.75
 21
316.4559999999999
 31
0.0
  0
LINE
  5
17D
330
1E
100
AcDbEntity
  8
0
100
AcDbLine
 10
29.9167
 20
318.122
 30
0.0
 11
30.25
 21
317.2889999999999
 31
0.0
  0
LINE
  5
17E
330
1E
100
AcDbEntity
  8
0
100
AcDbLine
 10
30.25
 20
317.2889999999999
 30
0.0
 11
30.3333
 21
316.4559999999999
 31
0.0
  0
LINE
  5
17F
330
1E
100
AcDbEntity
  8
0
100
AcDbLine
 10
28.25
 20
321.2889999999999
 30
0.0
 11
29.5
 21
320.7889999999999
 31
0.0
  0
LINE
  5
180
330
1E
100
AcDbEntity
  8
0
100
AcDbLine
 10
30.5
 20
312.9559999999999
 30
0.0
 11
31.3333
 21
313.9559999999999
 31
0.0
  0
LINE
  5
181
330
1E
100
AcDbEntity
  8
0
100
AcDbLine
 10
30.5
 20
312.9559999999999
 30
0.0
 11
31.3333
 21
313.9559999999999
 31
0.0
  0
LINE
  5
182
330
1E
100
AcDbEntity
  8
0
100
AcDbLine
 10
31.8333
 20
315.2059999999999
 30
0.0
 11
32.0
 21
316.4559999999999
 31
0.0
  0
LINE
  5
183
330
1E
100
AcDbEntity
  8
0
100
AcDbLine
 10
31.8333
 20
317.7059999999999
 30
0.0
 11
32.0
 21
316.4559999999999
 31
0.0
  0
LINE
  5
184
330
1E
100
AcDbEntity
  8
0
100
AcDbLine
 10
39.7
 20
288.75
 30
0.0
 11
42.6
 21
288.75
 31
0.0
  0
LINE
  5
185
330
1E
100
AcDbEntity
  8
0
100
AcDbLine
 10
39.7
 20
323.2499999999999
 30
0.0
 11
42.6
 21
323.2499999999999
 31
0.0
  0
LINE
  5
186
330
1E
100
AcDbEntity
  8
0
100
AcDbLine
 10
42.6
 20
288.75
 30
0.0
 11
44.29999999999999
 21
288.75
 31
0.0
  0
LINE
  5
187
330
1E
100
AcDbEntity
  8
0
100
AcDbLine
 10
42.6
 20
323.2499999999999
 30
0.0
 11
44.29999999999999
 21
323.2499999999999
 31
0.0
  0
LINE
  5
188
330
1E
100
AcDbEntity
  8
0
100
AcDbLine
 10
35.89999999999999
 20
288.75
 30
0.0
 11
39.7
 21
288.75
 31
0.0
  0
LINE
  5
189
330
1E
100
AcDbEntity
  8
0
100
AcDbLine
 10
35.89999999999999
 20
323.2499999999999
 30
0.0
 11
39.7
 21
323.2499999999999
 31
0.0
  0
LINE
  5
18A
330
1E
100
AcDbEntity
  8
0
100
AcDbLine
 10
31.6
 20
288.75
 30
0.0
 11
35.89999999999999
 21
288.75
 31
0.0
  0
LINE
  5
18B
330
1E
100
AcDbEntity
  8
0
100
AcDbLine
 10
31.0
 20
325.75
 30
0.0
 11
34.7
 21
325.75
 31
0.0
  0
LINE
  5
18C
330
1E
100
AcDbEntity
  8
0
100
AcDbLine
 10
39.39999999999999
 20
323.75
 30
0.0
 11
42.2
 21
323.75
 31
0.0
  0
LINE
  5
18D
330
1E
100
AcDbEntity
  8
0
100
AcDbLine
 10
42.2
 20
323.75
 30
0.0
 11
43.89999999999999
 21
323.75
 31
0.0
  0
LINE
  5
18E
330
1E
100
AcDbEntity
  8
0
100
AcDbLine
 10
37.9
 20
325.75
 30
0.0
 11
40.4
 21
325.75
 31
0.0
  0
LINE
  5
18F
330
1E
100
AcDbEntity
  8
0
100
AcDbLine
 10
40.4
 20
325.75
 30
0.0
 11
41.9
 21
325.75
 31
0.0
  0
LINE
  5
190
330
1E
100
AcDbEntity
  8
0
100
AcDbLine
 10
41.9
 20
325.75
 30
0.0
 11
42.5
 21
325.75
 31
0.0
  0
LINE
  5
191
330
1E
100
AcDbEntity
  8
0
100
AcDbLine
 10
34.7
 20
325.75
 30
0.0
 11
37.9
 21
325.75
 31
0.0
  0
LINE
  5
192
330
1E
100
AcDbEntity
  8
0
100
AcDbLine
 10
35.7
 20
323.75
 30
0.0
 11
39.39999999999999
 21
323.75
 31
0.0
  0
LINE
  5
193
330
1E
100
AcDbEntity
  8
0
100
AcDbLine
 10
31.5
 20
323.75
 30
0.0
 11
35.7
 21
323.75
 31
0.0
  0
LINE
  5
194
330
1E
100
AcDbEntity
  8
0
100
AcDbLine
 10
31.6
 20
323.2499999999999
 30
0.0
 11
35.89999999999999
 21
323.2499999999999
 31
0.0
  0
LINE
  5
195
330
1E
100
AcDbEntity
  8
0
100
AcDbLine
 10
27.0
 20
323.2499999999999
 30
0.0
 11
31.6
 21
323.2499999999999
 31
0.0
  0
LINE
  5
196
330
1E
100
AcDbEntity
  8
0
100
AcDbLine
 10
42.5
 20
325.75
 30
0.0
 11
43.0
 21
325.2499999999999
 31
0.0
  0
LINE
  5
197
330
1E
100
AcDbEntity
  8
0
100
AcDbLine
 10
43.0
 20
325.2499999999999
 30
0.0
 11
43.5
 21
324.25
 31
0.0
  0
LINE
  5
198
330
1E
100
AcDbEntity
  8
0
100
AcDbLine
 10
43.0
 20
286.75
 30
0.0
 11
43.0
 21
288.75
 31
0.0
  0
LINE
  5
199
330
1E
100
AcDbEntity
  8
0
100
AcDbLine
 10
43.89999999999999
 20
286.75
 30
0.0
 11
44.5
 21
286.75
 31
0.0
  0
LINE
  5
19A
330
1E
100
AcDbEntity
  8
0
100
AcDbLine
 10
44.29999999999999
 20
286.25
 30
0.0
 11
45.0
 21
286.25
 31
0.0
  0
LINE
  5
19B
330
1E
100
AcDbEntity
  8
0
100
AcDbLine
 10
44.5
 20
286.75
 30
0.0
 11
45.0
 21
286.25
 31
0.0
  0
LINE
  5
19C
330
1E
100
AcDbEntity
  8
0
100
AcDbLine
 10
45.0
 20
286.25
 30
0.0
 11
45.0
 21
13.25
 31
0.0
  0
LINE
  5
19D
330
1E
100
AcDbEntity
  8
0
100
AcDbLine
 10
44.29999999999999
 20
288.75
 30
0.0
 11
45.0
 21
288.75
 31
0.0
  0
LINE
  5
19E
330
1E
100
AcDbEntity
  8
0
100
AcDbLine
 10
43.89999999999999
 20
323.75
 30
0.0
 11
44.5
 21
323.75
 31
0.0
  0
LINE
  5
19F
330
1E
100
AcDbEntity
  8
0
100
AcDbLine
 10
44.29999999999999
 20
323.2499999999999
 30
0.0
 11
45.0
 21
323.2499999999999
 31
0.0
  0
LINE
  5
1A0
330
1E
100
AcDbEntity
  8
0
100
AcDbLine
 10
43.5
 20
324.25
 30
0.0
 11
44.0
 21
323.75
 31
0.0
  0
LINE
  5
1A1
330
1E
100
AcDbEntity
  8
0
100
AcDbLine
 10
45.0
 20
323.2499999999999
 30
0.0
 11
45.0
 21
288.75
 31
0.0
  0
LINE
  5
1A2
330
1E
100
AcDbEntity
  8
0
100
AcDbLine
 10
44.5
 20
323.75
 30
0.0
 11
45.0
 21
323.2499999999999
 31
0.0
  0
LINE
  5
1A3
330
1E
100
AcDbEntity
  8
0
100
AcDbLine
 10
45.0
 20
288.75
 30
0.0
 11
45.0
 21
323.2499999999999
 31
0.0
  0
LINE
  5
1A4
330
1E
100
AcDbEntity
  8
0
100
AcDbLine
 10
43.0
 20
288.75
 30
0.0
 11
43.0
 21
286.75
 31
0.0
  0
LINE
  5
1A5
330
1E
100
AcDbEntity
  8
0
100
AcDbLine
 10
23.7
 20
276.75
 30
0.0
 11
27.0
 21
277.2499999999999
 31
0.0
  0
LINE
  5
1A8
330
1E
100
AcDbEntity
  8
0
100
AcDbLine
 10
23.0
 20
242.744
 30
0.0
 11
27.0
 21
242.997
 31
0.0
  0
LINE
  5
1A9
330
1E
100
AcDbEntity
  8
0
100
AcDbLine
 10
23.0
 20
242.2909999999999
 30
0.0
 11
27.0
 21
242.544
 31
0.0
  0
LINE
  5
1AA
330
1E
100
AcDbEntity
  8
0
100
AcDbLine
 10
20.1
 20
0.249999999999984
 30
0.0
 11
27.0
 21
0.249999999999984
 31
0.0
  0
LINE
  5
1AF
330
1E
100
AcDbEntity
  8
0
100
AcDbLine
 10
15.7
 20
270.75
 30
0.0
 11
14.5
 21
267.5499999999999
 31
0.0
  0
LINE
  5
1B0
330
1E
100
AcDbEntity
  8
0
100
AcDbLine
 10
33.5
 20
275.55
 30
0.0
 11
36.2
 21
273.45
 31
0.0
  0
LINE
  5
1B1
330
1E
100
AcDbEntity
  8
0
100
AcDbLine
 10
26.968368625327
 20
243.2866099910032
 30
0.0
 11
23.1
 21
243.0279999999999
 31
0.0
  0
ENDSEC
  0
SECTION
  2
OBJECTS
  0
DICTIONARY
  5
C
330
0
100
AcDbDictionary
  3
ACAD_GROUP
350
D
  3
ACAD_LAYOUT
350
19
  3
ACAD_MLINESTYLE
350
16
  3
ACAD_PLOTSETTINGS
350
18
  3
ACAD_PLOTSTYLENAME
350
E
  3
ACDBHEADERROUNDTRIPXREC
350
1B5
  3
ACDBVARIABLEDICTIONARY
350
1B2
  0
DICTIONARY
  5
1D7
330
1E
100
AcDbDictionary
280
     1
  3
ACAD_LAYOUTSELFREF
360
1D8
  0
DICTIONARY
  5
1D5
330
1A
100
AcDbDictionary
280
     1
  3
ACAD_LAYOUTSELFREF
360
1D6
  0
DICTIONARY
  5
D
102
{ACAD_REACTORS
330
C
102
}
330
C
100
AcDbDictionary
  0
DICTIONARY
  5
19
102
{ACAD_REACTORS
330
C
102
}
330
C
100
AcDbDictionary
  0
DICTIONARY
  5
16
102
{ACAD_REACTORS
330
C
102
}
330
C
100
AcDbDictionary
  3
STANDARD
350
17
  0
DICTIONARY
  5
18
102
{ACAD_REACTORS
330
C
102
}
330
C
100
AcDbDictionary
  0
ACDBDICTIONARYWDFLT
  5
E
102
{ACAD_REACTORS
330
C
102
}
330
C
100
AcDbDictionary
281
     1
  3
Normal
350
F
100
AcDbDictionaryWithDefault
340
F
  0
DICTIONARY
  5
1B5
102
{ACAD_REACTORS
330
C
102
}
330
C
100
AcDbDictionary
  3
CEPSNTYPE
350
1BF
  3
FINGERPRINTGUID
350
1C0
  3
HYPERLINKBASE
350
1B8
  3
INSUNITS
350
1BE
  3
LAYOUTDICT
350
1BA
  3
LWETCUNION
350
1BD
  3
PLOTSETDICT
350
1BB
  3
PLOTSTYLNAMDICT
350
1BC
  3
PSVPSCALE
350
1C2
  3
PUCSBASE
350
1C5
  3
PUCSORGBACK
350
1CB
  3
PUCSORGBOTTOM
350
1C7
  3
PUCSORGFRONT
350
1CA
  3
PUCSORGLEFT
350
1C8
  3
PUCSORGRIGHT
350
1C9
  3
PUCSORGTOP
350
1C6
  3
PUCSORTHOREF
350
1C3
  3
PUCSORTHOVIEW
350
1C4
  3
STYLESHEET
350
1B9
  3
TSTACKALIGN
350
1B6
  3
TSTACKSIZE
350
1B7
  3
UCSBASE
350
1CE
  3
UCSORGBACK
350
1D4
  3
UCSORGBOTTOM
350
1D0
  3
UCSORGFRONT
350
1D3
  3
UCSORGLEFT
350
1D1
  3
UCSORGRIGHT
350
1D2
  3
UCSORGTOP
350
1CF
  3
UCSORTHOREF
350
1CC
  3
UCSORTHOVIEW
350
1CD
  3
VERSIONGUID
350
1C1
  0
DICTIONARY
  5
1B2
102
{ACAD_REACTORS
330
C
102
}
330
C
100
AcDbDictionary
  3
DIMASSOC
350
1B3
  0
XRECORD
  5
1D8
102
{ACAD_REACTORS
330
1D7
102
}
330
1D7
100
AcDbXrecord
340
1E
  0
XRECORD
  5
1D6
102
{ACAD_REACTORS
330
1D5
102
}
330
1D5
100
AcDbXrecord
340
1A
  0
MLINESTYLE
  5
17
102
{ACAD_REACTORS
330
16
102
}
330
16
100
AcDbMlineStyle
  2
STANDARD
 70
     0
  3

 62
   256
 51
90.0
 52
90.0
 71
     2
 49
0.5
 62
   256
  6
BYLAYER
 49
-0.5
 62
   256
  6
BYLAYER
  0
ACDBPLACEHOLDER
  5
F
102
{ACAD_REACTORS
330
E
102
}
330
E
100
AcDbPlaceHolder
280
     0
  0
XRECORD
  5
1BF
102
{ACAD_REACTORS
330
1B5
102
}
330
1B5
100
AcDbXrecord
 90
        0
  0
XRECORD
  5
1C0
102
{ACAD_REACTORS
330
1B5
102
}
330
1B5
100
AcDbXrecord
  1
{5C52CB7B-DD1D-44D6-9EE0-B590E8879A60}
  0
XRECORD
  5
1B8
102
{ACAD_REACTORS
330
1B5
102
}
330
1B5
100
AcDbXrecord
  1

  0
XRECORD
  5
1BE
102
{ACAD_REACTORS
330
1B5
102
}
330
1B5
100
AcDbXrecord
 90
        0
  0
XRECORD
  5
1BA
102
{ACAD_REACTORS
330
1B5
102
}
330
1B5
100
AcDbXrecord
340
19
  0
XRECORD
  5
1BD
102
{ACAD_REACTORS
330
1B5
102
}
330
1B5
100
AcDbXrecord
 90
    10781
  0
XRECORD
  5
1BB
102
{ACAD_REACTORS
330
1B5
102
}
330
1B5
100
AcDbXrecord
340
18
  0
XRECORD
  5
1BC
102
{ACAD_REACTORS
330
1B5
102
}
330
1B5
100
AcDbXrecord
340
E
  0
XRECORD
  5
1C2
102
{ACAD_REACTORS
330
1B5
102
}
330
1B5
100
AcDbXrecord
 40
0.0
  0
XRECORD
  5
1C5
102
{ACAD_REACTORS
330
1B5
102
}
330
1B5
100
AcDbXrecord
340
0
  0
XRECORD
  5
1CB
102
{ACAD_REACTORS
330
1B5
102
}
330
1B5
100
AcDbXrecord
 10
0.0
 20
0.0
 30
0.0
  0
XRECORD
  5
1C7
102
{ACAD_REACTORS
330
1B5
102
}
330
1B5
100
AcDbXrecord
 10
0.0
 20
0.0
 30
0.0
  0
XRECORD
  5
1CA
102
{ACAD_REACTORS
330
1B5
102
}
330
1B5
100
AcDbXrecord
 10
0.0
 20
0.0
 30
0.0
  0
XRECORD
  5
1C8
102
{ACAD_REACTORS
330
1B5
102
}
330
1B5
100
AcDbXrecord
 10
0.0
 20
0.0
 30
0.0
  0
XRECORD
  5
1C9
102
{ACAD_REACTORS
330
1B5
102
}
330
1B5
100
AcDbXrecord
 10
0.0
 20
0.0
 30
0.0
  0
XRECORD
  5
1C6
102
{ACAD_REACTORS
330
1B5
102
}
330
1B5
100
AcDbXrecord
 10
0.0
 20
0.0
 30
0.0
  0
XRECORD
  5
1C3
102
{ACAD_REACTORS
330
1B5
102
}
330
1B5
100
AcDbXrecord
340
0
  0
XRECORD
  5
1C4
102
{ACAD_REACTORS
330
1B5
102
}
330
1B5
100
AcDbXrecord
 70
     0
  0
XRECORD
  5
1B9
102
{ACAD_REACTORS
330
1B5
102
}
330
1B5
100
AcDbXrecord
  1

  0
XRECORD
  5
1B6
102
{ACAD_REACTORS
330
1B5
102
}
330
1B5
100
AcDbXrecord
 90
        1
  0
XRECORD
  5
1B7
102
{ACAD_REACTORS
330
1B5
102
}
330
1B5
100
AcDbXrecord
 90
       70
  0
XRECORD
  5
1CE
102
{ACAD_REACTORS
330
1B5
102
}
330
1B5
100
AcDbXrecord
340
0
  0
XRECORD
  5
1D4
102
{ACAD_REACTORS
330
1B5
102
}
330
1B5
100
AcDbXrecord
 10
0.0
 20
0.0
 30
0.0
  0
XRECORD
  5
1D0
102
{ACAD_REACTORS
330
1B5
102
}
330
1B5
100
AcDbXrecord
 10
0.0
 20
0.0
 30
0.0
  0
XRECORD
  5
1D3
102
{ACAD_REACTORS
330
1B5
102
}
330
1B5
100
AcDbXrecord
 10
0.0
 20
0.0
 30
0.0
  0
XRECORD
  5
1D1
102
{ACAD_REACTORS
330
1B5
102
}
330
1B5
100
AcDbXrecord
 10
0.0
 20
0.0
 30
0.0
  0
XRECORD
  5
1D2
102
{ACAD_REACTORS
330
1B5
102
}
330
1B5
100
AcDbXrecord
 10
0.0
 20
0.0
 30
0.0
  0
XRECORD
  5
1CF
102
{ACAD_REACTORS
330
1B5
102
}
330
1B5
100
AcDbXrecord
 10
0.0
 20
0.0
 30
0.0
  0
XRECORD
  5
1CC
102
{ACAD_REACTORS
330
1B5
102
}
330
1B5
100
AcDbXrecord
340
0
  0
XRECORD
  5
1CD
102
{ACAD_REACTORS
330
1B5
102
}
330
1B5
100
AcDbXrecord
 70
     1
  0
XRECORD
  5
1C1
102
{ACAD_REACTORS
330
1B5
102
}
330
1B5
100
AcDbXrecord
  1
{C62E8FDB-FD93-4F4A-924F-5562314EE6C2}
  0
DICTIONARYVAR
  5
1B3
102
{ACAD_REACTORS
330
1B2
102
}
330
1B2
100
DictionaryVariables
280
     0
  1
1
  0
ENDSEC
  0
EOF
