  0
SECTION
  2
HEADER
  9
$ACADVER
  1
AC1014
  9
$ACADMAINTVER
 70
     9
  9
$DWGCODEPAGE
  3
ANSI_1252
  9
$INSBASE
 10
0.0
 20
0.0
 30
0.0
  9
$EXTMIN
 10
-0.242092999999993
 20
0.249999999999989
 30
0.0
  9
$EXTMAX
 10
140.2420929999999
 20
175.75
 30
0.0
  9
$LIMMIN
 10
0.0
 20
0.0
  9
$LIMMAX
 10
12.0
 20
9.0
  9
$ORTHOMODE
 70
     0
  9
$REGENMODE
 70
     1
  9
$FILLMODE
 70
     1
  9
$QTEXTMODE
 70
     0
  9
$MIRRTEXT
 70
     1
  9
$DRAGMODE
 70
     2
  9
$LTSCALE
 40
1.0
  9
$OSMODE
 70
    37
  9
$ATTMODE
 70
     1
  9
$TEXTSIZE
 40
0.2
  9
$TRACEWID
 40
0.05
  9
$TEXTSTYLE
  7
STANDARD
  9
$CLAYER
  8
0
  9
$CELTYPE
  6
CONTINUOUS
  9
$CECOLOR
 62
   256
  9
$CELTSCALE
 40
1.0
  9
$DELOBJ
 70
     1
  9
$DISPSILH
 70
     0
  9
$DIMSCALE
 40
1.0
  9
$DIMASZ
 40
0.18
  9
$DIMEXO
 40
0.0625
  9
$DIMDLI
 40
0.38
  9
$DIMRND
 40
0.0
  9
$DIMDLE
 40
0.0
  9
$DIMEXE
 40
0.18
  9
$DIMTP
 40
0.0
  9
$DIMTM
 40
0.0
  9
$DIMTXT
 40
0.18
  9
$DIMCEN
 40
0.09
  9
$DIMTSZ
 40
0.0
  9
$DIMTOL
 70
     0
  9
$DIMLIM
 70
     0
  9
$DIMTIH
 70
     1
  9
$DIMTOH
 70
     1
  9
$DIMSE1
 70
     0
  9
$DIMSE2
 70
     0
  9
$DIMTAD
 70
     0
  9
$DIMZIN
 70
     0
  9
$DIMBLK
  1

  9
$DIMASO
 70
     1
  9
$DIMSHO
 70
     1
  9
$DIMPOST
  1

  9
$DIMAPOST
  1

  9
$DIMALT
 70
     0
  9
$DIMALTD
 70
     2
  9
$DIMALTF
 40
25.4
  9
$DIMLFAC
 40
1.0
  9
$DIMTOFL
 70
     0
  9
$DIMTVP
 40
0.0
  9
$DIMTIX
 70
     0
  9
$DIMSOXD
 70
     0
  9
$DIMSAH
 70
     0
  9
$DIMBLK1
  1

  9
$DIMBLK2
  1

  9
$DIMSTYLE
  2
STANDARD
  9
$DIMCLRD
 70
     0
  9
$DIMCLRE
 70
     0
  9
$DIMCLRT
 70
     0
  9
$DIMTFAC
 40
1.0
  9
$DIMGAP
 40
0.09
  9
$DIMJUST
 70
     0
  9
$DIMSD1
 70
     0
  9
$DIMSD2
 70
     0
  9
$DIMTOLJ
 70
     1
  9
$DIMTZIN
 70
     0
  9
$DIMALTZ
 70
     0
  9
$DIMALTTZ
 70
     0
  9
$DIMFIT
 70
     3
  9
$DIMUPT
 70
     0
  9
$DIMUNIT
 70
     2
  9
$DIMDEC
 70
     4
  9
$DIMTDEC
 70
     4
  9
$DIMALTU
 70
     2
  9
$DIMALTTD
 70
     2
  9
$DIMTXSTY
  7
STANDARD
  9
$DIMAUNIT
 70
     0
  9
$LUNITS
 70
     2
  9
$LUPREC
 70
     4
  9
$SKETCHINC
 40
0.1
  9
$FILLETRAD
 40
0.0
  9
$AUNITS
 70
     0
  9
$AUPREC
 70
     0
  9
$MENU
  1
.
  9
$ELEVATION
 40
0.0
  9
$PELEVATION
 40
0.0
  9
$THICKNESS
 40
0.0
  9
$LIMCHECK
 70
     0
  9
$BLIPMODE
 70
     0
  9
$CHAMFERA
 40
0.0
  9
$CHAMFERB
 40
0.0
  9
$CHAMFERC
 40
0.0
  9
$CHAMFERD
 40
0.0
  9
$SKPOLY
 70
     0
  9
$TDCREATE
 40
2454698.382683738
  9
$TDUPDATE
 40
2454698.383840602
  9
$TDINDWG
 40
0.0011568634
  9
$TDUSRTIMER
 40
0.0011568634
  9
$USRTIMER
 70
     1
  9
$ANGBASE
 50
0.0
  9
$ANGDIR
 70
     0
  9
$PDMODE
 70
     0
  9
$PDSIZE
 40
0.0
  9
$PLINEWID
 40
0.0
  9
$COORDS
 70
     1
  9
$SPLFRAME
 70
     0
  9
$SPLINETYPE
 70
     6
  9
$SPLINESEGS
 70
     8
  9
$ATTDIA
 70
     0
  9
$ATTREQ
 70
     1
  9
$HANDLING
 70
 22529
  9
$HANDSEED
  5
27D
  9
$SURFTAB1
 70
     6
  9
$SURFTAB2
 70
     6
  9
$SURFTYPE
 70
     6
  9
$SURFU
 70
     6
  9
$SURFV
 70
     6
  9
$UCSNAME
  2

  9
$UCSORG
 10
0.0
 20
0.0
 30
0.0
  9
$UCSXDIR
 10
1.0
 20
0.0
 30
0.0
  9
$UCSYDIR
 10
0.0
 20
1.0
 30
0.0
  9
$PUCSNAME
  2

  9
$PUCSORG
 10
0.0
 20
0.0
 30
0.0
  9
$PUCSXDIR
 10
1.0
 20
0.0
 30
0.0
  9
$PUCSYDIR
 10
0.0
 20
1.0
 30
0.0
  9
$USERI1
 70
     0
  9
$USERI2
 70
     0
  9
$USERI3
 70
     0
  9
$USERI4
 70
     0
  9
$USERI5
 70
     0
  9
$USERR1
 40
0.0
  9
$USERR2
 40
0.0
  9
$USERR3
 40
0.0
  9
$USERR4
 40
0.0
  9
$USERR5
 40
0.0
  9
$WORLDVIEW
 70
     1
  9
$SHADEDGE
 70
     3
  9
$SHADEDIF
 70
    70
  9
$TILEMODE
 70
     1
  9
$MAXACTVP
 70
    64
  9
$PINSBASE
 10
0.0
 20
0.0
 30
0.0
  9
$PLIMCHECK
 70
     0
  9
$PEXTMIN
 10
1.000000000000000E+20
 20
1.000000000000000E+20
 30
1.000000000000000E+20
  9
$PEXTMAX
 10
-1.000000000000000E+20
 20
-1.000000000000000E+20
 30
-1.000000000000000E+20
  9
$PLIMMIN
 10
0.0
 20
0.0
  9
$PLIMMAX
 10
12.0
 20
9.0
  9
$UNITMODE
 70
     0
  9
$VISRETAIN
 70
     1
  9
$PLINEGEN
 70
     0
  9
$PSLTSCALE
 70
     1
  9
$TREEDEPTH
 70
  3020
  9
$PICKSTYLE
 70
     1
  9
$CMLSTYLE
  2
STANDARD
  9
$CMLJUST
 70
     0
  9
$CMLSCALE
 40
1.0
  9
$PROXYGRAPHICS
 70
     1
  9
$MEASUREMENT
 70
     0
  0
ENDSEC
  0
SECTION
  2
CLASSES
  0
CLASS
  1
ACDBDICTIONARYWDFLT
  2
AcDbDictionaryWithDefault
  3
AutoCAD 2000
 90
        0
280
     0
281
     0
  0
CLASS
  1
ACDBPLACEHOLDER
  2
AcDbPlaceHolder
  3
AutoCAD 2000
 90
        0
280
     0
281
     0
  0
CLASS
  1
LAYOUT
  2
AcDbLayout
  3
AutoCAD 2000
 90
        0
280
     0
281
     0
  0
CLASS
  1
DICTIONARYVAR
  2
AcDbDictionaryVar
  3
AutoCAD 2000
 90
        0
280
     0
281
     0
  0
CLASS
  1
LONG_TRANSACTION
  2
AcDbLongTransaction
  3
AutoCAD 2000
 90
        0
280
     0
281
     0
  0
CLASS
  1
LWPOLYLINE
  2
AcDbPolyline
  3
AutoCAD 2000
 90
        0
280
     0
281
     1
  0
CLASS
  1
HATCH
  2
AcDbHatch
  3
AutoCAD 2000
 90
        0
280
     0
281
     1
  0
CLASS
  1
XRECORD
  2
AcDbXrecord
  3
AutoCAD 2000
 90
        0
280
     0
281
     0
  0
ENDSEC
  0
SECTION
  2
TABLES
  0
TABLE
  2
VPORT
  5
8
330
0
100
AcDbSymbolTable
 70
     2
  0
VPORT
  5
258
330
8
100
AcDbSymbolTableRecord
100
AcDbViewportTableRecord
  2
*ACTIVE
 70
     0
 10
0.0
 20
0.0
 11
1.0
 21
1.0
 12
69.99999999999999
 22
87.99999999999998
 13
0.0
 23
0.0
 14
1.0
 24
1.0
 15
0.0
 25
0.0
 16
0.0
 26
0.0
 36
1.0
 17
0.0
 27
0.0
 37
0.0
 40
176.846547314578
 41
2.078104993597951
 42
50.0
 43
0.0
 44
0.0
 50
0.0
 51
0.0
 71
     0
 72
   100
 73
     1
 74
     3
 75
     0
 76
     0
 77
     0
 78
     0
  0
ENDTAB
  0
TABLE
  2
LTYPE
  5
5
330
0
100
AcDbSymbolTable
 70
     1
  0
LTYPE
  5
13
330
5
100
AcDbSymbolTableRecord
100
AcDbLinetypeTableRecord
  2
BYBLOCK
 70
     0
  3

 72
    65
 73
     0
 40
0.0
  0
LTYPE
  5
14
330
5
100
AcDbSymbolTableRecord
100
AcDbLinetypeTableRecord
  2
BYLAYER
 70
     0
  3

 72
    65
 73
     0
 40
0.0
  0
LTYPE
  5
15
330
5
100
AcDbSymbolTableRecord
100
AcDbLinetypeTableRecord
  2
CONTINUOUS
 70
     0
  3
Solid line
 72
    65
 73
     0
 40
0.0
  0
ENDTAB
  0
TABLE
  2
LAYER
  5
2
330
0
100
AcDbSymbolTable
 70
     1
  0
LAYER
  5
10
330
2
100
AcDbSymbolTableRecord
100
AcDbLayerTableRecord
  2
0
 70
     0
 62
     7
  6
CONTINUOUS
  0
ENDTAB
  0
TABLE
  2
STYLE
  5
3
330
0
100
AcDbSymbolTable
 70
     1
  0
STYLE
  5
11
330
3
100
AcDbSymbolTableRecord
100
AcDbTextStyleTableRecord
  2
STANDARD
 70
     0
 40
0.0
 41
1.0
 50
0.0
 71
     0
 42
0.2
  3
txt
  4

  0
ENDTAB
  0
TABLE
  2
VIEW
  5
6
330
0
100
AcDbSymbolTable
 70
     0
  0
ENDTAB
  0
TABLE
  2
UCS
  5
7
330
0
100
AcDbSymbolTable
 70
     0
  0
ENDTAB
  0
TABLE
  2
APPID
  5
9
330
0
100
AcDbSymbolTable
 70
     1
  0
APPID
  5
12
330
9
100
AcDbSymbolTableRecord
100
AcDbRegAppTableRecord
  2
ACAD
 70
     0
  0
ENDTAB
  0
TABLE
  2
DIMSTYLE
  5
A
330
0
100
AcDbSymbolTable
 70
     1
  0
DIMSTYLE
105
252
330
A
100
AcDbSymbolTableRecord
100
AcDbDimStyleTableRecord
  2
STANDARD
 70
     0
  3

  4

  5

  6

  7

 40
1.0
 41
0.18
 42
0.0625
 43
0.38
 44
0.18
 45
0.0
 46
0.0
 47
0.0
 48
0.0
140
0.18
141
0.09
142
0.0
143
25.4
144
1.0
145
0.0
146
1.0
147
0.09
 71
     0
 72
     0
 73
     1
 74
     1
 75
     0
 76
     0
 77
     0
 78
     0
170
     0
171
     2
172
     0
173
     0
174
     0
175
     0
176
     0
177
     0
178
     0
270
     2
271
     4
272
     4
273
     2
274
     2
340
11
275
     0
280
     0
281
     0
282
     0
283
     1
284
     0
285
     0
286
     0
287
     3
288
     0
  0
ENDTAB
  0
TABLE
  2
BLOCK_RECORD
  5
1
330
0
100
AcDbSymbolTable
 70
     0
  0
BLOCK_RECORD
  5
1E
102
{ACAD_XDICTIONARY
360
27B
102
}
330
1
100
AcDbSymbolTableRecord
100
AcDbBlockTableRecord
  2
*MODEL_SPACE
  0
BLOCK_RECORD
  5
1A
102
{ACAD_XDICTIONARY
360
279
102
}
330
1
100
AcDbSymbolTableRecord
100
AcDbBlockTableRecord
  2
*PAPER_SPACE
  0
ENDTAB
  0
ENDSEC
  0
SECTION
  2
BLOCKS
  0
BLOCK
  5
1F
330
1E
100
AcDbEntity
  8
0
100
AcDbBlockBegin
  2
*MODEL_SPACE
 70
     0
 10
0.0
 20
0.0
 30
0.0
  3
*MODEL_SPACE
  1

  0
ENDBLK
  5
20
330
1E
100
AcDbEntity
  8
0
100
AcDbBlockEnd
  0
BLOCK
  5
1B
330
1A
100
AcDbEntity
 67
     1
  8
0
100
AcDbBlockBegin
  2
*PAPER_SPACE
 70
     0
 10
0.0
 20
0.0
 30
0.0
  3
*PAPER_SPACE
  1

  0
ENDBLK
  5
1C
330
1A
100
AcDbEntity
 67
     1
  8
0
100
AcDbBlockEnd
  0
ENDSEC
  0
SECTION
  2
ENTITIES
  0
LINE
  5
22
330
1E
100
AcDbEntity
  8
0
100
AcDbLine
 10
113.0430929999999
 20
0.249999999999991
 30
0.0
 11
119.9430929999999
 21
0.24999999999999
 31
0.0
  0
LINE
  5
23
330
1E
100
AcDbEntity
  8
0
100
AcDbLine
 10
87.043093
 20
0.7499999999999921
 30
0.0
 11
89.64309300000001
 21
0.7499999999999921
 31
0.0
  0
LINE
  5
24
330
1E
100
AcDbEntity
  8
0
100
AcDbLine
 10
86.043093
 20
0.7499999999999921
 30
0.0
 11
88.04309299999999
 21
1.749999999999989
 31
0.0
  0
LINE
  5
25
330
1E
100
AcDbEntity
  8
0
100
AcDbLine
 10
86.043093
 20
0.7499999999999921
 30
0.0
 11
86.043093
 21
0.249999999999992
 31
0.0
  0
LINE
  5
26
330
1E
100
AcDbEntity
  8
0
100
AcDbLine
 10
86.043093
 20
0.7499999999999921
 30
0.0
 11
87.043093
 21
0.7499999999999921
 31
0.0
  0
LINE
  5
27
330
1E
100
AcDbEntity
  8
0
100
AcDbLine
 10
86.043093
 20
0.249999999999992
 30
0.0
 11
86.043093
 21
0.7499999999999921
 31
0.0
  0
LINE
  5
28
330
1E
100
AcDbEntity
  8
0
100
AcDbLine
 10
86.043093
 20
0.249999999999992
 30
0.0
 11
87.043093
 21
0.249999999999992
 31
0.0
  0
LINE
  5
29
330
1E
100
AcDbEntity
  8
0
100
AcDbLine
 10
89.64309300000001
 20
0.249999999999992
 30
0.0
 11
94.04309299999999
 21
0.249999999999992
 31
0.0
  0
LINE
  5
2A
330
1E
100
AcDbEntity
  8
0
100
AcDbLine
 10
94.04309299999999
 20
0.249999999999992
 30
0.0
 11
99.64309300000001
 21
0.249999999999991
 31
0.0
  0
LINE
  5
2B
330
1E
100
AcDbEntity
  8
0
100
AcDbLine
 10
99.64309300000001
 20
0.249999999999991
 30
0.0
 11
106.1430929999999
 21
0.249999999999991
 31
0.0
  0
LINE
  5
2C
330
1E
100
AcDbEntity
  8
0
100
AcDbLine
 10
119.9430929999999
 20
0.7499999999999901
 30
0.0
 11
126.4430929999999
 21
0.7499999999999901
 31
0.0
  0
LINE
  5
2D
330
1E
100
AcDbEntity
  8
0
100
AcDbLine
 10
89.64309300000001
 20
0.7499999999999921
 30
0.0
 11
94.04309299999999
 21
0.7499999999999921
 31
0.0
  0
LINE
  5
2E
330
1E
100
AcDbEntity
  8
0
100
AcDbLine
 10
94.04309299999999
 20
0.7499999999999921
 30
0.0
 11
99.64309300000001
 21
0.749999999999991
 31
0.0
  0
LINE
  5
2F
330
1E
100
AcDbEntity
  8
0
100
AcDbLine
 10
99.64309300000001
 20
0.749999999999991
 30
0.0
 11
106.1430929999999
 21
0.749999999999991
 31
0.0
  0
LINE
  5
30
330
1E
100
AcDbEntity
  8
0
100
AcDbLine
 10
106.1430929999999
 20
0.749999999999991
 30
0.0
 11
113.0430929999999
 21
0.749999999999991
 31
0.0
  0
LINE
  5
31
330
1E
100
AcDbEntity
  8
0
100
AcDbLine
 10
113.0430929999999
 20
0.749999999999991
 30
0.0
 11
119.9430929999999
 21
0.7499999999999901
 31
0.0
  0
LINE
  5
32
330
1E
100
AcDbEntity
  8
0
100
AcDbLine
 10
87.043093
 20
0.249999999999992
 30
0.0
 11
89.64309300000001
 21
0.249999999999992
 31
0.0
  0
LINE
  5
33
330
1E
100
AcDbEntity
  8
0
100
AcDbLine
 10
106.1430929999999
 20
0.249999999999991
 30
0.0
 11
113.0430929999999
 21
0.249999999999991
 31
0.0
  0
LINE
  5
34
330
1E
100
AcDbEntity
  8
0
100
AcDbLine
 10
126.4430929999999
 20
0.24999999999999
 30
0.0
 11
132.043093
 21
0.249999999999989
 31
0.0
  0
LINE
  5
35
330
1E
100
AcDbEntity
  8
0
100
AcDbLine
 10
126.4430929999999
 20
0.7499999999999901
 30
0.0
 11
132.043093
 21
0.749999999999989
 31
0.0
  0
LINE
  5
36
330
1E
100
AcDbEntity
  8
0
100
AcDbLine
 10
132.043093
 20
0.749999999999989
 30
0.0
 11
136.443093
 21
0.749999999999989
 31
0.0
  0
LINE
  5
37
330
1E
100
AcDbEntity
  8
0
100
AcDbLine
 10
136.443093
 20
0.749999999999989
 30
0.0
 11
139.0430929999999
 21
0.749999999999989
 31
0.0
  0
LINE
  5
38
330
1E
100
AcDbEntity
  8
0
100
AcDbLine
 10
139.0430929999999
 20
0.749999999999989
 30
0.0
 11
140.0430929999999
 21
0.749999999999989
 31
0.0
  0
LINE
  5
39
330
1E
100
AcDbEntity
  8
0
100
AcDbLine
 10
132.043093
 20
0.249999999999989
 30
0.0
 11
136.443093
 21
0.249999999999989
 31
0.0
  0
LINE
  5
3A
330
1E
100
AcDbEntity
  8
0
100
AcDbLine
 10
136.443093
 20
0.249999999999989
 30
0.0
 11
139.0430929999999
 21
0.249999999999989
 31
0.0
  0
LINE
  5
3B
330
1E
100
AcDbEntity
  8
0
100
AcDbLine
 10
119.9430929999999
 20
0.24999999999999
 30
0.0
 11
126.4430929999999
 21
0.24999999999999
 31
0.0
  0
LINE
  5
3C
330
1E
100
AcDbEntity
  8
0
100
AcDbLine
 10
88.04309299999999
 20
1.749999999999989
 30
0.0
 11
92.043093
 21
5.24999999999999
 31
0.0
  0
LINE
  5
3D
330
1E
100
AcDbEntity
  8
0
100
AcDbLine
 10
92.043093
 20
5.24999999999999
 30
0.0
 11
93.543093
 21
7.74999999999999
 31
0.0
  0
LINE
  5
3E
330
1E
100
AcDbEntity
  8
0
100
AcDbLine
 10
88.04309299999999
 20
1.749999999999989
 30
0.0
 11
92.043093
 21
5.24999999999999
 31
0.0
  0
LINE
  5
3F
330
1E
100
AcDbEntity
  8
0
100
AcDbLine
 10
95.043093
 20
13.25
 30
0.0
 11
95.043093
 21
100.4166666666669
 31
0.0
  0
LINE
  5
40
330
1E
100
AcDbEntity
  8
0
100
AcDbLine
 10
94.543093
 20
10.25
 30
0.0
 11
95.043093
 21
13.25
 31
0.0
  0
LINE
  5
41
330
1E
100
AcDbEntity
  8
0
100
AcDbLine
 10
93.543093
 20
7.74999999999999
 30
0.0
 11
94.543093
 21
10.25
 31
0.0
  0
LINE
  5
42
330
1E
100
AcDbEntity
  8
0
100
AcDbLine
 10
128.6430929999999
 20
40.8268133033795
 30
0.0
 11
130.008574624821
 21
43.5594970758743
 31
0.0
  0
LINE
  5
43
330
1E
100
AcDbEntity
  8
0
100
AcDbLine
 10
95.043093
 20
13.25
 30
0.0
 11
95.043093
 21
100.4166666666669
 31
0.0
  0
LINE
  5
44
330
1E
100
AcDbEntity
  8
0
100
AcDbLine
 10
-0.0002479999999931
 20
91.8796
 30
0.0
 11
0.6947530000000072
 21
91.00379999999999
 31
0.0
  0
LINE
  5
45
330
1E
100
AcDbEntity
  8
0
100
AcDbLine
 10
0.966663000000006
 20
86.6974
 30
0.0
 11
1.100893000000009
 21
86.3038
 31
0.0
  0
LINE
  5
46
330
1E
100
AcDbEntity
  8
0
100
AcDbLine
 10
0.966663000000006
 20
86.6974
 30
0.0
 11
1.35818300000001
 21
86.51479999999999
 31
0.0
  0
LINE
  5
47
330
1E
100
AcDbEntity
  8
0
100
AcDbLine
 10
0.966663000000006
 20
86.6974
 30
0.0
 11
2.56755137894323
 21
90.13056932376001
 31
0.0
  0
LINE
  5
48
330
1E
100
AcDbEntity
  8
0
100
AcDbLine
 10
4.233093000000009
 20
84.8432
 30
0.0
 11
6.451733000000009
 21
83.80869999999999
 31
0.0
  0
LINE
  5
49
330
1E
100
AcDbEntity
  8
0
100
AcDbLine
 10
6.448013000000009
 20
84.14140000000001
 30
0.0
 11
9.058193000000009
 21
82.92430000000001
 31
0.0
  0
LINE
  5
4A
330
1E
100
AcDbEntity
  8
0
100
AcDbLine
 10
4.142363000000009
 20
85.2166
 30
0.0
 11
6.448013000000009
 21
84.14140000000001
 31
0.0
  0
LINE
  5
4B
330
1E
100
AcDbEntity
  8
0
100
AcDbLine
 10
22.330293
 20
76.40439999999999
 30
0.0
 11
22.718093
 21
76.55459999999999
 31
0.0
  0
LINE
  5
4C
330
1E
100
AcDbEntity
  8
0
100
AcDbLine
 10
16.97939299999999
 20
78.8995
 30
0.0
 11
19.198093
 21
77.865
 31
0.0
  0
LINE
  5
4D
330
1E
100
AcDbEntity
  8
0
100
AcDbLine
 10
19.198093
 20
77.865
 30
0.0
 11
20.894693
 21
77.0738
 31
0.0
  0
LINE
  5
4E
330
1E
100
AcDbEntity
  8
0
100
AcDbLine
 10
17.236693
 20
79.1106
 30
0.0
 11
19.542393
 21
78.03539999999999
 31
0.0
  0
LINE
  5
4F
330
1E
100
AcDbEntity
  8
0
100
AcDbLine
 10
19.542393
 20
78.03539999999999
 30
0.0
 11
21.28249299999999
 21
77.22399999999999
 31
0.0
  0
LINE
  5
50
330
1E
100
AcDbEntity
  8
0
100
AcDbLine
 10
8.974893000000008
 20
82.63209999999999
 30
0.0
 11
11.71559299999999
 21
81.3541
 31
0.0
  0
LINE
  5
51
330
1E
100
AcDbEntity
  8
0
100
AcDbLine
 10
9.058193000000009
 20
82.92430000000001
 30
0.0
 11
11.84239299999999
 21
81.62600000000001
 31
0.0
  0
LINE
  5
52
330
1E
100
AcDbEntity
  8
0
100
AcDbLine
 10
20.78429299999999
 20
82.7393
 30
0.0
 11
23.68439299999999
 21
81.387
 31
0.0
  0
LINE
  5
53
330
1E
100
AcDbEntity
  8
0
100
AcDbLine
 10
17.64219299999999
 20
84.75620000000001
 30
0.0
 11
20.995593
 21
83.1925
 31
0.0
  0
LINE
  5
54
330
1E
100
AcDbEntity
  8
0
100
AcDbLine
 10
17.43089299999999
 20
84.303
 30
0.0
 11
20.78429299999999
 21
82.7393
 31
0.0
  0
LINE
  5
55
330
1E
100
AcDbEntity
  8
0
100
AcDbLine
 10
11.84239299999999
 20
81.62600000000001
 30
0.0
 11
14.62649299999999
 21
80.32769999999999
 31
0.0
  0
LINE
  5
56
330
1E
100
AcDbEntity
  8
0
100
AcDbLine
 10
14.62649299999999
 20
80.32769999999999
 30
0.0
 11
17.236693
 21
79.1106
 31
0.0
  0
LINE
  5
57
330
1E
100
AcDbEntity
  8
0
100
AcDbLine
 10
11.71559299999999
 20
81.3541
 30
0.0
 11
14.45619299999999
 21
80.07609999999999
 31
0.0
  0
LINE
  5
58
330
1E
100
AcDbEntity
  8
0
100
AcDbLine
 10
14.45619299999999
 20
80.07609999999999
 30
0.0
 11
16.97939299999999
 21
78.8995
 31
0.0
  0
LINE
  5
59
330
1E
100
AcDbEntity
  8
0
100
AcDbLine
 10
21.938693
 20
76.587
 30
0.0
 11
22.330293
 21
76.40439999999999
 31
0.0
  0
LINE
  5
5A
330
1E
100
AcDbEntity
  8
0
100
AcDbLine
 10
20.995593
 20
83.1925
 30
0.0
 11
23.89569299999999
 21
81.8401
 31
0.0
  0
LINE
  5
5B
330
1E
100
AcDbEntity
  8
0
100
AcDbLine
 10
23.89569299999999
 20
81.8401
 30
0.0
 11
26.161493
 21
80.78360000000001
 31
0.0
  0
LINE
  5
5C
330
1E
100
AcDbEntity
  8
0
100
AcDbLine
 10
23.68439299999999
 20
81.387
 30
0.0
 11
25.950193
 21
80.33039999999999
 31
0.0
  0
LINE
  5
5D
330
1E
100
AcDbEntity
  8
0
100
AcDbLine
 10
21.28249299999999
 20
77.22399999999999
 30
0.0
 11
22.32649299999999
 21
76.73709999999999
 31
0.0
  0
LINE
  5
5E
330
1E
100
AcDbEntity
  8
0
100
AcDbLine
 10
22.32649299999999
 20
76.73709999999999
 30
0.0
 11
22.718093
 21
76.55459999999999
 31
0.0
  0
LINE
  5
5F
330
1E
100
AcDbEntity
  8
0
100
AcDbLine
 10
20.894693
 20
77.0738
 30
0.0
 11
21.938693
 21
76.587
 31
0.0
  0
LINE
  5
60
330
1E
100
AcDbEntity
  8
0
100
AcDbLine
 10
22.718093
 20
76.55459999999999
 30
0.0
 11
24.3189786553863
 21
79.98768288661509
 31
0.0
  0
LINE
  5
61
330
1E
100
AcDbEntity
  8
0
100
AcDbLine
 10
6.451733000000009
 20
83.80869999999999
 30
0.0
 11
8.974893000000008
 21
82.63209999999999
 31
0.0
  0
LINE
  5
62
330
1E
100
AcDbEntity
  8
0
100
AcDbLine
 10
1.49241300000001
 20
86.1212
 30
0.0
 11
2.536483000000009
 21
85.63439999999999
 31
0.0
  0
LINE
  5
63
330
1E
100
AcDbEntity
  8
0
100
AcDbLine
 10
1.100893000000009
 20
86.3038
 30
0.0
 11
1.49241300000001
 21
86.1212
 31
0.0
  0
LINE
  5
64
330
1E
100
AcDbEntity
  8
0
100
AcDbLine
 10
1.35818300000001
 20
86.51479999999999
 30
0.0
 11
2.402253000000009
 21
86.028
 31
0.0
  0
LINE
  5
65
330
1E
100
AcDbEntity
  8
0
100
AcDbLine
 10
2.402253000000009
 20
86.028
 30
0.0
 11
4.142363000000009
 21
85.2166
 31
0.0
  0
LINE
  5
66
330
1E
100
AcDbEntity
  8
0
100
AcDbLine
 10
1.66115300000001
 20
91.6566
 30
0.0
 11
3.926923000000009
 21
90.6
 31
0.0
  0
LINE
  5
67
330
1E
100
AcDbEntity
  8
0
100
AcDbLine
 10
1.66115300000001
 20
91.6566
 30
0.0
 11
3.926923000000009
 21
90.6
 31
0.0
  0
LINE
  5
68
330
1E
100
AcDbEntity
  8
0
100
AcDbLine
 10
14.01699299999999
 20
86.44670000000001
 30
0.0
 11
17.64219299999999
 21
84.75620000000001
 31
0.0
  0
LINE
  5
69
330
1E
100
AcDbEntity
  8
0
100
AcDbLine
 10
13.805693
 20
85.99349999999999
 30
0.0
 11
17.43089299999999
 21
84.303
 31
0.0
  0
LINE
  5
6A
330
1E
100
AcDbEntity
  8
0
100
AcDbLine
 10
4.138233000000009
 20
91.0532
 30
0.0
 11
7.038413000000009
 21
89.70080000000001
 31
0.0
  0
LINE
  5
6B
330
1E
100
AcDbEntity
  8
0
100
AcDbLine
 10
3.926923000000009
 20
90.6
 30
0.0
 11
6.827113000000009
 21
89.2477
 31
0.0
  0
LINE
  5
6C
330
1E
100
AcDbEntity
  8
0
100
AcDbLine
 10
7.038413000000009
 20
89.70080000000001
 30
0.0
 11
10.391793
 21
88.1371
 31
0.0
  0
LINE
  5
6D
330
1E
100
AcDbEntity
  8
0
100
AcDbLine
 10
10.391793
 20
88.1371
 30
0.0
 11
14.01699299999999
 21
86.44670000000001
 31
0.0
  0
LINE
  5
6E
330
1E
100
AcDbEntity
  8
0
100
AcDbLine
 10
6.827113000000009
 20
89.2477
 30
0.0
 11
10.18049299999999
 21
87.68399999999999
 31
0.0
  0
LINE
  5
6F
330
1E
100
AcDbEntity
  8
0
100
AcDbLine
 10
10.18049299999999
 20
87.68399999999999
 30
0.0
 11
13.805693
 21
85.99349999999999
 31
0.0
  0
LINE
  5
70
330
1E
100
AcDbEntity
  8
0
100
AcDbLine
 10
4.410613000000009
 20
89.2711
 30
0.0
 11
10.120393
 21
86.60859999999999
 31
0.0
  0
LINE
  5
71
330
1E
100
AcDbEntity
  8
0
100
AcDbLine
 10
10.120393
 20
86.60859999999999
 30
0.0
 11
25.61819299999999
 21
79.3818
 31
0.0
  0
LINE
  5
72
330
1E
100
AcDbEntity
  8
0
100
AcDbLine
 10
0.6947530000000071
 20
91.00379999999999
 30
0.0
 11
4.410613000000009
 21
89.2711
 31
0.0
  0
LINE
  5
73
330
1E
100
AcDbEntity
  8
0
100
AcDbLine
 10
2.536483000000009
 20
85.63439999999999
 30
0.0
 11
4.233093000000009
 21
84.8432
 31
0.0
  0
LINE
  5
74
330
1E
100
AcDbEntity
  8
0
100
AcDbLine
 10
0.9666630000000072
 20
86.6974
 30
0.0
 11
2.56755137894323
 21
90.13056932376001
 31
0.0
  0
LINE
  5
75
330
1E
100
AcDbEntity
  8
0
100
AcDbLine
 10
1.87246300000001
 20
92.10970000000001
 30
0.0
 11
4.138233000000009
 21
91.0532
 31
0.0
  0
LINE
  5
76
330
1E
100
AcDbEntity
  8
0
100
AcDbLine
 10
0.513003000000007
 20
92.74370000000001
 30
0.0
 11
1.87246300000001
 21
92.10970000000001
 31
0.0
  0
LINE
  5
77
330
1E
100
AcDbEntity
  8
0
100
AcDbLine
 10
-0.0307839999999932
 20
92.9972
 30
0.0
 11
0.513003000000007
 21
92.74370000000001
 31
0.0
  0
LINE
  5
78
330
1E
100
AcDbEntity
  8
0
100
AcDbLine
 10
-0.0307839999999932
 20
92.9972
 30
0.0
 11
0.6336830000000071
 21
93.23909999999999
 31
0.0
  0
LINE
  5
79
330
1E
100
AcDbEntity
  8
0
100
AcDbLine
 10
0.301693000000007
 20
92.29049999999999
 30
0.0
 11
1.66115300000001
 21
91.6566
 31
0.0
  0
LINE
  5
7A
330
1E
100
AcDbEntity
  8
0
100
AcDbLine
 10
-0.242092999999993
 20
92.5441
 30
0.0
 11
0.301693000000007
 21
92.29049999999999
 31
0.0
  0
LINE
  5
7B
330
1E
100
AcDbEntity
  8
0
100
AcDbLine
 10
0.6336830000000071
 20
93.23909999999999
 30
0.0
 11
1.75129300000001
 21
93.26959999999999
 31
0.0
  0
LINE
  5
7C
330
1E
100
AcDbEntity
  8
0
100
AcDbLine
 10
10.36619299999999
 20
109.25
 30
0.0
 11
12.982393
 21
113.165
 31
0.0
  0
LINE
  5
7D
330
1E
100
AcDbEntity
  8
0
100
AcDbLine
 10
12.982393
 20
113.165
 30
0.0
 11
16.087293
 21
116.7059999999999
 31
0.0
  0
LINE
  5
7E
330
1E
100
AcDbEntity
  8
0
100
AcDbLine
 10
23.543093
 20
122.427
 30
0.0
 11
27.766493
 21
124.51
 31
0.0
  0
LINE
  5
7F
330
1E
100
AcDbEntity
  8
0
100
AcDbLine
 10
19.627693
 20
119.8109999999999
 30
0.0
 11
23.543093
 21
122.427
 31
0.0
  0
LINE
  5
80
330
1E
100
AcDbEntity
  8
0
100
AcDbLine
 10
16.087293
 20
116.7059999999999
 30
0.0
 11
19.627693
 21
119.8109999999999
 31
0.0
  0
LINE
  5
81
330
1E
100
AcDbEntity
  8
0
100
AcDbLine
 10
3.502843000000009
 20
94.6596
 30
0.0
 11
10.36619299999999
 21
109.25
 31
0.0
  0
LINE
  5
82
330
1E
100
AcDbEntity
  8
0
100
AcDbLine
 10
2.415763000000009
 20
93.5115
 30
0.0
 11
3.502843000000009
 21
94.6596
 31
0.0
  0
LINE
  5
83
330
1E
100
AcDbEntity
  8
0
100
AcDbLine
 10
1.75129300000001
 20
93.26959999999999
 30
0.0
 11
2.415763000000009
 21
93.5115
 31
0.0
  0
LINE
  5
84
330
1E
100
AcDbEntity
  8
0
100
AcDbLine
 10
0.6336830000000071
 20
93.23909999999999
 30
0.0
 11
1.75129300000001
 21
93.26959999999999
 31
0.0
  0
LINE
  5
85
330
1E
100
AcDbEntity
  8
0
100
AcDbLine
 10
-0.0307839999999932
 20
92.9972
 30
0.0
 11
0.6336830000000071
 21
93.23909999999999
 31
0.0
  0
LINE
  5
86
330
1E
100
AcDbEntity
  8
0
100
AcDbLine
 10
-0.0307839999999932
 20
92.9972
 30
0.0
 11
0.513003000000007
 21
92.74370000000001
 31
0.0
  0
LINE
  5
87
330
1E
100
AcDbEntity
  8
0
100
AcDbLine
 10
-0.242092999999993
 20
92.5441
 30
0.0
 11
-0.0002479999999931
 21
91.8796
 31
0.0
  0
LINE
  5
88
330
1E
100
AcDbEntity
  8
0
100
AcDbLine
 10
-0.242092999999993
 20
92.5441
 30
0.0
 11
-0.0307839999999932
 21
92.9972
 31
0.0
  0
LINE
  5
89
330
1E
100
AcDbEntity
  8
0
100
AcDbLine
 10
-0.242092999999993
 20
92.5441
 30
0.0
 11
-0.0002479999999931
 21
91.8796
 31
0.0
  0
LINE
  5
8A
330
1E
100
AcDbEntity
  8
0
100
AcDbLine
 10
-0.242092999999993
 20
92.5441
 30
0.0
 11
0.301693000000007
 21
92.29049999999999
 31
0.0
  0
LINE
  5
8B
330
1E
100
AcDbEntity
  8
0
100
AcDbLine
 10
-0.242092999999993
 20
92.5441
 30
0.0
 11
-0.0307839999999932
 21
92.9972
 31
0.0
  0
LINE
  5
8C
330
1E
100
AcDbEntity
  8
0
100
AcDbLine
 10
-0.0002479999999931
 20
91.8796
 30
0.0
 11
0.6947530000000072
 21
91.00379999999999
 31
0.0
  0
LINE
  5
8D
330
1E
100
AcDbEntity
  8
0
100
AcDbLine
 10
26.161493
 20
80.78360000000001
 30
0.0
 11
27.520993
 21
80.1496
 31
0.0
  0
LINE
  5
8E
330
1E
100
AcDbEntity
  8
0
100
AcDbLine
 10
25.950193
 20
80.33039999999999
 30
0.0
 11
27.30969299999999
 21
79.6965
 31
0.0
  0
LINE
  5
8F
330
1E
100
AcDbEntity
  8
0
100
AcDbLine
 10
27.066893
 20
83.6715
 30
0.0
 11
32.882793
 21
96.25
 31
0.0
  0
LINE
  5
90
330
1E
100
AcDbEntity
  8
0
100
AcDbLine
 10
26.88609299999999
 20
82.10080000000001
 30
0.0
 11
27.127893
 21
81.43629999999999
 31
0.0
  0
LINE
  5
91
330
1E
100
AcDbEntity
  8
0
100
AcDbLine
 10
26.88609299999999
 20
82.10080000000001
 30
0.0
 11
27.066893
 21
83.6715
 31
0.0
  0
LINE
  5
92
330
1E
100
AcDbEntity
  8
0
100
AcDbLine
 10
27.127893
 20
81.43629999999999
 30
0.0
 11
27.822893
 21
80.5605
 31
0.0
  0
LINE
  5
93
330
1E
100
AcDbEntity
  8
0
100
AcDbLine
 10
27.520993
 20
80.1496
 30
0.0
 11
28.06479299999999
 21
79.8961
 31
0.0
  0
LINE
  5
94
330
1E
100
AcDbEntity
  8
0
100
AcDbLine
 10
27.30969299999999
 20
79.6965
 30
0.0
 11
27.853493
 21
79.44289999999999
 31
0.0
  0
LINE
  5
95
330
1E
100
AcDbEntity
  8
0
100
AcDbLine
 10
27.766493
 20
124.51
 30
0.0
 11
32.22559299999999
 21
126.0229999999999
 31
0.0
  0
LINE
  5
96
330
1E
100
AcDbEntity
  8
0
100
AcDbLine
 10
32.882793
 20
96.25
 30
0.0
 11
33.60959299999999
 21
97.3376
 31
0.0
  0
LINE
  5
97
330
1E
100
AcDbEntity
  8
0
100
AcDbLine
 10
33.60959299999999
 20
97.3376
 30
0.0
 11
34.47199299999999
 21
98.3211
 31
0.0
  0
LINE
  5
98
330
1E
100
AcDbEntity
  8
0
100
AcDbLine
 10
37.716293
 20
100.4889999999999
 30
0.0
 11
38.95489299999999
 21
100.909
 31
0.0
  0
LINE
  5
99
330
1E
100
AcDbEntity
  8
0
100
AcDbLine
 10
36.54309299999999
 20
99.91030000000002
 30
0.0
 11
37.716293
 21
100.4889999999999
 31
0.0
  0
LINE
  5
9A
330
1E
100
AcDbEntity
  8
0
100
AcDbLine
 10
35.45549299999999
 20
99.1835
 30
0.0
 11
36.54309299999999
 21
99.91030000000002
 31
0.0
  0
LINE
  5
9B
330
1E
100
AcDbEntity
  8
0
100
AcDbLine
 10
34.47199299999999
 20
98.3211
 30
0.0
 11
35.45549299999999
 21
99.1835
 31
0.0
  0
LINE
  5
9C
330
1E
100
AcDbEntity
  8
0
100
AcDbLine
 10
38.95489299999999
 20
100.909
 30
0.0
 11
40.237793
 21
101.164
 31
0.0
  0
LINE
  5
9D
330
1E
100
AcDbEntity
  8
0
100
AcDbLine
 10
40.237793
 20
101.164
 30
0.0
 11
41.543093
 21
101.2499999999999
 31
0.0
  0
LINE
  5
9E
330
1E
100
AcDbEntity
  8
0
100
AcDbLine
 10
32.22559299999999
 20
126.0229999999999
 30
0.0
 11
36.844193
 21
126.9419999999999
 31
0.0
  0
LINE
  5
9F
330
1E
100
AcDbEntity
  8
0
100
AcDbLine
 10
36.844193
 20
126.9419999999999
 30
0.0
 11
41.543093
 21
127.2499999999999
 31
0.0
  0
LINE
  5
A0
330
1E
100
AcDbEntity
  8
0
100
AcDbLine
 10
41.543093
 20
127.2499999999999
 30
0.0
 11
92.543093
 21
127.2499999999999
 31
0.0
  0
LINE
  5
A1
330
1E
100
AcDbEntity
  8
0
100
AcDbLine
 10
41.543093
 20
101.2499999999999
 30
0.0
 11
92.543093
 21
101.2499999999999
 31
0.0
  0
LINE
  5
A2
330
1E
100
AcDbEntity
  8
0
100
AcDbLine
 10
92.543093
 20
127.2499999999999
 30
0.0
 11
94.543093
 21
127.75
 31
0.0
  0
LINE
  5
A3
330
1E
100
AcDbEntity
  8
0
100
AcDbLine
 10
94.543093
 20
127.75
 30
0.0
 11
95.043093
 21
128.0833333333329
 31
0.0
  0
LINE
  5
A4
330
1E
100
AcDbEntity
  8
0
100
AcDbLine
 10
92.543093
 20
101.2499999999999
 30
0.0
 11
94.543093
 21
100.75
 31
0.0
  0
LINE
  5
A5
330
1E
100
AcDbEntity
  8
0
100
AcDbLine
 10
94.543093
 20
100.75
 30
0.0
 11
95.043093
 21
100.4166666666669
 31
0.0
  0
LINE
  5
A6
330
1E
100
AcDbEntity
  8
0
100
AcDbLine
 10
27.822893
 20
80.5605
 30
0.0
 11
28.06479299999999
 21
79.8961
 31
0.0
  0
LINE
  5
A7
330
1E
100
AcDbEntity
  8
0
100
AcDbLine
 10
27.853493
 20
79.44289999999999
 30
0.0
 11
28.06479299999999
 21
79.8961
 31
0.0
  0
LINE
  5
A8
330
1E
100
AcDbEntity
  8
0
100
AcDbLine
 10
27.188993
 20
79.2011
 30
0.0
 11
27.853493
 21
79.44289999999999
 31
0.0
  0
LINE
  5
A9
330
1E
100
AcDbEntity
  8
0
100
AcDbLine
 10
26.071393
 20
79.1705
 30
0.0
 11
27.188993
 21
79.2011
 31
0.0
  0
LINE
  5
AA
330
1E
100
AcDbEntity
  8
0
100
AcDbLine
 10
25.61819299999999
 20
79.3818
 30
0.0
 11
26.071393
 21
79.1705
 31
0.0
  0
LINE
  5
AB
330
1E
100
AcDbEntity
  8
0
100
AcDbLine
 10
95.043093
 20
138.7499999999999
 30
0.0
 11
95.74309300000001
 21
138.7499999999999
 31
0.0
  0
LINE
  5
AC
330
1E
100
AcDbEntity
  8
0
100
AcDbLine
 10
95.043093
 20
138.7499999999999
 30
0.0
 11
95.043093
 21
144.8710471999999
 31
0.0
  0
LINE
  5
AD
330
1E
100
AcDbEntity
  8
0
100
AcDbLine
 10
95.54309299999999
 20
136.7499999999999
 30
0.0
 11
96.14309300000002
 21
136.7499999999999
 31
0.0
  0
LINE
  5
AE
330
1E
100
AcDbEntity
  8
0
100
AcDbLine
 10
95.74309300000001
 20
136.25
 30
0.0
 11
97.44309300000001
 21
136.25
 31
0.0
  0
LINE
  5
AF
330
1E
100
AcDbEntity
  8
0
100
AcDbLine
 10
96.14309300000002
 20
136.7499999999999
 30
0.0
 11
97.84309300000002
 21
136.7499999999999
 31
0.0
  0
LINE
  5
B0
330
1E
100
AcDbEntity
  8
0
100
AcDbLine
 10
95.74309300000001
 20
138.7499999999999
 30
0.0
 11
97.043093
 21
138.7499999999999
 31
0.0
  0
LINE
  5
B1
330
1E
100
AcDbEntity
  8
0
100
AcDbLine
 10
95.74309300000001
 20
138.7499999999999
 30
0.0
 11
97.44309300000001
 21
138.7499999999999
 31
0.0
  0
LINE
  5
B2
330
1E
100
AcDbEntity
  8
0
100
AcDbLine
 10
97.043093
 20
138.7499999999999
 30
0.0
 11
97.043093
 21
136.7499999999999
 31
0.0
  0
LINE
  5
B3
330
1E
100
AcDbEntity
  8
0
100
AcDbLine
 10
95.043093
 20
136.25
 30
0.0
 11
95.54309299999999
 21
136.7499999999999
 31
0.0
  0
LINE
  5
B4
330
1E
100
AcDbEntity
  8
0
100
AcDbLine
 10
95.043093
 20
136.25
 30
0.0
 11
95.74309300000001
 21
136.25
 31
0.0
  0
LINE
  5
B5
330
1E
100
AcDbEntity
  8
0
100
AcDbLine
 10
95.043093
 20
128.0833333333329
 30
0.0
 11
95.043093
 21
136.25
 31
0.0
  0
LINE
  5
B7
330
1E
100
AcDbEntity
  8
0
100
AcDbLine
 10
130.008574624821
 20
43.5594970758743
 30
0.0
 11
138.9880929999999
 21
43.55939999999999
 31
0.0
  0
LINE
  5
BC
330
1E
100
AcDbEntity
  8
0
100
AcDbLine
 10
129.7420929999999
 20
48.5594
 30
0.0
 11
138.9920929999999
 21
48.5594
 31
0.0
  0
LINE
  5
BD
330
1E
100
AcDbEntity
  8
0
100
AcDbLine
 10
128.8820929999999
 20
48.4598
 30
0.0
 11
129.7420929999999
 21
48.5594
 31
0.0
  0
LINE
  5
BE
330
1E
100
AcDbEntity
  8
0
100
AcDbLine
 10
128.056093
 20
48.1648
 30
0.0
 11
128.8820929999999
 21
48.4598
 31
0.0
  0
LINE
  5
BF
330
1E
100
AcDbEntity
  8
0
100
AcDbLine
 10
127.6410929999999
 20
47.9911
 30
0.0
 11
128.056093
 21
48.1648
 31
0.0
  0
LINE
  5
C3
330
1E
100
AcDbEntity
  8
0
100
AcDbLine
 10
125.7430929999999
 20
136.25
 30
0.0
 11
128.6430929999999
 21
136.25
 31
0.0
  0
LINE
  5
C4
330
1E
100
AcDbEntity
  8
0
100
AcDbLine
 10
97.44309300000001
 20
136.25
 30
0.0
 11
100.343093
 21
136.25
 31
0.0
  0
LINE
  5
C5
330
1E
100
AcDbEntity
  8
0
100
AcDbLine
 10
100.343093
 20
136.25
 30
0.0
 11
104.143093
 21
136.25
 31
0.0
  0
LINE
  5
C6
330
1E
100
AcDbEntity
  8
0
100
AcDbLine
 10
104.143093
 20
136.25
 30
0.0
 11
108.4430929999999
 21
136.25
 31
0.0
  0
LINE
  5
C7
330
1E
100
AcDbEntity
  8
0
100
AcDbLine
 10
108.4430929999999
 20
136.25
 30
0.0
 11
113.0430929999999
 21
136.25
 31
0.0
  0
LINE
  5
C8
330
1E
100
AcDbEntity
  8
0
100
AcDbLine
 10
121.9430929999999
 20
136.25
 30
0.0
 11
125.7430929999999
 21
136.25
 31
0.0
  0
LINE
  5
C9
330
1E
100
AcDbEntity
  8
0
100
AcDbLine
 10
117.6430929999999
 20
136.25
 30
0.0
 11
121.9430929999999
 21
136.25
 31
0.0
  0
LINE
  5
CA
330
1E
100
AcDbEntity
  8
0
100
AcDbLine
 10
97.84309300000002
 20
136.7499999999999
 30
0.0
 11
100.643093
 21
136.7499999999999
 31
0.0
  0
LINE
  5
CB
330
1E
100
AcDbEntity
  8
0
100
AcDbLine
 10
100.643093
 20
136.7499999999999
 30
0.0
 11
104.343093
 21
136.7499999999999
 31
0.0
  0
LINE
  5
CC
330
1E
100
AcDbEntity
  8
0
100
AcDbLine
 10
104.343093
 20
136.7499999999999
 30
0.0
 11
108.543093
 21
136.7499999999999
 31
0.0
  0
LINE
  5
CD
330
1E
100
AcDbEntity
  8
0
100
AcDbLine
 10
108.543093
 20
136.7499999999999
 30
0.0
 11
113.0430929999999
 21
136.7499999999999
 31
0.0
  0
LINE
  5
CE
330
1E
100
AcDbEntity
  8
0
100
AcDbLine
 10
121.7430929999999
 20
136.7499999999999
 30
0.0
 11
125.4430929999999
 21
136.7499999999999
 31
0.0
  0
LINE
  5
CF
330
1E
100
AcDbEntity
  8
0
100
AcDbLine
 10
117.543093
 20
136.7499999999999
 30
0.0
 11
121.7430929999999
 21
136.7499999999999
 31
0.0
  0
LINE
  5
D0
330
1E
100
AcDbEntity
  8
0
100
AcDbLine
 10
113.0430929999999
 20
136.7499999999999
 30
0.0
 11
117.543093
 21
136.7499999999999
 31
0.0
  0
LINE
  5
D1
330
1E
100
AcDbEntity
  8
0
100
AcDbLine
 10
113.0430929999999
 20
136.25
 30
0.0
 11
117.6430929999999
 21
136.25
 31
0.0
  0
LINE
  5
D2
330
1E
100
AcDbEntity
  8
0
100
AcDbLine
 10
125.4430929999999
 20
136.7499999999999
 30
0.0
 11
128.2430929999999
 21
136.7499999999999
 31
0.0
  0
LINE
  5
D3
330
1E
100
AcDbEntity
  8
0
100
AcDbLine
 10
128.2430929999999
 20
136.7499999999999
 30
0.0
 11
129.9430929999999
 21
136.7499999999999
 31
0.0
  0
LINE
  5
D4
330
1E
100
AcDbEntity
  8
0
100
AcDbLine
 10
129.9430929999999
 20
136.7499999999999
 30
0.0
 11
130.5430929999999
 21
136.7499999999999
 31
0.0
  0
LINE
  5
D5
330
1E
100
AcDbEntity
  8
0
100
AcDbLine
 10
128.6430929999999
 20
136.25
 30
0.0
 11
130.3430929999999
 21
136.25
 31
0.0
  0
LINE
  5
D6
330
1E
100
AcDbEntity
  8
0
100
AcDbLine
 10
130.3430929999999
 20
136.25
 30
0.0
 11
131.043093
 21
136.25
 31
0.0
  0
LINE
  5
D7
330
1E
100
AcDbEntity
  8
0
100
AcDbLine
 10
100.343093
 20
138.7499999999999
 30
0.0
 11
104.143093
 21
138.7499999999999
 31
0.0
  0
LINE
  5
D8
330
1E
100
AcDbEntity
  8
0
100
AcDbLine
 10
104.143093
 20
138.7499999999999
 30
0.0
 11
108.4430929999999
 21
138.7499999999999
 31
0.0
  0
LINE
  5
D9
330
1E
100
AcDbEntity
  8
0
100
AcDbLine
 10
108.4430929999999
 20
138.7499999999999
 30
0.0
 11
113.0430929999999
 21
138.7499999999999
 31
0.0
  0
LINE
  5
DA
330
1E
100
AcDbEntity
  8
0
100
AcDbLine
 10
97.44309300000001
 20
138.7499999999999
 30
0.0
 11
100.343093
 21
138.7499999999999
 31
0.0
  0
LINE
  5
DB
330
1E
100
AcDbEntity
  8
0
100
AcDbLine
 10
113.0430929999999
 20
138.7499999999999
 30
0.0
 11
117.6110929999999
 21
140.0709999999999
 31
0.0
  0
LINE
  5
DC
330
1E
100
AcDbEntity
  8
0
100
AcDbLine
 10
129.043093
 20
136.7499999999999
 30
0.0
 11
129.043093
 21
138.7499999999999
 31
0.0
  0
LINE
  5
DD
330
1E
100
AcDbEntity
  8
0
100
AcDbLine
 10
97.043093
 20
136.7499999999999
 30
0.0
 11
97.043093
 21
138.7499999999999
 31
0.0
  0
LINE
  5
DE
330
1E
100
AcDbEntity
  8
0
100
AcDbLine
 10
121.931093
 20
141.222
 30
0.0
 11
125.674093
 21
142.277
 31
0.0
  0
LINE
  5
DF
330
1E
100
AcDbEntity
  8
0
100
AcDbLine
 10
117.6110929999999
 20
140.0709999999999
 30
0.0
 11
121.931093
 21
141.222
 31
0.0
  0
LINE
  5
E0
330
1E
100
AcDbEntity
  8
0
100
AcDbLine
 10
125.674093
 20
142.277
 30
0.0
 11
128.698093
 21
143.092
 31
0.0
  0
LINE
  5
FB
330
1E
100
AcDbEntity
  8
0
100
AcDbLine
 10
33.729193
 20
161.456
 30
0.0
 11
34.375393
 21
161.706
 31
0.0
  0
LINE
  5
FC
330
1E
100
AcDbEntity
  8
0
100
AcDbLine
 10
33.729193
 20
161.456
 30
0.0
 11
33.729193
 21
161.622
 31
0.0
  0
LINE
  5
FD
330
1E
100
AcDbEntity
  8
0
100
AcDbLine
 10
33.729193
 20
161.622
 30
0.0
 11
33.729193
 21
161.456
 31
0.0
  0
LINE
  5
FE
330
1E
100
AcDbEntity
  8
0
100
AcDbLine
 10
33.729193
 20
161.622
 30
0.0
 11
33.729193
 21
162.122
 31
0.0
  0
LINE
  5
FF
330
1E
100
AcDbEntity
  8
0
100
AcDbLine
 10
34.375393
 20
161.706
 30
0.0
 11
34.652293
 21
162.2889999999999
 31
0.0
  0
LINE
  5
100
330
1E
100
AcDbEntity
  8
0
100
AcDbLine
 10
34.375393
 20
161.706
 30
0.0
 11
34.375393
 21
161.872
 31
0.0
  0
LINE
  5
101
330
1E
100
AcDbEntity
  8
0
100
AcDbLine
 10
34.375393
 20
161.872
 30
0.0
 11
34.375393
 21
161.706
 31
0.0
  0
LINE
  5
102
330
1E
100
AcDbEntity
  8
0
100
AcDbLine
 10
34.375393
 20
161.872
 30
0.0
 11
34.375393
 21
162.372
 31
0.0
  0
LINE
  5
103
330
1E
100
AcDbEntity
  8
0
100
AcDbLine
 10
33.729193
 20
162.122
 30
0.0
 11
33.729193
 21
161.622
 31
0.0
  0
LINE
  5
104
330
1E
100
AcDbEntity
  8
0
100
AcDbLine
 10
33.729193
 20
162.122
 30
0.0
 11
33.729193
 21
162.956
 31
0.0
  0
LINE
  5
105
330
1E
100
AcDbEntity
  8
0
100
AcDbLine
 10
33.08309299999999
 20
161.872
 30
0.0
 11
33.08309299999999
 21
161.706
 31
0.0
  0
LINE
  5
106
330
1E
100
AcDbEntity
  8
0
100
AcDbLine
 10
33.08309299999999
 20
161.872
 30
0.0
 11
33.08309299999999
 21
162.372
 31
0.0
  0
LINE
  5
107
330
1E
100
AcDbEntity
  8
0
100
AcDbLine
 10
90.86779300000001
 20
161.872
 30
0.0
 11
90.86779300000001
 21
162.372
 31
0.0
  0
LINE
  5
108
330
1E
100
AcDbEntity
  8
0
100
AcDbLine
 10
90.86779300000001
 20
161.872
 30
0.0
 11
90.86779300000001
 21
161.706
 31
0.0
  0
LINE
  5
109
330
1E
100
AcDbEntity
  8
0
100
AcDbLine
 10
34.652293
 20
162.2889999999999
 30
0.0
 11
39.544693
 21
162.706
 31
0.0
  0
LINE
  5
10A
330
1E
100
AcDbEntity
  8
0
100
AcDbLine
 10
34.652293
 20
162.2889999999999
 30
0.0
 11
34.652293
 21
162.456
 31
0.0
  0
LINE
  5
10B
330
1E
100
AcDbEntity
  8
0
100
AcDbLine
 10
33.08309299999999
 20
161.706
 30
0.0
 11
33.729193
 21
161.456
 31
0.0
  0
LINE
  5
10C
330
1E
100
AcDbEntity
  8
0
100
AcDbLine
 10
33.08309299999999
 20
161.706
 30
0.0
 11
33.08309299999999
 21
161.872
 31
0.0
  0
LINE
  5
10D
330
1E
100
AcDbEntity
  8
0
100
AcDbLine
 10
32.806193
 20
162.2889999999999
 30
0.0
 11
32.806193
 21
162.456
 31
0.0
  0
LINE
  5
10E
330
1E
100
AcDbEntity
  8
0
100
AcDbLine
 10
32.806193
 20
162.2889999999999
 30
0.0
 11
33.08309299999999
 21
161.706
 31
0.0
  0
LINE
  5
10F
330
1E
100
AcDbEntity
  8
0
100
AcDbLine
 10
34.652293
 20
162.456
 30
0.0
 11
34.652293
 21
162.2889999999999
 31
0.0
  0
LINE
  5
110
330
1E
100
AcDbEntity
  8
0
100
AcDbLine
 10
34.652293
 20
162.456
 30
0.0
 11
34.652293
 21
162.872
 31
0.0
  0
LINE
  5
111
330
1E
100
AcDbEntity
  8
0
100
AcDbLine
 10
34.375393
 20
162.372
 30
0.0
 11
34.375393
 21
161.872
 31
0.0
  0
LINE
  5
112
330
1E
100
AcDbEntity
  8
0
100
AcDbLine
 10
34.375393
 20
162.372
 30
0.0
 11
34.375393
 21
163.122
 31
0.0
  0
LINE
  5
113
330
1E
100
AcDbEntity
  8
0
100
AcDbLine
 10
33.08309299999999
 20
162.372
 30
0.0
 11
33.08309299999999
 21
161.872
 31
0.0
  0
LINE
  5
114
330
1E
100
AcDbEntity
  8
0
100
AcDbLine
 10
33.08309299999999
 20
162.372
 30
0.0
 11
33.08309299999999
 21
163.122
 31
0.0
  0
LINE
  5
115
330
1E
100
AcDbEntity
  8
0
100
AcDbLine
 10
34.652293
 20
162.872
 30
0.0
 11
34.652293
 21
162.456
 31
0.0
  0
LINE
  5
116
330
1E
100
AcDbEntity
  8
0
100
AcDbLine
 10
34.652293
 20
162.872
 30
0.0
 11
34.652293
 21
163.5389999999999
 31
0.0
  0
LINE
  5
117
330
1E
100
AcDbEntity
  8
0
100
AcDbLine
 10
39.544693
 20
162.706
 30
0.0
 11
47.852293
 21
163.122
 31
0.0
  0
LINE
  5
118
330
1E
100
AcDbEntity
  8
0
100
AcDbLine
 10
32.806193
 20
162.456
 30
0.0
 11
32.806193
 21
162.2889999999999
 31
0.0
  0
LINE
  5
119
330
1E
100
AcDbEntity
  8
0
100
AcDbLine
 10
34.375393
 20
163.122
 30
0.0
 11
34.375393
 21
164.122
 31
0.0
  0
LINE
  5
11A
330
1E
100
AcDbEntity
  8
0
100
AcDbLine
 10
34.375393
 20
163.122
 30
0.0
 11
34.375393
 21
162.372
 31
0.0
  0
LINE
  5
11B
330
1E
100
AcDbEntity
  8
0
100
AcDbLine
 10
33.729193
 20
162.956
 30
0.0
 11
33.729193
 21
163.9559999999999
 31
0.0
  0
LINE
  5
11C
330
1E
100
AcDbEntity
  8
0
100
AcDbLine
 10
33.729193
 20
162.956
 30
0.0
 11
33.729193
 21
162.122
 31
0.0
  0
LINE
  5
11D
330
1E
100
AcDbEntity
  8
0
100
AcDbLine
 10
33.08309299999999
 20
163.122
 30
0.0
 11
33.08309299999999
 21
164.122
 31
0.0
  0
LINE
  5
11E
330
1E
100
AcDbEntity
  8
0
100
AcDbLine
 10
33.08309299999999
 20
163.122
 30
0.0
 11
33.08309299999999
 21
162.372
 31
0.0
  0
LINE
  5
11F
330
1E
100
AcDbEntity
  8
0
100
AcDbLine
 10
47.852293
 20
163.122
 30
0.0
 11
62.621493
 21
163.122
 31
0.0
  0
LINE
  5
120
330
1E
100
AcDbEntity
  8
0
100
AcDbLine
 10
32.806193
 20
162.456
 30
0.0
 11
32.806193
 21
163.206
 31
0.0
  0
LINE
  5
121
330
1E
100
AcDbEntity
  8
0
100
AcDbLine
 10
32.806193
 20
162.456
 30
0.0
 11
32.806193
 21
163.5389999999999
 31
0.0
  0
LINE
  5
122
330
1E
100
AcDbEntity
  8
0
100
AcDbLine
 10
62.621493
 20
163.122
 30
0.0
 11
77.390693
 21
163.122
 31
0.0
  0
LINE
  5
123
330
1E
100
AcDbEntity
  8
0
100
AcDbLine
 10
32.806193
 20
163.7889999999999
 30
0.0
 11
32.806193
 21
164.622
 31
0.0
  0
LINE
  5
124
330
1E
100
AcDbEntity
  8
0
100
AcDbLine
 10
32.806193
 20
163.7889999999999
 30
0.0
 11
32.806193
 21
163.206
 31
0.0
  0
LINE
  5
125
330
1E
100
AcDbEntity
  8
0
100
AcDbLine
 10
32.806193
 20
165.372
 30
0.0
 11
32.806193
 21
166.4559999999999
 31
0.0
  0
LINE
  5
126
330
1E
100
AcDbEntity
  8
0
100
AcDbLine
 10
32.806193
 20
164.622
 30
0.0
 11
32.806193
 21
163.7889999999999
 31
0.0
  0
LINE
  5
127
330
1E
100
AcDbEntity
  8
0
100
AcDbLine
 10
32.806193
 20
164.622
 30
0.0
 11
32.806193
 21
165.456
 31
0.0
  0
LINE
  5
128
330
1E
100
AcDbEntity
  8
0
100
AcDbLine
 10
32.806193
 20
165.456
 30
0.0
 11
32.806193
 21
164.622
 31
0.0
  0
LINE
  5
129
330
1E
100
AcDbEntity
  8
0
100
AcDbLine
 10
32.806193
 20
164.232932129964
 30
0.0
 11
32.806193
 21
163.5389999999999
 31
0.0
  0
LINE
  5
12A
330
1E
100
AcDbEntity
  8
0
100
AcDbLine
 10
33.729193
 20
163.9559999999999
 30
0.0
 11
33.729193
 21
162.956
 31
0.0
  0
LINE
  5
12B
330
1E
100
AcDbEntity
  8
0
100
AcDbLine
 10
33.729193
 20
163.9559999999999
 30
0.0
 11
33.729193
 21
165.2059999999999
 31
0.0
  0
LINE
  5
12C
330
1E
100
AcDbEntity
  8
0
100
AcDbLine
 10
33.729193
 20
165.2059999999999
 30
0.0
 11
33.729193
 21
163.9559999999999
 31
0.0
  0
LINE
  5
12D
330
1E
100
AcDbEntity
  8
0
100
AcDbLine
 10
33.729193
 20
165.2059999999999
 30
0.0
 11
33.729193
 21
166.4559999999999
 31
0.0
  0
LINE
  5
12E
330
1E
100
AcDbEntity
  8
0
100
AcDbLine
 10
33.08309299999999
 20
164.122
 30
0.0
 11
33.08309299999999
 21
163.122
 31
0.0
  0
LINE
  5
12F
330
1E
100
AcDbEntity
  8
0
100
AcDbLine
 10
33.08309299999999
 20
164.122
 30
0.0
 11
33.08309299999999
 21
165.2059999999999
 31
0.0
  0
LINE
  5
130
330
1E
100
AcDbEntity
  8
0
100
AcDbLine
 10
33.08309299999999
 20
165.2059999999999
 30
0.0
 11
33.08309299999999
 21
164.122
 31
0.0
  0
LINE
  5
131
330
1E
100
AcDbEntity
  8
0
100
AcDbLine
 10
33.08309299999999
 20
165.2059999999999
 30
0.0
 11
33.08309299999999
 21
166.4559999999999
 31
0.0
  0
LINE
  5
132
330
1E
100
AcDbEntity
  8
0
100
AcDbLine
 10
34.652293
 20
163.5389999999999
 30
0.0
 11
34.652293
 21
164.372
 31
0.0
  0
LINE
  5
133
330
1E
100
AcDbEntity
  8
0
100
AcDbLine
 10
34.652293
 20
163.5389999999999
 30
0.0
 11
34.652293
 21
162.872
 31
0.0
  0
LINE
  5
134
330
1E
100
AcDbEntity
  8
0
100
AcDbLine
 10
34.652293
 20
164.372
 30
0.0
 11
34.652293
 21
163.5389999999999
 31
0.0
  0
LINE
  5
135
330
1E
100
AcDbEntity
  8
0
100
AcDbLine
 10
34.652293
 20
164.372
 30
0.0
 11
34.652293
 21
165.372
 31
0.0
  0
LINE
  5
136
330
1E
100
AcDbEntity
  8
0
100
AcDbLine
 10
34.375393
 20
164.122
 30
0.0
 11
34.375393
 21
163.122
 31
0.0
  0
LINE
  5
137
330
1E
100
AcDbEntity
  8
0
100
AcDbLine
 10
34.375393
 20
164.122
 30
0.0
 11
34.375393
 21
165.2059999999999
 31
0.0
  0
LINE
  5
138
330
1E
100
AcDbEntity
  8
0
100
AcDbLine
 10
34.652293
 20
165.372
 30
0.0
 11
34.652293
 21
164.372
 31
0.0
  0
LINE
  5
139
330
1E
100
AcDbEntity
  8
0
100
AcDbLine
 10
34.652293
 20
165.372
 30
0.0
 11
34.652293
 21
166.4559999999999
 31
0.0
  0
LINE
  5
13A
330
1E
100
AcDbEntity
  8
0
100
AcDbLine
 10
34.375393
 20
165.2059999999999
 30
0.0
 11
34.375393
 21
164.122
 31
0.0
  0
LINE
  5
13B
330
1E
100
AcDbEntity
  8
0
100
AcDbLine
 10
34.375393
 20
165.2059999999999
 30
0.0
 11
34.375393
 21
166.4559999999999
 31
0.0
  0
LINE
  5
13C
330
1E
100
AcDbEntity
  8
0
100
AcDbLine
 10
34.652293
 20
166.4559999999999
 30
0.0
 11
34.652293
 21
167.539
 31
0.0
  0
LINE
  5
13D
330
1E
100
AcDbEntity
  8
0
100
AcDbLine
 10
34.652293
 20
166.4559999999999
 30
0.0
 11
34.652293
 21
165.372
 31
0.0
  0
LINE
  5
13E
330
1E
100
AcDbEntity
  8
0
100
AcDbLine
 10
34.375393
 20
166.4559999999999
 30
0.0
 11
34.375393
 21
167.7059999999999
 31
0.0
  0
LINE
  5
13F
330
1E
100
AcDbEntity
  8
0
100
AcDbLine
 10
34.375393
 20
166.4559999999999
 30
0.0
 11
34.375393
 21
165.2059999999999
 31
0.0
  0
LINE
  5
140
330
1E
100
AcDbEntity
  8
0
100
AcDbLine
 10
33.729193
 20
166.4559999999999
 30
0.0
 11
33.729193
 21
167.7059999999999
 31
0.0
  0
LINE
  5
141
330
1E
100
AcDbEntity
  8
0
100
AcDbLine
 10
33.729193
 20
166.4559999999999
 30
0.0
 11
33.729193
 21
165.2059999999999
 31
0.0
  0
LINE
  5
142
330
1E
100
AcDbEntity
  8
0
100
AcDbLine
 10
33.08309299999999
 20
166.4559999999999
 30
0.0
 11
33.08309299999999
 21
167.7059999999999
 31
0.0
  0
LINE
  5
143
330
1E
100
AcDbEntity
  8
0
100
AcDbLine
 10
33.08309299999999
 20
166.4559999999999
 30
0.0
 11
33.08309299999999
 21
165.2059999999999
 31
0.0
  0
LINE
  5
144
330
1E
100
AcDbEntity
  8
0
100
AcDbLine
 10
32.806193
 20
166.4559999999999
 30
0.0
 11
32.806193
 21
167.4559999999999
 31
0.0
  0
LINE
  5
145
330
1E
100
AcDbEntity
  8
0
100
AcDbLine
 10
34.652293
 20
167.539
 30
0.0
 11
34.652293
 21
166.4559999999999
 31
0.0
  0
LINE
  5
146
330
1E
100
AcDbEntity
  8
0
100
AcDbLine
 10
34.652293
 20
167.539
 30
0.0
 11
34.652293
 21
168.539
 31
0.0
  0
LINE
  5
147
330
1E
100
AcDbEntity
  8
0
100
AcDbLine
 10
34.375393
 20
167.7059999999999
 30
0.0
 11
34.375393
 21
166.4559999999999
 31
0.0
  0
LINE
  5
148
330
1E
100
AcDbEntity
  8
0
100
AcDbLine
 10
34.375393
 20
167.7059999999999
 30
0.0
 11
34.375393
 21
168.789
 31
0.0
  0
LINE
  5
149
330
1E
100
AcDbEntity
  8
0
100
AcDbLine
 10
33.729193
 20
167.7059999999999
 30
0.0
 11
33.729193
 21
166.4559999999999
 31
0.0
  0
LINE
  5
14A
330
1E
100
AcDbEntity
  8
0
100
AcDbLine
 10
33.729193
 20
167.7059999999999
 30
0.0
 11
33.729193
 21
168.9559999999999
 31
0.0
  0
LINE
  5
14B
330
1E
100
AcDbEntity
  8
0
100
AcDbLine
 10
33.08309299999999
 20
167.7059999999999
 30
0.0
 11
33.08309299999999
 21
166.4559999999999
 31
0.0
  0
LINE
  5
14C
330
1E
100
AcDbEntity
  8
0
100
AcDbLine
 10
33.08309299999999
 20
167.7059999999999
 30
0.0
 11
33.08309299999999
 21
168.789
 31
0.0
  0
LINE
  5
14D
330
1E
100
AcDbEntity
  8
0
100
AcDbLine
 10
32.806193
 20
167.4559999999999
 30
0.0
 11
32.806193
 21
166.4559999999999
 31
0.0
  0
LINE
  5
14E
330
1E
100
AcDbEntity
  8
0
100
AcDbLine
 10
32.806193
 20
167.4559999999999
 30
0.0
 11
32.806193
 21
168.289
 31
0.0
  0
LINE
  5
14F
330
1E
100
AcDbEntity
  8
0
100
AcDbLine
 10
32.806193
 20
163.5389999999999
 30
0.0
 11
32.806193
 21
162.456
 31
0.0
  0
LINE
  5
150
330
1E
100
AcDbEntity
  8
0
100
AcDbLine
 10
32.806193
 20
163.5389999999999
 30
0.0
 11
32.806193
 21
164.232932129964
 31
0.0
  0
LINE
  5
151
330
1E
100
AcDbEntity
  8
0
100
AcDbLine
 10
32.806193
 20
163.206
 30
0.0
 11
32.806193
 21
162.456
 31
0.0
  0
LINE
  5
152
330
1E
100
AcDbEntity
  8
0
100
AcDbLine
 10
32.806193
 20
163.206
 30
0.0
 11
32.806193
 21
163.7889999999999
 31
0.0
  0
LINE
  5
153
330
1E
100
AcDbEntity
  8
0
100
AcDbLine
 10
32.713793
 20
164.789
 30
0.0
 11
32.806193
 21
164.232932129964
 31
0.0
  0
LINE
  5
154
330
1E
100
AcDbEntity
  8
0
100
AcDbLine
 10
34.652293
 20
168.539
 30
0.0
 11
34.652293
 21
167.539
 31
0.0
  0
LINE
  5
155
330
1E
100
AcDbEntity
  8
0
100
AcDbLine
 10
34.652293
 20
168.539
 30
0.0
 11
34.652293
 21
169.372
 31
0.0
  0
LINE
  5
156
330
1E
100
AcDbEntity
  8
0
100
AcDbLine
 10
32.806193
 20
168.289
 30
0.0
 11
32.806193
 21
167.4559999999999
 31
0.0
  0
LINE
  5
157
330
1E
100
AcDbEntity
  8
0
100
AcDbLine
 10
32.806193
 20
168.289
 30
0.0
 11
32.806193
 21
169.122
 31
0.0
  0
LINE
  5
158
330
1E
100
AcDbEntity
  8
0
100
AcDbLine
 10
32.713793
 20
168.122
 30
0.0
 11
32.806193
 21
168.6780678700359
 31
0.0
  0
LINE
  5
159
330
1E
100
AcDbEntity
  8
0
100
AcDbLine
 10
32.621493
 20
166.4559999999999
 30
0.0
 11
32.713793
 21
168.122
 31
0.0
  0
LINE
  5
15A
330
1E
100
AcDbEntity
  8
0
100
AcDbLine
 10
32.621493
 20
166.4559999999999
 30
0.0
 11
32.713793
 21
164.789
 31
0.0
  0
LINE
  5
15B
330
1E
100
AcDbEntity
  8
0
100
AcDbLine
 10
32.806193
 20
169.122
 30
0.0
 11
32.806193
 21
168.289
 31
0.0
  0
LINE
  5
15C
330
1E
100
AcDbEntity
  8
0
100
AcDbLine
 10
32.806193
 20
169.706
 30
0.0
 11
32.806193
 21
170.4559999999999
 31
0.0
  0
LINE
  5
15D
330
1E
100
AcDbEntity
  8
0
100
AcDbLine
 10
33.08309299999999
 20
169.789
 30
0.0
 11
33.08309299999999
 21
168.789
 31
0.0
  0
LINE
  5
15E
330
1E
100
AcDbEntity
  8
0
100
AcDbLine
 10
33.08309299999999
 20
169.789
 30
0.0
 11
33.08309299999999
 21
170.539
 31
0.0
  0
LINE
  5
15F
330
1E
100
AcDbEntity
  8
0
100
AcDbLine
 10
34.375393
 20
168.789
 30
0.0
 11
34.375393
 21
167.7059999999999
 31
0.0
  0
LINE
  5
160
330
1E
100
AcDbEntity
  8
0
100
AcDbLine
 10
34.375393
 20
168.789
 30
0.0
 11
34.375393
 21
169.789
 31
0.0
  0
LINE
  5
161
330
1E
100
AcDbEntity
  8
0
100
AcDbLine
 10
34.652293
 20
169.372
 30
0.0
 11
34.652293
 21
168.539
 31
0.0
  0
LINE
  5
162
330
1E
100
AcDbEntity
  8
0
100
AcDbLine
 10
34.652293
 20
169.372
 30
0.0
 11
34.652293
 21
170.039
 31
0.0
  0
LINE
  5
163
330
1E
100
AcDbEntity
  8
0
100
AcDbLine
 10
34.375393
 20
169.789
 30
0.0
 11
34.375393
 21
168.789
 31
0.0
  0
LINE
  5
164
330
1E
100
AcDbEntity
  8
0
100
AcDbLine
 10
34.375393
 20
169.789
 30
0.0
 11
34.375393
 21
170.539
 31
0.0
  0
LINE
  5
165
330
1E
100
AcDbEntity
  8
0
100
AcDbLine
 10
33.729193
 20
168.9559999999999
 30
0.0
 11
33.729193
 21
167.7059999999999
 31
0.0
  0
LINE
  5
166
330
1E
100
AcDbEntity
  8
0
100
AcDbLine
 10
33.729193
 20
168.9559999999999
 30
0.0
 11
33.729193
 21
169.9559999999999
 31
0.0
  0
LINE
  5
167
330
1E
100
AcDbEntity
  8
0
100
AcDbLine
 10
33.08309299999999
 20
168.789
 30
0.0
 11
33.08309299999999
 21
167.7059999999999
 31
0.0
  0
LINE
  5
168
330
1E
100
AcDbEntity
  8
0
100
AcDbLine
 10
33.08309299999999
 20
168.789
 30
0.0
 11
33.08309299999999
 21
169.789
 31
0.0
  0
LINE
  5
169
330
1E
100
AcDbEntity
  8
0
100
AcDbLine
 10
47.852293
 20
169.789
 30
0.0
 11
62.621493
 21
169.789
 31
0.0
  0
LINE
  5
16A
330
1E
100
AcDbEntity
  8
0
100
AcDbLine
 10
32.806193
 20
169.372
 30
0.0
 11
32.806193
 21
168.6780678700359
 31
0.0
  0
LINE
  5
16B
330
1E
100
AcDbEntity
  8
0
100
AcDbLine
 10
32.806193
 20
169.372
 30
0.0
 11
32.806193
 21
170.4559999999999
 31
0.0
  0
LINE
  5
16C
330
1E
100
AcDbEntity
  8
0
100
AcDbLine
 10
32.806193
 20
168.6780678700359
 30
0.0
 11
32.806193
 21
169.372
 31
0.0
  0
LINE
  5
16D
330
1E
100
AcDbEntity
  8
0
100
AcDbLine
 10
62.621493
 20
169.789
 30
0.0
 11
77.390693
 21
169.789
 31
0.0
  0
LINE
  5
16E
330
1E
100
AcDbEntity
  8
0
100
AcDbLine
 10
32.806193
 20
170.622
 30
0.0
 11
32.806193
 21
170.4559999999999
 31
0.0
  0
LINE
  5
16F
330
1E
100
AcDbEntity
  8
0
100
AcDbLine
 10
32.806193
 20
170.622
 30
0.0
 11
33.08309299999999
 21
171.2059999999999
 31
0.0
  0
LINE
  5
170
330
1E
100
AcDbEntity
  8
0
100
AcDbLine
 10
32.806193
 20
170.4559999999999
 30
0.0
 11
32.806193
 21
169.706
 31
0.0
  0
LINE
  5
171
330
1E
100
AcDbEntity
  8
0
100
AcDbLine
 10
32.806193
 20
170.4559999999999
 30
0.0
 11
32.806193
 21
169.372
 31
0.0
  0
LINE
  5
172
330
1E
100
AcDbEntity
  8
0
100
AcDbLine
 10
33.08309299999999
 20
170.539
 30
0.0
 11
33.08309299999999
 21
169.789
 31
0.0
  0
LINE
  5
173
330
1E
100
AcDbEntity
  8
0
100
AcDbLine
 10
33.08309299999999
 20
170.539
 30
0.0
 11
33.08309299999999
 21
171.039
 31
0.0
  0
LINE
  5
174
330
1E
100
AcDbEntity
  8
0
100
AcDbLine
 10
34.375393
 20
170.539
 30
0.0
 11
34.375393
 21
169.789
 31
0.0
  0
LINE
  5
175
330
1E
100
AcDbEntity
  8
0
100
AcDbLine
 10
34.375393
 20
170.539
 30
0.0
 11
34.375393
 21
171.039
 31
0.0
  0
LINE
  5
176
330
1E
100
AcDbEntity
  8
0
100
AcDbLine
 10
34.375393
 20
171.039
 30
0.0
 11
34.375393
 21
170.539
 31
0.0
  0
LINE
  5
177
330
1E
100
AcDbEntity
  8
0
100
AcDbLine
 10
34.375393
 20
171.039
 30
0.0
 11
34.375393
 21
171.2059999999999
 31
0.0
  0
LINE
  5
178
330
1E
100
AcDbEntity
  8
0
100
AcDbLine
 10
33.729193
 20
170.789
 30
0.0
 11
33.729193
 21
169.9559999999999
 31
0.0
  0
LINE
  5
179
330
1E
100
AcDbEntity
  8
0
100
AcDbLine
 10
33.729193
 20
170.789
 30
0.0
 11
33.729193
 21
171.289
 31
0.0
  0
LINE
  5
17A
330
1E
100
AcDbEntity
  8
0
100
AcDbLine
 10
33.08309299999999
 20
171.039
 30
0.0
 11
33.08309299999999
 21
170.539
 31
0.0
  0
LINE
  5
17B
330
1E
100
AcDbEntity
  8
0
100
AcDbLine
 10
33.08309299999999
 20
171.039
 30
0.0
 11
33.08309299999999
 21
171.2059999999999
 31
0.0
  0
LINE
  5
17C
330
1E
100
AcDbEntity
  8
0
100
AcDbLine
 10
33.729193
 20
169.9559999999999
 30
0.0
 11
33.729193
 21
168.9559999999999
 31
0.0
  0
LINE
  5
17D
330
1E
100
AcDbEntity
  8
0
100
AcDbLine
 10
33.729193
 20
169.9559999999999
 30
0.0
 11
33.729193
 21
170.789
 31
0.0
  0
LINE
  5
17E
330
1E
100
AcDbEntity
  8
0
100
AcDbLine
 10
34.652293
 20
170.039
 30
0.0
 11
34.652293
 21
169.372
 31
0.0
  0
LINE
  5
17F
330
1E
100
AcDbEntity
  8
0
100
AcDbLine
 10
34.652293
 20
170.039
 30
0.0
 11
34.652293
 21
170.4559999999999
 31
0.0
  0
LINE
  5
180
330
1E
100
AcDbEntity
  8
0
100
AcDbLine
 10
34.652293
 20
170.4559999999999
 30
0.0
 11
34.652293
 21
170.039
 31
0.0
  0
LINE
  5
181
330
1E
100
AcDbEntity
  8
0
100
AcDbLine
 10
34.652293
 20
170.4559999999999
 30
0.0
 11
34.652293
 21
170.622
 31
0.0
  0
LINE
  5
182
330
1E
100
AcDbEntity
  8
0
100
AcDbLine
 10
39.544693
 20
170.2059999999999
 30
0.0
 11
47.852293
 21
169.789
 31
0.0
  0
LINE
  5
183
330
1E
100
AcDbEntity
  8
0
100
AcDbLine
 10
34.652293
 20
170.622
 30
0.0
 11
39.544693
 21
170.2059999999999
 31
0.0
  0
LINE
  5
184
330
1E
100
AcDbEntity
  8
0
100
AcDbLine
 10
34.652293
 20
170.622
 30
0.0
 11
34.652293
 21
170.4559999999999
 31
0.0
  0
LINE
  5
185
330
1E
100
AcDbEntity
  8
0
100
AcDbLine
 10
34.375393
 20
171.2059999999999
 30
0.0
 11
34.652293
 21
170.622
 31
0.0
  0
LINE
  5
186
330
1E
100
AcDbEntity
  8
0
100
AcDbLine
 10
34.375393
 20
171.2059999999999
 30
0.0
 11
34.375393
 21
171.039
 31
0.0
  0
LINE
  5
187
330
1E
100
AcDbEntity
  8
0
100
AcDbLine
 10
33.729193
 20
171.289
 30
0.0
 11
33.729193
 21
170.789
 31
0.0
  0
LINE
  5
188
330
1E
100
AcDbEntity
  8
0
100
AcDbLine
 10
33.729193
 20
171.289
 30
0.0
 11
33.729193
 21
171.4559999999999
 31
0.0
  0
LINE
  5
189
330
1E
100
AcDbEntity
  8
0
100
AcDbLine
 10
33.729193
 20
171.4559999999999
 30
0.0
 11
34.375393
 21
171.2059999999999
 31
0.0
  0
LINE
  5
18A
330
1E
100
AcDbEntity
  8
0
100
AcDbLine
 10
33.729193
 20
171.4559999999999
 30
0.0
 11
33.729193
 21
171.289
 31
0.0
  0
LINE
  5
18B
330
1E
100
AcDbEntity
  8
0
100
AcDbLine
 10
33.08309299999999
 20
171.2059999999999
 30
0.0
 11
33.729193
 21
171.4559999999999
 31
0.0
  0
LINE
  5
18C
330
1E
100
AcDbEntity
  8
0
100
AcDbLine
 10
33.08309299999999
 20
171.2059999999999
 30
0.0
 11
33.08309299999999
 21
171.039
 31
0.0
  0
LINE
  5
18D
330
1E
100
AcDbEntity
  8
0
100
AcDbLine
 10
32.806193
 20
170.4559999999999
 30
0.0
 11
32.806193
 21
170.622
 31
0.0
  0
LINE
  5
18E
330
1E
100
AcDbEntity
  8
0
100
AcDbLine
 10
77.390693
 20
169.789
 30
0.0
 11
85.69839300000001
 21
170.2059999999999
 31
0.0
  0
LINE
  5
18F
330
1E
100
AcDbEntity
  8
0
100
AcDbLine
 10
85.69839300000001
 20
170.2059999999999
 30
0.0
 11
90.590793
 21
170.622
 31
0.0
  0
LINE
  5
190
330
1E
100
AcDbEntity
  8
0
100
AcDbLine
 10
77.390693
 20
163.122
 30
0.0
 11
85.69839300000001
 21
162.706
 31
0.0
  0
LINE
  5
191
330
1E
100
AcDbEntity
  8
0
100
AcDbLine
 10
90.590793
 20
162.872
 30
0.0
 11
90.590793
 21
163.5389999999999
 31
0.0
  0
LINE
  5
192
330
1E
100
AcDbEntity
  8
0
100
AcDbLine
 10
90.590793
 20
162.872
 30
0.0
 11
90.590793
 21
162.456
 31
0.0
  0
LINE
  5
193
330
1E
100
AcDbEntity
  8
0
100
AcDbLine
 10
90.590793
 20
162.456
 30
0.0
 11
90.590793
 21
162.872
 31
0.0
  0
LINE
  5
194
330
1E
100
AcDbEntity
  8
0
100
AcDbLine
 10
90.590793
 20
162.456
 30
0.0
 11
90.590793
 21
162.2889999999999
 31
0.0
  0
LINE
  5
195
330
1E
100
AcDbEntity
  8
0
100
AcDbLine
 10
90.590793
 20
163.5389999999999
 30
0.0
 11
90.590793
 21
164.372
 31
0.0
  0
LINE
  5
196
330
1E
100
AcDbEntity
  8
0
100
AcDbLine
 10
90.590793
 20
163.5389999999999
 30
0.0
 11
90.590793
 21
162.872
 31
0.0
  0
LINE
  5
197
330
1E
100
AcDbEntity
  8
0
100
AcDbLine
 10
90.590793
 20
164.372
 30
0.0
 11
90.590793
 21
165.372
 31
0.0
  0
LINE
  5
198
330
1E
100
AcDbEntity
  8
0
100
AcDbLine
 10
90.590793
 20
164.372
 30
0.0
 11
90.590793
 21
163.5389999999999
 31
0.0
  0
LINE
  5
199
330
1E
100
AcDbEntity
  8
0
100
AcDbLine
 10
90.590793
 20
168.539
 30
0.0
 11
90.590793
 21
169.372
 31
0.0
  0
LINE
  5
19A
330
1E
100
AcDbEntity
  8
0
100
AcDbLine
 10
90.590793
 20
168.539
 30
0.0
 11
90.590793
 21
167.539
 31
0.0
  0
LINE
  5
19B
330
1E
100
AcDbEntity
  8
0
100
AcDbLine
 10
90.590793
 20
167.539
 30
0.0
 11
90.590793
 21
168.539
 31
0.0
  0
LINE
  5
19C
330
1E
100
AcDbEntity
  8
0
100
AcDbLine
 10
90.590793
 20
167.539
 30
0.0
 11
90.590793
 21
166.4559999999999
 31
0.0
  0
LINE
  5
19D
330
1E
100
AcDbEntity
  8
0
100
AcDbLine
 10
90.590793
 20
169.372
 30
0.0
 11
90.590793
 21
170.039
 31
0.0
  0
LINE
  5
19E
330
1E
100
AcDbEntity
  8
0
100
AcDbLine
 10
90.590793
 20
169.372
 30
0.0
 11
90.590793
 21
168.539
 31
0.0
  0
LINE
  5
19F
330
1E
100
AcDbEntity
  8
0
100
AcDbLine
 10
90.590793
 20
170.039
 30
0.0
 11
90.590793
 21
170.4559999999999
 31
0.0
  0
LINE
  5
1A0
330
1E
100
AcDbEntity
  8
0
100
AcDbLine
 10
90.590793
 20
170.039
 30
0.0
 11
90.590793
 21
169.372
 31
0.0
  0
LINE
  5
1A1
330
1E
100
AcDbEntity
  8
0
100
AcDbLine
 10
90.590793
 20
170.4559999999999
 30
0.0
 11
90.590793
 21
170.622
 31
0.0
  0
LINE
  5
1A2
330
1E
100
AcDbEntity
  8
0
100
AcDbLine
 10
90.590793
 20
170.4559999999999
 30
0.0
 11
90.590793
 21
170.039
 31
0.0
  0
LINE
  5
1A3
330
1E
100
AcDbEntity
  8
0
100
AcDbLine
 10
90.590793
 20
166.4559999999999
 30
0.0
 11
90.590793
 21
165.372
 31
0.0
  0
LINE
  5
1A4
330
1E
100
AcDbEntity
  8
0
100
AcDbLine
 10
90.590793
 20
166.4559999999999
 30
0.0
 11
90.590793
 21
167.539
 31
0.0
  0
LINE
  5
1A5
330
1E
100
AcDbEntity
  8
0
100
AcDbLine
 10
90.590793
 20
165.372
 30
0.0
 11
90.590793
 21
166.4559999999999
 31
0.0
  0
LINE
  5
1A6
330
1E
100
AcDbEntity
  8
0
100
AcDbLine
 10
90.590793
 20
165.372
 30
0.0
 11
90.590793
 21
164.372
 31
0.0
  0
LINE
  5
1A7
330
1E
100
AcDbEntity
  8
0
100
AcDbLine
 10
90.86779300000001
 20
162.372
 30
0.0
 11
90.86779300000001
 21
163.122
 31
0.0
  0
LINE
  5
1A8
330
1E
100
AcDbEntity
  8
0
100
AcDbLine
 10
90.86779300000001
 20
162.372
 30
0.0
 11
90.86779300000001
 21
161.872
 31
0.0
  0
LINE
  5
1A9
330
1E
100
AcDbEntity
  8
0
100
AcDbLine
 10
90.86779300000001
 20
163.122
 30
0.0
 11
90.86779300000001
 21
164.122
 31
0.0
  0
LINE
  5
1AA
330
1E
100
AcDbEntity
  8
0
100
AcDbLine
 10
90.86779300000001
 20
163.122
 30
0.0
 11
90.86779300000001
 21
162.372
 31
0.0
  0
LINE
  5
1AB
330
1E
100
AcDbEntity
  8
0
100
AcDbLine
 10
90.86779300000001
 20
164.122
 30
0.0
 11
90.86779300000001
 21
165.2059999999999
 31
0.0
  0
LINE
  5
1AC
330
1E
100
AcDbEntity
  8
0
100
AcDbLine
 10
90.86779300000001
 20
164.122
 30
0.0
 11
90.86779300000001
 21
163.122
 31
0.0
  0
LINE
  5
1AD
330
1E
100
AcDbEntity
  8
0
100
AcDbLine
 10
90.86779300000001
 20
168.789
 30
0.0
 11
90.86779300000001
 21
169.789
 31
0.0
  0
LINE
  5
1AE
330
1E
100
AcDbEntity
  8
0
100
AcDbLine
 10
90.86779300000001
 20
168.789
 30
0.0
 11
90.86779300000001
 21
167.7059999999999
 31
0.0
  0
LINE
  5
1AF
330
1E
100
AcDbEntity
  8
0
100
AcDbLine
 10
90.86779300000001
 20
167.7059999999999
 30
0.0
 11
90.86779300000001
 21
168.789
 31
0.0
  0
LINE
  5
1B0
330
1E
100
AcDbEntity
  8
0
100
AcDbLine
 10
90.86779300000001
 20
167.7059999999999
 30
0.0
 11
90.86779300000001
 21
166.4559999999999
 31
0.0
  0
LINE
  5
1B1
330
1E
100
AcDbEntity
  8
0
100
AcDbLine
 10
90.86779300000001
 20
169.789
 30
0.0
 11
90.86779300000001
 21
170.539
 31
0.0
  0
LINE
  5
1B2
330
1E
100
AcDbEntity
  8
0
100
AcDbLine
 10
90.86779300000001
 20
169.789
 30
0.0
 11
90.86779300000001
 21
168.789
 31
0.0
  0
LINE
  5
1B3
330
1E
100
AcDbEntity
  8
0
100
AcDbLine
 10
90.86779300000001
 20
170.539
 30
0.0
 11
90.86779300000001
 21
171.039
 31
0.0
  0
LINE
  5
1B4
330
1E
100
AcDbEntity
  8
0
100
AcDbLine
 10
90.86779300000001
 20
170.539
 30
0.0
 11
90.86779300000001
 21
169.789
 31
0.0
  0
LINE
  5
1B5
330
1E
100
AcDbEntity
  8
0
100
AcDbLine
 10
90.86779300000001
 20
171.039
 30
0.0
 11
90.86779300000001
 21
171.2059999999999
 31
0.0
  0
LINE
  5
1B6
330
1E
100
AcDbEntity
  8
0
100
AcDbLine
 10
90.86779300000001
 20
171.039
 30
0.0
 11
90.86779300000001
 21
170.539
 31
0.0
  0
LINE
  5
1B7
330
1E
100
AcDbEntity
  8
0
100
AcDbLine
 10
90.86779300000001
 20
166.4559999999999
 30
0.0
 11
90.86779300000001
 21
165.2059999999999
 31
0.0
  0
LINE
  5
1B8
330
1E
100
AcDbEntity
  8
0
100
AcDbLine
 10
90.86779300000001
 20
166.4559999999999
 30
0.0
 11
90.86779300000001
 21
167.7059999999999
 31
0.0
  0
LINE
  5
1B9
330
1E
100
AcDbEntity
  8
0
100
AcDbLine
 10
90.86779300000001
 20
165.2059999999999
 30
0.0
 11
90.86779300000001
 21
166.4559999999999
 31
0.0
  0
LINE
  5
1BA
330
1E
100
AcDbEntity
  8
0
100
AcDbLine
 10
90.86779300000001
 20
165.2059999999999
 30
0.0
 11
90.86779300000001
 21
164.122
 31
0.0
  0
LINE
  5
1BB
330
1E
100
AcDbEntity
  8
0
100
AcDbLine
 10
90.590793
 20
170.622
 30
0.0
 11
90.86779300000001
 21
171.2059999999999
 31
0.0
  0
LINE
  5
1BC
330
1E
100
AcDbEntity
  8
0
100
AcDbLine
 10
90.590793
 20
170.622
 30
0.0
 11
90.590793
 21
170.4559999999999
 31
0.0
  0
LINE
  5
1BD
330
1E
100
AcDbEntity
  8
0
100
AcDbLine
 10
90.86779300000001
 20
171.2059999999999
 30
0.0
 11
91.513793
 21
171.4559999999999
 31
0.0
  0
LINE
  5
1BE
330
1E
100
AcDbEntity
  8
0
100
AcDbLine
 10
90.86779300000001
 20
171.2059999999999
 30
0.0
 11
90.86779300000001
 21
171.039
 31
0.0
  0
LINE
  5
1BF
330
1E
100
AcDbEntity
  8
0
100
AcDbLine
 10
85.69839300000001
 20
162.706
 30
0.0
 11
90.590793
 21
162.2889999999999
 31
0.0
  0
LINE
  5
1C0
330
1E
100
AcDbEntity
  8
0
100
AcDbLine
 10
90.590793
 20
162.2889999999999
 30
0.0
 11
90.86779300000001
 21
161.706
 31
0.0
  0
LINE
  5
1C1
330
1E
100
AcDbEntity
  8
0
100
AcDbLine
 10
90.590793
 20
162.2889999999999
 30
0.0
 11
90.590793
 21
162.456
 31
0.0
  0
LINE
  5
1C2
330
1E
100
AcDbEntity
  8
0
100
AcDbLine
 10
91.513793
 20
162.122
 30
0.0
 11
91.513793
 21
162.956
 31
0.0
  0
LINE
  5
1C3
330
1E
100
AcDbEntity
  8
0
100
AcDbLine
 10
91.513793
 20
162.122
 30
0.0
 11
91.513793
 21
161.622
 31
0.0
  0
LINE
  5
1C4
330
1E
100
AcDbEntity
  8
0
100
AcDbLine
 10
91.513793
 20
161.622
 30
0.0
 11
91.513793
 21
162.122
 31
0.0
  0
LINE
  5
1C5
330
1E
100
AcDbEntity
  8
0
100
AcDbLine
 10
91.513793
 20
161.622
 30
0.0
 11
91.513793
 21
161.456
 31
0.0
  0
LINE
  5
1C6
330
1E
100
AcDbEntity
  8
0
100
AcDbLine
 10
92.16009300000001
 20
162.372
 30
0.0
 11
92.16009300000001
 21
163.122
 31
0.0
  0
LINE
  5
1C7
330
1E
100
AcDbEntity
  8
0
100
AcDbLine
 10
92.16009300000001
 20
162.372
 30
0.0
 11
92.16009300000001
 21
161.872
 31
0.0
  0
LINE
  5
1C8
330
1E
100
AcDbEntity
  8
0
100
AcDbLine
 10
92.16009300000001
 20
161.872
 30
0.0
 11
92.16009300000001
 21
162.372
 31
0.0
  0
LINE
  5
1C9
330
1E
100
AcDbEntity
  8
0
100
AcDbLine
 10
92.16009300000001
 20
161.872
 30
0.0
 11
92.16009300000001
 21
161.706
 31
0.0
  0
LINE
  5
1CA
330
1E
100
AcDbEntity
  8
0
100
AcDbLine
 10
91.513793
 20
162.956
 30
0.0
 11
91.513793
 21
163.9559999999999
 31
0.0
  0
LINE
  5
1CB
330
1E
100
AcDbEntity
  8
0
100
AcDbLine
 10
91.513793
 20
162.956
 30
0.0
 11
91.513793
 21
162.122
 31
0.0
  0
LINE
  5
1CC
330
1E
100
AcDbEntity
  8
0
100
AcDbLine
 10
91.513793
 20
163.9559999999999
 30
0.0
 11
91.513793
 21
165.2059999999999
 31
0.0
  0
LINE
  5
1CD
330
1E
100
AcDbEntity
  8
0
100
AcDbLine
 10
91.513793
 20
163.9559999999999
 30
0.0
 11
91.513793
 21
162.956
 31
0.0
  0
LINE
  5
1CE
330
1E
100
AcDbEntity
  8
0
100
AcDbLine
 10
92.16009300000001
 20
163.122
 30
0.0
 11
92.16009300000001
 21
164.122
 31
0.0
  0
LINE
  5
1CF
330
1E
100
AcDbEntity
  8
0
100
AcDbLine
 10
92.16009300000001
 20
163.122
 30
0.0
 11
92.16009300000001
 21
162.372
 31
0.0
  0
LINE
  5
1D0
330
1E
100
AcDbEntity
  8
0
100
AcDbLine
 10
91.513793
 20
168.9559999999999
 30
0.0
 11
91.513793
 21
169.9559999999999
 31
0.0
  0
LINE
  5
1D1
330
1E
100
AcDbEntity
  8
0
100
AcDbLine
 10
91.513793
 20
168.9559999999999
 30
0.0
 11
91.513793
 21
167.7059999999999
 31
0.0
  0
LINE
  5
1D2
330
1E
100
AcDbEntity
  8
0
100
AcDbLine
 10
91.513793
 20
167.7059999999999
 30
0.0
 11
91.513793
 21
168.9559999999999
 31
0.0
  0
LINE
  5
1D3
330
1E
100
AcDbEntity
  8
0
100
AcDbLine
 10
91.513793
 20
167.7059999999999
 30
0.0
 11
91.513793
 21
166.4559999999999
 31
0.0
  0
LINE
  5
1D4
330
1E
100
AcDbEntity
  8
0
100
AcDbLine
 10
91.513793
 20
169.9559999999999
 30
0.0
 11
91.513793
 21
170.789
 31
0.0
  0
LINE
  5
1D5
330
1E
100
AcDbEntity
  8
0
100
AcDbLine
 10
91.513793
 20
169.9559999999999
 30
0.0
 11
91.513793
 21
168.9559999999999
 31
0.0
  0
LINE
  5
1D6
330
1E
100
AcDbEntity
  8
0
100
AcDbLine
 10
91.513793
 20
170.789
 30
0.0
 11
91.513793
 21
171.289
 31
0.0
  0
LINE
  5
1D7
330
1E
100
AcDbEntity
  8
0
100
AcDbLine
 10
91.513793
 20
170.789
 30
0.0
 11
91.513793
 21
169.9559999999999
 31
0.0
  0
LINE
  5
1D8
330
1E
100
AcDbEntity
  8
0
100
AcDbLine
 10
91.513793
 20
166.4559999999999
 30
0.0
 11
91.513793
 21
165.2059999999999
 31
0.0
  0
LINE
  5
1D9
330
1E
100
AcDbEntity
  8
0
100
AcDbLine
 10
91.513793
 20
166.4559999999999
 30
0.0
 11
91.513793
 21
167.7059999999999
 31
0.0
  0
LINE
  5
1DA
330
1E
100
AcDbEntity
  8
0
100
AcDbLine
 10
92.16009300000001
 20
168.789
 30
0.0
 11
92.16009300000001
 21
169.789
 31
0.0
  0
LINE
  5
1DB
330
1E
100
AcDbEntity
  8
0
100
AcDbLine
 10
92.16009300000001
 20
168.789
 30
0.0
 11
92.16009300000001
 21
167.7059999999999
 31
0.0
  0
LINE
  5
1DC
330
1E
100
AcDbEntity
  8
0
100
AcDbLine
 10
92.16009300000001
 20
167.7059999999999
 30
0.0
 11
92.16009300000001
 21
168.789
 31
0.0
  0
LINE
  5
1DD
330
1E
100
AcDbEntity
  8
0
100
AcDbLine
 10
92.16009300000001
 20
167.7059999999999
 30
0.0
 11
92.16009300000001
 21
166.4559999999999
 31
0.0
  0
LINE
  5
1DE
330
1E
100
AcDbEntity
  8
0
100
AcDbLine
 10
92.16009300000001
 20
169.789
 30
0.0
 11
92.16009300000001
 21
170.539
 31
0.0
  0
LINE
  5
1DF
330
1E
100
AcDbEntity
  8
0
100
AcDbLine
 10
92.16009300000001
 20
169.789
 30
0.0
 11
92.16009300000001
 21
168.789
 31
0.0
  0
LINE
  5
1E0
330
1E
100
AcDbEntity
  8
0
100
AcDbLine
 10
92.16009300000001
 20
170.539
 30
0.0
 11
92.16009300000001
 21
171.039
 31
0.0
  0
LINE
  5
1E1
330
1E
100
AcDbEntity
  8
0
100
AcDbLine
 10
92.16009300000001
 20
170.539
 30
0.0
 11
92.16009300000001
 21
169.789
 31
0.0
  0
LINE
  5
1E2
330
1E
100
AcDbEntity
  8
0
100
AcDbLine
 10
92.16009300000001
 20
171.039
 30
0.0
 11
92.16009300000001
 21
171.2059999999999
 31
0.0
  0
LINE
  5
1E3
330
1E
100
AcDbEntity
  8
0
100
AcDbLine
 10
92.16009300000001
 20
171.039
 30
0.0
 11
92.16009300000001
 21
170.539
 31
0.0
  0
LINE
  5
1E4
330
1E
100
AcDbEntity
  8
0
100
AcDbLine
 10
92.16009300000001
 20
166.4559999999999
 30
0.0
 11
92.16009300000001
 21
165.2059999999999
 31
0.0
  0
LINE
  5
1E5
330
1E
100
AcDbEntity
  8
0
100
AcDbLine
 10
92.16009300000001
 20
166.4559999999999
 30
0.0
 11
92.16009300000001
 21
167.7059999999999
 31
0.0
  0
LINE
  5
1E6
330
1E
100
AcDbEntity
  8
0
100
AcDbLine
 10
91.513793
 20
165.2059999999999
 30
0.0
 11
91.513793
 21
166.4559999999999
 31
0.0
  0
LINE
  5
1E7
330
1E
100
AcDbEntity
  8
0
100
AcDbLine
 10
91.513793
 20
165.2059999999999
 30
0.0
 11
91.513793
 21
163.9559999999999
 31
0.0
  0
LINE
  5
1E8
330
1E
100
AcDbEntity
  8
0
100
AcDbLine
 10
92.16009300000001
 20
164.122
 30
0.0
 11
92.16009300000001
 21
165.2059999999999
 31
0.0
  0
LINE
  5
1E9
330
1E
100
AcDbEntity
  8
0
100
AcDbLine
 10
92.16009300000001
 20
164.122
 30
0.0
 11
92.16009300000001
 21
163.122
 31
0.0
  0
LINE
  5
1EA
330
1E
100
AcDbEntity
  8
0
100
AcDbLine
 10
92.16009300000001
 20
165.2059999999999
 30
0.0
 11
92.16009300000001
 21
166.4559999999999
 31
0.0
  0
LINE
  5
1EB
330
1E
100
AcDbEntity
  8
0
100
AcDbLine
 10
92.16009300000001
 20
165.2059999999999
 30
0.0
 11
92.16009300000001
 21
164.122
 31
0.0
  0
LINE
  5
1EC
330
1E
100
AcDbEntity
  8
0
100
AcDbLine
 10
91.513793
 20
171.289
 30
0.0
 11
91.513793
 21
171.4559999999999
 31
0.0
  0
LINE
  5
1ED
330
1E
100
AcDbEntity
  8
0
100
AcDbLine
 10
91.513793
 20
171.289
 30
0.0
 11
91.513793
 21
170.789
 31
0.0
  0
LINE
  5
1EE
330
1E
100
AcDbEntity
  8
0
100
AcDbLine
 10
91.513793
 20
171.4559999999999
 30
0.0
 11
92.16009300000001
 21
171.2059999999999
 31
0.0
  0
LINE
  5
1EF
330
1E
100
AcDbEntity
  8
0
100
AcDbLine
 10
91.513793
 20
171.4559999999999
 30
0.0
 11
91.513793
 21
171.289
 31
0.0
  0
LINE
  5
1F0
330
1E
100
AcDbEntity
  8
0
100
AcDbLine
 10
92.16009300000001
 20
171.2059999999999
 30
0.0
 11
92.43699300000001
 21
170.622
 31
0.0
  0
LINE
  5
1F1
330
1E
100
AcDbEntity
  8
0
100
AcDbLine
 10
92.16009300000001
 20
171.2059999999999
 30
0.0
 11
92.16009300000001
 21
171.039
 31
0.0
  0
LINE
  5
1F2
330
1E
100
AcDbEntity
  8
0
100
AcDbLine
 10
90.86779300000001
 20
161.706
 30
0.0
 11
91.513793
 21
161.456
 31
0.0
  0
LINE
  5
1F3
330
1E
100
AcDbEntity
  8
0
100
AcDbLine
 10
90.86779300000001
 20
161.706
 30
0.0
 11
90.86779300000001
 21
161.872
 31
0.0
  0
LINE
  5
1F4
330
1E
100
AcDbEntity
  8
0
100
AcDbLine
 10
91.513793
 20
161.456
 30
0.0
 11
92.16009300000001
 21
161.706
 31
0.0
  0
LINE
  5
1F5
330
1E
100
AcDbEntity
  8
0
100
AcDbLine
 10
91.513793
 20
161.456
 30
0.0
 11
91.513793
 21
161.622
 31
0.0
  0
LINE
  5
1F6
330
1E
100
AcDbEntity
  8
0
100
AcDbLine
 10
92.43699300000001
 20
169.9559999999999
 30
0.0
 11
95.043093
 21
169.9559999999999
 31
0.0
  0
LINE
  5
1F7
330
1E
100
AcDbEntity
  8
0
100
AcDbLine
 10
92.43699300000001
 20
162.956
 30
0.0
 11
95.043093
 21
162.956
 31
0.0
  0
LINE
  5
1F8
330
1E
100
AcDbEntity
  8
0
100
AcDbLine
 10
92.43699300000001
 20
170.622
 30
0.0
 11
92.43699300000001
 21
162.2889999999999
 31
0.0
  0
LINE
  5
1F9
330
1E
100
AcDbEntity
  8
0
100
AcDbLine
 10
92.43699300000001
 20
162.2889999999999
 30
0.0
 11
92.43699300000001
 21
170.622
 31
0.0
  0
LINE
  5
1FA
330
1E
100
AcDbEntity
  8
0
100
AcDbLine
 10
92.16009300000001
 20
161.706
 30
0.0
 11
92.43699300000001
 21
162.2889999999999
 31
0.0
  0
LINE
  5
1FB
330
1E
100
AcDbEntity
  8
0
100
AcDbLine
 10
92.16009300000001
 20
161.706
 30
0.0
 11
92.16009300000001
 21
161.872
 31
0.0
  0
LINE
  5
1FC
330
1E
100
AcDbEntity
  8
0
100
AcDbLine
 10
95.043093
 20
144.8710471999999
 30
0.0
 11
95.043093
 21
162.956
 31
0.0
  0
LINE
  5
1FD
330
1E
100
AcDbEntity
  8
0
100
AcDbLine
 10
95.043093
 20
169.930639901174
 30
0.0
 11
95.043093
 21
173.2499999999999
 31
0.0
  0
LINE
  5
1FE
330
1E
100
AcDbEntity
  8
0
100
AcDbLine
 10
95.043093
 20
144.8710471999999
 30
0.0
 11
95.043093
 21
138.7499999999999
 31
0.0
  0
LINE
  5
1FF
330
1E
100
AcDbEntity
  8
0
100
AcDbLine
 10
100.343093
 20
173.2499999999999
 30
0.0
 11
104.143093
 21
173.2499999999999
 31
0.0
  0
LINE
  5
200
330
1E
100
AcDbEntity
  8
0
100
AcDbLine
 10
104.143093
 20
173.2499999999999
 30
0.0
 11
108.4430929999999
 21
173.2499999999999
 31
0.0
  0
LINE
  5
201
330
1E
100
AcDbEntity
  8
0
100
AcDbLine
 10
108.4430929999999
 20
173.2499999999999
 30
0.0
 11
113.0430929999999
 21
173.2499999999999
 31
0.0
  0
LINE
  5
202
330
1E
100
AcDbEntity
  8
0
100
AcDbLine
 10
97.44309300000001
 20
173.2499999999999
 30
0.0
 11
100.343093
 21
173.2499999999999
 31
0.0
  0
LINE
  5
203
330
1E
100
AcDbEntity
  8
0
100
AcDbLine
 10
95.74309300000001
 20
173.2499999999999
 30
0.0
 11
97.44309300000001
 21
173.2499999999999
 31
0.0
  0
LINE
  5
204
330
1E
100
AcDbEntity
  8
0
100
AcDbLine
 10
121.9430929999999
 20
173.2499999999999
 30
0.0
 11
125.7430929999999
 21
173.2499999999999
 31
0.0
  0
LINE
  5
205
330
1E
100
AcDbEntity
  8
0
100
AcDbLine
 10
117.6430929999999
 20
173.2499999999999
 30
0.0
 11
121.9430929999999
 21
173.2499999999999
 31
0.0
  0
LINE
  5
206
330
1E
100
AcDbEntity
  8
0
100
AcDbLine
 10
113.0430929999999
 20
173.2499999999999
 30
0.0
 11
117.6430929999999
 21
173.2499999999999
 31
0.0
  0
LINE
  5
207
330
1E
100
AcDbEntity
  8
0
100
AcDbLine
 10
125.7430929999999
 20
173.2499999999999
 30
0.0
 11
128.6430929999999
 21
173.2499999999999
 31
0.0
  0
LINE
  5
208
330
1E
100
AcDbEntity
  8
0
100
AcDbLine
 10
95.043093
 20
162.956
 30
0.0
 11
95.043093
 21
144.8710471999999
 31
0.0
  0
LINE
  5
209
330
1E
100
AcDbEntity
  8
0
100
AcDbLine
 10
95.54309299999999
 20
173.75
 30
0.0
 11
96.14309300000002
 21
173.75
 31
0.0
  0
LINE
  5
20A
330
1E
100
AcDbEntity
  8
0
100
AcDbLine
 10
100.643093
 20
173.75
 30
0.0
 11
104.343093
 21
173.75
 31
0.0
  0
LINE
  5
20B
330
1E
100
AcDbEntity
  8
0
100
AcDbLine
 10
104.343093
 20
173.75
 30
0.0
 11
108.543093
 21
173.75
 31
0.0
  0
LINE
  5
20C
330
1E
100
AcDbEntity
  8
0
100
AcDbLine
 10
108.543093
 20
173.75
 30
0.0
 11
113.0430929999999
 21
173.75
 31
0.0
  0
LINE
  5
20D
330
1E
100
AcDbEntity
  8
0
100
AcDbLine
 10
97.84309300000002
 20
173.75
 30
0.0
 11
100.643093
 21
173.75
 31
0.0
  0
LINE
  5
20E
330
1E
100
AcDbEntity
  8
0
100
AcDbLine
 10
96.14309300000002
 20
173.75
 30
0.0
 11
97.84309300000002
 21
173.75
 31
0.0
  0
LINE
  5
20F
330
1E
100
AcDbEntity
  8
0
100
AcDbLine
 10
121.7430929999999
 20
173.75
 30
0.0
 11
125.4430929999999
 21
173.75
 31
0.0
  0
LINE
  5
210
330
1E
100
AcDbEntity
  8
0
100
AcDbLine
 10
117.543093
 20
173.75
 30
0.0
 11
121.7430929999999
 21
173.75
 31
0.0
  0
LINE
  5
211
330
1E
100
AcDbEntity
  8
0
100
AcDbLine
 10
113.0430929999999
 20
173.75
 30
0.0
 11
117.543093
 21
173.75
 31
0.0
  0
LINE
  5
212
330
1E
100
AcDbEntity
  8
0
100
AcDbLine
 10
125.4430929999999
 20
173.75
 30
0.0
 11
128.2430929999999
 21
173.75
 31
0.0
  0
LINE
  5
213
330
1E
100
AcDbEntity
  8
0
100
AcDbLine
 10
128.2430929999999
 20
173.75
 30
0.0
 11
129.9430929999999
 21
173.75
 31
0.0
  0
LINE
  5
214
330
1E
100
AcDbEntity
  8
0
100
AcDbLine
 10
102.143093
 20
175.75
 30
0.0
 11
105.3430929999999
 21
175.75
 31
0.0
  0
LINE
  5
215
330
1E
100
AcDbEntity
  8
0
100
AcDbLine
 10
105.3430929999999
 20
175.75
 30
0.0
 11
109.0430929999999
 21
175.75
 31
0.0
  0
LINE
  5
216
330
1E
100
AcDbEntity
  8
0
100
AcDbLine
 10
109.0430929999999
 20
175.75
 30
0.0
 11
113.0430929999999
 21
175.75
 31
0.0
  0
LINE
  5
217
330
1E
100
AcDbEntity
  8
0
100
AcDbLine
 10
99.64309300000001
 20
175.75
 30
0.0
 11
102.143093
 21
175.75
 31
0.0
  0
LINE
  5
218
330
1E
100
AcDbEntity
  8
0
100
AcDbLine
 10
98.14309300000001
 20
175.75
 30
0.0
 11
99.64309300000001
 21
175.75
 31
0.0
  0
LINE
  5
219
330
1E
100
AcDbEntity
  8
0
100
AcDbLine
 10
97.543093
 20
175.75
 30
0.0
 11
98.14309300000001
 21
175.75
 31
0.0
  0
LINE
  5
21A
330
1E
100
AcDbEntity
  8
0
100
AcDbLine
 10
120.7430929999999
 20
175.75
 30
0.0
 11
123.9430929999999
 21
175.75
 31
0.0
  0
LINE
  5
21B
330
1E
100
AcDbEntity
  8
0
100
AcDbLine
 10
117.0430929999999
 20
175.75
 30
0.0
 11
120.7430929999999
 21
175.75
 31
0.0
  0
LINE
  5
21C
330
1E
100
AcDbEntity
  8
0
100
AcDbLine
 10
113.0430929999999
 20
175.75
 30
0.0
 11
117.0430929999999
 21
175.75
 31
0.0
  0
LINE
  5
21D
330
1E
100
AcDbEntity
  8
0
100
AcDbLine
 10
123.9430929999999
 20
175.75
 30
0.0
 11
126.4430929999999
 21
175.75
 31
0.0
  0
LINE
  5
21E
330
1E
100
AcDbEntity
  8
0
100
AcDbLine
 10
126.4430929999999
 20
175.75
 30
0.0
 11
127.9430929999999
 21
175.75
 31
0.0
  0
LINE
  5
21F
330
1E
100
AcDbEntity
  8
0
100
AcDbLine
 10
127.9430929999999
 20
175.75
 30
0.0
 11
128.5430929999999
 21
175.75
 31
0.0
  0
LINE
  5
220
330
1E
100
AcDbEntity
  8
0
100
AcDbLine
 10
97.043093
 20
175.2499999999999
 30
0.0
 11
97.543093
 21
175.75
 31
0.0
  0
LINE
  5
221
330
1E
100
AcDbEntity
  8
0
100
AcDbLine
 10
96.54309300000001
 20
174.2499999999999
 30
0.0
 11
97.043093
 21
175.2499999999999
 31
0.0
  0
LINE
  5
222
330
1E
100
AcDbEntity
  8
0
100
AcDbLine
 10
96.043093
 20
173.75
 30
0.0
 11
96.54309300000001
 21
174.2499999999999
 31
0.0
  0
LINE
  5
223
330
1E
100
AcDbEntity
  8
0
100
AcDbLine
 10
95.043093
 20
173.2499999999999
 30
0.0
 11
95.043093
 21
169.930639901174
 31
0.0
  0
LINE
  5
224
330
1E
100
AcDbEntity
  8
0
100
AcDbLine
 10
95.043093
 20
173.2499999999999
 30
0.0
 11
95.54309299999999
 21
173.75
 31
0.0
  0
LINE
  5
225
330
1E
100
AcDbEntity
  8
0
100
AcDbLine
 10
95.043093
 20
173.2499999999999
 30
0.0
 11
95.74309300000001
 21
173.2499999999999
 31
0.0
  0
LINE
  5
226
330
1E
100
AcDbEntity
  8
0
100
AcDbLine
 10
128.5430929999999
 20
175.75
 30
0.0
 11
129.043093
 21
175.2499999999999
 31
0.0
  0
LINE
  5
227
330
1E
100
AcDbEntity
  8
0
100
AcDbLine
 10
128.330803939556
 20
142.993011711554
 30
0.0
 11
128.5430929999999
 21
142.25
 31
0.0
  0
LINE
  5
228
330
1E
100
AcDbEntity
  8
0
100
AcDbLine
 10
129.9430929999999
 20
173.75
 30
0.0
 11
130.5430929999999
 21
173.75
 31
0.0
  0
LINE
  5
229
330
1E
100
AcDbEntity
  8
0
100
AcDbLine
 10
128.6430929999999
 20
173.2499999999999
 30
0.0
 11
130.3430929999999
 21
173.2499999999999
 31
0.0
  0
LINE
  5
22A
330
1E
100
AcDbEntity
  8
0
100
AcDbLine
 10
128.698093
 20
143.092
 30
0.0
 11
130.2820929999999
 21
143.572
 31
0.0
  0
LINE
  5
22B
330
1E
100
AcDbEntity
  8
0
100
AcDbLine
 10
130.3430929999999
 20
173.2499999999999
 30
0.0
 11
131.043093
 21
173.2499999999999
 31
0.0
  0
LINE
  5
22C
330
1E
100
AcDbEntity
  8
0
100
AcDbLine
 10
130.2820929999999
 20
143.572
 30
0.0
 11
131.043093
 21
143.75
 31
0.0
  0
LINE
  5
22D
330
1E
100
AcDbEntity
  8
0
100
AcDbLine
 10
129.043093
 20
175.2499999999999
 30
0.0
 11
129.5430929999999
 21
174.2499999999999
 31
0.0
  0
LINE
  5
22E
330
1E
100
AcDbEntity
  8
0
100
AcDbLine
 10
129.5430929999999
 20
174.2499999999999
 30
0.0
 11
130.043093
 21
173.75
 31
0.0
  0
LINE
  5
22F
330
1E
100
AcDbEntity
  8
0
100
AcDbLine
 10
130.5430929999999
 20
173.75
 30
0.0
 11
131.043093
 21
173.2499999999999
 31
0.0
  0
LINE
  5
230
330
1E
100
AcDbEntity
  8
0
100
AcDbLine
 10
128.5430929999999
 20
142.25
 30
0.0
 11
129.043093
 21
138.7499999999999
 31
0.0
  0
LINE
  5
231
330
1E
100
AcDbEntity
  8
0
100
AcDbLine
 10
129.043093
 20
138.7499999999999
 30
0.0
 11
129.043093
 21
136.7499999999999
 31
0.0
  0
LINE
  5
232
330
1E
100
AcDbEntity
  8
0
100
AcDbLine
 10
131.043093
 20
48.5594
 30
0.0
 11
131.043093
 21
136.25
 31
0.0
  0
LINE
  5
233
330
1E
100
AcDbEntity
  8
0
100
AcDbLine
 10
131.043093
 20
173.2499999999999
 30
0.0
 11
131.043093
 21
143.75
 31
0.0
  0
LINE
  5
234
330
1E
100
AcDbEntity
  8
0
100
AcDbLine
 10
131.043093
 20
143.75
 30
0.0
 11
131.043093
 21
173.2499999999999
 31
0.0
  0
LINE
  5
235
330
1E
100
AcDbEntity
  8
0
100
AcDbLine
 10
130.5430929999999
 20
136.7499999999999
 30
0.0
 11
131.043093
 21
136.25
 31
0.0
  0
LINE
  5
236
330
1E
100
AcDbEntity
  8
0
100
AcDbLine
 10
131.043093
 20
43.55948589189189
 30
0.0
 11
131.043093
 21
13.25
 31
0.0
  0
LINE
  5
237
330
1E
100
AcDbEntity
  8
0
100
AcDbLine
 10
131.043093
 20
136.25
 30
0.0
 11
131.043093
 21
48.5594
 31
0.0
  0
LINE
  5
238
330
1E
100
AcDbEntity
  8
0
100
AcDbLine
 10
131.043093
 20
13.25
 30
0.0
 11
131.5430929999999
 21
10.25
 31
0.0
  0
LINE
  5
239
330
1E
100
AcDbEntity
  8
0
100
AcDbLine
 10
131.043093
 20
13.25
 30
0.0
 11
131.043093
 21
43.55948589189189
 31
0.0
  0
LINE
  5
23A
330
1E
100
AcDbEntity
  8
0
100
AcDbLine
 10
131.5430929999999
 20
10.25
 30
0.0
 11
132.543093
 21
7.74999999999999
 31
0.0
  0
LINE
  5
23B
330
1E
100
AcDbEntity
  8
0
100
AcDbLine
 10
132.543093
 20
7.74999999999999
 30
0.0
 11
134.0430929999999
 21
5.24999999999999
 31
0.0
  0
LINE
  5
23C
330
1E
100
AcDbEntity
  8
0
100
AcDbLine
 10
137.834093
 20
47.01979999999999
 30
0.0
 11
138.1070929999999
 21
47.83
 31
0.0
  0
LINE
  5
23D
330
1E
100
AcDbEntity
  8
0
100
AcDbLine
 10
137.7380929999999
 20
46.0634
 30
0.0
 11
137.8330929999999
 21
45.10629999999999
 31
0.0
  0
LINE
  5
23E
330
1E
100
AcDbEntity
  8
0
100
AcDbLine
 10
137.7380929999999
 20
46.0634
 30
0.0
 11
137.834093
 21
47.01979999999999
 31
0.0
  0
LINE
  5
23F
330
1E
100
AcDbEntity
  8
0
100
AcDbLine
 10
137.8330929999999
 20
45.10629999999999
 30
0.0
 11
138.104093
 21
44.2945
 31
0.0
  0
LINE
  5
240
330
1E
100
AcDbEntity
  8
0
100
AcDbLine
 10
138.513093
 20
48.3707
 30
0.0
 11
138.9920929999999
 21
48.5594
 31
0.0
  0
LINE
  5
241
330
1E
100
AcDbEntity
  8
0
100
AcDbLine
 10
138.1070929999999
 20
47.83
 30
0.0
 11
138.513093
 21
48.3707
 31
0.0
  0
LINE
  5
242
330
1E
100
AcDbEntity
  8
0
100
AcDbLine
 10
138.104093
 20
44.2945
 30
0.0
 11
138.509093
 21
43.75119999999999
 31
0.0
  0
LINE
  5
243
330
1E
100
AcDbEntity
  8
0
100
AcDbLine
 10
138.509093
 20
43.75119999999999
 30
0.0
 11
138.9880929999999
 21
43.55939999999999
 31
0.0
  0
LINE
  5
244
330
1E
100
AcDbEntity
  8
0
100
AcDbLine
 10
138.9880929999999
 20
43.55939999999999
 30
0.0
 11
139.4680929999999
 21
43.7481
 31
0.0
  0
LINE
  5
245
330
1E
100
AcDbEntity
  8
0
100
AcDbLine
 10
138.9920929999999
 20
48.5594
 30
0.0
 11
139.471093
 21
48.3676
 31
0.0
  0
LINE
  5
246
330
1E
100
AcDbEntity
  8
0
100
AcDbLine
 10
134.0430929999999
 20
5.24999999999999
 30
0.0
 11
138.0430929999999
 21
1.749999999999989
 31
0.0
  0
LINE
  5
247
330
1E
100
AcDbEntity
  8
0
100
AcDbLine
 10
134.0430929999999
 20
5.24999999999999
 30
0.0
 11
138.0430929999999
 21
1.749999999999989
 31
0.0
  0
LINE
  5
248
330
1E
100
AcDbEntity
  8
0
100
AcDbLine
 10
138.0430929999999
 20
1.749999999999989
 30
0.0
 11
140.0430929999999
 21
0.749999999999989
 31
0.0
  0
LINE
  5
249
330
1E
100
AcDbEntity
  8
0
100
AcDbLine
 10
140.0430929999999
 20
0.249999999999989
 30
0.0
 11
140.0430929999999
 21
0.749999999999989
 31
0.0
  0
LINE
  5
24A
330
1E
100
AcDbEntity
  8
0
100
AcDbLine
 10
139.4680929999999
 20
43.7481
 30
0.0
 11
139.8740929999999
 21
44.2888
 31
0.0
  0
LINE
  5
24B
330
1E
100
AcDbEntity
  8
0
100
AcDbLine
 10
139.8740929999999
 20
44.2888
 30
0.0
 11
140.146093
 21
45.099
 31
0.0
  0
LINE
  5
24C
330
1E
100
AcDbEntity
  8
0
100
AcDbLine
 10
140.146093
 20
45.099
 30
0.0
 11
140.2420929999999
 21
46.0554
 31
0.0
  0
LINE
  5
24D
330
1E
100
AcDbEntity
  8
0
100
AcDbLine
 10
140.1470929999999
 20
47.0125
 30
0.0
 11
140.2420929999999
 21
46.0554
 31
0.0
  0
LINE
  5
24E
330
1E
100
AcDbEntity
  8
0
100
AcDbLine
 10
139.8770929999999
 20
47.8243
 30
0.0
 11
140.1470929999999
 21
47.0125
 31
0.0
  0
LINE
  5
24F
330
1E
100
AcDbEntity
  8
0
100
AcDbLine
 10
139.471093
 20
48.3676
 30
0.0
 11
139.8770929999999
 21
47.8243
 31
0.0
  0
LINE
  5
250
330
1E
100
AcDbEntity
  8
0
100
AcDbLine
 10
140.0430929999999
 20
0.749999999999989
 30
0.0
 11
140.0430929999999
 21
0.249999999999989
 31
0.0
  0
LINE
  5
251
330
1E
100
AcDbEntity
  8
0
100
AcDbLine
 10
139.0430929999999
 20
0.249999999999989
 30
0.0
 11
140.0430929999999
 21
0.249999999999989
 31
0.0
  0
ENDSEC
  0
SECTION
  2
OBJECTS
  0
DICTIONARY
  5
C
330
0
100
AcDbDictionary
  3
ACAD_GROUP
350
D
  3
ACAD_LAYOUT
350
19
  3
ACAD_MLINESTYLE
350
16
  3
ACAD_PLOTSETTINGS
350
18
  3
ACAD_PLOTSTYLENAME
350
E
  3
ACDBHEADERROUNDTRIPXREC
350
259
  3
ACDBVARIABLEDICTIONARY
350
256
  0
DICTIONARY
  5
27B
330
1E
100
AcDbDictionary
280
     1
  3
ACAD_LAYOUTSELFREF
360
27C
  0
DICTIONARY
  5
279
330
1A
100
AcDbDictionary
280
     1
  3
ACAD_LAYOUTSELFREF
360
27A
  0
DICTIONARY
  5
D
102
{ACAD_REACTORS
330
C
102
}
330
C
100
AcDbDictionary
  0
DICTIONARY
  5
19
102
{ACAD_REACTORS
330
C
102
}
330
C
100
AcDbDictionary
  0
DICTIONARY
  5
16
102
{ACAD_REACTORS
330
C
102
}
330
C
100
AcDbDictionary
  3
STANDARD
350
17
  0
DICTIONARY
  5
18
102
{ACAD_REACTORS
330
C
102
}
330
C
100
AcDbDictionary
  0
ACDBDICTIONARYWDFLT
  5
E
102
{ACAD_REACTORS
330
C
102
}
330
C
100
AcDbDictionary
281
     1
  3
Normal
350
F
100
AcDbDictionaryWithDefault
340
F
  0
DICTIONARY
  5
259
102
{ACAD_REACTORS
330
C
102
}
330
C
100
AcDbDictionary
  3
CEPSNTYPE
350
263
  3
FINGERPRINTGUID
350
264
  3
HYPERLINKBASE
350
25C
  3
INSUNITS
350
262
  3
LAYOUTDICT
350
25E
  3
LWETCUNION
350
261
  3
PLOTSETDICT
350
25F
  3
PLOTSTYLNAMDICT
350
260
  3
PSVPSCALE
350
266
  3
PUCSBASE
350
269
  3
PUCSORGBACK
350
26F
  3
PUCSORGBOTTOM
350
26B
  3
PUCSORGFRONT
350
26E
  3
PUCSORGLEFT
350
26C
  3
PUCSORGRIGHT
350
26D
  3
PUCSORGTOP
350
26A
  3
PUCSORTHOREF
350
267
  3
PUCSORTHOVIEW
350
268
  3
STYLESHEET
350
25D
  3
TSTACKALIGN
350
25A
  3
TSTACKSIZE
350
25B
  3
UCSBASE
350
272
  3
UCSORGBACK
350
278
  3
UCSORGBOTTOM
350
274
  3
UCSORGFRONT
350
277
  3
UCSORGLEFT
350
275
  3
UCSORGRIGHT
350
276
  3
UCSORGTOP
350
273
  3
UCSORTHOREF
350
270
  3
UCSORTHOVIEW
350
271
  3
VERSIONGUID
350
265
  0
DICTIONARY
  5
256
102
{ACAD_REACTORS
330
C
102
}
330
C
100
AcDbDictionary
  3
DIMASSOC
350
257
  0
XRECORD
  5
27C
102
{ACAD_REACTORS
330
27B
102
}
330
27B
100
AcDbXrecord
340
1E
  0
XRECORD
  5
27A
102
{ACAD_REACTORS
330
279
102
}
330
279
100
AcDbXrecord
340
1A
  0
MLINESTYLE
  5
17
102
{ACAD_REACTORS
330
16
102
}
330
16
100
AcDbMlineStyle
  2
STANDARD
 70
     0
  3

 62
   256
 51
90.0
 52
90.0
 71
     2
 49
0.5
 62
   256
  6
BYLAYER
 49
-0.5
 62
   256
  6
BYLAYER
  0
ACDBPLACEHOLDER
  5
F
102
{ACAD_REACTORS
330
E
102
}
330
E
100
AcDbPlaceHolder
280
     0
  0
XRECORD
  5
263
102
{ACAD_REACTORS
330
259
102
}
330
259
100
AcDbXrecord
 90
        0
  0
XRECORD
  5
264
102
{ACAD_REACTORS
330
259
102
}
330
259
100
AcDbXrecord
  1
{6FB93F11-A3F1-4FDC-A4DD-CACD880E3E8C}
  0
XRECORD
  5
25C
102
{ACAD_REACTORS
330
259
102
}
330
259
100
AcDbXrecord
  1

  0
XRECORD
  5
262
102
{ACAD_REACTORS
330
259
102
}
330
259
100
AcDbXrecord
 90
        0
  0
XRECORD
  5
25E
102
{ACAD_REACTORS
330
259
102
}
330
259
100
AcDbXrecord
340
19
  0
XRECORD
  5
261
102
{ACAD_REACTORS
330
259
102
}
330
259
100
AcDbXrecord
 90
    10781
  0
XRECORD
  5
25F
102
{ACAD_REACTORS
330
259
102
}
330
259
100
AcDbXrecord
340
18
  0
XRECORD
  5
260
102
{ACAD_REACTORS
330
259
102
}
330
259
100
AcDbXrecord
340
E
  0
XRECORD
  5
266
102
{ACAD_REACTORS
330
259
102
}
330
259
100
AcDbXrecord
 40
0.0
  0
XRECORD
  5
269
102
{ACAD_REACTORS
330
259
102
}
330
259
100
AcDbXrecord
340
0
  0
XRECORD
  5
26F
102
{ACAD_REACTORS
330
259
102
}
330
259
100
AcDbXrecord
 10
0.0
 20
0.0
 30
0.0
  0
XRECORD
  5
26B
102
{ACAD_REACTORS
330
259
102
}
330
259
100
AcDbXrecord
 10
0.0
 20
0.0
 30
0.0
  0
XRECORD
  5
26E
102
{ACAD_REACTORS
330
259
102
}
330
259
100
AcDbXrecord
 10
0.0
 20
0.0
 30
0.0
  0
XRECORD
  5
26C
102
{ACAD_REACTORS
330
259
102
}
330
259
100
AcDbXrecord
 10
0.0
 20
0.0
 30
0.0
  0
XRECORD
  5
26D
102
{ACAD_REACTORS
330
259
102
}
330
259
100
AcDbXrecord
 10
0.0
 20
0.0
 30
0.0
  0
XRECORD
  5
26A
102
{ACAD_REACTORS
330
259
102
}
330
259
100
AcDbXrecord
 10
0.0
 20
0.0
 30
0.0
  0
XRECORD
  5
267
102
{ACAD_REACTORS
330
259
102
}
330
259
100
AcDbXrecord
340
0
  0
XRECORD
  5
268
102
{ACAD_REACTORS
330
259
102
}
330
259
100
AcDbXrecord
 70
     0
  0
XRECORD
  5
25D
102
{ACAD_REACTORS
330
259
102
}
330
259
100
AcDbXrecord
  1

  0
XRECORD
  5
25A
102
{ACAD_REACTORS
330
259
102
}
330
259
100
AcDbXrecord
 90
        1
  0
XRECORD
  5
25B
102
{ACAD_REACTORS
330
259
102
}
330
259
100
AcDbXrecord
 90
       70
  0
XRECORD
  5
272
102
{ACAD_REACTORS
330
259
102
}
330
259
100
AcDbXrecord
340
0
  0
XRECORD
  5
278
102
{ACAD_REACTORS
330
259
102
}
330
259
100
AcDbXrecord
 10
0.0
 20
0.0
 30
0.0
  0
XRECORD
  5
274
102
{ACAD_REACTORS
330
259
102
}
330
259
100
AcDbXrecord
 10
0.0
 20
0.0
 30
0.0
  0
XRECORD
  5
277
102
{ACAD_REACTORS
330
259
102
}
330
259
100
AcDbXrecord
 10
0.0
 20
0.0
 30
0.0
  0
XRECORD
  5
275
102
{ACAD_REACTORS
330
259
102
}
330
259
100
AcDbXrecord
 10
0.0
 20
0.0
 30
0.0
  0
XRECORD
  5
276
102
{ACAD_REACTORS
330
259
102
}
330
259
100
AcDbXrecord
 10
0.0
 20
0.0
 30
0.0
  0
XRECORD
  5
273
102
{ACAD_REACTORS
330
259
102
}
330
259
100
AcDbXrecord
 10
0.0
 20
0.0
 30
0.0
  0
XRECORD
  5
270
102
{ACAD_REACTORS
330
259
102
}
330
259
100
AcDbXrecord
340
0
  0
XRECORD
  5
271
102
{ACAD_REACTORS
330
259
102
}
330
259
100
AcDbXrecord
 70
     1
  0
XRECORD
  5
265
102
{ACAD_REACTORS
330
259
102
}
330
259
100
AcDbXrecord
  1
{0A4C6D66-D06F-4A5A-B201-23D58BADA4FD}
  0
DICTIONARYVAR
  5
257
102
{ACAD_REACTORS
330
256
102
}
330
256
100
DictionaryVariables
280
     0
  1
1
  0
ENDSEC
  0
EOF
