  0
SECTION
  2
HEADER
  9
$ACADVER
  1
AC1015
  9
$ACADMAINTVER
 70
    13
  9
$DWGCODEPAGE
  3
ANSI_1252
  9
$INSBASE
 10
0.0
 20
0.0
 30
0.0
  9
$EXTMIN
 10
-0.0124499999999986
 20
0.0000000000000166
 30
0.0
  9
$EXTMAX
 10
101.01245
 20
1008.0
 30
0.0
  9
$LIMMIN
 10
0.0
 20
0.0
  9
$LIMMAX
 10
12.0
 20
9.0
  9
$ORTHOMODE
 70
     0
  9
$REGENMODE
 70
     1
  9
$FILLMODE
 70
     1
  9
$QTEXTMODE
 70
     0
  9
$MIRRTEXT
 70
     1
  9
$LTSCALE
 40
1.0
  9
$ATTMODE
 70
     1
  9
$TEXTSIZE
 40
0.2
  9
$TRACEWID
 40
0.05
  9
$TEXTSTYLE
  7
Standard
  9
$CLAYER
  8
0
  9
$CELTYPE
  6
Continuous
  9
$CECOLOR
 62
   256
  9
$CELTSCALE
 40
1.0
  9
$DISPSILH
 70
     0
  9
$DIMSCALE
 40
1.0
  9
$DIMASZ
 40
0.18
  9
$DIMEXO
 40
0.0625
  9
$DIMDLI
 40
0.38
  9
$DIMRND
 40
0.0
  9
$DIMDLE
 40
0.0
  9
$DIMEXE
 40
0.18
  9
$DIMTP
 40
0.0
  9
$DIMTM
 40
0.0
  9
$DIMTXT
 40
0.18
  9
$DIMCEN
 40
0.09
  9
$DIMTSZ
 40
0.0
  9
$DIMTOL
 70
     0
  9
$DIMLIM
 70
     0
  9
$DIMTIH
 70
     1
  9
$DIMTOH
 70
     1
  9
$DIMSE1
 70
     0
  9
$DIMSE2
 70
     0
  9
$DIMTAD
 70
     0
  9
$DIMZIN
 70
     0
  9
$DIMBLK
  1

  9
$DIMASO
 70
     1
  9
$DIMSHO
 70
     1
  9
$DIMPOST
  1

  9
$DIMAPOST
  1

  9
$DIMALT
 70
     0
  9
$DIMALTD
 70
     2
  9
$DIMALTF
 40
25.4
  9
$DIMLFAC
 40
1.0
  9
$DIMTOFL
 70
     0
  9
$DIMTVP
 40
0.0
  9
$DIMTIX
 70
     0
  9
$DIMSOXD
 70
     0
  9
$DIMSAH
 70
     0
  9
$DIMBLK1
  1

  9
$DIMBLK2
  1

  9
$DIMSTYLE
  2
Standard
  9
$DIMCLRD
 70
     0
  9
$DIMCLRE
 70
     0
  9
$DIMCLRT
 70
     0
  9
$DIMTFAC
 40
1.0
  9
$DIMGAP
 40
0.09
  9
$DIMJUST
 70
     0
  9
$DIMSD1
 70
     0
  9
$DIMSD2
 70
     0
  9
$DIMTOLJ
 70
     1
  9
$DIMTZIN
 70
     0
  9
$DIMALTZ
 70
     0
  9
$DIMALTTZ
 70
     0
  9
$DIMUPT
 70
     0
  9
$DIMDEC
 70
     4
  9
$DIMTDEC
 70
     4
  9
$DIMALTU
 70
     2
  9
$DIMALTTD
 70
     2
  9
$DIMTXSTY
  7
Standard
  9
$DIMAUNIT
 70
     0
  9
$DIMADEC
 70
     0
  9
$DIMALTRND
 40
0.0
  9
$DIMAZIN
 70
     0
  9
$DIMDSEP
 70
    46
  9
$DIMATFIT
 70
     3
  9
$DIMFRAC
 70
     0
  9
$DIMLDRBLK
  1

  9
$DIMLUNIT
 70
     2
  9
$DIMLWD
 70
    -2
  9
$DIMLWE
 70
    -2
  9
$DIMTMOVE
 70
     0
  9
$LUNITS
 70
     2
  9
$LUPREC
 70
     4
  9
$SKETCHINC
 40
0.1
  9
$FILLETRAD
 40
0.0
  9
$AUNITS
 70
     0
  9
$AUPREC
 70
     0
  9
$MENU
  1
.
  9
$ELEVATION
 40
0.0
  9
$PELEVATION
 40
0.0
  9
$THICKNESS
 40
0.0
  9
$LIMCHECK
 70
     0
  9
$CHAMFERA
 40
0.0
  9
$CHAMFERB
 40
0.0
  9
$CHAMFERC
 40
0.0
  9
$CHAMFERD
 40
0.0
  9
$SKPOLY
 70
     0
  9
$TDCREATE
 40
2454738.452262002
  9
$TDUCREATE
 40
2454738.368928669
  9
$TDUPDATE
 40
2454738.456004583
  9
$TDUUPDATE
 40
2454738.372671250
  9
$TDINDWG
 40
0.0037425810
  9
$TDUSRTIMER
 40
0.0037425810
  9
$USRTIMER
 70
     1
  9
$ANGBASE
 50
0.0
  9
$ANGDIR
 70
     0
  9
$PDMODE
 70
     0
  9
$PDSIZE
 40
0.0
  9
$PLINEWID
 40
0.0
  9
$SPLFRAME
 70
     0
  9
$SPLINETYPE
 70
     6
  9
$SPLINESEGS
 70
     8
  9
$HANDSEED
  5
1A9
  9
$SURFTAB1
 70
     6
  9
$SURFTAB2
 70
     6
  9
$SURFTYPE
 70
     6
  9
$SURFU
 70
     6
  9
$SURFV
 70
     6
  9
$UCSBASE
  2

  9
$UCSNAME
  2

  9
$UCSORG
 10
0.0
 20
0.0
 30
0.0
  9
$UCSXDIR
 10
1.0
 20
0.0
 30
0.0
  9
$UCSYDIR
 10
0.0
 20
1.0
 30
0.0
  9
$UCSORTHOREF
  2

  9
$UCSORTHOVIEW
 70
     1
  9
$UCSORGTOP
 10
0.0
 20
0.0
 30
0.0
  9
$UCSORGBOTTOM
 10
0.0
 20
0.0
 30
0.0
  9
$UCSORGLEFT
 10
0.0
 20
0.0
 30
0.0
  9
$UCSORGRIGHT
 10
0.0
 20
0.0
 30
0.0
  9
$UCSORGFRONT
 10
0.0
 20
0.0
 30
0.0
  9
$UCSORGBACK
 10
0.0
 20
0.0
 30
0.0
  9
$PUCSBASE
  2

  9
$PUCSNAME
  2

  9
$PUCSORG
 10
0.0
 20
0.0
 30
0.0
  9
$PUCSXDIR
 10
1.0
 20
0.0
 30
0.0
  9
$PUCSYDIR
 10
0.0
 20
1.0
 30
0.0
  9
$PUCSORTHOREF
  2

  9
$PUCSORTHOVIEW
 70
     0
  9
$PUCSORGTOP
 10
0.0
 20
0.0
 30
0.0
  9
$PUCSORGBOTTOM
 10
0.0
 20
0.0
 30
0.0
  9
$PUCSORGLEFT
 10
0.0
 20
0.0
 30
0.0
  9
$PUCSORGRIGHT
 10
0.0
 20
0.0
 30
0.0
  9
$PUCSORGFRONT
 10
0.0
 20
0.0
 30
0.0
  9
$PUCSORGBACK
 10
0.0
 20
0.0
 30
0.0
  9
$USERI1
 70
     0
  9
$USERI2
 70
     0
  9
$USERI3
 70
     0
  9
$USERI4
 70
     0
  9
$USERI5
 70
     0
  9
$USERR1
 40
0.0
  9
$USERR2
 40
0.0
  9
$USERR3
 40
0.0
  9
$USERR4
 40
0.0
  9
$USERR5
 40
0.0
  9
$WORLDVIEW
 70
     1
  9
$SHADEDGE
 70
     3
  9
$SHADEDIF
 70
    70
  9
$TILEMODE
 70
     1
  9
$MAXACTVP
 70
    64
  9
$PINSBASE
 10
0.0
 20
0.0
 30
0.0
  9
$PLIMCHECK
 70
     0
  9
$PEXTMIN
 10
1.000000000000000E+20
 20
1.000000000000000E+20
 30
1.000000000000000E+20
  9
$PEXTMAX
 10
-1.000000000000000E+20
 20
-1.000000000000000E+20
 30
-1.000000000000000E+20
  9
$PLIMMIN
 10
0.0
 20
0.0
  9
$PLIMMAX
 10
12.0
 20
9.0
  9
$UNITMODE
 70
     0
  9
$VISRETAIN
 70
     1
  9
$PLINEGEN
 70
     0
  9
$PSLTSCALE
 70
     1
  9
$TREEDEPTH
 70
  3020
  9
$CMLSTYLE
  2
Standard
  9
$CMLJUST
 70
     0
  9
$CMLSCALE
 40
1.0
  9
$PROXYGRAPHICS
 70
     1
  9
$MEASUREMENT
 70
     0
  9
$CELWEIGHT
370
    -1
  9
$ENDCAPS
280
     0
  9
$JOINSTYLE
280
     0
  9
$LWDISPLAY
290
     0
  9
$INSUNITS
 70
     0
  9
$HYPERLINKBASE
  1

  9
$STYLESHEET
  1

  9
$XEDIT
290
     1
  9
$CEPSNTYPE
380
     0
  9
$PSTYLEMODE
290
     1
  9
$FINGERPRINTGUID
  2
{DE6EBCD1-1FF7-4DDF-9F89-6F0284B5315D}
  9
$VERSIONGUID
  2
{93FC99C2-F2BE-4035-AF56-6E5BDA1B11E5}
  9
$EXTNAMES
290
     1
  9
$PSVPSCALE
 40
0.0
  9
$OLESTARTUP
290
     0
  0
ENDSEC
  0
SECTION
  2
CLASSES
  0
CLASS
  1
ACDBDICTIONARYWDFLT
  2
AcDbDictionaryWithDefault
  3
AutoCAD 2000
 90
        0
280
     0
281
     0
  0
CLASS
  1
ACDBPLACEHOLDER
  2
AcDbPlaceHolder
  3
AutoCAD 2000
 90
        0
280
     0
281
     0
  0
CLASS
  1
LAYOUT
  2
AcDbLayout
  3
AutoCAD 2000
 90
        0
280
     0
281
     0
  0
CLASS
  1
DICTIONARYVAR
  2
AcDbDictionaryVar
  3
AutoCAD 2000
 90
        0
280
     0
281
     0
  0
ENDSEC
  0
SECTION
  2
TABLES
  0
TABLE
  2
VPORT
  5
8
330
0
100
AcDbSymbolTable
 70
     2
  0
VPORT
  5
1A8
330
8
100
AcDbSymbolTableRecord
100
AcDbViewportTableRecord
  2
*Active
 70
     0
 10
0.0
 20
0.0
 11
1.0
 21
1.0
 12
50.5
 22
504.0
 13
0.0
 23
0.0
 14
1.0
 24
1.0
 15
0.0
 25
0.0
 16
0.0
 26
0.0
 36
1.0
 17
0.0
 27
0.0
 37
0.0
 40
1015.734015345268
 41
2.078104993597951
 42
50.0
 43
0.0
 44
0.0
 50
0.0
 51
0.0
 71
     0
 72
   100
 73
     1
 74
     3
 75
     0
 76
     0
 77
     0
 78
     0
281
     0
 65
     1
110
0.0
120
0.0
130
0.0
111
1.0
121
0.0
131
0.0
112
0.0
122
1.0
132
0.0
 79
     1
146
0.0
  0
ENDTAB
  0
TABLE
  2
LTYPE
  5
5
330
0
100
AcDbSymbolTable
 70
     1
  0
LTYPE
  5
13
330
5
100
AcDbSymbolTableRecord
100
AcDbLinetypeTableRecord
  2
ByBlock
 70
     0
  3

 72
    65
 73
     0
 40
0.0
  0
LTYPE
  5
14
330
5
100
AcDbSymbolTableRecord
100
AcDbLinetypeTableRecord
  2
ByLayer
 70
     0
  3

 72
    65
 73
     0
 40
0.0
  0
LTYPE
  5
15
330
5
100
AcDbSymbolTableRecord
100
AcDbLinetypeTableRecord
  2
Continuous
 70
     0
  3
Solid line
 72
    65
 73
     0
 40
0.0
  0
ENDTAB
  0
TABLE
  2
LAYER
  5
2
330
0
100
AcDbSymbolTable
 70
     1
  0
LAYER
  5
10
330
2
100
AcDbSymbolTableRecord
100
AcDbLayerTableRecord
  2
0
 70
     0
 62
     7
  6
Continuous
370
    -3
390
F
  0
ENDTAB
  0
TABLE
  2
STYLE
  5
3
330
0
100
AcDbSymbolTable
 70
     1
  0
STYLE
  5
11
330
3
100
AcDbSymbolTableRecord
100
AcDbTextStyleTableRecord
  2
Standard
 70
     0
 40
0.0
 41
1.0
 50
0.0
 71
     0
 42
0.2
  3
txt
  4

  0
ENDTAB
  0
TABLE
  2
VIEW
  5
6
330
0
100
AcDbSymbolTable
 70
     0
  0
ENDTAB
  0
TABLE
  2
UCS
  5
7
330
0
100
AcDbSymbolTable
 70
     0
  0
ENDTAB
  0
TABLE
  2
APPID
  5
9
330
0
100
AcDbSymbolTable
 70
     1
  0
APPID
  5
12
330
9
100
AcDbSymbolTableRecord
100
AcDbRegAppTableRecord
  2
ACAD
 70
     0
  0
ENDTAB
  0
TABLE
  2
DIMSTYLE
  5
A
330
0
100
AcDbSymbolTable
 70
     1
100
AcDbDimStyleTable
 71
     0
  0
DIMSTYLE
105
1A2
330
A
100
AcDbSymbolTableRecord
100
AcDbDimStyleTableRecord
  2
Standard
 70
     0
340
11
  0
ENDTAB
  0
TABLE
  2
BLOCK_RECORD
  5
1
330
0
100
AcDbSymbolTable
 70
     0
  0
BLOCK_RECORD
  5
1E
330
1
100
AcDbSymbolTableRecord
100
AcDbBlockTableRecord
  2
*Model_Space
340
21
  0
BLOCK_RECORD
  5
1A
330
1
100
AcDbSymbolTableRecord
100
AcDbBlockTableRecord
  2
*Paper_Space
340
1D
  0
ENDTAB
  0
ENDSEC
  0
SECTION
  2
BLOCKS
  0
BLOCK
  5
1F
330
1E
100
AcDbEntity
  8
0
100
AcDbBlockBegin
  2
*Model_Space
 70
     0
 10
0.0
 20
0.0
 30
0.0
  3
*Model_Space
  1

  0
ENDBLK
  5
20
330
1E
100
AcDbEntity
  8
0
100
AcDbBlockEnd
  0
BLOCK
  5
1B
330
1A
100
AcDbEntity
 67
     1
  8
0
100
AcDbBlockBegin
  2
*Paper_Space
 70
     0
 10
0.0
 20
0.0
 30
0.0
  3
*Paper_Space
  1

  0
ENDBLK
  5
1C
330
1A
100
AcDbEntity
 67
     1
  8
0
100
AcDbBlockEnd
  0
ENDSEC
  0
SECTION
  2
ENTITIES
  0
LINE
  5
22
330
1E
100
AcDbEntity
  8
0
100
AcDbLine
 10
4.781649999999999
 20
645.0
 30
0.0
 11
33.24325
 21
645.0
 31
0.0
  0
LINE
  5
23
330
1E
100
AcDbEntity
  8
0
100
AcDbLine
 10
4.781649999999999
 20
645.0
 30
0.0
 11
33.24325
 21
645.0
 31
0.0
  0
LINE
  5
24
330
1E
100
AcDbEntity
  8
0
100
AcDbLine
 10
33.24325
 20
645.0
 30
0.0
 11
34.01245
 21
645.384
 31
0.0
  0
LINE
  5
25
330
1E
100
AcDbEntity
  8
0
100
AcDbLine
 10
4.01245
 20
645.96
 30
0.0
 11
4.01245
 21
645.384
 31
0.0
  0
LINE
  5
26
330
1E
100
AcDbEntity
  8
0
100
AcDbLine
 10
4.01245
 20
645.96
 30
0.0
 11
4.01245
 21
647.496
 31
0.0
  0
LINE
  5
27
330
1E
100
AcDbEntity
  8
0
100
AcDbLine
 10
4.01245
 20
645.384
 30
0.0
 11
4.781649999999999
 21
645.0
 31
0.0
  0
LINE
  5
28
330
1E
100
AcDbEntity
  8
0
100
AcDbLine
 10
4.01245
 20
645.384
 30
0.0
 11
4.01245
 21
645.96
 31
0.0
  0
LINE
  5
29
330
1E
100
AcDbEntity
  8
0
100
AcDbLine
 10
34.01245
 20
645.96
 30
0.0
 11
34.01245
 21
647.496
 31
0.0
  0
LINE
  5
2A
330
1E
100
AcDbEntity
  8
0
100
AcDbLine
 10
34.01245
 20
645.96
 30
0.0
 11
34.01245
 21
645.384
 31
0.0
  0
LINE
  5
2B
330
1E
100
AcDbEntity
  8
0
100
AcDbLine
 10
34.01245
 20
645.384
 30
0.0
 11
34.01245
 21
645.96
 31
0.0
  0
LINE
  5
2C
330
1E
100
AcDbEntity
  8
0
100
AcDbLine
 10
34.01245
 20
645.0
 30
0.0
 11
39.01245
 21
645.0
 31
0.0
  0
LINE
  5
2D
330
1E
100
AcDbEntity
  8
0
100
AcDbLine
 10
34.01245
 20
645.0
 30
0.0
 11
34.01245
 21
645.384
 31
0.0
  0
LINE
  5
2E
330
1E
100
AcDbEntity
  8
0
100
AcDbLine
 10
34.01245
 20
645.6019999999999
 30
0.0
 11
34.01245
 21
645.0
 31
0.0
  0
LINE
  5
2F
330
1E
100
AcDbEntity
  8
0
100
AcDbLine
 10
4.01245
 20
649.9919999999999
 30
0.0
 11
4.01245
 21
647.496
 31
0.0
  0
LINE
  5
30
330
1E
100
AcDbEntity
  8
0
100
AcDbLine
 10
4.01245
 20
649.9919999999999
 30
0.0
 11
4.01245
 21
653.256
 31
0.0
  0
LINE
  5
31
330
1E
100
AcDbEntity
  8
0
100
AcDbLine
 10
4.01245
 20
647.496
 30
0.0
 11
4.01245
 21
645.96
 31
0.0
  0
LINE
  5
32
330
1E
100
AcDbEntity
  8
0
100
AcDbLine
 10
4.01245
 20
647.496
 30
0.0
 11
4.01245
 21
649.9919999999999
 31
0.0
  0
LINE
  5
33
330
1E
100
AcDbEntity
  8
0
100
AcDbLine
 10
34.01245
 20
649.9919999999999
 30
0.0
 11
34.01245
 21
653.256
 31
0.0
  0
LINE
  5
34
330
1E
100
AcDbEntity
  8
0
100
AcDbLine
 10
34.01245
 20
649.9919999999999
 30
0.0
 11
34.01245
 21
647.496
 31
0.0
  0
LINE
  5
35
330
1E
100
AcDbEntity
  8
0
100
AcDbLine
 10
34.01245
 20
647.496
 30
0.0
 11
34.01245
 21
649.9919999999999
 31
0.0
  0
LINE
  5
36
330
1E
100
AcDbEntity
  8
0
100
AcDbLine
 10
34.01245
 20
647.496
 30
0.0
 11
34.01245
 21
645.96
 31
0.0
  0
LINE
  5
37
330
1E
100
AcDbEntity
  8
0
100
AcDbLine
 10
34.01245
 20
647.1599999999999
 30
0.0
 11
34.01245
 21
645.6019999999999
 31
0.0
  0
LINE
  5
38
330
1E
100
AcDbEntity
  8
0
100
AcDbLine
 10
39.67245
 20
0.0000000000000171
 30
0.0
 11
40.72845
 21
0.0000000000000169
 31
0.0
  0
LINE
  5
39
330
1E
100
AcDbEntity
  8
0
100
AcDbLine
 10
39.67245
 20
0.0000000000000174
 30
0.0
 11
40.72845
 21
0.0000000000000176
 31
0.0
  0
LINE
  5
3A
330
1E
100
AcDbEntity
  8
0
100
AcDbLine
 10
39.27645
 20
0.0000000000000173
 30
0.0
 11
39.67245
 21
0.0000000000000174
 31
0.0
  0
LINE
  5
3B
330
1E
100
AcDbEntity
  8
0
100
AcDbLine
 10
39.27645
 20
0.0000000000000173
 30
0.0
 11
39.67245
 21
0.0000000000000171
 31
0.0
  0
LINE
  5
3C
330
1E
100
AcDbEntity
  8
0
100
AcDbLine
 10
39.40845
 20
69.61539999999999
 30
0.0
 11
40.46445
 21
69.61539999999999
 31
0.0
  0
LINE
  5
3D
330
1E
100
AcDbEntity
  8
0
100
AcDbLine
 10
39.40845
 20
0.3846150000000171
 30
0.0
 11
40.46445
 21
0.384615000000018
 31
0.0
  0
LINE
  5
3E
330
1E
100
AcDbEntity
  8
0
100
AcDbLine
 10
39.01245
 20
69.61539999999999
 30
0.0
 11
39.01245
 21
0.3846150000000161
 31
0.0
  0
LINE
  5
3F
330
1E
100
AcDbEntity
  8
0
100
AcDbLine
 10
39.01245
 20
69.61539999999999
 30
0.0
 11
39.40845
 21
69.61539999999999
 31
0.0
  0
LINE
  5
40
330
1E
100
AcDbEntity
  8
0
100
AcDbLine
 10
39.01245
 20
69.61539999999999
 30
0.0
 11
39.27645
 21
70.0
 31
0.0
  0
LINE
  5
41
330
1E
100
AcDbEntity
  8
0
100
AcDbLine
 10
39.01245
 20
0.3846150000000171
 30
0.0
 11
39.40845
 21
0.3846150000000171
 31
0.0
  0
LINE
  5
42
330
1E
100
AcDbEntity
  8
0
100
AcDbLine
 10
39.01245
 20
0.3846150000000171
 30
0.0
 11
39.27645
 21
0.0000000000000173
 31
0.0
  0
LINE
  5
43
330
1E
100
AcDbEntity
  8
0
100
AcDbLine
 10
39.01245
 20
0.3846150000000171
 30
0.0
 11
39.01245
 21
69.61539999999999
 31
0.0
  0
LINE
  5
44
330
1E
100
AcDbEntity
  8
0
100
AcDbLine
 10
39.01245
 20
0.3846150000000171
 30
0.0
 11
39.27645
 21
0.0000000000000173
 31
0.0
  0
LINE
  5
45
330
1E
100
AcDbEntity
  8
0
100
AcDbLine
 10
40.72845
 20
0.0000000000000169
 30
0.0
 11
42.44445
 21
0.0000000000000168
 31
0.0
  0
LINE
  5
46
330
1E
100
AcDbEntity
  8
0
100
AcDbLine
 10
42.44445
 20
0.0000000000000168
 30
0.0
 11
44.68845
 21
0.0000000000000167
 31
0.0
  0
LINE
  5
47
330
1E
100
AcDbEntity
  8
0
100
AcDbLine
 10
42.44445
 20
0.0000000000000177
 30
0.0
 11
44.68845
 21
0.0000000000000178
 31
0.0
  0
LINE
  5
48
330
1E
100
AcDbEntity
  8
0
100
AcDbLine
 10
40.72845
 20
0.0000000000000176
 30
0.0
 11
42.44445
 21
0.0000000000000177
 31
0.0
  0
LINE
  5
49
330
1E
100
AcDbEntity
  8
0
100
AcDbLine
 10
42.22444999999999
 20
69.61539999999999
 30
0.0
 11
44.55644999999999
 21
69.61539999999999
 31
0.0
  0
LINE
  5
4A
330
1E
100
AcDbEntity
  8
0
100
AcDbLine
 10
42.22444999999999
 20
0.384615000000018
 30
0.0
 11
44.55644999999999
 21
0.384615000000018
 31
0.0
  0
LINE
  5
4B
330
1E
100
AcDbEntity
  8
0
100
AcDbLine
 10
40.46445
 20
69.61539999999999
 30
0.0
 11
42.22444999999999
 21
69.61539999999999
 31
0.0
  0
LINE
  5
4C
330
1E
100
AcDbEntity
  8
0
100
AcDbLine
 10
40.46445
 20
0.384615000000018
 30
0.0
 11
42.22444999999999
 21
0.384615000000018
 31
0.0
  0
LINE
  5
4D
330
1E
100
AcDbEntity
  8
0
100
AcDbLine
 10
44.68845
 20
0.0000000000000167
 30
0.0
 11
47.24045
 21
0.0000000000000166
 31
0.0
  0
LINE
  5
4E
330
1E
100
AcDbEntity
  8
0
100
AcDbLine
 10
47.24045
 20
0.0000000000000166
 30
0.0
 11
50.01245
 21
0.0000000000000166
 31
0.0
  0
LINE
  5
4F
330
1E
100
AcDbEntity
  8
0
100
AcDbLine
 10
47.24045
 20
0.0000000000000179
 30
0.0
 11
50.01245
 21
0.0000000000000179
 31
0.0
  0
LINE
  5
50
330
1E
100
AcDbEntity
  8
0
100
AcDbLine
 10
44.68845
 20
0.0000000000000178
 30
0.0
 11
47.24045
 21
0.0000000000000179
 31
0.0
  0
LINE
  5
51
330
1E
100
AcDbEntity
  8
0
100
AcDbLine
 10
47.19644999999999
 20
69.61539999999999
 30
0.0
 11
50.01245
 21
69.61539999999999
 31
0.0
  0
LINE
  5
52
330
1E
100
AcDbEntity
  8
0
100
AcDbLine
 10
47.19644999999999
 20
0.384615000000018
 30
0.0
 11
50.01245
 21
0.384615000000018
 31
0.0
  0
LINE
  5
53
330
1E
100
AcDbEntity
  8
0
100
AcDbLine
 10
44.55644999999999
 20
69.61539999999999
 30
0.0
 11
47.19644999999999
 21
69.61539999999999
 31
0.0
  0
LINE
  5
54
330
1E
100
AcDbEntity
  8
0
100
AcDbLine
 10
44.55644999999999
 20
0.384615000000018
 30
0.0
 11
47.19644999999999
 21
0.384615000000018
 31
0.0
  0
LINE
  5
55
330
1E
100
AcDbEntity
  8
0
100
AcDbLine
 10
50.01245
 20
0.0000000000000166
 30
0.0
 11
52.78445
 21
0.0000000000000166
 31
0.0
  0
LINE
  5
56
330
1E
100
AcDbEntity
  8
0
100
AcDbLine
 10
50.01245
 20
0.0000000000000179
 30
0.0
 11
52.78445
 21
0.0000000000000179
 31
0.0
  0
LINE
  5
57
330
1E
100
AcDbEntity
  8
0
100
AcDbLine
 10
50.01245
 20
0.384615000000018
 30
0.0
 11
52.82845
 21
0.384615000000018
 31
0.0
  0
LINE
  5
58
330
1E
100
AcDbEntity
  8
0
100
AcDbLine
 10
50.01245
 20
69.61539999999999
 30
0.0
 11
52.82845
 21
69.61539999999999
 31
0.0
  0
LINE
  5
59
330
1E
100
AcDbEntity
  8
0
100
AcDbLine
 10
47.24045
 20
70.0
 30
0.0
 11
50.01245
 21
70.0
 31
0.0
  0
LINE
  5
5A
330
1E
100
AcDbEntity
  8
0
100
AcDbLine
 10
44.68845
 20
70.0
 30
0.0
 11
47.24045
 21
70.0
 31
0.0
  0
LINE
  5
5B
330
1E
100
AcDbEntity
  8
0
100
AcDbLine
 10
42.44445
 20
70.0
 30
0.0
 11
44.68845
 21
70.0
 31
0.0
  0
LINE
  5
5C
330
1E
100
AcDbEntity
  8
0
100
AcDbLine
 10
40.72845
 20
70.0
 30
0.0
 11
42.44445
 21
70.0
 31
0.0
  0
LINE
  5
5D
330
1E
100
AcDbEntity
  8
0
100
AcDbLine
 10
39.67245
 20
70.0
 30
0.0
 11
40.72845
 21
70.0
 31
0.0
  0
LINE
  5
5E
330
1E
100
AcDbEntity
  8
0
100
AcDbLine
 10
39.27645
 20
70.0
 30
0.0
 11
39.67245
 21
70.0
 31
0.0
  0
LINE
  5
5F
330
1E
100
AcDbEntity
  8
0
100
AcDbLine
 10
52.78445
 20
0.0000000000000166
 30
0.0
 11
55.33644999999999
 21
0.0000000000000167
 31
0.0
  0
LINE
  5
60
330
1E
100
AcDbEntity
  8
0
100
AcDbLine
 10
52.78445
 20
0.0000000000000179
 30
0.0
 11
55.33644999999999
 21
0.0000000000000178
 31
0.0
  0
LINE
  5
61
330
1E
100
AcDbEntity
  8
0
100
AcDbLine
 10
55.33644999999999
 20
0.0000000000000167
 30
0.0
 11
57.58045
 21
0.0000000000000168
 31
0.0
  0
LINE
  5
62
330
1E
100
AcDbEntity
  8
0
100
AcDbLine
 10
55.33644999999999
 20
0.0000000000000178
 30
0.0
 11
57.58045
 21
0.0000000000000177
 31
0.0
  0
LINE
  5
63
330
1E
100
AcDbEntity
  8
0
100
AcDbLine
 10
52.82845
 20
0.384615000000018
 30
0.0
 11
55.46845
 21
0.384615000000018
 31
0.0
  0
LINE
  5
64
330
1E
100
AcDbEntity
  8
0
100
AcDbLine
 10
52.82845
 20
69.61539999999999
 30
0.0
 11
55.46845
 21
69.61539999999999
 31
0.0
  0
LINE
  5
65
330
1E
100
AcDbEntity
  8
0
100
AcDbLine
 10
50.01245
 20
70.0
 30
0.0
 11
52.78445
 21
70.0
 31
0.0
  0
LINE
  5
66
330
1E
100
AcDbEntity
  8
0
100
AcDbLine
 10
52.78445
 20
70.0
 30
0.0
 11
55.33644999999999
 21
70.0
 31
0.0
  0
LINE
  5
67
330
1E
100
AcDbEntity
  8
0
100
AcDbLine
 10
55.46845
 20
0.384615000000018
 30
0.0
 11
57.80045
 21
0.384615000000018
 31
0.0
  0
LINE
  5
68
330
1E
100
AcDbEntity
  8
0
100
AcDbLine
 10
57.58045
 20
0.0000000000000168
 30
0.0
 11
59.29645
 21
0.0000000000000169
 31
0.0
  0
LINE
  5
69
330
1E
100
AcDbEntity
  8
0
100
AcDbLine
 10
59.29645
 20
0.0000000000000169
 30
0.0
 11
60.35244999999999
 21
0.0000000000000171
 31
0.0
  0
LINE
  5
6A
330
1E
100
AcDbEntity
  8
0
100
AcDbLine
 10
57.58045
 20
0.0000000000000177
 30
0.0
 11
59.29645
 21
0.0000000000000176
 31
0.0
  0
LINE
  5
6B
330
1E
100
AcDbEntity
  8
0
100
AcDbLine
 10
59.29645
 20
0.0000000000000176
 30
0.0
 11
60.35244999999999
 21
0.0000000000000174
 31
0.0
  0
LINE
  5
6C
330
1E
100
AcDbEntity
  8
0
100
AcDbLine
 10
57.80045
 20
0.384615000000018
 30
0.0
 11
59.56045
 21
0.384615000000018
 31
0.0
  0
LINE
  5
6D
330
1E
100
AcDbEntity
  8
0
100
AcDbLine
 10
55.46845
 20
69.61539999999999
 30
0.0
 11
57.80045
 21
69.61539999999999
 31
0.0
  0
LINE
  5
6E
330
1E
100
AcDbEntity
  8
0
100
AcDbLine
 10
57.80045
 20
69.61539999999999
 30
0.0
 11
59.56045
 21
69.61539999999999
 31
0.0
  0
LINE
  5
6F
330
1E
100
AcDbEntity
  8
0
100
AcDbLine
 10
55.33644999999999
 20
70.0
 30
0.0
 11
57.58045
 21
70.0
 31
0.0
  0
LINE
  5
70
330
1E
100
AcDbEntity
  8
0
100
AcDbLine
 10
57.58045
 20
70.0
 30
0.0
 11
59.29645
 21
70.0
 31
0.0
  0
LINE
  5
71
330
1E
100
AcDbEntity
  8
0
100
AcDbLine
 10
59.56045
 20
0.384615000000018
 30
0.0
 11
60.61645
 21
0.3846150000000171
 31
0.0
  0
LINE
  5
72
330
1E
100
AcDbEntity
  8
0
100
AcDbLine
 10
60.74844999999999
 20
0.0000000000000173
 30
0.0
 11
61.01245
 21
0.3846150000000171
 31
0.0
  0
LINE
  5
73
330
1E
100
AcDbEntity
  8
0
100
AcDbLine
 10
60.35244999999999
 20
0.0000000000000171
 30
0.0
 11
60.74844999999999
 21
0.0000000000000173
 31
0.0
  0
LINE
  5
74
330
1E
100
AcDbEntity
  8
0
100
AcDbLine
 10
60.35244999999999
 20
0.0000000000000174
 30
0.0
 11
60.74844999999999
 21
0.0000000000000173
 31
0.0
  0
LINE
  5
75
330
1E
100
AcDbEntity
  8
0
100
AcDbLine
 10
60.74844999999999
 20
0.0000000000000173
 30
0.0
 11
61.01245
 21
0.3846150000000171
 31
0.0
  0
LINE
  5
76
330
1E
100
AcDbEntity
  8
0
100
AcDbLine
 10
60.61645
 20
0.3846150000000171
 30
0.0
 11
61.01245
 21
0.3846150000000171
 31
0.0
  0
LINE
  5
77
330
1E
100
AcDbEntity
  8
0
100
AcDbLine
 10
59.56045
 20
69.61539999999999
 30
0.0
 11
60.61645
 21
69.61539999999999
 31
0.0
  0
LINE
  5
78
330
1E
100
AcDbEntity
  8
0
100
AcDbLine
 10
60.61645
 20
69.61539999999999
 30
0.0
 11
61.01245
 21
69.61539999999999
 31
0.0
  0
LINE
  5
79
330
1E
100
AcDbEntity
  8
0
100
AcDbLine
 10
59.29645
 20
70.0
 30
0.0
 11
60.35244999999999
 21
70.0
 31
0.0
  0
LINE
  5
7A
330
1E
100
AcDbEntity
  8
0
100
AcDbLine
 10
39.01245
 20
70.59999999999999
 30
0.0
 11
39.27645
 21
70.0
 31
0.0
  0
LINE
  5
7B
330
1E
100
AcDbEntity
  8
0
100
AcDbLine
 10
39.01245
 20
70.59999999999999
 30
0.0
 11
39.01245
 21
504.0
 31
0.0
  0
LINE
  5
7C
330
1E
100
AcDbEntity
  8
0
100
AcDbLine
 10
60.35244999999999
 20
70.0
 30
0.0
 11
60.74844999999999
 21
70.0
 31
0.0
  0
LINE
  5
7D
330
1E
100
AcDbEntity
  8
0
100
AcDbLine
 10
61.01245
 20
69.61539999999999
 30
0.0
 11
61.01245
 21
0.3846150000000161
 31
0.0
  0
LINE
  5
7E
330
1E
100
AcDbEntity
  8
0
100
AcDbLine
 10
61.01245
 20
0.3846150000000171
 30
0.0
 11
61.01245
 21
69.61539999999999
 31
0.0
  0
LINE
  5
7F
330
1E
100
AcDbEntity
  8
0
100
AcDbLine
 10
60.74844999999999
 20
70.0
 30
0.0
 11
61.01245
 21
70.59999999999999
 31
0.0
  0
LINE
  5
80
330
1E
100
AcDbEntity
  8
0
100
AcDbLine
 10
60.74844999999999
 20
70.0
 30
0.0
 11
61.01245
 21
69.61539999999999
 31
0.0
  0
LINE
  5
81
330
1E
100
AcDbEntity
  8
0
100
AcDbLine
 10
61.01245
 20
504.0
 30
0.0
 11
61.01245
 21
70.59999999999999
 31
0.0
  0
LINE
  5
82
330
1E
100
AcDbEntity
  8
0
100
AcDbLine
 10
61.01245
 20
504.0
 30
0.0
 11
61.01245
 21
645.0
 31
0.0
  0
LINE
  5
83
330
1E
100
AcDbEntity
  8
0
100
AcDbLine
 10
39.01245
 20
504.0
 30
0.0
 11
39.01245
 21
70.59999999999999
 31
0.0
  0
LINE
  5
84
330
1E
100
AcDbEntity
  8
0
100
AcDbLine
 10
39.01245
 20
504.0
 30
0.0
 11
39.01245
 21
645.07525
 31
0.0
  0
LINE
  5
85
330
1E
100
AcDbEntity
  8
0
100
AcDbLine
 10
61.01245
 20
70.59999999999999
 30
0.0
 11
61.01245
 21
504.0
 31
0.0
  0
LINE
  5
86
330
1E
100
AcDbEntity
  8
0
100
AcDbLine
 10
74.01245
 20
645.0
 30
0.0
 11
77.01245
 21
645.0
 31
0.0
  0
LINE
  5
87
330
1E
100
AcDbEntity
  8
0
100
AcDbLine
 10
39.01245
 20
645.07525
 30
0.0
 11
39.01245
 21
504.0
 31
0.0
  0
LINE
  5
88
330
1E
100
AcDbEntity
  8
0
100
AcDbLine
 10
61.01245
 20
645.0
 30
0.0
 11
74.01245
 21
645.0
 31
0.0
  0
LINE
  5
89
330
1E
100
AcDbEntity
  8
0
100
AcDbLine
 10
61.01245
 20
645.0
 30
0.0
 11
61.01245
 21
504.0
 31
0.0
  0
LINE
  5
8A
330
1E
100
AcDbEntity
  8
0
100
AcDbLine
 10
34.01245
 20
649.7869999999998
 30
0.0
 11
34.01245
 21
647.1599999999999
 31
0.0
  0
LINE
  5
8B
330
1E
100
AcDbEntity
  8
0
100
AcDbLine
 10
4.01245
 20
656.968
 30
0.0
 11
4.01245
 21
661.0
 31
0.0
  0
LINE
  5
8C
330
1E
100
AcDbEntity
  8
0
100
AcDbLine
 10
4.01245
 20
656.968
 30
0.0
 11
4.01245
 21
653.256
 31
0.0
  0
LINE
  5
8D
330
1E
100
AcDbEntity
  8
0
100
AcDbLine
 10
4.01245
 20
656.968
 30
0.0
 11
4.01245
 21
653.256
 31
0.0
  0
LINE
  5
8E
330
1E
100
AcDbEntity
  8
0
100
AcDbLine
 10
4.01245
 20
656.968
 30
0.0
 11
4.01245
 21
661.0
 31
0.0
  0
LINE
  5
8F
330
1E
100
AcDbEntity
  8
0
100
AcDbLine
 10
4.01245
 20
653.256
 30
0.0
 11
4.01245
 21
649.9919999999999
 31
0.0
  0
LINE
  5
90
330
1E
100
AcDbEntity
  8
0
100
AcDbLine
 10
4.01245
 20
653.256
 30
0.0
 11
4.01245
 21
656.968
 31
0.0
  0
LINE
  5
91
330
1E
100
AcDbEntity
  8
0
100
AcDbLine
 10
4.01245
 20
653.256
 30
0.0
 11
4.01245
 21
656.968
 31
0.0
  0
LINE
  5
92
330
1E
100
AcDbEntity
  8
0
100
AcDbLine
 10
4.01245
 20
661.0
 30
0.0
 11
4.01245
 21
656.968
 31
0.0
  0
LINE
  5
93
330
1E
100
AcDbEntity
  8
0
100
AcDbLine
 10
4.01245
 20
661.0
 30
0.0
 11
4.01245
 21
656.968
 31
0.0
  0
LINE
  5
94
330
1E
100
AcDbEntity
  8
0
100
AcDbLine
 10
4.01245
 20
661.0
 30
0.0
 11
4.01245
 21
665.0319999999999
 31
0.0
  0
LINE
  5
95
330
1E
100
AcDbEntity
  8
0
100
AcDbLine
 10
34.01245
 20
661.0
 30
0.0
 11
34.01245
 21
656.968
 31
0.0
  0
LINE
  5
96
330
1E
100
AcDbEntity
  8
0
100
AcDbLine
 10
34.01245
 20
661.0
 30
0.0
 11
34.01245
 21
665.0319999999999
 31
0.0
  0
LINE
  5
97
330
1E
100
AcDbEntity
  8
0
100
AcDbLine
 10
34.01245
 20
656.968
 30
0.0
 11
34.01245
 21
661.0
 31
0.0
  0
LINE
  5
98
330
1E
100
AcDbEntity
  8
0
100
AcDbLine
 10
34.01245
 20
656.968
 30
0.0
 11
34.01245
 21
653.256
 31
0.0
  0
LINE
  5
99
330
1E
100
AcDbEntity
  8
0
100
AcDbLine
 10
34.01245
 20
653.256
 30
0.0
 11
34.01245
 21
656.968
 31
0.0
  0
LINE
  5
9A
330
1E
100
AcDbEntity
  8
0
100
AcDbLine
 10
34.01245
 20
653.256
 30
0.0
 11
34.01245
 21
649.9919999999999
 31
0.0
  0
LINE
  5
9B
330
1E
100
AcDbEntity
  8
0
100
AcDbLine
 10
4.01245
 20
665.0319999999999
 30
0.0
 11
4.01245
 21
661.0
 31
0.0
  0
LINE
  5
9C
330
1E
100
AcDbEntity
  8
0
100
AcDbLine
 10
4.01245
 20
665.0319999999999
 30
0.0
 11
4.01245
 21
668.7439999999999
 31
0.0
  0
LINE
  5
9D
330
1E
100
AcDbEntity
  8
0
100
AcDbLine
 10
34.01245
 20
665.0319999999999
 30
0.0
 11
34.01245
 21
668.7439999999999
 31
0.0
  0
LINE
  5
9E
330
1E
100
AcDbEntity
  8
0
100
AcDbLine
 10
34.01245
 20
665.0319999999999
 30
0.0
 11
34.01245
 21
661.0
 31
0.0
  0
LINE
  5
9F
330
1E
100
AcDbEntity
  8
0
100
AcDbLine
 10
34.01245
 20
668.7439999999999
 30
0.0
 11
34.01245
 21
672.008
 31
0.0
  0
LINE
  5
A0
330
1E
100
AcDbEntity
  8
0
100
AcDbLine
 10
34.01245
 20
668.7439999999999
 30
0.0
 11
34.01245
 21
665.0319999999999
 31
0.0
  0
LINE
  5
A1
330
1E
100
AcDbEntity
  8
0
100
AcDbLine
 10
4.01245
 20
668.7439999999999
 30
0.0
 11
4.01245
 21
665.0319999999999
 31
0.0
  0
LINE
  5
A2
330
1E
100
AcDbEntity
  8
0
100
AcDbLine
 10
4.01245
 20
668.7439999999999
 30
0.0
 11
4.01245
 21
672.008
 31
0.0
  0
LINE
  5
A3
330
1E
100
AcDbEntity
  8
0
100
AcDbLine
 10
4.01245
 20
668.7439999999999
 30
0.0
 11
4.01245
 21
671.0251209338809
 31
0.0
  0
LINE
  5
A4
330
1E
100
AcDbEntity
  8
0
100
AcDbLine
 10
4.01245
 20
671.0251209338809
 30
0.0
 11
4.01245
 21
668.7439999999999
 31
0.0
  0
LINE
  5
A5
330
1E
100
AcDbEntity
  8
0
100
AcDbLine
 10
4.01245
 20
672.008
 30
0.0
 11
4.01245
 21
668.7439999999999
 31
0.0
  0
LINE
  5
A6
330
1E
100
AcDbEntity
  8
0
100
AcDbLine
 10
4.01245
 20
672.008
 30
0.0
 11
4.01245
 21
674.5039999999999
 31
0.0
  0
LINE
  5
A7
330
1E
100
AcDbEntity
  8
0
100
AcDbLine
 10
34.01245
 20
672.008
 30
0.0
 11
34.01245
 21
674.5039999999999
 31
0.0
  0
LINE
  5
A8
330
1E
100
AcDbEntity
  8
0
100
AcDbLine
 10
34.01245
 20
672.008
 30
0.0
 11
34.01245
 21
668.7439999999999
 31
0.0
  0
LINE
  5
A9
330
1E
100
AcDbEntity
  8
0
100
AcDbLine
 10
34.01245
 20
674.5039999999999
 30
0.0
 11
34.01245
 21
676.0399999999999
 31
0.0
  0
LINE
  5
AA
330
1E
100
AcDbEntity
  8
0
100
AcDbLine
 10
34.01245
 20
674.5039999999999
 30
0.0
 11
34.01245
 21
672.008
 31
0.0
  0
LINE
  5
AB
330
1E
100
AcDbEntity
  8
0
100
AcDbLine
 10
4.01245
 20
674.5039999999999
 30
0.0
 11
4.01245
 21
672.008
 31
0.0
  0
LINE
  5
AC
330
1E
100
AcDbEntity
  8
0
100
AcDbLine
 10
4.01245
 20
674.5039999999999
 30
0.0
 11
4.01245
 21
676.0399999999999
 31
0.0
  0
LINE
  5
AD
330
1E
100
AcDbEntity
  8
0
100
AcDbLine
 10
34.01245
 20
676.0399999999999
 30
0.0
 11
34.01245
 21
676.6160000000001
 31
0.0
  0
LINE
  5
AE
330
1E
100
AcDbEntity
  8
0
100
AcDbLine
 10
34.01245
 20
676.0399999999999
 30
0.0
 11
34.01245
 21
674.5039999999999
 31
0.0
  0
LINE
  5
AF
330
1E
100
AcDbEntity
  8
0
100
AcDbLine
 10
4.01245
 20
676.0399999999999
 30
0.0
 11
4.01245
 21
674.5039999999999
 31
0.0
  0
LINE
  5
B0
330
1E
100
AcDbEntity
  8
0
100
AcDbLine
 10
34.01245
 20
676.4249999999999
 30
0.0
 11
34.01245
 21
674.8939999999999
 31
0.0
  0
LINE
  5
B1
330
1E
100
AcDbEntity
  8
0
100
AcDbLine
 10
34.01245
 20
676.6160000000001
 30
0.0
 11
34.01245
 21
677.076
 31
0.0
  0
LINE
  5
B2
330
1E
100
AcDbEntity
  8
0
100
AcDbLine
 10
34.01245
 20
676.6160000000001
 30
0.0
 11
34.01245
 21
676.0399999999999
 31
0.0
  0
LINE
  5
B3
330
1E
100
AcDbEntity
  8
0
100
AcDbLine
 10
34.01245
 20
674.8939999999999
 30
0.0
 11
34.01245
 21
672.325
 31
0.0
  0
LINE
  5
B4
330
1E
100
AcDbEntity
  8
0
100
AcDbLine
 10
34.01245
 20
672.325
 30
0.0
 11
34.01245
 21
669.076
 31
0.0
  0
LINE
  5
B5
330
1E
100
AcDbEntity
  8
0
100
AcDbLine
 10
34.01245
 20
669.076
 30
0.0
 11
34.01245
 21
665.174
 31
0.0
  0
LINE
  5
B6
330
1E
100
AcDbEntity
  8
0
100
AcDbLine
 10
34.01245
 20
665.174
 30
0.0
 11
34.01245
 21
661.016
 31
0.0
  0
LINE
  5
B7
330
1E
100
AcDbEntity
  8
0
100
AcDbLine
 10
34.01245
 20
661.016
 30
0.0
 11
34.01245
 21
656.8889999999998
 31
0.0
  0
LINE
  5
B8
330
1E
100
AcDbEntity
  8
0
100
AcDbLine
 10
34.01245
 20
656.8889999999998
 30
0.0
 11
34.01245
 21
653.038
 31
0.0
  0
LINE
  5
B9
330
1E
100
AcDbEntity
  8
0
100
AcDbLine
 10
33.24325
 20
677.0
 30
0.0
 11
34.01245
 21
676.6160000000001
 31
0.0
  0
LINE
  5
BA
330
1E
100
AcDbEntity
  8
0
100
AcDbLine
 10
8.379686574615449
 20
677.0
 30
0.0
 11
33.24325
 21
677.0
 31
0.0
  0
LINE
  5
BB
330
1E
100
AcDbEntity
  8
0
100
AcDbLine
 10
0.0902500000000001
 20
683.4459999999999
 30
0.0
 11
0.364150000000001
 21
683.535
 31
0.0
  0
LINE
  5
BC
330
1E
100
AcDbEntity
  8
0
100
AcDbLine
 10
0.364150000000001
 20
683.535
 30
0.0
 11
0.82065
 21
683.6829999999999
 31
0.0
  0
LINE
  5
BD
330
1E
100
AcDbEntity
  8
0
100
AcDbLine
 10
2.840749999999999
 20
684.3389999999999
 30
0.0
 11
3.571149999999999
 21
684.5769999999999
 31
0.0
  0
LINE
  5
BE
330
1E
100
AcDbEntity
  8
0
100
AcDbLine
 10
3.571149999999999
 20
684.5769999999999
 30
0.0
 11
4.255849999999999
 21
684.799
 31
0.0
  0
LINE
  5
BF
330
1E
100
AcDbEntity
  8
0
100
AcDbLine
 10
4.255849999999999
 20
684.799
 30
0.0
 11
4.86075
 21
684.9960000000001
 31
0.0
  0
LINE
  5
C0
330
1E
100
AcDbEntity
  8
0
100
AcDbLine
 10
4.86075
 20
684.9960000000001
 30
0.0
 11
5.317249999999999
 21
685.1439999999999
 31
0.0
  0
LINE
  5
C1
330
1E
100
AcDbEntity
  8
0
100
AcDbLine
 10
5.317249999999999
 20
685.1439999999999
 30
0.0
 11
5.591149999999999
 21
685.2330000000001
 31
0.0
  0
LINE
  5
C2
330
1E
100
AcDbEntity
  8
0
100
AcDbLine
 10
5.69385
 20
685.2660000000001
 30
0.0
 11
8.379686574615449
 21
677.0
 31
0.0
  0
LINE
  5
C3
330
1E
100
AcDbEntity
  8
0
100
AcDbLine
 10
5.69385
 20
685.2660000000001
 30
0.0
 11
8.379686574615458
 21
677.0
 31
0.0
  0
LINE
  5
C4
330
1E
100
AcDbEntity
  8
0
100
AcDbLine
 10
5.591149999999999
 20
685.2330000000001
 30
0.0
 11
5.69385
 21
685.2660000000001
 31
0.0
  0
LINE
  5
C5
330
1E
100
AcDbEntity
  8
0
100
AcDbLine
 10
2.110349999999999
 20
684.102
 30
0.0
 11
2.840749999999999
 21
684.3389999999999
 31
0.0
  0
LINE
  5
C6
330
1E
100
AcDbEntity
  8
0
100
AcDbLine
 10
1.42555
 20
683.8789999999999
 30
0.0
 11
2.110349999999999
 21
684.102
 31
0.0
  0
LINE
  5
C7
330
1E
100
AcDbEntity
  8
0
100
AcDbLine
 10
0.82065
 20
683.6829999999999
 30
0.0
 11
1.42555
 21
683.8789999999999
 31
0.0
  0
LINE
  5
C8
330
1E
100
AcDbEntity
  8
0
100
AcDbLine
 10
0.364150000000001
 20
683.535
 30
0.0
 11
0.82065
 21
683.6829999999999
 31
0.0
  0
LINE
  5
C9
330
1E
100
AcDbEntity
  8
0
100
AcDbLine
 10
0.0902500000000001
 20
683.4459999999999
 30
0.0
 11
0.364150000000001
 21
683.535
 31
0.0
  0
LINE
  5
CA
330
1E
100
AcDbEntity
  8
0
100
AcDbLine
 10
-0.0124499999999985
 20
683.4119999999999
 30
0.0
 11
4.01245
 21
671.0251209338809
 31
0.0
  0
LINE
  5
CB
330
1E
100
AcDbEntity
  8
0
100
AcDbLine
 10
-0.0124499999999986
 20
683.4119999999999
 30
0.0
 11
0.0902500000000001
 21
683.4459999999999
 31
0.0
  0
LINE
  5
CC
330
1E
100
AcDbEntity
  8
0
100
AcDbLine
 10
-0.0124499999999986
 20
683.4119999999999
 30
0.0
 11
4.01245
 21
671.0251209338809
 31
0.0
  0
LINE
  5
CD
330
1E
100
AcDbEntity
  8
0
100
AcDbLine
 10
8.379686574615449
 20
677.0
 30
0.0
 11
33.24325
 21
677.0
 31
0.0
  0
LINE
  5
CE
330
1E
100
AcDbEntity
  8
0
100
AcDbLine
 10
39.01245
 20
677.076
 30
0.0
 11
39.01245
 21
937.4
 31
0.0
  0
LINE
  5
CF
330
1E
100
AcDbEntity
  8
0
100
AcDbLine
 10
74.01245
 20
677.076
 30
0.0
 11
75.01245
 21
677.076
 31
0.0
  0
LINE
  5
D0
330
1E
100
AcDbEntity
  8
0
100
AcDbLine
 10
61.01245
 20
677.076
 30
0.0
 11
74.01245
 21
677.076
 31
0.0
  0
LINE
  5
D1
330
1E
100
AcDbEntity
  8
0
100
AcDbLine
 10
61.01245
 20
677.076
 30
0.0
 11
61.01245
 21
937.4
 31
0.0
  0
LINE
  5
D2
330
1E
100
AcDbEntity
  8
0
100
AcDbLine
 10
34.01245
 20
677.076
 30
0.0
 11
39.01245
 21
677.076
 31
0.0
  0
LINE
  5
D3
330
1E
100
AcDbEntity
  8
0
100
AcDbLine
 10
34.01245
 20
677.076
 30
0.0
 11
34.01245
 21
676.4249999999999
 31
0.0
  0
LINE
  5
D4
330
1E
100
AcDbEntity
  8
0
100
AcDbLine
 10
75.01245
 20
676.6419999999999
 30
0.0
 11
75.01245
 21
702.643
 31
0.0
  0
LINE
  5
D5
330
1E
100
AcDbEntity
  8
0
100
AcDbLine
 10
76.71245
 20
699.393
 30
0.0
 11
78.81244999999999
 21
698.043
 31
0.0
  0
LINE
  5
D6
330
1E
100
AcDbEntity
  8
0
100
AcDbLine
 10
75.51245
 20
700.943
 30
0.0
 11
76.71245
 21
699.393
 31
0.0
  0
LINE
  5
D7
330
1E
100
AcDbEntity
  8
0
100
AcDbLine
 10
75.01245
 20
702.643
 30
0.0
 11
75.01245
 21
676.6419999999999
 31
0.0
  0
LINE
  5
D8
330
1E
100
AcDbEntity
  8
0
100
AcDbLine
 10
75.01245
 20
702.643
 30
0.0
 11
75.51245
 21
700.943
 31
0.0
  0
LINE
  5
D9
330
1E
100
AcDbEntity
  8
0
100
AcDbLine
 10
75.01245
 20
702.643
 30
0.0
 11
75.51245
 21
704.343
 31
0.0
  0
LINE
  5
DA
330
1E
100
AcDbEntity
  8
0
100
AcDbLine
 10
34.01245
 20
653.038
 30
0.0
 11
34.01245
 21
649.7869999999998
 31
0.0
  0
LINE
  5
DB
330
1E
100
AcDbEntity
  8
0
100
AcDbLine
 10
79.20225000000001
 20
0.21408599999998
 30
0.0
 11
80.08805
 21
525.5599999999999
 31
0.0
  0
LINE
  5
DC
330
1E
100
AcDbEntity
  8
0
100
AcDbLine
 10
77.01245
 20
645.0
 30
0.0
 11
77.01245
 21
645.6019999999999
 31
0.0
  0
LINE
  5
DD
330
1E
100
AcDbEntity
  8
0
100
AcDbLine
 10
77.01245
 20
645.6019999999999
 30
0.0
 11
77.01245
 21
647.1599999999999
 31
0.0
  0
LINE
  5
DE
330
1E
100
AcDbEntity
  8
0
100
AcDbLine
 10
77.01245
 20
653.038
 30
0.0
 11
77.01245
 21
656.8889999999998
 31
0.0
  0
LINE
  5
DF
330
1E
100
AcDbEntity
  8
0
100
AcDbLine
 10
77.01245
 20
647.1599999999999
 30
0.0
 11
77.01245
 21
649.7869999999998
 31
0.0
  0
LINE
  5
E0
330
1E
100
AcDbEntity
  8
0
100
AcDbLine
 10
77.01245
 20
649.7869999999998
 30
0.0
 11
77.01245
 21
653.038
 31
0.0
  0
LINE
  5
E1
330
1E
100
AcDbEntity
  8
0
100
AcDbLine
 10
79.20225000000001
 20
0.214086000000015
 30
0.0
 11
79.46535
 21
0.342986000000016
 31
0.0
  0
LINE
  5
E2
330
1E
100
AcDbEntity
  8
0
100
AcDbLine
 10
79.20225000000001
 20
0.214086000000015
 30
0.0
 11
80.08805
 21
525.5599999999999
 31
0.0
  0
LINE
  5
E3
330
1E
100
AcDbEntity
  8
0
100
AcDbLine
 10
79.908676480195
 20
0.560685015331195
 30
0.0
 11
80.23825
 21
0.7223860000000152
 31
0.0
  0
LINE
  5
E4
330
1E
100
AcDbEntity
  8
0
100
AcDbLine
 10
79.46535
 20
0.342986000000016
 30
0.0
 11
80.89634999999999
 21
1.045690000000019
 31
0.0
  0
LINE
  5
E5
330
1E
100
AcDbEntity
  8
0
100
AcDbLine
 10
77.01245
 20
665.174
 30
0.0
 11
77.01245
 21
669.076
 31
0.0
  0
LINE
  5
E6
330
1E
100
AcDbEntity
  8
0
100
AcDbLine
 10
77.01245
 20
661.016
 30
0.0
 11
77.01245
 21
665.174
 31
0.0
  0
LINE
  5
E7
330
1E
100
AcDbEntity
  8
0
100
AcDbLine
 10
77.01245
 20
656.8889999999998
 30
0.0
 11
77.01245
 21
661.016
 31
0.0
  0
LINE
  5
EB
330
1E
100
AcDbEntity
  8
0
100
AcDbLine
 10
78.81244999999999
 20
698.043
 30
0.0
 11
79.92191785958109
 21
698.59773392979
 31
0.0
  0
LINE
  5
EC
330
1E
100
AcDbEntity
  8
0
100
AcDbLine
 10
77.01245
 20
668.889142857143
 30
0.0
 11
78.81244999999999
 21
667.7319999999999
 31
0.0
  0
LINE
  5
ED
330
1E
100
AcDbEntity
  8
0
100
AcDbLine
 10
78.81244999999999
 20
667.7319999999999
 30
0.0
 11
78.81244999999999
 21
698.043
 31
0.0
  0
LINE
  5
EE
330
1E
100
AcDbEntity
  8
0
100
AcDbLine
 10
78.81244999999999
 20
667.7319999999999
 30
0.0
 11
80.21245
 21
668.432
 31
0.0
  0
LINE
  5
EF
330
1E
100
AcDbEntity
  8
0
100
AcDbLine
 10
79.87805
 20
654.557
 30
0.0
 11
80.12002122520639
 21
668.3857856126029
 31
0.0
  0
LINE
  5
F0
330
1E
100
AcDbEntity
  8
0
100
AcDbLine
 10
79.87805
 20
654.557
 30
0.0
 11
79.94825
 21
631.451
 31
0.0
  0
LINE
  5
F1
330
1E
100
AcDbEntity
  8
0
100
AcDbLine
 10
80.07215
 20
558.5599999999999
 30
0.0
 11
80.08805
 21
525.5599999999999
 31
0.0
  0
LINE
  5
F2
330
1E
100
AcDbEntity
  8
0
100
AcDbLine
 10
80.04405
 20
581.557
 30
0.0
 11
80.07215
 21
558.5599999999999
 31
0.0
  0
LINE
  5
F3
330
1E
100
AcDbEntity
  8
0
100
AcDbLine
 10
80.00215
 20
606.354
 30
0.0
 11
80.04405
 21
581.557
 31
0.0
  0
LINE
  5
F4
330
1E
100
AcDbEntity
  8
0
100
AcDbLine
 10
80.21245
 20
698.743
 30
0.0
 11
80.21245
 21
668.432
 31
0.0
  0
LINE
  5
F5
330
1E
100
AcDbEntity
  8
0
100
AcDbLine
 10
80.00737787342959
 20
698.6404639367149
 30
0.0
 11
80.21245
 21
698.743
 31
0.0
  0
LINE
  5
F6
330
1E
100
AcDbEntity
  8
0
100
AcDbLine
 10
79.94825
 20
631.451
 30
0.0
 11
80.00215
 21
606.354
 31
0.0
  0
LINE
  5
F7
330
1E
100
AcDbEntity
  8
0
100
AcDbLine
 10
79.91245000000001
 20
698.678
 30
0.0
 11
82.31244999999999
 21
697.7289999999999
 31
0.0
  0
LINE
  5
F8
330
1E
100
AcDbEntity
  8
0
100
AcDbLine
 10
77.01245
 20
702.643
 30
0.0
 11
77.01245
 21
701.2430000000001
 31
0.0
  0
LINE
  5
F9
330
1E
100
AcDbEntity
  8
0
100
AcDbLine
 10
77.01245
 20
702.643
 30
0.0
 11
77.01245
 21
704.043
 31
0.0
  0
LINE
  5
FA
330
1E
100
AcDbEntity
  8
0
100
AcDbLine
 10
78.51245
 20
699.893
 30
0.0
 11
80.21245
 21
698.743
 31
0.0
  0
LINE
  5
FB
330
1E
100
AcDbEntity
  8
0
100
AcDbLine
 10
77.01245
 20
701.2430000000001
 30
0.0
 11
77.01245
 21
702.643
 31
0.0
  0
LINE
  5
FC
330
1E
100
AcDbEntity
  8
0
100
AcDbLine
 10
77.01245
 20
701.2430000000001
 30
0.0
 11
78.51245
 21
699.893
 31
0.0
  0
LINE
  5
FD
330
1E
100
AcDbEntity
  8
0
100
AcDbLine
 10
78.01245
 20
699.878
 30
0.0
 11
79.91245000000001
 21
698.678
 31
0.0
  0
LINE
  5
FE
330
1E
100
AcDbEntity
  8
0
100
AcDbLine
 10
76.91245000000001
 20
701.2289999999999
 30
0.0
 11
78.01245
 21
699.878
 31
0.0
  0
LINE
  5
FF
330
1E
100
AcDbEntity
  8
0
100
AcDbLine
 10
47.24045
 20
938.0
 30
0.0
 11
50.01245
 21
938.0
 31
0.0
  0
LINE
  5
100
330
1E
100
AcDbEntity
  8
0
100
AcDbLine
 10
44.68845
 20
938.0
 30
0.0
 11
47.24045
 21
938.0
 31
0.0
  0
LINE
  5
101
330
1E
100
AcDbEntity
  8
0
100
AcDbLine
 10
42.44445
 20
938.0
 30
0.0
 11
44.68845
 21
938.0
 31
0.0
  0
LINE
  5
102
330
1E
100
AcDbEntity
  8
0
100
AcDbLine
 10
40.72845
 20
938.0
 30
0.0
 11
42.44445
 21
938.0
 31
0.0
  0
LINE
  5
103
330
1E
100
AcDbEntity
  8
0
100
AcDbLine
 10
39.67245
 20
938.0
 30
0.0
 11
40.72845
 21
938.0
 31
0.0
  0
LINE
  5
104
330
1E
100
AcDbEntity
  8
0
100
AcDbLine
 10
39.27645
 20
938.0
 30
0.0
 11
39.67245
 21
938.0
 31
0.0
  0
LINE
  5
105
330
1E
100
AcDbEntity
  8
0
100
AcDbLine
 10
39.01245
 20
937.4
 30
0.0
 11
39.01245
 21
677.076
 31
0.0
  0
LINE
  5
106
330
1E
100
AcDbEntity
  8
0
100
AcDbLine
 10
39.01245
 20
937.4
 30
0.0
 11
39.27645
 21
938.0
 31
0.0
  0
LINE
  5
107
330
1E
100
AcDbEntity
  8
0
100
AcDbLine
 10
50.01245
 20
938.0
 30
0.0
 11
52.78445
 21
938.0
 31
0.0
  0
LINE
  5
108
330
1E
100
AcDbEntity
  8
0
100
AcDbLine
 10
52.78445
 20
938.0
 30
0.0
 11
55.33644999999999
 21
938.0
 31
0.0
  0
LINE
  5
109
330
1E
100
AcDbEntity
  8
0
100
AcDbLine
 10
55.33644999999999
 20
938.0
 30
0.0
 11
57.58045
 21
938.0
 31
0.0
  0
LINE
  5
10A
330
1E
100
AcDbEntity
  8
0
100
AcDbLine
 10
57.58045
 20
938.0
 30
0.0
 11
59.29645
 21
938.0
 31
0.0
  0
LINE
  5
10B
330
1E
100
AcDbEntity
  8
0
100
AcDbLine
 10
59.29645
 20
938.0
 30
0.0
 11
60.35244999999999
 21
938.0
 31
0.0
  0
LINE
  5
10C
330
1E
100
AcDbEntity
  8
0
100
AcDbLine
 10
61.01245
 20
937.4
 30
0.0
 11
61.01245
 21
677.076
 31
0.0
  0
LINE
  5
10D
330
1E
100
AcDbEntity
  8
0
100
AcDbLine
 10
60.74844999999999
 20
938.0
 30
0.0
 11
61.01245
 21
937.4
 31
0.0
  0
LINE
  5
10E
330
1E
100
AcDbEntity
  8
0
100
AcDbLine
 10
60.74844999999999
 20
938.0
 30
0.0
 11
61.01245
 21
938.385
 31
0.0
  0
LINE
  5
10F
330
1E
100
AcDbEntity
  8
0
100
AcDbLine
 10
47.19644999999999
 20
938.385
 30
0.0
 11
50.01245
 21
938.385
 31
0.0
  0
LINE
  5
110
330
1E
100
AcDbEntity
  8
0
100
AcDbLine
 10
44.55644999999999
 20
938.385
 30
0.0
 11
47.19644999999999
 21
938.385
 31
0.0
  0
LINE
  5
111
330
1E
100
AcDbEntity
  8
0
100
AcDbLine
 10
42.22444999999999
 20
938.385
 30
0.0
 11
44.55644999999999
 21
938.385
 31
0.0
  0
LINE
  5
112
330
1E
100
AcDbEntity
  8
0
100
AcDbLine
 10
40.46445
 20
938.385
 30
0.0
 11
42.22444999999999
 21
938.385
 31
0.0
  0
LINE
  5
113
330
1E
100
AcDbEntity
  8
0
100
AcDbLine
 10
39.40845
 20
938.385
 30
0.0
 11
40.46445
 21
938.385
 31
0.0
  0
LINE
  5
114
330
1E
100
AcDbEntity
  8
0
100
AcDbLine
 10
39.01245
 20
938.385
 30
0.0
 11
39.40845
 21
938.385
 31
0.0
  0
LINE
  5
115
330
1E
100
AcDbEntity
  8
0
100
AcDbLine
 10
39.01245
 20
938.385
 30
0.0
 11
39.01245
 21
1007.619999999999
 31
0.0
  0
LINE
  5
116
330
1E
100
AcDbEntity
  8
0
100
AcDbLine
 10
39.01245
 20
938.385
 30
0.0
 11
39.27645
 21
938.0
 31
0.0
  0
LINE
  5
117
330
1E
100
AcDbEntity
  8
0
100
AcDbLine
 10
50.01245
 20
938.385
 30
0.0
 11
52.82845
 21
938.385
 31
0.0
  0
LINE
  5
118
330
1E
100
AcDbEntity
  8
0
100
AcDbLine
 10
52.82845
 20
938.385
 30
0.0
 11
55.46845
 21
938.385
 31
0.0
  0
LINE
  5
119
330
1E
100
AcDbEntity
  8
0
100
AcDbLine
 10
55.46845
 20
938.385
 30
0.0
 11
57.80045
 21
938.385
 31
0.0
  0
LINE
  5
11A
330
1E
100
AcDbEntity
  8
0
100
AcDbLine
 10
57.80045
 20
938.385
 30
0.0
 11
59.56045
 21
938.385
 31
0.0
  0
LINE
  5
11B
330
1E
100
AcDbEntity
  8
0
100
AcDbLine
 10
47.19644999999999
 20
1007.619999999999
 30
0.0
 11
50.01245
 21
1007.619999999999
 31
0.0
  0
LINE
  5
11C
330
1E
100
AcDbEntity
  8
0
100
AcDbLine
 10
44.55644999999999
 20
1007.619999999999
 30
0.0
 11
47.19644999999999
 21
1007.619999999999
 31
0.0
  0
LINE
  5
11D
330
1E
100
AcDbEntity
  8
0
100
AcDbLine
 10
42.22444999999999
 20
1007.619999999999
 30
0.0
 11
44.55644999999999
 21
1007.619999999999
 31
0.0
  0
LINE
  5
11E
330
1E
100
AcDbEntity
  8
0
100
AcDbLine
 10
40.46445
 20
1007.619999999999
 30
0.0
 11
42.22444999999999
 21
1007.619999999999
 31
0.0
  0
LINE
  5
11F
330
1E
100
AcDbEntity
  8
0
100
AcDbLine
 10
39.40845
 20
1007.619999999999
 30
0.0
 11
40.46445
 21
1007.619999999999
 31
0.0
  0
LINE
  5
120
330
1E
100
AcDbEntity
  8
0
100
AcDbLine
 10
39.01245
 20
1007.619999999999
 30
0.0
 11
39.01245
 21
938.385
 31
0.0
  0
LINE
  5
121
330
1E
100
AcDbEntity
  8
0
100
AcDbLine
 10
39.01245
 20
1007.619999999999
 30
0.0
 11
39.40845
 21
1007.619999999999
 31
0.0
  0
LINE
  5
122
330
1E
100
AcDbEntity
  8
0
100
AcDbLine
 10
39.01245
 20
1007.619999999999
 30
0.0
 11
39.27645
 21
1008.0
 31
0.0
  0
LINE
  5
123
330
1E
100
AcDbEntity
  8
0
100
AcDbLine
 10
50.01245
 20
1007.619999999999
 30
0.0
 11
52.82845
 21
1007.619999999999
 31
0.0
  0
LINE
  5
124
330
1E
100
AcDbEntity
  8
0
100
AcDbLine
 10
52.82845
 20
1007.619999999999
 30
0.0
 11
55.46845
 21
1007.619999999999
 31
0.0
  0
LINE
  5
125
330
1E
100
AcDbEntity
  8
0
100
AcDbLine
 10
55.46845
 20
1007.619999999999
 30
0.0
 11
57.80045
 21
1007.619999999999
 31
0.0
  0
LINE
  5
126
330
1E
100
AcDbEntity
  8
0
100
AcDbLine
 10
57.80045
 20
1007.619999999999
 30
0.0
 11
59.56045
 21
1007.619999999999
 31
0.0
  0
LINE
  5
127
330
1E
100
AcDbEntity
  8
0
100
AcDbLine
 10
47.24045
 20
1008.0
 30
0.0
 11
50.01245
 21
1008.0
 31
0.0
  0
LINE
  5
128
330
1E
100
AcDbEntity
  8
0
100
AcDbLine
 10
44.68845
 20
1008.0
 30
0.0
 11
47.24045
 21
1008.0
 31
0.0
  0
LINE
  5
129
330
1E
100
AcDbEntity
  8
0
100
AcDbLine
 10
42.44445
 20
1008.0
 30
0.0
 11
44.68845
 21
1008.0
 31
0.0
  0
LINE
  5
12A
330
1E
100
AcDbEntity
  8
0
100
AcDbLine
 10
40.72845
 20
1008.0
 30
0.0
 11
42.44445
 21
1008.0
 31
0.0
  0
LINE
  5
12B
330
1E
100
AcDbEntity
  8
0
100
AcDbLine
 10
39.67245
 20
1008.0
 30
0.0
 11
40.72845
 21
1008.0
 31
0.0
  0
LINE
  5
12C
330
1E
100
AcDbEntity
  8
0
100
AcDbLine
 10
39.27645
 20
1008.0
 30
0.0
 11
39.67245
 21
1008.0
 31
0.0
  0
LINE
  5
12D
330
1E
100
AcDbEntity
  8
0
100
AcDbLine
 10
50.01245
 20
1008.0
 30
0.0
 11
52.78445
 21
1008.0
 31
0.0
  0
LINE
  5
12E
330
1E
100
AcDbEntity
  8
0
100
AcDbLine
 10
52.78445
 20
1008.0
 30
0.0
 11
55.33644999999999
 21
1008.0
 31
0.0
  0
LINE
  5
12F
330
1E
100
AcDbEntity
  8
0
100
AcDbLine
 10
55.33644999999999
 20
1008.0
 30
0.0
 11
57.58045
 21
1008.0
 31
0.0
  0
LINE
  5
130
330
1E
100
AcDbEntity
  8
0
100
AcDbLine
 10
57.58045
 20
1008.0
 30
0.0
 11
59.29645
 21
1008.0
 31
0.0
  0
LINE
  5
131
330
1E
100
AcDbEntity
  8
0
100
AcDbLine
 10
59.29645
 20
1008.0
 30
0.0
 11
60.35244999999999
 21
1008.0
 31
0.0
  0
LINE
  5
132
330
1E
100
AcDbEntity
  8
0
100
AcDbLine
 10
60.35244999999999
 20
1008.0
 30
0.0
 11
60.74844999999999
 21
1008.0
 31
0.0
  0
LINE
  5
133
330
1E
100
AcDbEntity
  8
0
100
AcDbLine
 10
59.56045
 20
1007.619999999999
 30
0.0
 11
60.61645
 21
1007.619999999999
 31
0.0
  0
LINE
  5
134
330
1E
100
AcDbEntity
  8
0
100
AcDbLine
 10
60.61645
 20
1007.619999999999
 30
0.0
 11
61.01245
 21
1007.619999999999
 31
0.0
  0
LINE
  5
135
330
1E
100
AcDbEntity
  8
0
100
AcDbLine
 10
59.56045
 20
938.385
 30
0.0
 11
60.61645
 21
938.385
 31
0.0
  0
LINE
  5
136
330
1E
100
AcDbEntity
  8
0
100
AcDbLine
 10
61.01245
 20
1007.619999999999
 30
0.0
 11
61.01245
 21
938.385
 31
0.0
  0
LINE
  5
137
330
1E
100
AcDbEntity
  8
0
100
AcDbLine
 10
60.74844999999999
 20
1008.0
 30
0.0
 11
61.01245
 21
1007.619999999999
 31
0.0
  0
LINE
  5
138
330
1E
100
AcDbEntity
  8
0
100
AcDbLine
 10
61.01245
 20
938.385
 30
0.0
 11
61.01245
 21
1007.619999999999
 31
0.0
  0
LINE
  5
139
330
1E
100
AcDbEntity
  8
0
100
AcDbLine
 10
60.61645
 20
938.385
 30
0.0
 11
61.01245
 21
938.385
 31
0.0
  0
LINE
  5
13A
330
1E
100
AcDbEntity
  8
0
100
AcDbLine
 10
60.35244999999999
 20
938.0
 30
0.0
 11
60.74844999999999
 21
938.0
 31
0.0
  0
LINE
  5
13B
330
1E
100
AcDbEntity
  8
0
100
AcDbLine
 10
76.71245
 20
705.893
 30
0.0
 11
78.81244999999999
 21
707.243
 31
0.0
  0
LINE
  5
13C
330
1E
100
AcDbEntity
  8
0
100
AcDbLine
 10
75.51245
 20
704.343
 30
0.0
 11
76.71245
 21
705.893
 31
0.0
  0
LINE
  5
13D
330
1E
100
AcDbEntity
  8
0
100
AcDbLine
 10
78.51245
 20
705.393
 30
0.0
 11
80.21245
 21
706.543
 31
0.0
  0
LINE
  5
13E
330
1E
100
AcDbEntity
  8
0
100
AcDbLine
 10
77.01245
 20
704.043
 30
0.0
 11
78.51245
 21
705.393
 31
0.0
  0
LINE
  5
13F
330
1E
100
AcDbEntity
  8
0
100
AcDbLine
 10
77.01245
 20
704.043
 30
0.0
 11
77.01245
 21
702.643
 31
0.0
  0
LINE
  5
140
330
1E
100
AcDbEntity
  8
0
100
AcDbLine
 10
78.81244999999999
 20
707.243
 30
0.0
 11
81.51245000000001
 21
708.293
 31
0.0
  0
LINE
  5
141
330
1E
100
AcDbEntity
  8
0
100
AcDbLine
 10
80.21245
 20
706.543
 30
0.0
 11
82.51245
 21
707.393
 31
0.0
  0
LINE
  5
142
330
1E
100
AcDbEntity
  8
0
100
AcDbLine
 10
79.91245000000001
 20
706.779
 30
0.0
 11
82.31244999999999
 21
707.7289999999999
 31
0.0
  0
LINE
  5
143
330
1E
100
AcDbEntity
  8
0
100
AcDbLine
 10
78.01245
 20
705.5779999999999
 30
0.0
 11
79.91245000000001
 21
706.779
 31
0.0
  0
LINE
  5
144
330
1E
100
AcDbEntity
  8
0
100
AcDbLine
 10
76.91245000000001
 20
704.2289999999999
 30
0.0
 11
78.01245
 21
705.5779999999999
 31
0.0
  0
LINE
  5
145
330
1E
100
AcDbEntity
  8
0
100
AcDbLine
 10
76.51245
 20
702.7289999999999
 30
0.0
 11
76.91245000000001
 21
701.2289999999999
 31
0.0
  0
LINE
  5
146
330
1E
100
AcDbEntity
  8
0
100
AcDbLine
 10
76.51245
 20
702.7289999999999
 30
0.0
 11
76.51741497575241
 21
702.643
 31
0.0
  0
LINE
  5
147
330
1E
100
AcDbEntity
  8
0
100
AcDbLine
 10
76.51245
 20
702.7289999999999
 30
0.0
 11
76.91245000000001
 21
704.2289999999999
 31
0.0
  0
LINE
  5
148
330
1E
100
AcDbEntity
  8
0
100
AcDbLine
 10
80.23825
 20
0.7223860000000152
 30
0.0
 11
82.17615
 21
1.67339000000001
 31
0.0
  0
LINE
  5
149
330
1E
100
AcDbEntity
  8
0
100
AcDbLine
 10
82.17615
 20
1.67339000000001
 30
0.0
 11
82.632525149148
 21
1.897483280398749
 31
0.0
  0
LINE
  5
14A
330
1E
100
AcDbEntity
  8
0
100
AcDbLine
 10
80.89634999999999
 20
1.045690000000019
 30
0.0
 11
83.29375
 21
2.22189000000002
 31
0.0
  0
LINE
  5
14C
330
1E
100
AcDbEntity
  8
0
100
AcDbLine
 10
86.20635
 20
3.65159000000002
 30
0.0
 11
89.35605
 21
5.19659000000002
 31
0.0
  0
LINE
  5
14D
330
1E
100
AcDbEntity
  8
0
100
AcDbLine
 10
86.21158021356359
 20
3.654155539561169
 30
0.0
 11
88.11775
 21
4.588990000000019
 31
0.0
  0
LINE
  5
14E
330
1E
100
AcDbEntity
  8
0
100
AcDbLine
 10
83.29375
 20
2.22189000000002
 30
0.0
 11
86.20635
 21
3.65159000000002
 31
0.0
  0
LINE
  5
153
330
1E
100
AcDbEntity
  8
0
100
AcDbLine
 10
88.11775
 20
4.588990000000019
 30
0.0
 11
91.02745
 21
6.016590000000019
 31
0.0
  0
LINE
  5
154
330
1E
100
AcDbEntity
  8
0
100
AcDbLine
 10
89.35605
 20
5.19659000000002
 30
0.0
 11
92.15545
 21
6.570290000000019
 31
0.0
  0
LINE
  5
159
330
1E
100
AcDbEntity
  8
0
100
AcDbLine
 10
88.01244999999999
 20
671.7469999999999
 30
0.0
 11
90.61244999999999
 21
671.9479999999999
 31
0.0
  0
LINE
  5
15A
330
1E
100
AcDbEntity
  8
0
100
AcDbLine
 10
91.02745
 20
6.016590000000019
 30
0.0
 11
93.42344999999999
 21
7.192690000000009
 31
0.0
  0
LINE
  5
15B
330
1E
100
AcDbEntity
  8
0
100
AcDbLine
 10
93.42344999999999
 20
7.192690000000009
 30
0.0
 11
94.85744999999999
 21
7.896490000000018
 31
0.0
  0
LINE
  5
15C
330
1E
100
AcDbEntity
  8
0
100
AcDbLine
 10
94.85744999999999
 20
7.896490000000018
 30
0.0
 11
95.12444999999999
 21
8.027590000000008
 31
0.0
  0
LINE
  5
15D
330
1E
100
AcDbEntity
  8
0
100
AcDbLine
 10
95.12444999999999
 20
8.02759000000004
 30
0.0
 11
96.08845
 21
525.558
 31
0.0
  0
LINE
  5
15E
330
1E
100
AcDbEntity
  8
0
100
AcDbLine
 10
95.12444999999999
 20
8.027590000000008
 30
0.0
 11
96.08845
 21
525.558
 31
0.0
  0
LINE
  5
15F
330
1E
100
AcDbEntity
  8
0
100
AcDbLine
 10
94.09444999999999
 20
7.522390000000009
 30
0.0
 11
95.12444999999999
 21
8.027590000000008
 31
0.0
  0
LINE
  5
160
330
1E
100
AcDbEntity
  8
0
100
AcDbLine
 10
92.15545
 20
6.570290000000019
 30
0.0
 11
94.09444999999999
 21
7.522390000000009
 31
0.0
  0
LINE
  5
161
330
1E
100
AcDbEntity
  8
0
100
AcDbLine
 10
96.07245
 20
558.5599999999999
 30
0.0
 11
96.08845
 21
525.558
 31
0.0
  0
LINE
  5
162
330
1E
100
AcDbEntity
  8
0
100
AcDbLine
 10
96.04345000000002
 20
581.566
 30
0.0
 11
96.07245
 21
558.5599999999999
 31
0.0
  0
LINE
  5
163
330
1E
100
AcDbEntity
  8
0
100
AcDbLine
 10
96.00245000000001
 20
606.363
 30
0.0
 11
96.04345000000002
 21
581.566
 31
0.0
  0
LINE
  5
164
330
1E
100
AcDbEntity
  8
0
100
AcDbLine
 10
95.94745000000001
 20
631.461
 30
0.0
 11
96.00245000000001
 21
606.363
 31
0.0
  0
LINE
  5
165
330
1E
100
AcDbEntity
  8
0
100
AcDbLine
 10
95.81245
 20
668.432
 30
0.0
 11
95.81245
 21
698.743
 31
0.0
  0
LINE
  5
167
330
1E
100
AcDbEntity
  8
0
100
AcDbLine
 10
95.81245
 20
668.432
 30
0.0
 11
97.21245000000001
 21
667.7319999999999
 31
0.0
  0
LINE
  5
168
330
1E
100
AcDbEntity
  8
0
100
AcDbLine
 10
97.21245000000001
 20
667.7319999999999
 30
0.0
 11
99.31245
 21
669.082
 31
0.0
  0
LINE
  5
169
330
1E
100
AcDbEntity
  8
0
100
AcDbLine
 10
99.31245
 20
669.082
 30
0.0
 11
100.5124499999999
 21
670.6319999999999
 31
0.0
  0
LINE
  5
16A
330
1E
100
AcDbEntity
  8
0
100
AcDbLine
 10
100.5124499999999
 20
670.6319999999999
 30
0.0
 11
101.01245
 21
672.332
 31
0.0
  0
LINE
  5
16B
330
1E
100
AcDbEntity
  8
0
100
AcDbLine
 10
95.87744999999999
 20
654.556
 30
0.0
 11
96.1185282095535
 21
668.278960895223
 31
0.0
  0
LINE
  5
16C
330
1E
100
AcDbEntity
  8
0
100
AcDbLine
 10
95.87744999999999
 20
654.556
 30
0.0
 11
95.94745000000001
 21
631.461
 31
0.0
  0
LINE
  5
16D
330
1E
100
AcDbEntity
  8
0
100
AcDbLine
 10
90.61244999999999
 20
671.9479999999999
 30
0.0
 11
93.01244999999999
 21
672.3969999999999
 31
0.0
  0
LINE
  5
16E
330
1E
100
AcDbEntity
  8
0
100
AcDbLine
 10
93.01244999999999
 20
672.3969999999999
 30
0.0
 11
95.11245
 21
673.198
 31
0.0
  0
LINE
  5
16F
330
1E
100
AcDbEntity
  8
0
100
AcDbLine
 10
101.01245
 20
672.332
 30
0.0
 11
101.01245
 21
702.643
 31
0.0
  0
LINE
  5
170
330
1E
100
AcDbEntity
  8
0
100
AcDbLine
 10
95.11245
 20
673.198
 30
0.0
 11
95.81245
 21
673.6569375
 31
0.0
  0
LINE
  5
171
330
1E
100
AcDbEntity
  8
0
100
AcDbLine
 10
85.41245000000001
 20
671.9479999999999
 30
0.0
 11
88.01244999999999
 21
671.7469999999999
 31
0.0
  0
LINE
  5
172
330
1E
100
AcDbEntity
  8
0
100
AcDbLine
 10
83.01244999999999
 20
672.3969999999999
 30
0.0
 11
85.41245000000001
 21
671.9479999999999
 31
0.0
  0
LINE
  5
173
330
1E
100
AcDbEntity
  8
0
100
AcDbLine
 10
81.51245000000001
 20
708.293
 30
0.0
 11
84.61244999999999
 21
708.893
 31
0.0
  0
LINE
  5
174
330
1E
100
AcDbEntity
  8
0
100
AcDbLine
 10
82.31244999999999
 20
707.7289999999999
 30
0.0
 11
85.01245
 21
708.279
 31
0.0
  0
LINE
  5
175
330
1E
100
AcDbEntity
  8
0
100
AcDbLine
 10
88.01244999999999
 20
696.9789999999999
 30
0.0
 11
91.01245
 21
697.1779999999999
 31
0.0
  0
LINE
  5
176
330
1E
100
AcDbEntity
  8
0
100
AcDbLine
 10
91.01245
 20
697.1779999999999
 30
0.0
 11
93.71245
 21
697.7289999999999
 31
0.0
  0
LINE
  5
177
330
1E
100
AcDbEntity
  8
0
100
AcDbLine
 10
96.10298214041891
 20
698.59773392979
 30
0.0
 11
97.21245000000001
 21
698.043
 31
0.0
  0
LINE
  5
178
330
1E
100
AcDbEntity
  8
0
100
AcDbLine
 10
95.81245
 20
698.743
 30
0.0
 11
96.01752212657041
 21
698.6404639367149
 31
0.0
  0
LINE
  5
179
330
1E
100
AcDbEntity
  8
0
100
AcDbLine
 10
95.81245
 20
698.743
 30
0.0
 11
97.51245
 21
699.893
 31
0.0
  0
LINE
  5
17A
330
1E
100
AcDbEntity
  8
0
100
AcDbLine
 10
93.71245
 20
697.7289999999999
 30
0.0
 11
96.11245
 21
698.678
 31
0.0
  0
LINE
  5
17B
330
1E
100
AcDbEntity
  8
0
100
AcDbLine
 10
97.21245000000001
 20
698.043
 30
0.0
 11
97.21245000000001
 21
667.7319999999999
 31
0.0
  0
LINE
  5
17C
330
1E
100
AcDbEntity
  8
0
100
AcDbLine
 10
97.21245000000001
 20
698.043
 30
0.0
 11
99.31245
 21
699.393
 31
0.0
  0
LINE
  5
17D
330
1E
100
AcDbEntity
  8
0
100
AcDbLine
 10
96.11245
 20
698.678
 30
0.0
 11
98.01245000000001
 21
699.878
 31
0.0
  0
LINE
  5
17E
330
1E
100
AcDbEntity
  8
0
100
AcDbLine
 10
82.51245
 20
707.393
 30
0.0
 11
85.21245
 21
708.143
 31
0.0
  0
LINE
  5
17F
330
1E
100
AcDbEntity
  8
0
100
AcDbLine
 10
84.61244999999999
 20
708.893
 30
0.0
 11
88.01244999999999
 21
709.143
 31
0.0
  0
LINE
  5
180
330
1E
100
AcDbEntity
  8
0
100
AcDbLine
 10
99.01245000000001
 20
704.043
 30
0.0
 11
99.01245000000001
 21
702.643
 31
0.0
  0
LINE
  5
181
330
1E
100
AcDbEntity
  8
0
100
AcDbLine
 10
99.01245000000001
 20
701.2430000000001
 30
0.0
 11
99.01245000000001
 21
702.643
 31
0.0
  0
LINE
  5
182
330
1E
100
AcDbEntity
  8
0
100
AcDbLine
 10
97.51245
 20
699.893
 30
0.0
 11
99.01245000000001
 21
701.2430000000001
 31
0.0
  0
LINE
  5
183
330
1E
100
AcDbEntity
  8
0
100
AcDbLine
 10
99.01245000000001
 20
702.643
 30
0.0
 11
99.01245000000001
 21
701.2430000000001
 31
0.0
  0
LINE
  5
184
330
1E
100
AcDbEntity
  8
0
100
AcDbLine
 10
99.01245000000001
 20
702.643
 30
0.0
 11
99.01245000000001
 21
704.043
 31
0.0
  0
LINE
  5
185
330
1E
100
AcDbEntity
  8
0
100
AcDbLine
 10
95.81245
 20
706.543
 30
0.0
 11
97.51245
 21
705.393
 31
0.0
  0
LINE
  5
186
330
1E
100
AcDbEntity
  8
0
100
AcDbLine
 10
97.51245
 20
705.393
 30
0.0
 11
99.01245000000001
 21
704.043
 31
0.0
  0
LINE
  5
187
330
1E
100
AcDbEntity
  8
0
100
AcDbLine
 10
93.51245
 20
707.393
 30
0.0
 11
95.81245
 21
706.543
 31
0.0
  0
LINE
  5
188
330
1E
100
AcDbEntity
  8
0
100
AcDbLine
 10
90.81245
 20
708.143
 30
0.0
 11
93.51245
 21
707.393
 31
0.0
  0
LINE
  5
189
330
1E
100
AcDbEntity
  8
0
100
AcDbLine
 10
88.01244999999999
 20
708.143
 30
0.0
 11
90.81245
 21
708.143
 31
0.0
  0
LINE
  5
18A
330
1E
100
AcDbEntity
  8
0
100
AcDbLine
 10
85.21245
 20
708.143
 30
0.0
 11
88.01244999999999
 21
708.143
 31
0.0
  0
LINE
  5
18B
330
1E
100
AcDbEntity
  8
0
100
AcDbLine
 10
88.01244999999999
 20
709.143
 30
0.0
 11
91.41245000000001
 21
708.893
 31
0.0
  0
LINE
  5
18C
330
1E
100
AcDbEntity
  8
0
100
AcDbLine
 10
91.41245000000001
 20
708.893
 30
0.0
 11
94.51245
 21
708.293
 31
0.0
  0
LINE
  5
18D
330
1E
100
AcDbEntity
  8
0
100
AcDbLine
 10
88.01244999999999
 20
708.4789999999999
 30
0.0
 11
91.01245
 21
708.279
 31
0.0
  0
LINE
  5
18E
330
1E
100
AcDbEntity
  8
0
100
AcDbLine
 10
91.01245
 20
708.279
 30
0.0
 11
93.71245
 21
707.7289999999999
 31
0.0
  0
LINE
  5
18F
330
1E
100
AcDbEntity
  8
0
100
AcDbLine
 10
94.51245
 20
708.293
 30
0.0
 11
97.21245000000001
 21
707.243
 31
0.0
  0
LINE
  5
190
330
1E
100
AcDbEntity
  8
0
100
AcDbLine
 10
97.21245000000001
 20
707.243
 30
0.0
 11
99.31245
 21
705.893
 31
0.0
  0
LINE
  5
191
330
1E
100
AcDbEntity
  8
0
100
AcDbLine
 10
93.71245
 20
707.7289999999999
 30
0.0
 11
96.11245
 21
706.779
 31
0.0
  0
LINE
  5
192
330
1E
100
AcDbEntity
  8
0
100
AcDbLine
 10
96.11245
 20
706.779
 30
0.0
 11
98.01245000000001
 21
705.5779999999999
 31
0.0
  0
LINE
  5
193
330
1E
100
AcDbEntity
  8
0
100
AcDbLine
 10
98.01245000000001
 20
705.5779999999999
 30
0.0
 11
99.11245
 21
704.2289999999999
 31
0.0
  0
LINE
  5
194
330
1E
100
AcDbEntity
  8
0
100
AcDbLine
 10
99.11245
 20
704.2289999999999
 30
0.0
 11
99.51245
 21
702.7289999999999
 31
0.0
  0
LINE
  5
195
330
1E
100
AcDbEntity
  8
0
100
AcDbLine
 10
85.01245
 20
708.279
 30
0.0
 11
88.01244999999999
 21
708.4789999999999
 31
0.0
  0
LINE
  5
196
330
1E
100
AcDbEntity
  8
0
100
AcDbLine
 10
98.01245000000001
 20
699.878
 30
0.0
 11
99.11245
 21
701.2289999999999
 31
0.0
  0
LINE
  5
197
330
1E
100
AcDbEntity
  8
0
100
AcDbLine
 10
99.31245
 20
699.393
 30
0.0
 11
100.5124499999999
 21
700.943
 31
0.0
  0
LINE
  5
198
330
1E
100
AcDbEntity
  8
0
100
AcDbLine
 10
101.01245
 20
702.643
 30
0.0
 11
101.01245
 21
672.332
 31
0.0
  0
LINE
  5
199
330
1E
100
AcDbEntity
  8
0
100
AcDbLine
 10
100.5124499999999
 20
700.943
 30
0.0
 11
101.01245
 21
702.643
 31
0.0
  0
LINE
  5
19A
330
1E
100
AcDbEntity
  8
0
100
AcDbLine
 10
99.31245
 20
705.893
 30
0.0
 11
100.5124499999999
 21
704.343
 31
0.0
  0
LINE
  5
19B
330
1E
100
AcDbEntity
  8
0
100
AcDbLine
 10
100.5124499999999
 20
704.343
 30
0.0
 11
101.01245
 21
702.643
 31
0.0
  0
LINE
  5
19C
330
1E
100
AcDbEntity
  8
0
100
AcDbLine
 10
99.50748502424758
 20
702.643
 30
0.0
 11
99.51245
 21
702.7289999999999
 31
0.0
  0
LINE
  5
19D
330
1E
100
AcDbEntity
  8
0
100
AcDbLine
 10
99.11245
 20
701.2289999999999
 30
0.0
 11
99.51245
 21
702.7289999999999
 31
0.0
  0
LINE
  5
19E
330
1E
100
AcDbEntity
  8
0
100
AcDbLine
 10
85.01245
 20
697.1779999999999
 30
0.0
 11
88.01244999999999
 21
696.9789999999999
 31
0.0
  0
LINE
  5
19F
330
1E
100
AcDbEntity
  8
0
100
AcDbLine
 10
82.31244999999999
 20
697.7289999999999
 30
0.0
 11
85.01245
 21
697.1779999999999
 31
0.0
  0
LINE
  5
1A0
330
1E
100
AcDbEntity
  8
0
100
AcDbLine
 10
80.91245
 20
673.198
 30
0.0
 11
83.01244999999999
 21
672.3969999999999
 31
0.0
  0
LINE
  5
1A1
330
1E
100
AcDbEntity
  8
0
100
AcDbLine
 10
80.21245
 20
673.6569375
 30
0.0
 11
80.91245
 21
673.198
 31
0.0
  0
ENDSEC
  0
SECTION
  2
OBJECTS
  0
DICTIONARY
  5
C
330
0
100
AcDbDictionary
281
     1
  3
ACAD_GROUP
350
D
  3
ACAD_LAYOUT
350
19
  3
ACAD_MLINESTYLE
350
16
  3
ACAD_PLOTSETTINGS
350
18
  3
ACAD_PLOTSTYLENAME
350
E
  3
AcDbVariableDictionary
350
1A6
  0
DICTIONARY
  5
D
102
{ACAD_REACTORS
330
C
102
}
330
C
100
AcDbDictionary
281
     1
  0
DICTIONARY
  5
19
102
{ACAD_REACTORS
330
C
102
}
330
C
100
AcDbDictionary
281
     1
  3
Layout1
350
1D
  3
Model
350
21
  0
DICTIONARY
  5
16
102
{ACAD_REACTORS
330
C
102
}
330
C
100
AcDbDictionary
281
     1
  3
Standard
350
17
  0
DICTIONARY
  5
18
102
{ACAD_REACTORS
330
C
102
}
330
C
100
AcDbDictionary
281
     1
  0
ACDBDICTIONARYWDFLT
  5
E
102
{ACAD_REACTORS
330
C
102
}
330
C
100
AcDbDictionary
281
     1
  3
Normal
350
F
100
AcDbDictionaryWithDefault
340
F
  0
DICTIONARY
  5
1A6
102
{ACAD_REACTORS
330
C
102
}
330
C
100
AcDbDictionary
281
     1
  3
DIMASSOC
350
1A7
  0
LAYOUT
  5
1D
102
{ACAD_REACTORS
330
19
102
}
330
19
100
AcDbPlotSettings
  1

  2
hp deskjet 980c series
  4

  6

 40
0.0
 41
0.0
 42
0.0
 43
0.0
 44
0.0
 45
0.0
 46
0.0
 47
0.0
 48
0.0
 49
0.0
140
0.0
141
0.0
142
1.0
143
1.0
 70
   688
 72
     0
 73
     0
 74
     5
  7

 75
    16
147
1.0
148
0.0
149
0.0
100
AcDbLayout
  1
Layout1
 70
     1
 71
     1
 10
0.0
 20
0.0
 11
12.0
 21
9.0
 12
0.0
 22
0.0
 32
0.0
 14
1.000000000000000E+20
 24
1.000000000000000E+20
 34
1.000000000000000E+20
 15
-1.000000000000000E+20
 25
-1.000000000000000E+20
 35
-1.000000000000000E+20
146
0.0
 13
0.0
 23
0.0
 33
0.0
 16
1.0
 26
0.0
 36
0.0
 17
0.0
 27
1.0
 37
0.0
 76
     0
330
1A
  0
LAYOUT
  5
21
102
{ACAD_REACTORS
330
19
102
}
330
19
100
AcDbPlotSettings
  1

  2
hp deskjet 980c series
  4

  6

 40
0.0
 41
0.0
 42
0.0
 43
0.0
 44
0.0
 45
0.0
 46
0.0
 47
0.0
 48
0.0
 49
0.0
140
0.0
141
0.0
142
1.0
143
1.0
 70
  1712
 72
     0
 73
     0
 74
     0
  7

 75
     0
147
1.0
148
0.0
149
0.0
100
AcDbLayout
  1
Model
 70
     1
 71
     0
 10
0.0
 20
0.0
 11
12.0
 21
9.0
 12
0.0
 22
0.0
 32
0.0
 14
0.0
 24
0.0
 34
0.0
 15
0.0
 25
0.0
 35
0.0
146
0.0
 13
0.0
 23
0.0
 33
0.0
 16
1.0
 26
0.0
 36
0.0
 17
0.0
 27
1.0
 37
0.0
 76
     0
330
1E
  0
MLINESTYLE
  5
17
102
{ACAD_REACTORS
330
16
102
}
330
16
100
AcDbMlineStyle
  2
STANDARD
 70
     0
  3

 62
   256
 51
90.0
 52
90.0
 71
     2
 49
0.5
 62
   256
  6
BYLAYER
 49
-0.5
 62
   256
  6
BYLAYER
  0
ACDBPLACEHOLDER
  5
F
102
{ACAD_REACTORS
330
E
102
}
330
E
  0
DICTIONARYVAR
  5
1A7
102
{ACAD_REACTORS
330
1A6
102
}
330
1A6
100
DictionaryVariables
280
     0
  1
1
  0
ENDSEC
  0
EOF
