  0
SECTION
  2
HEADER
  9
$ACADVER
  1
AC1015
  9
$ACADMAINTVER
 70
    13
  9
$DWGCODEPAGE
  3
ANSI_1252
  9
$INSBASE
 10
0.0
 20
0.0
 30
0.0
  9
$EXTMIN
 10
-0.0000000000000048
 20
0.0324549999999845
 30
0.0
  9
$EXTMAX
 10
150.0
 20
149.9675449999999
 30
0.0
  9
$LIMMIN
 10
0.0
 20
0.0
  9
$LIMMAX
 10
12.0
 20
9.0
  9
$ORTHOMODE
 70
     0
  9
$REGENMODE
 70
     1
  9
$FILLMODE
 70
     1
  9
$QTEXTMODE
 70
     0
  9
$MIRRTEXT
 70
     1
  9
$LTSCALE
 40
1.0
  9
$ATTMODE
 70
     1
  9
$TEXTSIZE
 40
0.2
  9
$TRACEWID
 40
0.05
  9
$TEXTSTYLE
  7
Standard
  9
$CLAYER
  8
0
  9
$CELTYPE
  6
Continuous
  9
$CECOLOR
 62
   256
  9
$CELTSCALE
 40
1.0
  9
$DISPSILH
 70
     0
  9
$DIMSCALE
 40
1.0
  9
$DIMASZ
 40
0.18
  9
$DIMEXO
 40
0.0625
  9
$DIMDLI
 40
0.38
  9
$DIMRND
 40
0.0
  9
$DIMDLE
 40
0.0
  9
$DIMEXE
 40
0.18
  9
$DIMTP
 40
0.0
  9
$DIMTM
 40
0.0
  9
$DIMTXT
 40
0.18
  9
$DIMCEN
 40
0.09
  9
$DIMTSZ
 40
0.0
  9
$DIMTOL
 70
     0
  9
$DIMLIM
 70
     0
  9
$DIMTIH
 70
     1
  9
$DIMTOH
 70
     1
  9
$DIMSE1
 70
     0
  9
$DIMSE2
 70
     0
  9
$DIMTAD
 70
     0
  9
$DIMZIN
 70
     0
  9
$DIMBLK
  1

  9
$DIMASO
 70
     1
  9
$DIMSHO
 70
     1
  9
$DIMPOST
  1

  9
$DIMAPOST
  1

  9
$DIMALT
 70
     0
  9
$DIMALTD
 70
     2
  9
$DIMALTF
 40
25.4
  9
$DIMLFAC
 40
1.0
  9
$DIMTOFL
 70
     0
  9
$DIMTVP
 40
0.0
  9
$DIMTIX
 70
     0
  9
$DIMSOXD
 70
     0
  9
$DIMSAH
 70
     0
  9
$DIMBLK1
  1

  9
$DIMBLK2
  1

  9
$DIMSTYLE
  2
Standard
  9
$DIMCLRD
 70
     0
  9
$DIMCLRE
 70
     0
  9
$DIMCLRT
 70
     0
  9
$DIMTFAC
 40
1.0
  9
$DIMGAP
 40
0.09
  9
$DIMJUST
 70
     0
  9
$DIMSD1
 70
     0
  9
$DIMSD2
 70
     0
  9
$DIMTOLJ
 70
     1
  9
$DIMTZIN
 70
     0
  9
$DIMALTZ
 70
     0
  9
$DIMALTTZ
 70
     0
  9
$DIMUPT
 70
     0
  9
$DIMDEC
 70
     4
  9
$DIMTDEC
 70
     4
  9
$DIMALTU
 70
     2
  9
$DIMALTTD
 70
     2
  9
$DIMTXSTY
  7
Standard
  9
$DIMAUNIT
 70
     0
  9
$DIMADEC
 70
     0
  9
$DIMALTRND
 40
0.0
  9
$DIMAZIN
 70
     0
  9
$DIMDSEP
 70
    46
  9
$DIMATFIT
 70
     3
  9
$DIMFRAC
 70
     0
  9
$DIMLDRBLK
  1

  9
$DIMLUNIT
 70
     2
  9
$DIMLWD
 70
    -2
  9
$DIMLWE
 70
    -2
  9
$DIMTMOVE
 70
     0
  9
$LUNITS
 70
     2
  9
$LUPREC
 70
     4
  9
$SKETCHINC
 40
0.1
  9
$FILLETRAD
 40
0.0
  9
$AUNITS
 70
     0
  9
$AUPREC
 70
     0
  9
$MENU
  1
.
  9
$ELEVATION
 40
0.0
  9
$PELEVATION
 40
0.0
  9
$THICKNESS
 40
0.0
  9
$LIMCHECK
 70
     0
  9
$CHAMFERA
 40
0.0
  9
$CHAMFERB
 40
0.0
  9
$CHAMFERC
 40
0.0
  9
$CHAMFERD
 40
0.0
  9
$SKPOLY
 70
     0
  9
$TDCREATE
 40
2454738.439101921
  9
$TDUCREATE
 40
2454738.355768587
  9
$TDUPDATE
 40
2454738.439922592
  9
$TDUUPDATE
 40
2454738.356589259
  9
$TDINDWG
 40
0.0008208565
  9
$TDUSRTIMER
 40
0.0008208565
  9
$USRTIMER
 70
     1
  9
$ANGBASE
 50
0.0
  9
$ANGDIR
 70
     0
  9
$PDMODE
 70
     0
  9
$PDSIZE
 40
0.0
  9
$PLINEWID
 40
0.0
  9
$SPLFRAME
 70
     0
  9
$SPLINETYPE
 70
     6
  9
$SPLINESEGS
 70
     8
  9
$HANDSEED
  5
3F0
  9
$SURFTAB1
 70
     6
  9
$SURFTAB2
 70
     6
  9
$SURFTYPE
 70
     6
  9
$SURFU
 70
     6
  9
$SURFV
 70
     6
  9
$UCSBASE
  2

  9
$UCSNAME
  2

  9
$UCSORG
 10
0.0
 20
0.0
 30
0.0
  9
$UCSXDIR
 10
1.0
 20
0.0
 30
0.0
  9
$UCSYDIR
 10
0.0
 20
1.0
 30
0.0
  9
$UCSORTHOREF
  2

  9
$UCSORTHOVIEW
 70
     1
  9
$UCSORGTOP
 10
0.0
 20
0.0
 30
0.0
  9
$UCSORGBOTTOM
 10
0.0
 20
0.0
 30
0.0
  9
$UCSORGLEFT
 10
0.0
 20
0.0
 30
0.0
  9
$UCSORGRIGHT
 10
0.0
 20
0.0
 30
0.0
  9
$UCSORGFRONT
 10
0.0
 20
0.0
 30
0.0
  9
$UCSORGBACK
 10
0.0
 20
0.0
 30
0.0
  9
$PUCSBASE
  2

  9
$PUCSNAME
  2

  9
$PUCSORG
 10
0.0
 20
0.0
 30
0.0
  9
$PUCSXDIR
 10
1.0
 20
0.0
 30
0.0
  9
$PUCSYDIR
 10
0.0
 20
1.0
 30
0.0
  9
$PUCSORTHOREF
  2

  9
$PUCSORTHOVIEW
 70
     0
  9
$PUCSORGTOP
 10
0.0
 20
0.0
 30
0.0
  9
$PUCSORGBOTTOM
 10
0.0
 20
0.0
 30
0.0
  9
$PUCSORGLEFT
 10
0.0
 20
0.0
 30
0.0
  9
$PUCSORGRIGHT
 10
0.0
 20
0.0
 30
0.0
  9
$PUCSORGFRONT
 10
0.0
 20
0.0
 30
0.0
  9
$PUCSORGBACK
 10
0.0
 20
0.0
 30
0.0
  9
$USERI1
 70
     0
  9
$USERI2
 70
     0
  9
$USERI3
 70
     0
  9
$USERI4
 70
     0
  9
$USERI5
 70
     0
  9
$USERR1
 40
0.0
  9
$USERR2
 40
0.0
  9
$USERR3
 40
0.0
  9
$USERR4
 40
0.0
  9
$USERR5
 40
0.0
  9
$WORLDVIEW
 70
     1
  9
$SHADEDGE
 70
     3
  9
$SHADEDIF
 70
    70
  9
$TILEMODE
 70
     1
  9
$MAXACTVP
 70
    64
  9
$PINSBASE
 10
0.0
 20
0.0
 30
0.0
  9
$PLIMCHECK
 70
     0
  9
$PEXTMIN
 10
1.000000000000000E+20
 20
1.000000000000000E+20
 30
1.000000000000000E+20
  9
$PEXTMAX
 10
-1.000000000000000E+20
 20
-1.000000000000000E+20
 30
-1.000000000000000E+20
  9
$PLIMMIN
 10
0.0
 20
0.0
  9
$PLIMMAX
 10
12.0
 20
9.0
  9
$UNITMODE
 70
     0
  9
$VISRETAIN
 70
     1
  9
$PLINEGEN
 70
     0
  9
$PSLTSCALE
 70
     1
  9
$TREEDEPTH
 70
  3020
  9
$CMLSTYLE
  2
Standard
  9
$CMLJUST
 70
     0
  9
$CMLSCALE
 40
1.0
  9
$PROXYGRAPHICS
 70
     1
  9
$MEASUREMENT
 70
     0
  9
$CELWEIGHT
370
    -1
  9
$ENDCAPS
280
     0
  9
$JOINSTYLE
280
     0
  9
$LWDISPLAY
290
     0
  9
$INSUNITS
 70
     0
  9
$HYPERLINKBASE
  1

  9
$STYLESHEET
  1

  9
$XEDIT
290
     1
  9
$CEPSNTYPE
380
     0
  9
$PSTYLEMODE
290
     1
  9
$FINGERPRINTGUID
  2
{91A7915E-013F-4260-9CD4-CBE74BCBCF33}
  9
$VERSIONGUID
  2
{482744C0-2F2C-48AC-A3C9-BA71B65594A1}
  9
$EXTNAMES
290
     1
  9
$PSVPSCALE
 40
0.0
  9
$OLESTARTUP
290
     0
  0
ENDSEC
  0
SECTION
  2
CLASSES
  0
CLASS
  1
ACDBDICTIONARYWDFLT
  2
AcDbDictionaryWithDefault
  3
AutoCAD 2000
 90
        0
280
     0
281
     0
  0
CLASS
  1
ACDBPLACEHOLDER
  2
AcDbPlaceHolder
  3
AutoCAD 2000
 90
        0
280
     0
281
     0
  0
CLASS
  1
LAYOUT
  2
AcDbLayout
  3
AutoCAD 2000
 90
        0
280
     0
281
     0
  0
CLASS
  1
DICTIONARYVAR
  2
AcDbDictionaryVar
  3
AutoCAD 2000
 90
        0
280
     0
281
     0
  0
ENDSEC
  0
SECTION
  2
TABLES
  0
TABLE
  2
VPORT
  5
8
330
0
100
AcDbSymbolTable
 70
     2
  0
VPORT
  5
3EF
330
8
100
AcDbSymbolTableRecord
100
AcDbViewportTableRecord
  2
*Active
 70
     0
 10
0.0
 20
0.0
 11
1.0
 21
1.0
 12
75.0
 22
75.0
 13
0.0
 23
0.0
 14
1.0
 24
1.0
 15
0.0
 25
0.0
 16
0.0
 26
0.0
 36
1.0
 17
0.0
 27
0.0
 37
0.0
 40
151.0854871099744
 41
2.078104993597951
 42
50.0
 43
0.0
 44
0.0
 50
0.0
 51
0.0
 71
     0
 72
   100
 73
     1
 74
     3
 75
     0
 76
     0
 77
     0
 78
     0
281
     0
 65
     1
110
0.0
120
0.0
130
0.0
111
1.0
121
0.0
131
0.0
112
0.0
122
1.0
132
0.0
 79
     1
146
0.0
  0
ENDTAB
  0
TABLE
  2
LTYPE
  5
5
330
0
100
AcDbSymbolTable
 70
     1
  0
LTYPE
  5
13
330
5
100
AcDbSymbolTableRecord
100
AcDbLinetypeTableRecord
  2
ByBlock
 70
     0
  3

 72
    65
 73
     0
 40
0.0
  0
LTYPE
  5
14
330
5
100
AcDbSymbolTableRecord
100
AcDbLinetypeTableRecord
  2
ByLayer
 70
     0
  3

 72
    65
 73
     0
 40
0.0
  0
LTYPE
  5
15
330
5
100
AcDbSymbolTableRecord
100
AcDbLinetypeTableRecord
  2
Continuous
 70
     0
  3
Solid line
 72
    65
 73
     0
 40
0.0
  0
ENDTAB
  0
TABLE
  2
LAYER
  5
2
330
0
100
AcDbSymbolTable
 70
     1
  0
LAYER
  5
10
330
2
100
AcDbSymbolTableRecord
100
AcDbLayerTableRecord
  2
0
 70
     0
 62
     7
  6
Continuous
370
    -3
390
F
  0
ENDTAB
  0
TABLE
  2
STYLE
  5
3
330
0
100
AcDbSymbolTable
 70
     1
  0
STYLE
  5
11
330
3
100
AcDbSymbolTableRecord
100
AcDbTextStyleTableRecord
  2
Standard
 70
     0
 40
0.0
 41
1.0
 50
0.0
 71
     0
 42
0.2
  3
txt
  4

  0
ENDTAB
  0
TABLE
  2
VIEW
  5
6
330
0
100
AcDbSymbolTable
 70
     0
  0
ENDTAB
  0
TABLE
  2
UCS
  5
7
330
0
100
AcDbSymbolTable
 70
     0
  0
ENDTAB
  0
TABLE
  2
APPID
  5
9
330
0
100
AcDbSymbolTable
 70
     1
  0
APPID
  5
12
330
9
100
AcDbSymbolTableRecord
100
AcDbRegAppTableRecord
  2
ACAD
 70
     0
  0
ENDTAB
  0
TABLE
  2
DIMSTYLE
  5
A
330
0
100
AcDbSymbolTable
 70
     1
100
AcDbDimStyleTable
 71
     0
  0
DIMSTYLE
105
3E9
330
A
100
AcDbSymbolTableRecord
100
AcDbDimStyleTableRecord
  2
Standard
 70
     0
340
11
  0
ENDTAB
  0
TABLE
  2
BLOCK_RECORD
  5
1
330
0
100
AcDbSymbolTable
 70
     0
  0
BLOCK_RECORD
  5
1E
330
1
100
AcDbSymbolTableRecord
100
AcDbBlockTableRecord
  2
*Model_Space
340
21
  0
BLOCK_RECORD
  5
1A
330
1
100
AcDbSymbolTableRecord
100
AcDbBlockTableRecord
  2
*Paper_Space
340
1D
  0
ENDTAB
  0
ENDSEC
  0
SECTION
  2
BLOCKS
  0
BLOCK
  5
1F
330
1E
100
AcDbEntity
  8
0
100
AcDbBlockBegin
  2
*Model_Space
 70
     0
 10
0.0
 20
0.0
 30
0.0
  3
*Model_Space
  1

  0
ENDBLK
  5
20
330
1E
100
AcDbEntity
  8
0
100
AcDbBlockEnd
  0
BLOCK
  5
1B
330
1A
100
AcDbEntity
 67
     1
  8
0
100
AcDbBlockBegin
  2
*Paper_Space
 70
     0
 10
0.0
 20
0.0
 30
0.0
  3
*Paper_Space
  1

  0
ENDBLK
  5
1C
330
1A
100
AcDbEntity
 67
     1
  8
0
100
AcDbBlockEnd
  0
ENDSEC
  0
SECTION
  2
ENTITIES
  0
LINE
  5
22
330
1E
100
AcDbEntity
  8
0
100
AcDbLine
 10
3.399999999999999
 20
99.603745
 30
0.0
 11
5.299999999999999
 21
95.004045
 31
0.0
  0
LINE
  5
23
330
1E
100
AcDbEntity
  8
0
100
AcDbLine
 10
5.5
 20
95.004045
 30
0.0
 11
8.499999999999991
 21
90.55404499999999
 31
0.0
  0
LINE
  5
24
330
1E
100
AcDbEntity
  8
0
100
AcDbLine
 10
23.5
 20
79.53114499999999
 30
0.0
 11
29.1
 21
76.33114499999999
 31
0.0
  0
LINE
  5
25
330
1E
100
AcDbEntity
  8
0
100
AcDbLine
 10
23.3022
 20
82.53984499999999
 30
0.0
 11
24.3022
 21
81.673845
 31
0.0
  0
LINE
  5
26
330
1E
100
AcDbEntity
  8
0
100
AcDbLine
 10
23.3022
 20
82.53984499999999
 30
0.0
 11
23.4529396606728
 21
83.071563666072
 31
0.0
  0
LINE
  5
27
330
1E
100
AcDbEntity
  8
0
100
AcDbLine
 10
23.3022
 20
82.53984499999999
 30
0.0
 11
24.9572
 21
82.506345
 31
0.0
  0
LINE
  5
28
330
1E
100
AcDbEntity
  8
0
100
AcDbLine
 10
18.1551
 20
88.75284499999999
 30
0.0
 11
20.00099999999999
 21
88.489345
 31
0.0
  0
LINE
  5
29
330
1E
100
AcDbEntity
  8
0
100
AcDbLine
 10
20.00099999999999
 20
88.489345
 30
0.0
 11
20.1787948417232
 21
89.0295305912331
 31
0.0
  0
LINE
  5
2A
330
1E
100
AcDbEntity
  8
0
100
AcDbLine
 10
19.4833
 20
89.45534499999999
 30
0.0
 11
19.663290266695
 21
90.00194702043708
 31
0.0
  0
LINE
  5
2B
330
1E
100
AcDbEntity
  8
0
100
AcDbLine
 10
19.4833
 20
89.45534499999999
 30
0.0
 11
20.00099999999999
 21
88.489345
 31
0.0
  0
LINE
  5
2C
330
1E
100
AcDbEntity
  8
0
100
AcDbLine
 10
17.63749999999999
 20
89.71884499999999
 30
0.0
 11
18.1551
 21
88.75284499999999
 31
0.0
  0
LINE
  5
2D
330
1E
100
AcDbEntity
  8
0
100
AcDbLine
 10
17.63749999999999
 20
89.71884499999999
 30
0.0
 11
17.75322166676289
 21
90.07043662309179
 31
0.0
  0
LINE
  5
2E
330
1E
100
AcDbEntity
  8
0
100
AcDbLine
 10
17.63749999999999
 20
89.71884499999999
 30
0.0
 11
19.4833
 21
89.45534499999999
 31
0.0
  0
LINE
  5
2F
330
1E
100
AcDbEntity
  8
0
100
AcDbLine
 10
18.7
 20
83.081145
 30
0.0
 11
23.5
 21
79.53114499999999
 31
0.0
  0
LINE
  5
30
330
1E
100
AcDbEntity
  8
0
100
AcDbLine
 10
15.09999999999999
 20
86.88114499999999
 30
0.0
 11
18.7
 21
83.081145
 31
0.0
  0
LINE
  5
31
330
1E
100
AcDbEntity
  8
0
100
AcDbLine
 10
17.9
 20
82.40394499999998
 30
0.0
 11
24.1
 21
78.853945
 31
0.0
  0
LINE
  5
32
330
1E
100
AcDbEntity
  8
0
100
AcDbLine
 10
12.6
 20
86.35404499999999
 30
0.0
 11
17.9
 21
82.40394499999998
 31
0.0
  0
LINE
  5
33
330
1E
100
AcDbEntity
  8
0
100
AcDbLine
 10
17.7
 20
82.30424499999999
 30
0.0
 11
24.0
 21
78.80414499999999
 31
0.0
  0
LINE
  5
34
330
1E
100
AcDbEntity
  8
0
100
AcDbLine
 10
12.4
 20
86.304045
 30
0.0
 11
17.7
 21
82.30424499999999
 31
0.0
  0
LINE
  5
35
330
1E
100
AcDbEntity
  8
0
100
AcDbLine
 10
12.3
 20
90.88114499999999
 30
0.0
 11
15.09999999999999
 21
86.88114499999999
 31
0.0
  0
LINE
  5
36
330
1E
100
AcDbEntity
  8
0
100
AcDbLine
 10
8.499999999999991
 20
90.55404499999999
 30
0.0
 11
12.6
 21
86.35404499999999
 31
0.0
  0
LINE
  5
37
330
1E
100
AcDbEntity
  8
0
100
AcDbLine
 10
8.3
 20
90.50404499999999
 30
0.0
 11
12.4
 21
86.304045
 31
0.0
  0
LINE
  5
38
330
1E
100
AcDbEntity
  8
0
100
AcDbLine
 10
6.599999999999999
 20
92.40574499999999
 30
0.0
 11
8.3
 21
90.50404499999999
 31
0.0
  0
LINE
  5
39
330
1E
100
AcDbEntity
  8
0
100
AcDbLine
 10
17.7929
 20
95.875345
 30
0.0
 11
18.28549551897689
 21
97.25711717611321
 31
0.0
  0
LINE
  5
3A
330
1E
100
AcDbEntity
  8
0
100
AcDbLine
 10
17.7929
 20
95.875345
 30
0.0
 11
17.7929
 21
96.87534499999999
 31
0.0
  0
LINE
  5
3B
330
1E
100
AcDbEntity
  8
0
100
AcDbLine
 10
17.7929
 20
96.87534499999999
 30
0.0
 11
17.7929
 21
95.875345
 31
0.0
  0
LINE
  5
3C
330
1E
100
AcDbEntity
  8
0
100
AcDbLine
 10
17.7929
 20
96.87534499999999
 30
0.0
 11
17.9497317873785
 21
97.315271454426
 31
0.0
  0
LINE
  5
3D
330
1E
100
AcDbEntity
  8
0
100
AcDbLine
 10
15.88189999999999
 20
97.38634499999999
 30
0.0
 11
16.05560994258
 21
97.87353353579041
 31
0.0
  0
LINE
  5
3E
330
1E
100
AcDbEntity
  8
0
100
AcDbLine
 10
15.88189999999999
 20
97.38634499999999
 30
0.0
 11
17.7929
 21
96.87534499999999
 31
0.0
  0
LINE
  5
3F
330
1E
100
AcDbEntity
  8
0
100
AcDbLine
 10
15.88189999999999
 20
97.38634499999999
 30
0.0
 11
15.88189999999999
 21
96.386345
 31
0.0
  0
LINE
  5
40
330
1E
100
AcDbEntity
  8
0
100
AcDbLine
 10
15.88189999999999
 20
96.386345
 30
0.0
 11
15.88189999999999
 21
97.38634499999999
 31
0.0
  0
LINE
  5
41
330
1E
100
AcDbEntity
  8
0
100
AcDbLine
 10
15.88189999999999
 20
96.386345
 30
0.0
 11
17.7929
 21
95.875345
 31
0.0
  0
LINE
  5
42
330
1E
100
AcDbEntity
  8
0
100
AcDbLine
 10
10.7
 20
95.031145
 30
0.0
 11
12.3
 21
90.88114499999999
 31
0.0
  0
LINE
  5
43
330
1E
100
AcDbEntity
  8
0
100
AcDbLine
 10
10.0
 20
100.1474449999999
 30
0.0
 11
10.7
 21
104.3974449999999
 31
0.0
  0
LINE
  5
44
330
1E
100
AcDbEntity
  8
0
100
AcDbLine
 10
10.0
 20
100.1474449999999
 30
0.0
 11
10.0
 21
99.28074500000001
 31
0.0
  0
LINE
  5
45
330
1E
100
AcDbEntity
  8
0
100
AcDbLine
 10
10.0
 20
99.28074500000001
 30
0.0
 11
10.7
 21
95.031145
 31
0.0
  0
LINE
  5
46
330
1E
100
AcDbEntity
  8
0
100
AcDbLine
 10
10.0
 20
99.28074500000001
 30
0.0
 11
10.0
 21
100.1474449999999
 31
0.0
  0
LINE
  5
47
330
1E
100
AcDbEntity
  8
0
100
AcDbLine
 10
10.0
 20
99.28074500000001
 30
0.0
 11
10.7
 21
103.5307449999999
 31
0.0
  0
LINE
  5
48
330
1E
100
AcDbEntity
  8
0
100
AcDbLine
 10
3.6
 20
99.603745
 30
0.0
 11
5.5
 21
95.004045
 31
0.0
  0
LINE
  5
49
330
1E
100
AcDbEntity
  8
0
100
AcDbLine
 10
5.299999999999999
 20
95.004045
 30
0.0
 11
8.3
 21
90.50404499999999
 31
0.0
  0
LINE
  5
4A
330
1E
100
AcDbEntity
  8
0
100
AcDbLine
 10
3.5
 20
97.005745
 30
0.0
 11
6.599999999999999
 21
92.40574499999999
 31
0.0
  0
LINE
  5
4B
330
1E
100
AcDbEntity
  8
0
100
AcDbLine
 10
19.4833
 20
103.2953449999999
 30
0.0
 11
20.00099999999999
 21
104.2613449999999
 31
0.0
  0
LINE
  5
4C
330
1E
100
AcDbEntity
  8
0
100
AcDbLine
 10
20.00099999999999
 20
104.2613449999999
 30
0.0
 11
20.1210975205535
 21
104.5939892116049
 31
0.0
  0
LINE
  5
4D
330
1E
100
AcDbEntity
  8
0
100
AcDbLine
 10
17.63749999999999
 20
104.0538449999999
 30
0.0
 11
18.1551
 21
105.0198449999999
 31
0.0
  0
LINE
  5
4E
330
1E
100
AcDbEntity
  8
0
100
AcDbLine
 10
17.63749999999999
 20
104.0538449999999
 30
0.0
 11
18.070578036623
 21
105.253377691366
 31
0.0
  0
LINE
  5
4F
330
1E
100
AcDbEntity
  8
0
100
AcDbLine
 10
17.63749999999999
 20
104.0538449999999
 30
0.0
 11
19.4833
 21
103.2953449999999
 31
0.0
  0
LINE
  5
50
330
1E
100
AcDbEntity
  8
0
100
AcDbLine
 10
10.7
 20
103.5307449999999
 30
0.0
 11
12.3
 21
107.681545
 31
0.0
  0
LINE
  5
51
330
1E
100
AcDbEntity
  8
0
100
AcDbLine
 10
18.1551
 20
105.0198449999999
 30
0.0
 11
18.3171778046743
 21
105.468686780138
 31
0.0
  0
LINE
  5
52
330
1E
100
AcDbEntity
  8
0
100
AcDbLine
 10
18.1551
 20
105.0198449999999
 30
0.0
 11
20.00099999999999
 21
104.2613449999999
 31
0.0
  0
LINE
  5
53
330
1E
100
AcDbEntity
  8
0
100
AcDbLine
 10
12.3
 20
107.681545
 30
0.0
 11
15.09999999999999
 21
111.681545
 31
0.0
  0
LINE
  5
54
330
1E
100
AcDbEntity
  8
0
100
AcDbLine
 10
12.3
 20
108.547545
 30
0.0
 11
15.09999999999999
 21
112.5475449999999
 31
0.0
  0
LINE
  5
55
330
1E
100
AcDbEntity
  8
0
100
AcDbLine
 10
10.7
 20
104.3974449999999
 30
0.0
 11
12.3
 21
108.547545
 31
0.0
  0
LINE
  5
56
330
1E
100
AcDbEntity
  8
0
100
AcDbLine
 10
2.9
 20
104.3037449999999
 30
0.0
 11
3.6
 21
99.603745
 31
0.0
  0
LINE
  5
57
330
1E
100
AcDbEntity
  8
0
100
AcDbLine
 10
2.9
 20
104.3037449999999
 30
0.0
 11
3.6
 21
109.003745
 31
0.0
  0
LINE
  5
58
330
1E
100
AcDbEntity
  8
0
100
AcDbLine
 10
2.7
 20
104.3037449999999
 30
0.0
 11
3.399999999999999
 21
99.603745
 31
0.0
  0
LINE
  5
59
330
1E
100
AcDbEntity
  8
0
100
AcDbLine
 10
2.7
 20
104.3037449999999
 30
0.0
 11
3.399999999999999
 21
109.003745
 31
0.0
  0
LINE
  5
5A
330
1E
100
AcDbEntity
  8
0
100
AcDbLine
 10
1.5
 20
101.755645
 30
0.0
 11
3.5
 21
97.005745
 31
0.0
  0
LINE
  5
5B
330
1E
100
AcDbEntity
  8
0
100
AcDbLine
 10
0.799999999999995
 20
103.9075449999999
 30
0.0
 11
1.5
 21
101.755645
 31
0.0
  0
LINE
  5
5C
330
1E
100
AcDbEntity
  8
0
100
AcDbLine
 10
3.6
 20
109.003745
 30
0.0
 11
5.5
 21
113.603545
 31
0.0
  0
LINE
  5
5D
330
1E
100
AcDbEntity
  8
0
100
AcDbLine
 10
3.5
 20
120.608545
 30
0.0
 11
6.599999999999999
 21
125.208545
 31
0.0
  0
LINE
  5
5E
330
1E
100
AcDbEntity
  8
0
100
AcDbLine
 10
1.5
 20
115.8585449999999
 30
0.0
 11
3.5
 21
120.608545
 31
0.0
  0
LINE
  5
5F
330
1E
100
AcDbEntity
  8
0
100
AcDbLine
 10
0.799999999999995
 20
113.7075449999999
 30
0.0
 11
1.5
 21
115.8585449999999
 31
0.0
  0
LINE
  5
60
330
1E
100
AcDbEntity
  8
0
100
AcDbLine
 10
15.09999999999999
 20
111.681545
 30
0.0
 11
18.7
 21
115.480545
 31
0.0
  0
LINE
  5
61
330
1E
100
AcDbEntity
  8
0
100
AcDbLine
 10
15.09999999999999
 20
112.5475449999999
 30
0.0
 11
18.7
 21
116.3475449999999
 31
0.0
  0
LINE
  5
62
330
1E
100
AcDbEntity
  8
0
100
AcDbLine
 10
8.499999999999991
 20
118.053545
 30
0.0
 11
12.6
 21
122.2535449999999
 31
0.0
  0
LINE
  5
63
330
1E
100
AcDbEntity
  8
0
100
AcDbLine
 10
5.5
 20
113.603545
 30
0.0
 11
8.499999999999991
 21
118.053545
 31
0.0
  0
LINE
  5
64
330
1E
100
AcDbEntity
  8
0
100
AcDbLine
 10
12.4
 20
131.3105449999999
 30
0.0
 11
17.7
 21
135.3105449999999
 31
0.0
  0
LINE
  5
65
330
1E
100
AcDbEntity
  8
0
100
AcDbLine
 10
8.3
 20
127.110545
 30
0.0
 11
12.4
 21
131.3105449999999
 31
0.0
  0
LINE
  5
66
330
1E
100
AcDbEntity
  8
0
100
AcDbLine
 10
6.599999999999999
 20
125.208545
 30
0.0
 11
8.3
 21
127.110545
 31
0.0
  0
LINE
  5
67
330
1E
100
AcDbEntity
  8
0
100
AcDbLine
 10
12.6
 20
122.2535449999999
 30
0.0
 11
17.9
 21
126.2035449999999
 31
0.0
  0
LINE
  5
68
330
1E
100
AcDbEntity
  8
0
100
AcDbLine
 10
12.4
 20
122.303545
 30
0.0
 11
17.7
 21
126.303545
 31
0.0
  0
LINE
  5
69
330
1E
100
AcDbEntity
  8
0
100
AcDbLine
 10
8.3
 20
118.1035449999999
 30
0.0
 11
12.4
 21
122.303545
 31
0.0
  0
LINE
  5
6A
330
1E
100
AcDbEntity
  8
0
100
AcDbLine
 10
5.299999999999999
 20
113.603545
 30
0.0
 11
8.3
 21
118.1035449999999
 31
0.0
  0
LINE
  5
6B
330
1E
100
AcDbEntity
  8
0
100
AcDbLine
 10
3.399999999999999
 20
109.003745
 30
0.0
 11
5.299999999999999
 21
113.603545
 31
0.0
  0
LINE
  5
6C
330
1E
100
AcDbEntity
  8
0
100
AcDbLine
 10
23.3022
 20
111.2325449999999
 30
0.0
 11
24.3022
 21
112.098545
 31
0.0
  0
LINE
  5
6D
330
1E
100
AcDbEntity
  8
0
100
AcDbLine
 10
23.3022
 20
111.2325449999999
 30
0.0
 11
23.7192905280729
 21
112.463410981084
 31
0.0
  0
LINE
  5
6E
330
1E
100
AcDbEntity
  8
0
100
AcDbLine
 10
23.3022
 20
111.2325449999999
 30
0.0
 11
24.9572
 21
110.244545
 31
0.0
  0
LINE
  5
6F
330
1E
100
AcDbEntity
  8
0
100
AcDbLine
 10
18.7
 20
115.480545
 30
0.0
 11
23.5
 21
119.0305449999999
 31
0.0
  0
LINE
  5
70
330
1E
100
AcDbEntity
  8
0
100
AcDbLine
 10
23.5
 20
119.0305449999999
 30
0.0
 11
29.1
 21
122.2305449999999
 31
0.0
  0
LINE
  5
71
330
1E
100
AcDbEntity
  8
0
100
AcDbLine
 10
23.5
 20
119.897545
 30
0.0
 11
29.1
 21
123.097545
 31
0.0
  0
LINE
  5
72
330
1E
100
AcDbEntity
  8
0
100
AcDbLine
 10
18.7
 20
116.3475449999999
 30
0.0
 11
23.5
 21
119.897545
 31
0.0
  0
LINE
  5
73
330
1E
100
AcDbEntity
  8
0
100
AcDbLine
 10
17.9
 20
126.2035449999999
 30
0.0
 11
24.1
 21
129.753545
 31
0.0
  0
LINE
  5
74
330
1E
100
AcDbEntity
  8
0
100
AcDbLine
 10
24.0
 20
129.8035449999999
 30
0.0
 11
31.0
 21
132.9535449999999
 31
0.0
  0
LINE
  5
75
330
1E
100
AcDbEntity
  8
0
100
AcDbLine
 10
24.0
 20
138.8105449999999
 30
0.0
 11
31.0
 21
141.9605449999999
 31
0.0
  0
LINE
  5
77
330
1E
100
AcDbEntity
  8
0
100
AcDbLine
 10
17.7
 20
135.3105449999999
 30
0.0
 11
24.0
 21
138.8105449999999
 31
0.0
  0
LINE
  5
78
330
1E
100
AcDbEntity
  8
0
100
AcDbLine
 10
17.7
 20
126.303545
 30
0.0
 11
24.0
 21
129.8035449999999
 31
0.0
  0
LINE
  5
7A
330
1E
100
AcDbEntity
  8
0
100
AcDbLine
 10
-0.0000000000000048
 20
108.8075449999999
 30
0.0
 11
0.799999999999995
 21
103.9075449999999
 31
0.0
  0
LINE
  5
7B
330
1E
100
AcDbEntity
  8
0
100
AcDbLine
 10
-0.0000000000000048
 20
108.8075449999999
 30
0.0
 11
0.799999999999995
 21
113.7075449999999
 31
0.0
  0
LINE
  5
7C
330
1E
100
AcDbEntity
  8
0
100
AcDbLine
 10
29.1
 20
76.33114499999999
 30
0.0
 11
35.5
 21
73.53124499999999
 31
0.0
  0
LINE
  5
7D
330
1E
100
AcDbEntity
  8
0
100
AcDbLine
 10
24.3022
 20
81.673845
 30
0.0
 11
25.9572
 21
81.64034499999999
 31
0.0
  0
LINE
  5
7E
330
1E
100
AcDbEntity
  8
0
100
AcDbLine
 10
25.9572
 20
81.64034499999999
 30
0.0
 11
26.13698175764969
 21
82.27450667938079
 31
0.0
  0
LINE
  5
7F
330
1E
100
AcDbEntity
  8
0
100
AcDbLine
 10
24.9572
 20
82.506345
 30
0.0
 11
25.1153391221042
 21
83.0641645060526
 31
0.0
  0
LINE
  5
80
330
1E
100
AcDbEntity
  8
0
100
AcDbLine
 10
24.9572
 20
82.506345
 30
0.0
 11
25.9572
 21
81.64034499999999
 31
0.0
  0
LINE
  5
81
330
1E
100
AcDbEntity
  8
0
100
AcDbLine
 10
27.9096
 20
91.907545
 30
0.0
 11
28.1707
 21
90.916045
 31
0.0
  0
LINE
  5
82
330
1E
100
AcDbEntity
  8
0
100
AcDbLine
 10
27.9096
 20
91.907545
 30
0.0
 11
28.2009028552976
 21
93.13754594785931
 31
0.0
  0
LINE
  5
83
330
1E
100
AcDbEntity
  8
0
100
AcDbLine
 10
27.9096
 20
91.907545
 30
0.0
 11
29.8502
 21
91.67934499999999
 31
0.0
  0
LINE
  5
84
330
1E
100
AcDbEntity
  8
0
100
AcDbLine
 10
28.1707
 20
90.916045
 30
0.0
 11
30.1112
 21
90.68784499999999
 31
0.0
  0
LINE
  5
85
330
1E
100
AcDbEntity
  8
0
100
AcDbLine
 10
28.1707
 20
98.090045
 30
0.0
 11
28.2742136373246
 21
98.5135191125672
 31
0.0
  0
LINE
  5
86
330
1E
100
AcDbEntity
  8
0
100
AcDbLine
 10
28.1707
 20
98.090045
 30
0.0
 11
30.1112
 21
97.605845
 31
0.0
  0
LINE
  5
87
330
1E
100
AcDbEntity
  8
0
100
AcDbLine
 10
27.9096
 20
97.098545
 30
0.0
 11
28.1707
 21
98.090045
 31
0.0
  0
LINE
  5
88
330
1E
100
AcDbEntity
  8
0
100
AcDbLine
 10
27.9096
 20
97.098545
 30
0.0
 11
28.06306509524199
 21
97.7262164868908
 31
0.0
  0
LINE
  5
89
330
1E
100
AcDbEntity
  8
0
100
AcDbLine
 10
27.9096
 20
97.098545
 30
0.0
 11
29.8502
 21
96.614345
 31
0.0
  0
LINE
  5
8A
330
1E
100
AcDbEntity
  8
0
100
AcDbLine
 10
25.9572
 20
111.1105449999999
 30
0.0
 11
26.4537102358756
 21
112.5748129558989
 31
0.0
  0
LINE
  5
8B
330
1E
100
AcDbEntity
  8
0
100
AcDbLine
 10
24.9572
 20
110.244545
 30
0.0
 11
25.9572
 21
111.1105449999999
 31
0.0
  0
LINE
  5
8C
330
1E
100
AcDbEntity
  8
0
100
AcDbLine
 10
24.3022
 20
112.098545
 30
0.0
 11
24.4511590925278
 21
112.538134650747
 31
0.0
  0
LINE
  5
8D
330
1E
100
AcDbEntity
  8
0
100
AcDbLine
 10
24.3022
 20
112.098545
 30
0.0
 11
25.9572
 21
111.1105449999999
 31
0.0
  0
LINE
  5
8E
330
1E
100
AcDbEntity
  8
0
100
AcDbLine
 10
29.1
 20
122.2305449999999
 30
0.0
 11
35.5
 21
125.0305449999999
 31
0.0
  0
LINE
  5
8F
330
1E
100
AcDbEntity
  8
0
100
AcDbLine
 10
29.8502
 20
91.67934499999999
 30
0.0
 11
29.96586741365319
 21
92.16774689503081
 31
0.0
  0
LINE
  5
90
330
1E
100
AcDbEntity
  8
0
100
AcDbLine
 10
29.8502
 20
91.67934499999999
 30
0.0
 11
30.1112
 21
90.68784499999999
 31
0.0
  0
LINE
  5
91
330
1E
100
AcDbEntity
  8
0
100
AcDbLine
 10
30.8577
 20
85.902045
 30
0.0
 11
31.6231
 21
84.97804499999999
 31
0.0
  0
LINE
  5
92
330
1E
100
AcDbEntity
  8
0
100
AcDbLine
 10
30.8577
 20
85.902045
 30
0.0
 11
31.1225652168271
 21
87.13812914610821
 31
0.0
  0
LINE
  5
93
330
1E
100
AcDbEntity
  8
0
100
AcDbLine
 10
30.8577
 20
85.902045
 30
0.0
 11
32.66599999999999
 21
85.920345
 31
0.0
  0
LINE
  5
94
330
1E
100
AcDbEntity
  8
0
100
AcDbLine
 10
30.1112
 20
90.68784499999999
 30
0.0
 11
30.4201211704463
 21
91.99225460246081
 31
0.0
  0
LINE
  5
95
330
1E
100
AcDbEntity
  8
0
100
AcDbLine
 10
30.1112
 20
97.605845
 30
0.0
 11
30.2305988789848
 21
98.09448132471469
 31
0.0
  0
LINE
  5
96
330
1E
100
AcDbEntity
  8
0
100
AcDbLine
 10
29.8502
 20
96.614345
 30
0.0
 11
30.1112
 21
97.605845
 31
0.0
  0
LINE
  5
97
330
1E
100
AcDbEntity
  8
0
100
AcDbLine
 10
30.8577
 20
103.104045
 30
0.0
 11
31.6231
 21
104.028045
 31
0.0
  0
LINE
  5
98
330
1E
100
AcDbEntity
  8
0
100
AcDbLine
 10
30.8577
 20
103.104045
 30
0.0
 11
31.0021427345319
 21
103.718458779204
 31
0.0
  0
LINE
  5
99
330
1E
100
AcDbEntity
  8
0
100
AcDbLine
 10
30.8577
 20
103.104045
 30
0.0
 11
32.66599999999999
 21
102.3733449999999
 31
0.0
  0
LINE
  5
9A
330
1E
100
AcDbEntity
  8
0
100
AcDbLine
 10
29.1
 20
123.097545
 30
0.0
 11
35.5
 21
125.8975449999999
 31
0.0
  0
LINE
  5
9B
330
1E
100
AcDbEntity
  8
0
100
AcDbLine
 10
26.2
 20
77.82574499999999
 30
0.0
 11
27.38135373246
 21
77.31322858145141
 31
0.0
  0
LINE
  5
9C
330
1E
100
AcDbEntity
  8
0
100
AcDbLine
 10
24.1
 20
78.853945
 30
0.0
 11
26.2
 21
77.82574499999999
 31
0.0
  0
LINE
  5
9D
330
1E
100
AcDbEntity
  8
0
100
AcDbLine
 10
24.1
 20
129.753545
 30
0.0
 11
31.2
 21
132.8535449999999
 31
0.0
  0
LINE
  5
9E
330
1E
100
AcDbEntity
  8
0
100
AcDbLine
 10
31.6231
 20
84.97804499999999
 30
0.0
 11
33.4314
 21
84.99634499999999
 31
0.0
  0
LINE
  5
9F
330
1E
100
AcDbEntity
  8
0
100
AcDbLine
 10
32.4901
 20
76.33834499999998
 30
0.0
 11
32.6451093427943
 21
77.0309083148817
 31
0.0
  0
LINE
  5
A0
330
1E
100
AcDbEntity
  8
0
100
AcDbLine
 10
32.4901
 20
76.33834499999998
 30
0.0
 11
33.9043
 21
75.631345
 31
0.0
  0
LINE
  5
A1
330
1E
100
AcDbEntity
  8
0
100
AcDbLine
 10
32.4901
 20
76.33834499999998
 30
0.0
 11
33.8414
 21
76.50334499999999
 31
0.0
  0
LINE
  5
A2
330
1E
100
AcDbEntity
  8
0
100
AcDbLine
 10
33.8414
 20
76.50334499999999
 30
0.0
 11
35.2556
 21
75.795845
 31
0.0
  0
LINE
  5
A3
330
1E
100
AcDbEntity
  8
0
100
AcDbLine
 10
33.8414
 20
76.50334499999999
 30
0.0
 11
33.9490910663137
 21
76.9843668170555
 31
0.0
  0
LINE
  5
A4
330
1E
100
AcDbEntity
  8
0
100
AcDbLine
 10
35.2556
 20
75.795845
 30
0.0
 11
35.414026286935
 21
76.5036748150689
 31
0.0
  0
LINE
  5
A5
330
1E
100
AcDbEntity
  8
0
100
AcDbLine
 10
33.9043
 20
75.631345
 30
0.0
 11
35.2556
 21
75.795845
 31
0.0
  0
LINE
  5
A6
330
1E
100
AcDbEntity
  8
0
100
AcDbLine
 10
33.4314
 20
84.99634499999999
 30
0.0
 11
33.60080232223729
 21
85.78739453842841
 31
0.0
  0
LINE
  5
A7
330
1E
100
AcDbEntity
  8
0
100
AcDbLine
 10
32.66599999999999
 20
85.920345
 30
0.0
 11
32.8260933693653
 21
86.66771428288859
 31
0.0
  0
LINE
  5
A8
330
1E
100
AcDbEntity
  8
0
100
AcDbLine
 10
32.66599999999999
 20
85.920345
 30
0.0
 11
33.4314
 21
84.99634499999999
 31
0.0
  0
LINE
  5
A9
330
1E
100
AcDbEntity
  8
0
100
AcDbLine
 10
32.4901
 20
117.434545
 30
0.0
 11
32.7976908634942
 21
118.500643726301
 31
0.0
  0
LINE
  5
AA
330
1E
100
AcDbEntity
  8
0
100
AcDbLine
 10
32.4901
 20
117.434545
 30
0.0
 11
33.9043
 21
118.141545
 31
0.0
  0
LINE
  5
AB
330
1E
100
AcDbEntity
  8
0
100
AcDbLine
 10
32.4901
 20
117.434545
 30
0.0
 11
33.8414
 21
116.247545
 31
0.0
  0
LINE
  5
AC
330
1E
100
AcDbEntity
  8
0
100
AcDbLine
 10
33.8414
 20
116.247545
 30
0.0
 11
35.2556
 21
116.9545449999999
 31
0.0
  0
LINE
  5
AD
330
1E
100
AcDbEntity
  8
0
100
AcDbLine
 10
35.2556
 20
116.9545449999999
 30
0.0
 11
35.6728
 21
118.4005449999999
 31
0.0
  0
LINE
  5
AE
330
1E
100
AcDbEntity
  8
0
100
AcDbLine
 10
33.9043
 20
118.141545
 30
0.0
 11
34.19660816557279
 21
119.154674452105
 31
0.0
  0
LINE
  5
AF
330
1E
100
AcDbEntity
  8
0
100
AcDbLine
 10
33.9043
 20
118.141545
 30
0.0
 11
35.2556
 21
116.9545449999999
 31
0.0
  0
LINE
  5
B0
330
1E
100
AcDbEntity
  8
0
100
AcDbLine
 10
33.4314
 20
103.2973449999999
 30
0.0
 11
33.739653211968
 21
104.6085774046859
 31
0.0
  0
LINE
  5
B1
330
1E
100
AcDbEntity
  8
0
100
AcDbLine
 10
32.66599999999999
 20
102.3733449999999
 30
0.0
 11
33.4314
 21
103.2973449999999
 31
0.0
  0
LINE
  5
B2
330
1E
100
AcDbEntity
  8
0
100
AcDbLine
 10
31.6231
 20
104.028045
 30
0.0
 11
31.70395323012119
 21
104.371953224672
 31
0.0
  0
LINE
  5
B3
330
1E
100
AcDbEntity
  8
0
100
AcDbLine
 10
31.6231
 20
104.028045
 30
0.0
 11
33.4314
 21
103.2973449999999
 31
0.0
  0
LINE
  5
B4
330
1E
100
AcDbEntity
  8
0
100
AcDbLine
 10
35.5
 20
125.0305449999999
 30
0.0
 11
42.6
 21
127.4305449999999
 31
0.0
  0
LINE
  5
B5
330
1E
100
AcDbEntity
  8
0
100
AcDbLine
 10
38.0315
 20
79.68954499999999
 30
0.0
 11
39.5844
 21
79.92884499999999
 31
0.0
  0
LINE
  5
B6
330
1E
100
AcDbEntity
  8
0
100
AcDbLine
 10
38.36679999999999
 20
80.72234499999998
 30
0.0
 11
39.5844
 21
79.92884499999999
 31
0.0
  0
LINE
  5
B7
330
1E
100
AcDbEntity
  8
0
100
AcDbLine
 10
38.36679999999999
 20
80.72234499999998
 30
0.0
 11
38.51632658190249
 21
81.55635780742459
 31
0.0
  0
LINE
  5
B8
330
1E
100
AcDbEntity
  8
0
100
AcDbLine
 10
36.814
 20
80.482545
 30
0.0
 11
37.0309337934565
 21
81.69280021792308
 31
0.0
  0
LINE
  5
B9
330
1E
100
AcDbEntity
  8
0
100
AcDbLine
 10
36.814
 20
80.482545
 30
0.0
 11
38.0315
 21
79.68954499999999
 31
0.0
  0
LINE
  5
BA
330
1E
100
AcDbEntity
  8
0
100
AcDbLine
 10
36.814
 20
80.482545
 30
0.0
 11
38.36679999999999
 21
80.72234499999998
 31
0.0
  0
LINE
  5
BB
330
1E
100
AcDbEntity
  8
0
100
AcDbLine
 10
38.36679999999999
 20
107.571345
 30
0.0
 11
39.5844
 21
108.3648449999999
 31
0.0
  0
LINE
  5
BC
330
1E
100
AcDbEntity
  8
0
100
AcDbLine
 10
38.0315
 20
109.3165449999999
 30
0.0
 11
38.35779999999999
 21
110.8865449999999
 31
0.0
  0
LINE
  5
BD
330
1E
100
AcDbEntity
  8
0
100
AcDbLine
 10
38.0315
 20
109.3165449999999
 30
0.0
 11
39.5844
 21
108.3648449999999
 31
0.0
  0
LINE
  5
BE
330
1E
100
AcDbEntity
  8
0
100
AcDbLine
 10
36.814
 20
108.523545
 30
0.0
 11
36.94023035479929
 21
109.130518419185
 31
0.0
  0
LINE
  5
BF
330
1E
100
AcDbEntity
  8
0
100
AcDbLine
 10
36.814
 20
108.523545
 30
0.0
 11
38.0315
 21
109.3165449999999
 31
0.0
  0
LINE
  5
C0
330
1E
100
AcDbEntity
  8
0
100
AcDbLine
 10
36.814
 20
108.523545
 30
0.0
 11
38.36679999999999
 21
107.571345
 31
0.0
  0
LINE
  5
C1
330
1E
100
AcDbEntity
  8
0
100
AcDbLine
 10
35.5
 20
125.8975449999999
 30
0.0
 11
42.6
 21
128.2975449999999
 31
0.0
  0
LINE
  5
C2
330
1E
100
AcDbEntity
  8
0
100
AcDbLine
 10
35.5
 20
73.53124499999999
 30
0.0
 11
42.6
 21
71.13114499999999
 31
0.0
  0
LINE
  5
C3
330
1E
100
AcDbEntity
  8
0
100
AcDbLine
 10
31.2
 20
132.8535449999999
 30
0.0
 11
39.1
 21
135.503545
 31
0.0
  0
LINE
  5
C4
330
1E
100
AcDbEntity
  8
0
100
AcDbLine
 10
31.0
 20
132.9535449999999
 30
0.0
 11
39.0
 21
135.603545
 31
0.0
  0
LINE
  5
C5
330
1E
100
AcDbEntity
  8
0
100
AcDbLine
 10
39.5844
 20
79.92884499999999
 30
0.0
 11
39.7388028743799
 21
80.79032026478079
 31
0.0
  0
LINE
  5
C6
330
1E
100
AcDbEntity
  8
0
100
AcDbLine
 10
39.2973
 20
93.253745
 30
0.0
 11
39.40436701852979
 21
94.0030833475196
 31
0.0
  0
LINE
  5
C7
330
1E
100
AcDbEntity
  8
0
100
AcDbLine
 10
39.2973
 20
93.253745
 30
0.0
 11
41.2822
 21
93.04104499999999
 31
0.0
  0
LINE
  5
C8
330
1E
100
AcDbEntity
  8
0
100
AcDbLine
 10
39.2973
 20
93.253745
 30
0.0
 11
39.2973
 21
92.25374499999999
 31
0.0
  0
LINE
  5
C9
330
1E
100
AcDbEntity
  8
0
100
AcDbLine
 10
39.2973
 20
92.25374499999999
 30
0.0
 11
39.2973
 21
93.253745
 31
0.0
  0
LINE
  5
CA
330
1E
100
AcDbEntity
  8
0
100
AcDbLine
 10
39.2973
 20
92.25374499999999
 30
0.0
 11
41.2822
 21
92.04104499999999
 31
0.0
  0
LINE
  5
CB
330
1E
100
AcDbEntity
  8
0
100
AcDbLine
 10
40.255
 20
88.61624499999999
 30
0.0
 11
40.7727
 21
87.650745
 31
0.0
  0
LINE
  5
CC
330
1E
100
AcDbEntity
  8
0
100
AcDbLine
 10
40.255
 20
88.61624499999999
 30
0.0
 11
40.3137409907274
 21
89.04966093200391
 31
0.0
  0
LINE
  5
CD
330
1E
100
AcDbEntity
  8
0
100
AcDbLine
 10
40.255
 20
88.61624499999999
 30
0.0
 11
42.17229999999999
 21
88.660545
 31
0.0
  0
LINE
  5
CE
330
1E
100
AcDbEntity
  8
0
100
AcDbLine
 10
40.255
 20
96.891245
 30
0.0
 11
40.7727
 21
97.85674499999998
 31
0.0
  0
LINE
  5
CF
330
1E
100
AcDbEntity
  8
0
100
AcDbLine
 10
40.255
 20
96.891245
 30
0.0
 11
40.4463812360784
 21
98.2517212205677
 31
0.0
  0
LINE
  5
D0
330
1E
100
AcDbEntity
  8
0
100
AcDbLine
 10
40.255
 20
96.891245
 30
0.0
 11
42.17229999999999
 21
96.421545
 31
0.0
  0
LINE
  5
D1
330
1E
100
AcDbEntity
  8
0
100
AcDbLine
 10
39.5844
 20
108.3648449999999
 30
0.0
 11
39.82159227711079
 21
109.5062328521789
 31
0.0
  0
LINE
  5
D2
330
1E
100
AcDbEntity
  8
0
100
AcDbLine
 10
39.1
 20
135.503545
 30
0.0
 11
47.5
 21
137.5535449999999
 31
0.0
  0
LINE
  5
D3
330
1E
100
AcDbEntity
  8
0
100
AcDbLine
 10
39.0
 20
135.603545
 30
0.0
 11
47.4
 21
137.653545
 31
0.0
  0
LINE
  5
D4
330
1E
100
AcDbEntity
  8
0
100
AcDbLine
 10
33.0
 20
142.7395449999999
 30
0.0
 11
40.6
 21
145.2895449999999
 31
0.0
  0
LINE
  5
D5
330
1E
100
AcDbEntity
  8
0
100
AcDbLine
 10
31.0
 20
141.9605449999999
 30
0.0
 11
33.0
 21
142.7395449999999
 31
0.0
  0
LINE
  5
D6
330
1E
100
AcDbEntity
  8
0
100
AcDbLine
 10
46.307
 20
71.037345
 30
0.0
 11
47.2625
 21
71.35384499999999
 31
0.0
  0
LINE
  5
D7
330
1E
100
AcDbEntity
  8
0
100
AcDbLine
 10
40.7727
 20
87.650745
 30
0.0
 11
42.6899
 21
87.694545
 31
0.0
  0
LINE
  5
D8
330
1E
100
AcDbEntity
  8
0
100
AcDbLine
 10
41.2822
 20
93.04104499999999
 30
0.0
 11
41.2822
 21
92.04104499999999
 31
0.0
  0
LINE
  5
D9
330
1E
100
AcDbEntity
  8
0
100
AcDbLine
 10
41.2822
 20
93.04104499999999
 30
0.0
 11
41.448450255002
 21
94.2046614020702
 31
0.0
  0
LINE
  5
DA
330
1E
100
AcDbEntity
  8
0
100
AcDbLine
 10
42.17229999999999
 20
88.660545
 30
0.0
 11
42.2295154354523
 21
89.0828827147277
 31
0.0
  0
LINE
  5
DB
330
1E
100
AcDbEntity
  8
0
100
AcDbLine
 10
42.17229999999999
 20
88.660545
 30
0.0
 11
42.6899
 21
87.694545
 31
0.0
  0
LINE
  5
DC
330
1E
100
AcDbEntity
  8
0
100
AcDbLine
 10
41.2822
 20
92.04104499999999
 30
0.0
 11
41.3711624695812
 21
92.66370984206059
 31
0.0
  0
LINE
  5
DD
330
1E
100
AcDbEntity
  8
0
100
AcDbLine
 10
41.2822
 20
92.04104499999999
 30
0.0
 11
41.2822
 21
93.04104499999999
 31
0.0
  0
LINE
  5
DE
330
1E
100
AcDbEntity
  8
0
100
AcDbLine
 10
42.17229999999999
 20
96.421545
 30
0.0
 11
42.6899
 21
97.38754499999998
 31
0.0
  0
LINE
  5
DF
330
1E
100
AcDbEntity
  8
0
100
AcDbLine
 10
40.7727
 20
97.85674499999998
 30
0.0
 11
40.8720669853925
 21
98.56362464229071
 31
0.0
  0
LINE
  5
E0
330
1E
100
AcDbEntity
  8
0
100
AcDbLine
 10
40.7727
 20
97.85674499999998
 30
0.0
 11
42.6899
 21
97.38754499999998
 31
0.0
  0
LINE
  5
E1
330
1E
100
AcDbEntity
  8
0
100
AcDbLine
 10
42.6
 20
127.4305449999999
 30
0.0
 11
50.2
 21
129.230545
 31
0.0
  0
LINE
  5
E2
330
1E
100
AcDbEntity
  8
0
100
AcDbLine
 10
44.57489999999999
 20
71.537345
 30
0.0
 11
44.68706047624639
 21
72.2634805129407
 31
0.0
  0
LINE
  5
E3
330
1E
100
AcDbEntity
  8
0
100
AcDbLine
 10
44.57489999999999
 20
71.537345
 30
0.0
 11
46.307
 21
71.037345
 31
0.0
  0
LINE
  5
E4
330
1E
100
AcDbEntity
  8
0
100
AcDbLine
 10
44.57489999999999
 20
71.537345
 30
0.0
 11
45.5304
 21
71.85384499999999
 31
0.0
  0
LINE
  5
E5
330
1E
100
AcDbEntity
  8
0
100
AcDbLine
 10
44.58059999999999
 20
83.39524499999999
 30
0.0
 11
46.2995
 21
83.67854499999999
 31
0.0
  0
LINE
  5
E6
330
1E
100
AcDbEntity
  8
0
100
AcDbLine
 10
42.6899
 20
87.694545
 30
0.0
 11
42.7832390607126
 21
88.3835698537425
 31
0.0
  0
LINE
  5
E7
330
1E
100
AcDbEntity
  8
0
100
AcDbLine
 10
42.6899
 20
97.38754499999998
 30
0.0
 11
42.8466013659826
 21
98.50202731202621
 31
0.0
  0
LINE
  5
E8
330
1E
100
AcDbEntity
  8
0
100
AcDbLine
 10
45.2995
 20
84.544545
 30
0.0
 11
45.35112752562489
 21
84.97669190466641
 31
0.0
  0
LINE
  5
E9
330
1E
100
AcDbEntity
  8
0
100
AcDbLine
 10
45.2995
 20
84.544545
 30
0.0
 11
46.2995
 21
83.67854499999999
 31
0.0
  0
LINE
  5
EA
330
1E
100
AcDbEntity
  8
0
100
AcDbLine
 10
43.5806
 20
84.261245
 30
0.0
 11
44.58059999999999
 21
83.39524499999999
 31
0.0
  0
LINE
  5
EB
330
1E
100
AcDbEntity
  8
0
100
AcDbLine
 10
43.5806
 20
84.261245
 30
0.0
 11
43.6323854476669
 21
84.6945920536079
 31
0.0
  0
LINE
  5
EC
330
1E
100
AcDbEntity
  8
0
100
AcDbLine
 10
43.5806
 20
84.261245
 30
0.0
 11
45.2995
 21
84.544545
 31
0.0
  0
LINE
  5
ED
330
1E
100
AcDbEntity
  8
0
100
AcDbLine
 10
45.5304
 20
71.85384499999999
 30
0.0
 11
47.2625
 21
71.35384499999999
 31
0.0
  0
LINE
  5
EE
330
1E
100
AcDbEntity
  8
0
100
AcDbLine
 10
45.5304
 20
71.85384499999999
 30
0.0
 11
45.8254
 21
73.76434499999999
 31
0.0
  0
LINE
  5
EF
330
1E
100
AcDbEntity
  8
0
100
AcDbLine
 10
47.2625
 20
71.35384499999999
 30
0.0
 11
47.37134282829179
 21
72.05874067271671
 31
0.0
  0
LINE
  5
F0
330
1E
100
AcDbEntity
  8
0
100
AcDbLine
 10
46.5641
 20
76.438845
 30
0.0
 11
48.1509
 21
75.830345
 31
0.0
  0
LINE
  5
F1
330
1E
100
AcDbEntity
  8
0
100
AcDbLine
 10
46.5641
 20
76.438845
 30
0.0
 11
46.68558114190429
 21
77.3404931718415
 31
0.0
  0
LINE
  5
F2
330
1E
100
AcDbEntity
  8
0
100
AcDbLine
 10
46.95929999999999
 20
75.41004499999999
 30
0.0
 11
48.1509
 21
75.830345
 31
0.0
  0
LINE
  5
F3
330
1E
100
AcDbEntity
  8
0
100
AcDbLine
 10
45.37259999999999
 20
76.01904499999999
 30
0.0
 11
45.5349790255047
 21
77.22385327270409
 31
0.0
  0
LINE
  5
F4
330
1E
100
AcDbEntity
  8
0
100
AcDbLine
 10
45.37259999999999
 20
76.01904499999999
 30
0.0
 11
46.95929999999999
 21
75.41004499999999
 31
0.0
  0
LINE
  5
F5
330
1E
100
AcDbEntity
  8
0
100
AcDbLine
 10
45.37259999999999
 20
76.01904499999999
 30
0.0
 11
46.5641
 21
76.438845
 31
0.0
  0
LINE
  5
F6
330
1E
100
AcDbEntity
  8
0
100
AcDbLine
 10
46.2995
 20
83.67854499999999
 30
0.0
 11
46.384207512922
 21
84.3875871062829
 31
0.0
  0
LINE
  5
F7
330
1E
100
AcDbEntity
  8
0
100
AcDbLine
 10
45.2995
 20
100.537545
 30
0.0
 11
46.2995
 21
101.4035449999999
 31
0.0
  0
LINE
  5
F8
330
1E
100
AcDbEntity
  8
0
100
AcDbLine
 10
44.57489999999999
 20
122.235545
 30
0.0
 11
44.7810955108073
 21
123.2130696344269
 31
0.0
  0
LINE
  5
F9
330
1E
100
AcDbEntity
  8
0
100
AcDbLine
 10
44.57489999999999
 20
122.235545
 30
0.0
 11
46.307
 21
122.735545
 31
0.0
  0
LINE
  5
FA
330
1E
100
AcDbEntity
  8
0
100
AcDbLine
 10
44.57489999999999
 20
122.235545
 30
0.0
 11
45.5304
 21
120.8965449999999
 31
0.0
  0
LINE
  5
FB
330
1E
100
AcDbEntity
  8
0
100
AcDbLine
 10
46.5641
 20
111.854545
 30
0.0
 11
48.1509
 21
112.4635449999999
 31
0.0
  0
LINE
  5
FC
330
1E
100
AcDbEntity
  8
0
100
AcDbLine
 10
45.5304
 20
120.8965449999999
 30
0.0
 11
47.2625
 21
121.3965449999999
 31
0.0
  0
LINE
  5
FD
330
1E
100
AcDbEntity
  8
0
100
AcDbLine
 10
47.2625
 20
121.3965449999999
 30
0.0
 11
47.55749999999999
 21
122.7965449999999
 31
0.0
  0
LINE
  5
FE
330
1E
100
AcDbEntity
  8
0
100
AcDbLine
 10
46.307
 20
122.735545
 30
0.0
 11
46.50950546352549
 21
123.69590141855
 31
0.0
  0
LINE
  5
FF
330
1E
100
AcDbEntity
  8
0
100
AcDbLine
 10
46.307
 20
122.735545
 30
0.0
 11
47.2625
 21
121.3965449999999
 31
0.0
  0
LINE
  5
100
330
1E
100
AcDbEntity
  8
0
100
AcDbLine
 10
46.95929999999999
 20
113.5955449999999
 30
0.0
 11
47.2097
 21
115.1275449999999
 31
0.0
  0
LINE
  5
101
330
1E
100
AcDbEntity
  8
0
100
AcDbLine
 10
46.95929999999999
 20
113.5955449999999
 30
0.0
 11
48.1509
 21
112.4635449999999
 31
0.0
  0
LINE
  5
102
330
1E
100
AcDbEntity
  8
0
100
AcDbLine
 10
45.37259999999999
 20
112.986545
 30
0.0
 11
45.623
 21
114.5185449999999
 31
0.0
  0
LINE
  5
103
330
1E
100
AcDbEntity
  8
0
100
AcDbLine
 10
45.37259999999999
 20
112.986545
 30
0.0
 11
46.95929999999999
 21
113.5955449999999
 31
0.0
  0
LINE
  5
104
330
1E
100
AcDbEntity
  8
0
100
AcDbLine
 10
45.37259999999999
 20
112.986545
 30
0.0
 11
46.5641
 21
111.854545
 31
0.0
  0
LINE
  5
105
330
1E
100
AcDbEntity
  8
0
100
AcDbLine
 10
46.2995
 20
101.4035449999999
 30
0.0
 11
46.4415643587974
 21
102.510538268786
 31
0.0
  0
LINE
  5
106
330
1E
100
AcDbEntity
  8
0
100
AcDbLine
 10
44.58059999999999
 20
102.112245
 30
0.0
 11
44.6681237989885
 21
102.7944533043869
 31
0.0
  0
LINE
  5
107
330
1E
100
AcDbEntity
  8
0
100
AcDbLine
 10
44.58059999999999
 20
102.112245
 30
0.0
 11
46.2995
 21
101.4035449999999
 31
0.0
  0
LINE
  5
108
330
1E
100
AcDbEntity
  8
0
100
AcDbLine
 10
43.5806
 20
101.246245
 30
0.0
 11
44.58059999999999
 21
102.112245
 31
0.0
  0
LINE
  5
109
330
1E
100
AcDbEntity
  8
0
100
AcDbLine
 10
43.5806
 20
101.246245
 30
0.0
 11
43.75996665857321
 21
102.6443267266029
 31
0.0
  0
LINE
  5
10A
330
1E
100
AcDbEntity
  8
0
100
AcDbLine
 10
43.5806
 20
101.246245
 30
0.0
 11
45.2995
 21
100.537545
 31
0.0
  0
LINE
  5
10B
330
1E
100
AcDbEntity
  8
0
100
AcDbLine
 10
42.6
 20
128.2975449999999
 30
0.0
 11
50.2
 21
130.0975449999999
 31
0.0
  0
LINE
  5
10C
330
1E
100
AcDbEntity
  8
0
100
AcDbLine
 10
42.6
 20
71.13114499999999
 30
0.0
 11
50.2
 21
69.33114499999999
 31
0.0
  0
LINE
  5
10D
330
1E
100
AcDbEntity
  8
0
100
AcDbLine
 10
48.1509
 20
75.830345
 30
0.0
 11
48.2738656900152
 21
76.74313066539479
 31
0.0
  0
LINE
  5
10E
330
1E
100
AcDbEntity
  8
0
100
AcDbLine
 10
49.0473
 20
105.0227449999999
 30
0.0
 11
49.2173722473213
 21
106.621972744973
 31
0.0
  0
LINE
  5
10F
330
1E
100
AcDbEntity
  8
0
100
AcDbLine
 10
49.0473
 20
105.0227449999999
 30
0.0
 11
50.4615
 21
105.7302449999999
 31
0.0
  0
LINE
  5
110
330
1E
100
AcDbEntity
  8
0
100
AcDbLine
 10
49.0473
 20
105.0227449999999
 30
0.0
 11
50.4508
 21
104.1085449999999
 31
0.0
  0
LINE
  5
111
330
1E
100
AcDbEntity
  8
0
100
AcDbLine
 10
48.1509
 20
112.4635449999999
 30
0.0
 11
48.3239437057761
 21
113.522685859964
 31
0.0
  0
LINE
  5
112
330
1E
100
AcDbEntity
  8
0
100
AcDbLine
 10
49.0473
 20
80.48474499999999
 30
0.0
 11
49.07667554321589
 21
80.7902438808874
 31
0.0
  0
LINE
  5
113
330
1E
100
AcDbEntity
  8
0
100
AcDbLine
 10
49.0473
 20
80.48474499999999
 30
0.0
 11
50.4615
 21
79.77724499999999
 31
0.0
  0
LINE
  5
114
330
1E
100
AcDbEntity
  8
0
100
AcDbLine
 10
49.0473
 20
80.48474499999999
 30
0.0
 11
50.4508
 21
80.97354499999999
 31
0.0
  0
LINE
  5
115
330
1E
100
AcDbEntity
  8
0
100
AcDbLine
 10
50.2
 20
129.230545
 30
0.0
 11
58.2
 21
130.6305449999999
 31
0.0
  0
LINE
  5
116
330
1E
100
AcDbEntity
  8
0
100
AcDbLine
 10
56.2826
 20
77.54424499999998
 30
0.0
 11
56.2905585655101
 21
77.6625152459234
 31
0.0
  0
LINE
  5
117
330
1E
100
AcDbEntity
  8
0
100
AcDbLine
 10
56.2826
 20
77.54424499999998
 30
0.0
 11
58.0147
 21
77.04424499999999
 31
0.0
  0
LINE
  5
118
330
1E
100
AcDbEntity
  8
0
100
AcDbLine
 10
56.2826
 20
77.54424499999998
 30
0.0
 11
57.2751
 21
78.19104499999999
 31
0.0
  0
LINE
  5
119
330
1E
100
AcDbEntity
  8
0
100
AcDbLine
 10
55.9503
 20
72.81454499999999
 30
0.0
 11
56.05345982224321
 21
74.0499068103321
 31
0.0
  0
LINE
  5
11A
330
1E
100
AcDbEntity
  8
0
100
AcDbLine
 10
55.9503
 20
72.81454499999999
 30
0.0
 11
57.7981
 21
72.432045
 31
0.0
  0
LINE
  5
11B
330
1E
100
AcDbEntity
  8
0
100
AcDbLine
 10
55.9503
 20
72.81454499999999
 30
0.0
 11
56.6993
 21
73.36234499999999
 31
0.0
  0
LINE
  5
11C
330
1E
100
AcDbEntity
  8
0
100
AcDbLine
 10
50.4508
 20
104.1085449999999
 30
0.0
 11
51.865
 21
104.815545
 31
0.0
  0
LINE
  5
11D
330
1E
100
AcDbEntity
  8
0
100
AcDbLine
 10
51.865
 20
104.815545
 30
0.0
 11
51.9878900997315
 21
105.9704430932739
 31
0.0
  0
LINE
  5
11E
330
1E
100
AcDbEntity
  8
0
100
AcDbLine
 10
50.4615
 20
105.7302449999999
 30
0.0
 11
50.53522138727299
 21
106.422852552624
 31
0.0
  0
LINE
  5
11F
330
1E
100
AcDbEntity
  8
0
100
AcDbLine
 10
50.4615
 20
105.7302449999999
 30
0.0
 11
51.865
 21
104.815545
 31
0.0
  0
LINE
  5
120
330
1E
100
AcDbEntity
  8
0
100
AcDbLine
 10
50.4508
 20
80.97354499999999
 30
0.0
 11
51.865
 21
80.26654499999999
 31
0.0
  0
LINE
  5
121
330
1E
100
AcDbEntity
  8
0
100
AcDbLine
 10
50.4508
 20
80.97354499999999
 30
0.0
 11
50.4799152101877
 21
81.2762627294124
 31
0.0
  0
LINE
  5
122
330
1E
100
AcDbEntity
  8
0
100
AcDbLine
 10
52.3204
 20
89.52474499999999
 30
0.0
 11
54.3014
 21
89.579245
 31
0.0
  0
LINE
  5
123
330
1E
100
AcDbEntity
  8
0
100
AcDbLine
 10
54.3014
 20
89.579245
 30
0.0
 11
54.3656182235472
 21
90.8714228121644
 31
0.0
  0
LINE
  5
124
330
1E
100
AcDbEntity
  8
0
100
AcDbLine
 10
54.0403
 20
90.570745
 30
0.0
 11
54.07241082129059
 21
91.2161204765184
 31
0.0
  0
LINE
  5
125
330
1E
100
AcDbEntity
  8
0
100
AcDbLine
 10
54.0403
 20
90.570745
 30
0.0
 11
54.3014
 21
89.579245
 31
0.0
  0
LINE
  5
126
330
1E
100
AcDbEntity
  8
0
100
AcDbLine
 10
52.0593
 20
90.51574499999999
 30
0.0
 11
52.3204
 21
89.52474499999999
 31
0.0
  0
LINE
  5
127
330
1E
100
AcDbEntity
  8
0
100
AcDbLine
 10
52.0593
 20
90.51574499999999
 30
0.0
 11
52.11517489689779
 21
91.63867521959948
 31
0.0
  0
LINE
  5
128
330
1E
100
AcDbEntity
  8
0
100
AcDbLine
 10
52.0593
 20
90.51574499999999
 30
0.0
 11
54.0403
 21
90.570745
 31
0.0
  0
LINE
  5
129
330
1E
100
AcDbEntity
  8
0
100
AcDbLine
 10
56.13859999999999
 20
84.915745
 30
0.0
 11
57.3561
 21
84.12224499999998
 31
0.0
  0
LINE
  5
12A
330
1E
100
AcDbEntity
  8
0
100
AcDbLine
 10
56.13859999999999
 20
84.915745
 30
0.0
 11
56.1828272918865
 21
86.0402446977625
 31
0.0
  0
LINE
  5
12B
330
1E
100
AcDbEntity
  8
0
100
AcDbLine
 10
56.13859999999999
 20
84.915745
 30
0.0
 11
57.7238
 21
85.448245
 31
0.0
  0
LINE
  5
12C
330
1E
100
AcDbEntity
  8
0
100
AcDbLine
 10
55.2076
 20
95.00424499999999
 30
0.0
 11
55.973
 21
95.92824499999998
 31
0.0
  0
LINE
  5
12D
330
1E
100
AcDbEntity
  8
0
100
AcDbLine
 10
56.2826
 20
107.963245
 30
0.0
 11
56.4054
 21
109.5761449999999
 31
0.0
  0
LINE
  5
12E
330
1E
100
AcDbEntity
  8
0
100
AcDbLine
 10
56.2826
 20
107.963245
 30
0.0
 11
58.0147
 21
108.4632449999999
 31
0.0
  0
LINE
  5
12F
330
1E
100
AcDbEntity
  8
0
100
AcDbLine
 10
56.2826
 20
107.963245
 30
0.0
 11
57.2751
 21
106.8910449999999
 31
0.0
  0
LINE
  5
130
330
1E
100
AcDbEntity
  8
0
100
AcDbLine
 10
55.9503
 20
116.1915449999999
 30
0.0
 11
56.1077
 21
117.6965449999999
 31
0.0
  0
LINE
  5
131
330
1E
100
AcDbEntity
  8
0
100
AcDbLine
 10
55.9503
 20
116.1915449999999
 30
0.0
 11
57.7981
 21
116.5735449999999
 31
0.0
  0
LINE
  5
132
330
1E
100
AcDbEntity
  8
0
100
AcDbLine
 10
55.9503
 20
116.1915449999999
 30
0.0
 11
56.6993
 21
114.931545
 31
0.0
  0
LINE
  5
133
330
1E
100
AcDbEntity
  8
0
100
AcDbLine
 10
55.973
 20
95.92824499999998
 30
0.0
 11
56.0352925490804
 21
97.25418640185401
 31
0.0
  0
LINE
  5
134
330
1E
100
AcDbEntity
  8
0
100
AcDbLine
 10
54.127
 20
96.385745
 30
0.0
 11
54.18030873492409
 21
97.52072438865059
 31
0.0
  0
LINE
  5
135
330
1E
100
AcDbEntity
  8
0
100
AcDbLine
 10
54.127
 20
96.385745
 30
0.0
 11
55.973
 21
95.92824499999998
 31
0.0
  0
LINE
  5
136
330
1E
100
AcDbEntity
  8
0
100
AcDbLine
 10
53.3616
 20
95.46224499999999
 30
0.0
 11
54.127
 21
96.385745
 31
0.0
  0
LINE
  5
137
330
1E
100
AcDbEntity
  8
0
100
AcDbLine
 10
53.3616
 20
95.46224499999999
 30
0.0
 11
53.3911477467732
 21
96.0911531903263
 31
0.0
  0
LINE
  5
138
330
1E
100
AcDbEntity
  8
0
100
AcDbLine
 10
53.3616
 20
95.46224499999999
 30
0.0
 11
55.2076
 21
95.00424499999999
 31
0.0
  0
LINE
  5
139
330
1E
100
AcDbEntity
  8
0
100
AcDbLine
 10
51.865
 20
80.26654499999999
 30
0.0
 11
51.93146124353329
 21
80.95732870221629
 31
0.0
  0
LINE
  5
13A
330
1E
100
AcDbEntity
  8
0
100
AcDbLine
 10
50.4615
 20
79.77724499999999
 30
0.0
 11
51.865
 21
80.26654499999999
 31
0.0
  0
LINE
  5
13B
330
1E
100
AcDbEntity
  8
0
100
AcDbLine
 10
50.2
 20
130.0975449999999
 30
0.0
 11
58.2
 21
131.497545
 31
0.0
  0
LINE
  5
13C
330
1E
100
AcDbEntity
  8
0
100
AcDbLine
 10
50.2
 20
69.33114499999999
 30
0.0
 11
58.2
 21
67.931145
 31
0.0
  0
LINE
  5
13D
330
1E
100
AcDbEntity
  8
0
100
AcDbLine
 10
47.5
 20
137.5535449999999
 30
0.0
 11
56.4
 21
139.0535449999999
 31
0.0
  0
LINE
  5
13E
330
1E
100
AcDbEntity
  8
0
100
AcDbLine
 10
56.4
 20
139.0535449999999
 30
0.0
 11
65.59999999999999
 21
140.003545
 31
0.0
  0
LINE
  5
13F
330
1E
100
AcDbEntity
  8
0
100
AcDbLine
 10
47.4
 20
137.653545
 30
0.0
 11
56.4
 21
139.153545
 31
0.0
  0
LINE
  5
140
330
1E
100
AcDbEntity
  8
0
100
AcDbLine
 10
72.40000000000001
 20
0.278854999999982
 30
0.0
 11
75.0
 21
0.0324549999999845
 31
0.0
  0
LINE
  5
141
330
1E
100
AcDbEntity
  8
0
100
AcDbLine
 10
72.40000000000001
 20
0.278854999999982
 30
0.0
 11
75.0
 21
0.0324549999999845
 31
0.0
  0
LINE
  5
142
330
1E
100
AcDbEntity
  8
0
100
AcDbLine
 10
75.0
 20
0.0324549999999845
 30
0.0
 11
77.59999999999999
 21
0.278854999999982
 31
0.0
  0
LINE
  5
143
330
1E
100
AcDbEntity
  8
0
100
AcDbLine
 10
75.0
 20
0.0324549999999845
 30
0.0
 11
77.59999999999999
 21
0.278854999999982
 31
0.0
  0
LINE
  5
144
330
1E
100
AcDbEntity
  8
0
100
AcDbLine
 10
70.0
 20
0.7216849999999849
 30
0.0
 11
72.40000000000001
 21
0.278854999999982
 31
0.0
  0
LINE
  5
145
330
1E
100
AcDbEntity
  8
0
100
AcDbLine
 10
67.9
 20
1.534124999999989
 30
0.0
 11
70.0
 21
0.7216849999999849
 31
0.0
  0
LINE
  5
146
330
1E
100
AcDbEntity
  8
0
100
AcDbLine
 10
77.59999999999999
 20
0.278854999999982
 30
0.0
 11
80.0
 21
0.7216849999999849
 31
0.0
  0
LINE
  5
147
330
1E
100
AcDbEntity
  8
0
100
AcDbLine
 10
80.0
 20
0.7216849999999849
 30
0.0
 11
82.09999999999999
 21
1.534124999999989
 31
0.0
  0
LINE
  5
148
330
1E
100
AcDbEntity
  8
0
100
AcDbLine
 10
66.2
 20
2.401104999999979
 30
0.0
 11
67.9
 21
1.534124999999989
 31
0.0
  0
LINE
  5
149
330
1E
100
AcDbEntity
  8
0
100
AcDbLine
 10
64.2
 20
3.656364999999979
 30
0.0
 11
66.2
 21
2.401104999999979
 31
0.0
  0
LINE
  5
14A
330
1E
100
AcDbEntity
  8
0
100
AcDbLine
 10
82.09999999999999
 20
1.534124999999989
 30
0.0
 11
83.8
 21
2.401104999999979
 31
0.0
  0
LINE
  5
14B
330
1E
100
AcDbEntity
  8
0
100
AcDbLine
 10
83.8
 20
2.401104999999979
 30
0.0
 11
85.8
 21
3.656364999999979
 31
0.0
  0
LINE
  5
14C
330
1E
100
AcDbEntity
  8
0
100
AcDbLine
 10
63.0
 20
5.15802499999998
 30
0.0
 11
64.2
 21
3.656364999999979
 31
0.0
  0
LINE
  5
14D
330
1E
100
AcDbEntity
  8
0
100
AcDbLine
 10
61.5
 20
7.59725499999998
 30
0.0
 11
63.0
 21
5.15802499999998
 31
0.0
  0
LINE
  5
14E
330
1E
100
AcDbEntity
  8
0
100
AcDbLine
 10
85.8
 20
3.656364999999979
 30
0.0
 11
87.0
 21
5.15802499999998
 31
0.0
  0
LINE
  5
14F
330
1E
100
AcDbEntity
  8
0
100
AcDbLine
 10
87.0
 20
5.15802499999998
 30
0.0
 11
88.49999999999999
 21
7.59725499999998
 31
0.0
  0
LINE
  5
150
330
1E
100
AcDbEntity
  8
0
100
AcDbLine
 10
61.0
 20
9.38197099999998
 30
0.0
 11
61.0
 21
17.925455
 31
0.0
  0
LINE
  5
151
330
1E
100
AcDbEntity
  8
0
100
AcDbLine
 10
61.0
 20
9.38197099999998
 30
0.0
 11
61.5
 21
7.59725499999998
 31
0.0
  0
LINE
  5
152
330
1E
100
AcDbEntity
  8
0
100
AcDbLine
 10
61.0
 20
17.925455
 30
0.0
 11
61.0
 21
25.066345
 31
0.0
  0
LINE
  5
153
330
1E
100
AcDbEntity
  8
0
100
AcDbLine
 10
61.0
 20
17.925455
 30
0.0
 11
61.0
 21
9.38197099999998
 31
0.0
  0
LINE
  5
154
330
1E
100
AcDbEntity
  8
0
100
AcDbLine
 10
61.0
 20
25.066345
 30
0.0
 11
61.0
 21
34.546545
 31
0.0
  0
LINE
  5
155
330
1E
100
AcDbEntity
  8
0
100
AcDbLine
 10
61.0
 20
25.066345
 30
0.0
 11
61.0
 21
17.925455
 31
0.0
  0
LINE
  5
156
330
1E
100
AcDbEntity
  8
0
100
AcDbLine
 10
89.0
 20
9.38197099999998
 30
0.0
 11
89.0
 21
17.925455
 31
0.0
  0
LINE
  5
157
330
1E
100
AcDbEntity
  8
0
100
AcDbLine
 10
88.49999999999999
 20
7.59725499999998
 30
0.0
 11
89.0
 21
9.38197099999998
 31
0.0
  0
LINE
  5
158
330
1E
100
AcDbEntity
  8
0
100
AcDbLine
 10
89.0
 20
17.925455
 30
0.0
 11
89.0
 21
25.066345
 31
0.0
  0
LINE
  5
159
330
1E
100
AcDbEntity
  8
0
100
AcDbLine
 10
89.0
 20
17.925455
 30
0.0
 11
89.0
 21
9.38197099999998
 31
0.0
  0
LINE
  5
15A
330
1E
100
AcDbEntity
  8
0
100
AcDbLine
 10
61.0
 20
34.546545
 30
0.0
 11
61.0
 21
42.720345
 31
0.0
  0
LINE
  5
15B
330
1E
100
AcDbEntity
  8
0
100
AcDbLine
 10
61.0
 20
34.546545
 30
0.0
 11
61.0
 21
25.066345
 31
0.0
  0
LINE
  5
15C
330
1E
100
AcDbEntity
  8
0
100
AcDbLine
 10
61.0
 20
42.720345
 30
0.0
 11
61.0
 21
50.434445
 31
0.0
  0
LINE
  5
15D
330
1E
100
AcDbEntity
  8
0
100
AcDbLine
 10
61.0
 20
42.720345
 30
0.0
 11
61.0
 21
34.546545
 31
0.0
  0
LINE
  5
15E
330
1E
100
AcDbEntity
  8
0
100
AcDbLine
 10
89.0
 20
25.066345
 30
0.0
 11
89.0
 21
34.546545
 31
0.0
  0
LINE
  5
15F
330
1E
100
AcDbEntity
  8
0
100
AcDbLine
 10
89.0
 20
25.066345
 30
0.0
 11
89.0
 21
17.925455
 31
0.0
  0
LINE
  5
160
330
1E
100
AcDbEntity
  8
0
100
AcDbLine
 10
89.0
 20
34.546545
 30
0.0
 11
89.0
 21
42.720345
 31
0.0
  0
LINE
  5
161
330
1E
100
AcDbEntity
  8
0
100
AcDbLine
 10
89.0
 20
34.546545
 30
0.0
 11
89.0
 21
25.066345
 31
0.0
  0
LINE
  5
162
330
1E
100
AcDbEntity
  8
0
100
AcDbLine
 10
61.0
 20
50.434445
 30
0.0
 11
61.0
 21
57.552145
 31
0.0
  0
LINE
  5
163
330
1E
100
AcDbEntity
  8
0
100
AcDbLine
 10
61.0
 20
50.434445
 30
0.0
 11
61.0
 21
42.720345
 31
0.0
  0
LINE
  5
164
330
1E
100
AcDbEntity
  8
0
100
AcDbLine
 10
61.0
 20
57.552145
 30
0.0
 11
61.0
 21
64.036845
 31
0.0
  0
LINE
  5
165
330
1E
100
AcDbEntity
  8
0
100
AcDbLine
 10
61.0
 20
57.552145
 30
0.0
 11
61.0
 21
50.434445
 31
0.0
  0
LINE
  5
166
330
1E
100
AcDbEntity
  8
0
100
AcDbLine
 10
89.0
 20
42.720345
 30
0.0
 11
89.0
 21
50.434445
 31
0.0
  0
LINE
  5
167
330
1E
100
AcDbEntity
  8
0
100
AcDbLine
 10
89.0
 20
42.720345
 30
0.0
 11
89.0
 21
34.546545
 31
0.0
  0
LINE
  5
168
330
1E
100
AcDbEntity
  8
0
100
AcDbLine
 10
89.0
 20
50.434445
 30
0.0
 11
89.0
 21
57.552145
 31
0.0
  0
LINE
  5
169
330
1E
100
AcDbEntity
  8
0
100
AcDbLine
 10
89.0
 20
50.434445
 30
0.0
 11
89.0
 21
42.720345
 31
0.0
  0
LINE
  5
16A
330
1E
100
AcDbEntity
  8
0
100
AcDbLine
 10
61.0
 20
67.6612654819277
 30
0.0
 11
61.0
 21
64.036845
 31
0.0
  0
LINE
  5
16B
330
1E
100
AcDbEntity
  8
0
100
AcDbLine
 10
74.0
 20
61.32494499999999
 30
0.0
 11
74.0
 21
61.62374499999999
 31
0.0
  0
LINE
  5
16C
330
1E
100
AcDbEntity
  8
0
100
AcDbLine
 10
74.0
 20
61.32494499999999
 30
0.0
 11
76.0
 21
61.32494499999999
 31
0.0
  0
LINE
  5
16D
330
1E
100
AcDbEntity
  8
0
100
AcDbLine
 10
74.0
 20
61.32494499999999
 30
0.0
 11
74.0
 21
61.57294499999999
 31
0.0
  0
LINE
  5
16E
330
1E
100
AcDbEntity
  8
0
100
AcDbLine
 10
74.0
 20
61.57294499999999
 30
0.0
 11
74.0
 21
61.32494499999999
 31
0.0
  0
LINE
  5
16F
330
1E
100
AcDbEntity
  8
0
100
AcDbLine
 10
74.0
 20
61.57294499999999
 30
0.0
 11
74.0
 21
62.162645
 31
0.0
  0
LINE
  5
170
330
1E
100
AcDbEntity
  8
0
100
AcDbLine
 10
76.0
 20
61.32494499999999
 30
0.0
 11
76.0
 21
61.57294499999999
 31
0.0
  0
LINE
  5
171
330
1E
100
AcDbEntity
  8
0
100
AcDbLine
 10
74.0
 20
61.62374499999999
 30
0.0
 11
74.0
 21
62.40114499999999
 31
0.0
  0
LINE
  5
172
330
1E
100
AcDbEntity
  8
0
100
AcDbLine
 10
74.0
 20
61.62374499999999
 30
0.0
 11
74.0
 21
61.32494499999999
 31
0.0
  0
LINE
  5
173
330
1E
100
AcDbEntity
  8
0
100
AcDbLine
 10
74.0
 20
63.409145
 30
0.0
 11
74.0
 21
66.82232147058821
 31
0.0
  0
LINE
  5
174
330
1E
100
AcDbEntity
  8
0
100
AcDbLine
 10
74.0
 20
63.409145
 30
0.0
 11
74.0
 21
62.40114499999999
 31
0.0
  0
LINE
  5
175
330
1E
100
AcDbEntity
  8
0
100
AcDbLine
 10
74.0
 20
62.40114499999999
 30
0.0
 11
74.0
 21
63.409145
 31
0.0
  0
LINE
  5
176
330
1E
100
AcDbEntity
  8
0
100
AcDbLine
 10
74.0
 20
62.40114499999999
 30
0.0
 11
74.0
 21
61.62374499999999
 31
0.0
  0
LINE
  5
177
330
1E
100
AcDbEntity
  8
0
100
AcDbLine
 10
74.0
 20
62.162645
 30
0.0
 11
74.0
 21
61.57294499999999
 31
0.0
  0
LINE
  5
178
330
1E
100
AcDbEntity
  8
0
100
AcDbLine
 10
74.0
 20
62.162645
 30
0.0
 11
74.0
 21
63.96674499999999
 31
0.0
  0
LINE
  5
179
330
1E
100
AcDbEntity
  8
0
100
AcDbLine
 10
74.0
 20
63.96674499999999
 30
0.0
 11
74.0
 21
62.162645
 31
0.0
  0
LINE
  5
17A
330
1E
100
AcDbEntity
  8
0
100
AcDbLine
 10
74.0
 20
63.96674499999999
 30
0.0
 11
74.0
 21
68.061306038961
 31
0.0
  0
LINE
  5
17B
330
1E
100
AcDbEntity
  8
0
100
AcDbLine
 10
76.0
 20
61.57294499999999
 30
0.0
 11
76.0
 21
62.162645
 31
0.0
  0
LINE
  5
17C
330
1E
100
AcDbEntity
  8
0
100
AcDbLine
 10
76.0
 20
61.57294499999999
 30
0.0
 11
76.0
 21
61.32494499999999
 31
0.0
  0
LINE
  5
17D
330
1E
100
AcDbEntity
  8
0
100
AcDbLine
 10
76.0
 20
62.162645
 30
0.0
 11
76.0
 21
64.01784499999999
 31
0.0
  0
LINE
  5
17E
330
1E
100
AcDbEntity
  8
0
100
AcDbLine
 10
76.0
 20
62.162645
 30
0.0
 11
76.0
 21
61.57294499999999
 31
0.0
  0
LINE
  5
17F
330
1E
100
AcDbEntity
  8
0
100
AcDbLine
 10
76.0
 20
64.01784499999999
 30
0.0
 11
76.0
 21
67.32734499999999
 31
0.0
  0
LINE
  5
180
330
1E
100
AcDbEntity
  8
0
100
AcDbLine
 10
76.0
 20
64.01784499999999
 30
0.0
 11
76.0
 21
62.162645
 31
0.0
  0
LINE
  5
181
330
1E
100
AcDbEntity
  8
0
100
AcDbLine
 10
83.49999999999999
 20
67.13114499999999
 30
0.0
 11
91.79999999999999
 21
67.931145
 31
0.0
  0
LINE
  5
182
330
1E
100
AcDbEntity
  8
0
100
AcDbLine
 10
76.0
 20
66.82232147058821
 30
0.0
 11
83.49999999999999
 21
67.13114499999999
 31
0.0
  0
LINE
  5
183
330
1E
100
AcDbEntity
  8
0
100
AcDbLine
 10
74.0
 20
67.32734499999999
 30
0.0
 11
74.0
 21
68.061306038961
 31
0.0
  0
LINE
  5
184
330
1E
100
AcDbEntity
  8
0
100
AcDbLine
 10
74.0
 20
67.32734499999999
 30
0.0
 11
74.0
 21
67.771845
 31
0.0
  0
LINE
  5
185
330
1E
100
AcDbEntity
  8
0
100
AcDbLine
 10
76.0
 20
67.32734499999999
 30
0.0
 11
76.0
 21
64.01784499999999
 31
0.0
  0
LINE
  5
186
330
1E
100
AcDbEntity
  8
0
100
AcDbLine
 10
76.0
 20
67.32734499999999
 30
0.0
 11
76.0
 21
67.771845
 31
0.0
  0
LINE
  5
187
330
1E
100
AcDbEntity
  8
0
100
AcDbLine
 10
66.5
 20
67.13114499999999
 30
0.0
 11
74.0
 21
66.82232147058821
 31
0.0
  0
LINE
  5
188
330
1E
100
AcDbEntity
  8
0
100
AcDbLine
 10
61.0
 20
64.036845
 30
0.0
 11
61.0
 21
67.6612654819277
 31
0.0
  0
LINE
  5
189
330
1E
100
AcDbEntity
  8
0
100
AcDbLine
 10
61.0
 20
64.036845
 30
0.0
 11
61.0
 21
57.552145
 31
0.0
  0
LINE
  5
18A
330
1E
100
AcDbEntity
  8
0
100
AcDbLine
 10
89.0
 20
57.552145
 30
0.0
 11
89.0
 21
64.036845
 31
0.0
  0
LINE
  5
18B
330
1E
100
AcDbEntity
  8
0
100
AcDbLine
 10
89.0
 20
57.552145
 30
0.0
 11
89.0
 21
50.434445
 31
0.0
  0
LINE
  5
18C
330
1E
100
AcDbEntity
  8
0
100
AcDbLine
 10
89.0
 20
64.036845
 30
0.0
 11
89.0
 21
67.6612654819277
 31
0.0
  0
LINE
  5
18D
330
1E
100
AcDbEntity
  8
0
100
AcDbLine
 10
89.0
 20
64.036845
 30
0.0
 11
89.0
 21
57.552145
 31
0.0
  0
LINE
  5
18E
330
1E
100
AcDbEntity
  8
0
100
AcDbLine
 10
57.2751
 20
78.19104499999999
 30
0.0
 11
59.0071
 21
77.69104499999999
 31
0.0
  0
LINE
  5
18F
330
1E
100
AcDbEntity
  8
0
100
AcDbLine
 10
57.2751
 20
78.19104499999999
 30
0.0
 11
57.3895464470232
 21
79.89180494440251
 31
0.0
  0
LINE
  5
190
330
1E
100
AcDbEntity
  8
0
100
AcDbLine
 10
58.0147
 20
77.04424499999999
 30
0.0
 11
59.0071
 21
77.69104499999999
 31
0.0
  0
LINE
  5
191
330
1E
100
AcDbEntity
  8
0
100
AcDbLine
 10
56.6993
 20
73.36234499999999
 30
0.0
 11
58.5471
 21
72.979845
 31
0.0
  0
LINE
  5
192
330
1E
100
AcDbEntity
  8
0
100
AcDbLine
 10
56.6993
 20
73.36234499999999
 30
0.0
 11
56.77908649223289
 21
74.3178566763601
 31
0.0
  0
LINE
  5
193
330
1E
100
AcDbEntity
  8
0
100
AcDbLine
 10
57.7981
 20
72.432045
 30
0.0
 11
58.5471
 21
72.979845
 31
0.0
  0
LINE
  5
194
330
1E
100
AcDbEntity
  8
0
100
AcDbLine
 10
76.0
 20
67.771845
 30
0.0
 11
76.0
 21
68.061306038961
 31
0.0
  0
LINE
  5
195
330
1E
100
AcDbEntity
  8
0
100
AcDbLine
 10
76.0
 20
67.771845
 30
0.0
 11
76.0
 21
67.32734499999999
 31
0.0
  0
LINE
  5
196
330
1E
100
AcDbEntity
  8
0
100
AcDbLine
 10
76.0
 20
68.061306038961
 30
0.0
 11
76.0
 21
67.771845
 31
0.0
  0
LINE
  5
197
330
1E
100
AcDbEntity
  8
0
100
AcDbLine
 10
74.0
 20
67.771845
 30
0.0
 11
74.0
 21
67.32734499999999
 31
0.0
  0
LINE
  5
198
330
1E
100
AcDbEntity
  8
0
100
AcDbLine
 10
74.0
 20
67.771845
 30
0.0
 11
74.0
 21
68.061306038961
 31
0.0
  0
LINE
  5
199
330
1E
100
AcDbEntity
  8
0
100
AcDbLine
 10
74.0
 20
67.771845
 30
0.0
 11
76.0
 21
67.771845
 31
0.0
  0
LINE
  5
19A
330
1E
100
AcDbEntity
  8
0
100
AcDbLine
 10
60.665
 20
68.205145
 30
0.0
 11
61.1596
 21
68.61704499999999
 31
0.0
  0
LINE
  5
19B
330
1E
100
AcDbEntity
  8
0
100
AcDbLine
 10
59.2278
 20
68.87584499999999
 30
0.0
 11
61.1596
 21
68.61704499999999
 31
0.0
  0
LINE
  5
19C
330
1E
100
AcDbEntity
  8
0
100
AcDbLine
 10
59.2278
 20
68.87584499999999
 30
0.0
 11
59.3805
 21
70.81584499999999
 31
0.0
  0
LINE
  5
19D
330
1E
100
AcDbEntity
  8
0
100
AcDbLine
 10
61.1596
 20
68.61704499999999
 30
0.0
 11
61.2142718095481
 21
69.31110505341199
 31
0.0
  0
LINE
  5
19E
330
1E
100
AcDbEntity
  8
0
100
AcDbLine
 10
58.73319999999999
 20
68.46394499999999
 30
0.0
 11
58.7931531363265
 21
69.2256285918367
 31
0.0
  0
LINE
  5
19F
330
1E
100
AcDbEntity
  8
0
100
AcDbLine
 10
58.73319999999999
 20
68.46394499999999
 30
0.0
 11
60.665
 21
68.205145
 31
0.0
  0
LINE
  5
1A0
330
1E
100
AcDbEntity
  8
0
100
AcDbLine
 10
58.73319999999999
 20
68.46394499999999
 30
0.0
 11
59.2278
 21
68.87584499999999
 31
0.0
  0
LINE
  5
1A1
330
1E
100
AcDbEntity
  8
0
100
AcDbLine
 10
69.8091
 20
70.95804499999999
 30
0.0
 11
70.0645
 21
71.57184499999999
 31
0.0
  0
LINE
  5
1A2
330
1E
100
AcDbEntity
  8
0
100
AcDbLine
 10
68.08159999999999
 20
71.70234499999999
 30
0.0
 11
70.0645
 21
71.57184499999999
 31
0.0
  0
LINE
  5
1A3
330
1E
100
AcDbEntity
  8
0
100
AcDbLine
 10
68.08159999999999
 20
71.70234499999999
 30
0.0
 11
68.1088683348711
 21
72.66663862980009
 31
0.0
  0
LINE
  5
1A4
330
1E
100
AcDbEntity
  8
0
100
AcDbLine
 10
70.0645
 20
71.57184499999999
 30
0.0
 11
70.0916576822428
 21
72.53222560668459
 31
0.0
  0
LINE
  5
1A5
330
1E
100
AcDbEntity
  8
0
100
AcDbLine
 10
67.8262
 20
71.08854499999999
 30
0.0
 11
67.86141379391979
 21
72.33342146885199
 31
0.0
  0
LINE
  5
1A6
330
1E
100
AcDbEntity
  8
0
100
AcDbLine
 10
67.8262
 20
71.08854499999999
 30
0.0
 11
69.8091
 21
70.95804499999999
 31
0.0
  0
LINE
  5
1A7
330
1E
100
AcDbEntity
  8
0
100
AcDbLine
 10
67.8262
 20
71.08854499999999
 30
0.0
 11
68.08159999999999
 21
71.70234499999999
 31
0.0
  0
LINE
  5
1A8
330
1E
100
AcDbEntity
  8
0
100
AcDbLine
 10
58.5471
 20
72.979845
 30
0.0
 11
58.62734029682449
 21
73.940791375567
 31
0.0
  0
LINE
  5
1A9
330
1E
100
AcDbEntity
  8
0
100
AcDbLine
 10
79.9083423177573
 20
72.53222560668459
 30
0.0
 11
79.9355
 21
71.57184499999999
 31
0.0
  0
LINE
  5
1AA
330
1E
100
AcDbEntity
  8
0
100
AcDbLine
 10
81.9184
 20
71.70234499999999
 30
0.0
 11
82.1738
 21
71.08854499999999
 31
0.0
  0
LINE
  5
1AB
330
1E
100
AcDbEntity
  8
0
100
AcDbLine
 10
81.89113166512891
 20
72.66663862980009
 30
0.0
 11
81.9184
 21
71.70234499999999
 31
0.0
  0
LINE
  5
1AC
330
1E
100
AcDbEntity
  8
0
100
AcDbLine
 10
79.9355
 20
71.57184499999999
 30
0.0
 11
80.1909
 21
70.95804499999999
 31
0.0
  0
LINE
  5
1AD
330
1E
100
AcDbEntity
  8
0
100
AcDbLine
 10
79.9355
 20
71.57184499999999
 30
0.0
 11
81.9184
 21
71.70234499999999
 31
0.0
  0
LINE
  5
1AE
330
1E
100
AcDbEntity
  8
0
100
AcDbLine
 10
80.1909
 20
70.95804499999999
 30
0.0
 11
82.1738
 21
71.08854499999999
 31
0.0
  0
LINE
  5
1AF
330
1E
100
AcDbEntity
  8
0
100
AcDbLine
 10
88.8404
 20
68.61704499999999
 30
0.0
 11
89.335
 21
68.205145
 31
0.0
  0
LINE
  5
1B0
330
1E
100
AcDbEntity
  8
0
100
AcDbLine
 10
88.8404
 20
68.61704499999999
 30
0.0
 11
90.7722
 21
68.87584499999999
 31
0.0
  0
LINE
  5
1B1
330
1E
100
AcDbEntity
  8
0
100
AcDbLine
 10
90.7722
 20
68.87584499999999
 30
0.0
 11
91.2668
 21
68.46394499999999
 31
0.0
  0
LINE
  5
1B2
330
1E
100
AcDbEntity
  8
0
100
AcDbLine
 10
89.335
 20
68.205145
 30
0.0
 11
91.2668
 21
68.46394499999999
 31
0.0
  0
LINE
  5
1B3
330
1E
100
AcDbEntity
  8
0
100
AcDbLine
 10
90.61950000000001
 20
70.81584499999999
 30
0.0
 11
90.7722
 21
68.87584499999999
 31
0.0
  0
LINE
  5
1B4
330
1E
100
AcDbEntity
  8
0
100
AcDbLine
 10
88.7857281904519
 20
69.31110505341199
 30
0.0
 11
88.8404
 21
68.61704499999999
 31
0.0
  0
LINE
  5
1B5
330
1E
100
AcDbEntity
  8
0
100
AcDbLine
 10
91.20684686367349
 20
69.2256285918367
 30
0.0
 11
91.2668
 21
68.46394499999999
 31
0.0
  0
LINE
  5
1B6
330
1E
100
AcDbEntity
  8
0
100
AcDbLine
 10
82.1385862060802
 20
72.33342146885199
 30
0.0
 11
82.1738
 21
71.08854499999999
 31
0.0
  0
LINE
  5
1B7
330
1E
100
AcDbEntity
  8
0
100
AcDbLine
 10
66.72539999999999
 20
75.38124499999999
 30
0.0
 11
67.2391
 21
76.12704499999999
 31
0.0
  0
LINE
  5
1B8
330
1E
100
AcDbEntity
  8
0
100
AcDbLine
 10
74.0
 20
75.16596132653059
 30
0.0
 11
74.0
 21
74.902245
 31
0.0
  0
LINE
  5
1B9
330
1E
100
AcDbEntity
  8
0
100
AcDbLine
 10
76.0
 20
74.902245
 30
0.0
 11
76.0
 21
75.682045
 31
0.0
  0
LINE
  5
1BA
330
1E
100
AcDbEntity
  8
0
100
AcDbLine
 10
74.0
 20
74.902245
 30
0.0
 11
76.0
 21
74.902245
 31
0.0
  0
LINE
  5
1BB
330
1E
100
AcDbEntity
  8
0
100
AcDbLine
 10
74.0
 20
74.902245
 30
0.0
 11
74.0
 21
75.16596132653059
 31
0.0
  0
LINE
  5
1BC
330
1E
100
AcDbEntity
  8
0
100
AcDbLine
 10
74.0
 20
74.902245
 30
0.0
 11
74.0
 21
75.682045
 31
0.0
  0
LINE
  5
1BD
330
1E
100
AcDbEntity
  8
0
100
AcDbLine
 10
64.7935
 20
75.64024499999999
 30
0.0
 11
64.80169452217539
 21
75.876984230268
 31
0.0
  0
LINE
  5
1BE
330
1E
100
AcDbEntity
  8
0
100
AcDbLine
 10
64.7935
 20
75.64024499999999
 30
0.0
 11
66.72539999999999
 21
75.38124499999999
 31
0.0
  0
LINE
  5
1BF
330
1E
100
AcDbEntity
  8
0
100
AcDbLine
 10
64.7935
 20
75.64024499999999
 30
0.0
 11
65.3073
 21
76.38604499999999
 31
0.0
  0
LINE
  5
1C0
330
1E
100
AcDbEntity
  8
0
100
AcDbLine
 10
76.0
 20
75.682045
 30
0.0
 11
76.0
 21
77.524045
 31
0.0
  0
LINE
  5
1C1
330
1E
100
AcDbEntity
  8
0
100
AcDbLine
 10
76.0
 20
75.682045
 30
0.0
 11
76.0
 21
74.902245
 31
0.0
  0
LINE
  5
1C2
330
1E
100
AcDbEntity
  8
0
100
AcDbLine
 10
67.2391
 20
76.12704499999999
 30
0.0
 11
67.259064798012
 21
76.703858150112
 31
0.0
  0
LINE
  5
1C3
330
1E
100
AcDbEntity
  8
0
100
AcDbLine
 10
74.0
 20
75.682045
 30
0.0
 11
74.0
 21
74.902245
 31
0.0
  0
LINE
  5
1C4
330
1E
100
AcDbEntity
  8
0
100
AcDbLine
 10
74.0
 20
75.682045
 30
0.0
 11
74.0
 21
77.524045
 31
0.0
  0
LINE
  5
1C5
330
1E
100
AcDbEntity
  8
0
100
AcDbLine
 10
74.0
 20
75.682045
 30
0.0
 11
76.0
 21
75.682045
 31
0.0
  0
LINE
  5
1C6
330
1E
100
AcDbEntity
  8
0
100
AcDbLine
 10
82.76090000000001
 20
76.12704499999999
 30
0.0
 11
83.2746
 21
75.38124499999999
 31
0.0
  0
LINE
  5
1C7
330
1E
100
AcDbEntity
  8
0
100
AcDbLine
 10
82.76090000000001
 20
76.12704499999999
 30
0.0
 11
84.69269999999999
 21
76.38604499999999
 31
0.0
  0
LINE
  5
1C8
330
1E
100
AcDbEntity
  8
0
100
AcDbLine
 10
83.2746
 20
75.38124499999999
 30
0.0
 11
85.20650000000001
 21
75.64024499999999
 31
0.0
  0
LINE
  5
1C9
330
1E
100
AcDbEntity
  8
0
100
AcDbLine
 10
85.1983054778246
 20
75.876984230268
 30
0.0
 11
85.20650000000001
 21
75.64024499999999
 31
0.0
  0
LINE
  5
1CA
330
1E
100
AcDbEntity
  8
0
100
AcDbLine
 10
91.3726597031755
 20
73.940791375567
 30
0.0
 11
91.45290000000001
 21
72.979845
 31
0.0
  0
LINE
  5
1CB
330
1E
100
AcDbEntity
  8
0
100
AcDbLine
 10
91.45290000000001
 20
72.979845
 30
0.0
 11
92.2019
 21
72.432045
 31
0.0
  0
LINE
  5
1CC
330
1E
100
AcDbEntity
  8
0
100
AcDbLine
 10
91.45290000000001
 20
72.979845
 30
0.0
 11
93.3007
 21
73.36234499999999
 31
0.0
  0
LINE
  5
1CD
330
1E
100
AcDbEntity
  8
0
100
AcDbLine
 10
74.0
 20
68.061306038961
 30
0.0
 11
74.0
 21
63.96674499999999
 31
0.0
  0
LINE
  5
1CE
330
1E
100
AcDbEntity
  8
0
100
AcDbLine
 10
74.0
 20
68.061306038961
 30
0.0
 11
74.0
 21
67.32734499999999
 31
0.0
  0
LINE
  5
1CF
330
1E
100
AcDbEntity
  8
0
100
AcDbLine
 10
74.0
 20
68.061306038961
 30
0.0
 11
74.0
 21
67.771845
 31
0.0
  0
LINE
  5
1D0
330
1E
100
AcDbEntity
  8
0
100
AcDbLine
 10
93.3007
 20
73.36234499999999
 30
0.0
 11
94.0497
 21
72.81454499999999
 31
0.0
  0
LINE
  5
1D1
330
1E
100
AcDbEntity
  8
0
100
AcDbLine
 10
93.22091350776707
 20
74.3178566763601
 30
0.0
 11
93.3007
 21
73.36234499999999
 31
0.0
  0
LINE
  5
1D2
330
1E
100
AcDbEntity
  8
0
100
AcDbLine
 10
92.2019
 20
72.432045
 30
0.0
 11
94.0497
 21
72.81454499999999
 31
0.0
  0
LINE
  5
1D3
330
1E
100
AcDbEntity
  8
0
100
AcDbLine
 10
102.6287885909499
 20
72.05873823307221
 30
0.0
 11
102.7379999999999
 21
71.35384499999999
 31
0.0
  0
LINE
  5
1D4
330
1E
100
AcDbEntity
  8
0
100
AcDbLine
 10
102.7379999999999
 20
71.35384499999999
 30
0.0
 11
103.6929999999999
 21
71.037345
 31
0.0
  0
LINE
  5
1D5
330
1E
100
AcDbEntity
  8
0
100
AcDbLine
 10
102.7379999999999
 20
71.35384499999999
 30
0.0
 11
104.4699999999999
 21
71.85384499999999
 31
0.0
  0
LINE
  5
1D6
330
1E
100
AcDbEntity
  8
0
100
AcDbLine
 10
104.4699999999999
 20
71.85384499999999
 30
0.0
 11
105.4249999999999
 21
71.537345
 31
0.0
  0
LINE
  5
1D7
330
1E
100
AcDbEntity
  8
0
100
AcDbLine
 10
103.6929999999999
 20
71.037345
 30
0.0
 11
105.4249999999999
 21
71.537345
 31
0.0
  0
LINE
  5
1D8
330
1E
100
AcDbEntity
  8
0
100
AcDbLine
 10
104.1749999999999
 20
73.76434499999999
 30
0.0
 11
104.4699999999999
 21
71.85384499999999
 31
0.0
  0
LINE
  5
1D9
330
1E
100
AcDbEntity
  8
0
100
AcDbLine
 10
105.312880610692
 20
72.2634605704163
 30
0.0
 11
105.4249999999999
 21
71.537345
 31
0.0
  0
LINE
  5
1DA
330
1E
100
AcDbEntity
  8
0
100
AcDbLine
 10
93.9465401777568
 20
74.0499068103321
 30
0.0
 11
94.0497
 21
72.81454499999999
 31
0.0
  0
LINE
  5
1DB
330
1E
100
AcDbEntity
  8
0
100
AcDbLine
 10
101.8489999999999
 20
75.830345
 30
0.0
 11
103.041
 21
75.41004499999999
 31
0.0
  0
LINE
  5
1DC
330
1E
100
AcDbEntity
  8
0
100
AcDbLine
 10
101.8489999999999
 20
75.830345
 30
0.0
 11
103.436
 21
76.438845
 31
0.0
  0
LINE
  5
1DD
330
1E
100
AcDbEntity
  8
0
100
AcDbLine
 10
103.041
 20
75.41004499999999
 30
0.0
 11
104.627
 21
76.01904499999999
 31
0.0
  0
LINE
  5
1DE
330
1E
100
AcDbEntity
  8
0
100
AcDbLine
 10
114.744
 20
75.795845
 30
0.0
 11
116.0959999999999
 21
75.631345
 31
0.0
  0
LINE
  5
1DF
330
1E
100
AcDbEntity
  8
0
100
AcDbLine
 10
114.744
 20
75.795845
 30
0.0
 11
116.1589999999999
 21
76.50334499999999
 31
0.0
  0
LINE
  5
1E0
330
1E
100
AcDbEntity
  8
0
100
AcDbLine
 10
116.0959999999999
 20
75.631345
 30
0.0
 11
117.51
 21
76.33834499999998
 31
0.0
  0
LINE
  5
1E1
330
1E
100
AcDbEntity
  8
0
100
AcDbLine
 10
114.5
 20
73.53124499999999
 30
0.0
 11
120.9
 21
76.33114499999999
 31
0.0
  0
LINE
  5
1E2
330
1E
100
AcDbEntity
  8
0
100
AcDbLine
 10
107.4
 20
71.13114499999999
 30
0.0
 11
114.5
 21
73.53124499999999
 31
0.0
  0
LINE
  5
1E3
330
1E
100
AcDbEntity
  8
0
100
AcDbLine
 10
99.8
 20
69.33114499999999
 30
0.0
 11
107.4
 21
71.13114499999999
 31
0.0
  0
LINE
  5
1E4
330
1E
100
AcDbEntity
  8
0
100
AcDbLine
 10
91.79999999999999
 20
67.931145
 30
0.0
 11
99.8
 21
69.33114499999999
 31
0.0
  0
LINE
  5
1E5
330
1E
100
AcDbEntity
  8
0
100
AcDbLine
 10
65.3073
 20
76.38604499999999
 30
0.0
 11
67.2391
 21
76.12704499999999
 31
0.0
  0
LINE
  5
1E6
330
1E
100
AcDbEntity
  8
0
100
AcDbLine
 10
65.3073
 20
76.38604499999999
 30
0.0
 11
65.3708
 21
78.223545
 31
0.0
  0
LINE
  5
1E7
330
1E
100
AcDbEntity
  8
0
100
AcDbLine
 10
84.69269999999999
 20
76.38604499999999
 30
0.0
 11
85.20650000000001
 21
75.64024499999999
 31
0.0
  0
LINE
  5
1E8
330
1E
100
AcDbEntity
  8
0
100
AcDbLine
 10
82.740935201988
 20
76.703858150112
 30
0.0
 11
82.76090000000001
 21
76.12704499999999
 31
0.0
  0
LINE
  5
1E9
330
1E
100
AcDbEntity
  8
0
100
AcDbLine
 10
103.436
 20
76.438845
 30
0.0
 11
104.627
 21
76.01904499999999
 31
0.0
  0
LINE
  5
1EA
330
1E
100
AcDbEntity
  8
0
100
AcDbLine
 10
59.0071
 20
77.69104499999999
 30
0.0
 11
59.0500821204059
 21
78.3297915108207
 31
0.0
  0
LINE
  5
1EB
330
1E
100
AcDbEntity
  8
0
100
AcDbLine
 10
91.98529999999999
 20
77.04424499999999
 30
0.0
 11
93.7174
 21
77.54424499999998
 31
0.0
  0
LINE
  5
1EC
330
1E
100
AcDbEntity
  8
0
100
AcDbLine
 10
92.72490000000001
 20
78.19104499999999
 30
0.0
 11
93.7174
 21
77.54424499999998
 31
0.0
  0
LINE
  5
1ED
330
1E
100
AcDbEntity
  8
0
100
AcDbLine
 10
90.99290000000001
 20
77.69104499999999
 30
0.0
 11
91.98529999999999
 21
77.04424499999999
 31
0.0
  0
LINE
  5
1EE
330
1E
100
AcDbEntity
  8
0
100
AcDbLine
 10
90.99290000000001
 20
77.69104499999999
 30
0.0
 11
92.72490000000001
 21
78.19104499999999
 31
0.0
  0
LINE
  5
1EF
330
1E
100
AcDbEntity
  8
0
100
AcDbLine
 10
93.70944143448991
 20
77.6625152459234
 30
0.0
 11
93.7174
 21
77.54424499999998
 31
0.0
  0
LINE
  5
1F0
330
1E
100
AcDbEntity
  8
0
100
AcDbLine
 10
76.0
 20
77.524045
 30
0.0
 11
76.0
 21
75.682045
 31
0.0
  0
LINE
  5
1F1
330
1E
100
AcDbEntity
  8
0
100
AcDbLine
 10
74.0
 20
77.524045
 30
0.0
 11
74.0
 21
75.682045
 31
0.0
  0
LINE
  5
1F2
330
1E
100
AcDbEntity
  8
0
100
AcDbLine
 10
90.94991787959409
 20
78.3297915108207
 30
0.0
 11
90.99290000000001
 21
77.69104499999999
 31
0.0
  0
LINE
  5
1F3
330
1E
100
AcDbEntity
  8
0
100
AcDbLine
 10
84.6292
 20
78.223545
 30
0.0
 11
84.69269999999999
 21
76.38604499999999
 31
0.0
  0
LINE
  5
1F4
330
1E
100
AcDbEntity
  8
0
100
AcDbLine
 10
103.314696720617
 20
77.34061357893399
 30
0.0
 11
103.436
 21
76.438845
 31
0.0
  0
LINE
  5
1F5
330
1E
100
AcDbEntity
  8
0
100
AcDbLine
 10
101.726179619146
 20
76.74314607050949
 30
0.0
 11
101.8489999999999
 21
75.830345
 31
0.0
  0
LINE
  5
1F6
330
1E
100
AcDbEntity
  8
0
100
AcDbLine
 10
116.1589999999999
 20
76.50334499999999
 30
0.0
 11
117.51
 21
76.33834499999998
 31
0.0
  0
LINE
  5
1F7
330
1E
100
AcDbEntity
  8
0
100
AcDbLine
 10
116.051113917947
 20
76.98431560743209
 30
0.0
 11
116.1589999999999
 21
76.50334499999999
 31
0.0
  0
LINE
  5
1F8
330
1E
100
AcDbEntity
  8
0
100
AcDbLine
 10
114.5856578613949
 20
76.503638156738
 30
0.0
 11
114.744
 21
75.795845
 31
0.0
  0
LINE
  5
1F9
330
1E
100
AcDbEntity
  8
0
100
AcDbLine
 10
117.355045295221
 20
77.03099624630221
 30
0.0
 11
117.51
 21
76.33834499999998
 31
0.0
  0
LINE
  5
1FA
330
1E
100
AcDbEntity
  8
0
100
AcDbLine
 10
104.4648819515689
 20
77.2238414887196
 30
0.0
 11
104.627
 21
76.01904499999999
 31
0.0
  0
LINE
  5
1FB
330
1E
100
AcDbEntity
  8
0
100
AcDbLine
 10
120.9
 20
76.33114499999999
 30
0.0
 11
126.5
 21
79.53114499999999
 31
0.0
  0
LINE
  5
1FC
330
1E
100
AcDbEntity
  8
0
100
AcDbLine
 10
58.2
 20
67.931145
 30
0.0
 11
66.5
 21
67.13114499999999
 31
0.0
  0
LINE
  5
1FD
330
1E
100
AcDbEntity
  8
0
100
AcDbLine
 10
89.0
 20
67.6612654819277
 30
0.0
 11
89.0
 21
64.036845
 31
0.0
  0
LINE
  5
1FE
330
1E
100
AcDbEntity
  8
0
100
AcDbLine
 10
122.6186462675399
 20
77.3132285814515
 30
0.0
 11
123.7999999999999
 21
77.82574499999999
 31
0.0
  0
LINE
  5
1FF
330
1E
100
AcDbEntity
  8
0
100
AcDbLine
 10
123.7999999999999
 20
77.82574499999999
 30
0.0
 11
125.9
 21
78.853945
 31
0.0
  0
LINE
  5
200
330
1E
100
AcDbEntity
  8
0
100
AcDbLine
 10
122.365454759383
 20
77.1685477196477
 30
0.0
 11
126.0
 21
78.80414499999999
 31
0.0
  0
LINE
  5
201
330
1E
100
AcDbEntity
  8
0
100
AcDbLine
 10
67.1195
 20
80.702745
 30
0.0
 11
67.8841
 21
81.55024499999999
 31
0.0
  0
LINE
  5
202
330
1E
100
AcDbEntity
  8
0
100
AcDbLine
 10
65.27169999999999
 20
81.08524499999999
 30
0.0
 11
65.29343396160429
 21
82.2372751085089
 31
0.0
  0
LINE
  5
203
330
1E
100
AcDbEntity
  8
0
100
AcDbLine
 10
65.27169999999999
 20
81.08524499999999
 30
0.0
 11
67.1195
 21
80.702745
 31
0.0
  0
LINE
  5
204
330
1E
100
AcDbEntity
  8
0
100
AcDbLine
 10
65.27169999999999
 20
81.08524499999999
 30
0.0
 11
66.0364
 21
81.93274499999999
 31
0.0
  0
LINE
  5
205
330
1E
100
AcDbEntity
  8
0
100
AcDbLine
 10
76.7508
 20
80.966245
 30
0.0
 11
77.0116
 21
80.05124499999999
 31
0.0
  0
LINE
  5
206
330
1E
100
AcDbEntity
  8
0
100
AcDbLine
 10
76.7508
 20
80.966245
 30
0.0
 11
78.7337
 21
81.096745
 31
0.0
  0
LINE
  5
207
330
1E
100
AcDbEntity
  8
0
100
AcDbLine
 10
78.7337
 20
81.096745
 30
0.0
 11
78.9945
 21
80.18174499999998
 31
0.0
  0
LINE
  5
208
330
1E
100
AcDbEntity
  8
0
100
AcDbLine
 10
77.0116
 20
80.05124499999999
 30
0.0
 11
78.9945
 21
80.18174499999998
 31
0.0
  0
LINE
  5
209
330
1E
100
AcDbEntity
  8
0
100
AcDbLine
 10
66.0364
 20
81.93274499999999
 30
0.0
 11
67.8841
 21
81.55024499999999
 31
0.0
  0
LINE
  5
20A
330
1E
100
AcDbEntity
  8
0
100
AcDbLine
 10
66.0364
 20
81.93274499999999
 30
0.0
 11
66.0476991795925
 21
82.5335016807382
 31
0.0
  0
LINE
  5
20B
330
1E
100
AcDbEntity
  8
0
100
AcDbLine
 10
67.8841
 20
81.55024499999999
 30
0.0
 11
67.913078246671
 21
83.0909652922215
 31
0.0
  0
LINE
  5
20C
330
1E
100
AcDbEntity
  8
0
100
AcDbLine
 10
78.7302453739408
 20
81.63433330079559
 30
0.0
 11
78.7337
 21
81.096745
 31
0.0
  0
LINE
  5
20D
330
1E
100
AcDbEntity
  8
0
100
AcDbLine
 10
78.98631369780591
 20
81.455576707201
 30
0.0
 11
78.9945
 21
80.18174499999998
 31
0.0
  0
LINE
  5
20E
330
1E
100
AcDbEntity
  8
0
100
AcDbLine
 10
111.968
 20
79.68954499999999
 30
0.0
 11
113.186
 21
80.482545
 31
0.0
  0
LINE
  5
20F
330
1E
100
AcDbEntity
  8
0
100
AcDbLine
 10
99.5385
 20
79.77724499999999
 30
0.0
 11
100.9529999999999
 21
80.48474499999999
 31
0.0
  0
LINE
  5
210
330
1E
100
AcDbEntity
  8
0
100
AcDbLine
 10
98.13500000000001
 20
80.26654499999999
 30
0.0
 11
99.5385
 21
79.77724499999999
 31
0.0
  0
LINE
  5
211
330
1E
100
AcDbEntity
  8
0
100
AcDbLine
 10
98.13500000000001
 20
80.26654499999999
 30
0.0
 11
99.54920000000001
 21
80.97354499999999
 31
0.0
  0
LINE
  5
212
330
1E
100
AcDbEntity
  8
0
100
AcDbLine
 10
99.54920000000001
 20
80.97354499999999
 30
0.0
 11
100.9529999999999
 21
80.48474499999999
 31
0.0
  0
LINE
  5
213
330
1E
100
AcDbEntity
  8
0
100
AcDbLine
 10
99.5200847898123
 20
81.2762627294124
 30
0.0
 11
99.54920000000001
 21
80.97354499999999
 31
0.0
  0
LINE
  5
214
330
1E
100
AcDbEntity
  8
0
100
AcDbLine
 10
98.0685387564667
 20
80.95732870221629
 30
0.0
 11
98.13500000000001
 21
80.26654499999999
 31
0.0
  0
LINE
  5
215
330
1E
100
AcDbEntity
  8
0
100
AcDbLine
 10
124.0429999999999
 20
81.64034499999999
 30
0.0
 11
125.0429999999999
 21
82.506345
 31
0.0
  0
LINE
  5
216
330
1E
100
AcDbEntity
  8
0
100
AcDbLine
 10
124.0429999999999
 20
81.64034499999999
 30
0.0
 11
125.6979999999999
 21
81.673845
 31
0.0
  0
LINE
  5
217
330
1E
100
AcDbEntity
  8
0
100
AcDbLine
 10
125.6979999999999
 20
81.673845
 30
0.0
 11
126.6979999999999
 21
82.53984499999999
 31
0.0
  0
LINE
  5
218
330
1E
100
AcDbEntity
  8
0
100
AcDbLine
 10
111.633
 20
80.72234499999998
 30
0.0
 11
113.186
 21
80.482545
 31
0.0
  0
LINE
  5
219
330
1E
100
AcDbEntity
  8
0
100
AcDbLine
 10
111.483618169356
 20
81.55631718335
 30
0.0
 11
111.633
 21
80.72234499999998
 31
0.0
  0
LINE
  5
21A
330
1E
100
AcDbEntity
  8
0
100
AcDbLine
 10
110.416
 20
79.92884499999999
 30
0.0
 11
111.968
 21
79.68954499999999
 31
0.0
  0
LINE
  5
21B
330
1E
100
AcDbEntity
  8
0
100
AcDbLine
 10
110.416
 20
79.92884499999999
 30
0.0
 11
111.633
 21
80.72234499999998
 31
0.0
  0
LINE
  5
21C
330
1E
100
AcDbEntity
  8
0
100
AcDbLine
 10
110.2612164518909
 20
80.79033141455239
 30
0.0
 11
110.416
 21
79.92884499999999
 31
0.0
  0
LINE
  5
21D
330
1E
100
AcDbEntity
  8
0
100
AcDbLine
 10
123.863204741191
 20
82.2745543033322
 30
0.0
 11
124.0429999999999
 21
81.64034499999999
 31
0.0
  0
LINE
  5
21E
330
1E
100
AcDbEntity
  8
0
100
AcDbLine
 10
112.969257965195
 20
81.6928431599995
 30
0.0
 11
113.186
 21
80.482545
 31
0.0
  0
LINE
  5
21F
330
1E
100
AcDbEntity
  8
0
100
AcDbLine
 10
100.92356479385
 20
80.79016063898158
 30
0.0
 11
100.9529999999999
 21
80.48474499999999
 31
0.0
  0
LINE
  5
220
330
1E
100
AcDbEntity
  8
0
100
AcDbLine
 10
92.6104535529768
 20
79.89180494440251
 30
0.0
 11
92.72490000000001
 21
78.19104499999999
 31
0.0
  0
LINE
  5
221
330
1E
100
AcDbEntity
  8
0
100
AcDbLine
 10
88.21240000000001
 20
82.09124499999999
 30
0.0
 11
89.7991
 21
82.699745
 31
0.0
  0
LINE
  5
222
330
1E
100
AcDbEntity
  8
0
100
AcDbLine
 10
125.9
 20
78.853945
 30
0.0
 11
132.0999999999999
 21
82.40394499999998
 31
0.0
  0
LINE
  5
223
330
1E
100
AcDbEntity
  8
0
100
AcDbLine
 10
126.5
 20
79.53114499999999
 30
0.0
 11
131.3
 21
83.081145
 31
0.0
  0
LINE
  5
224
330
1E
100
AcDbEntity
  8
0
100
AcDbLine
 10
126.0
 20
78.80414499999999
 30
0.0
 11
132.3
 21
82.30424499999999
 31
0.0
  0
LINE
  5
225
330
1E
100
AcDbEntity
  8
0
100
AcDbLine
 10
76.7411829540997
 20
82.462792318164
 30
0.0
 11
76.7508
 21
80.966245
 31
0.0
  0
LINE
  5
226
330
1E
100
AcDbEntity
  8
0
100
AcDbLine
 10
86.9888873700699
 20
83.04798684231029
 30
0.0
 11
86.99609999999999
 21
82.80824499999999
 31
0.0
  0
LINE
  5
227
330
1E
100
AcDbEntity
  8
0
100
AcDbLine
 10
125.0429999999999
 20
82.506345
 30
0.0
 11
126.6979999999999
 21
82.53984499999999
 31
0.0
  0
LINE
  5
228
330
1E
100
AcDbEntity
  8
0
100
AcDbLine
 10
124.884866328945
 20
83.06414527803571
 30
0.0
 11
125.0429999999999
 21
82.506345
 31
0.0
  0
LINE
  5
229
330
1E
100
AcDbEntity
  8
0
100
AcDbLine
 10
126.547215660331
 20
83.0717212666401
 30
0.0
 11
126.6979999999999
 21
82.53984499999999
 31
0.0
  0
LINE
  5
22A
330
1E
100
AcDbEntity
  8
0
100
AcDbLine
 10
86.99609999999999
 20
82.80824499999999
 30
0.0
 11
88.21240000000001
 21
82.09124499999999
 31
0.0
  0
LINE
  5
22B
330
1E
100
AcDbEntity
  8
0
100
AcDbLine
 10
86.99609999999999
 20
82.80824499999999
 30
0.0
 11
88.5828
 21
83.41674499999999
 31
0.0
  0
LINE
  5
22C
330
1E
100
AcDbEntity
  8
0
100
AcDbLine
 10
57.7238
 20
85.448245
 30
0.0
 11
58.9413
 21
84.65474499999999
 31
0.0
  0
LINE
  5
22D
330
1E
100
AcDbEntity
  8
0
100
AcDbLine
 10
57.7238
 20
85.448245
 30
0.0
 11
57.7498399310262
 21
86.1103601781904
 31
0.0
  0
LINE
  5
22E
330
1E
100
AcDbEntity
  8
0
100
AcDbLine
 10
58.9413
 20
84.65474499999999
 30
0.0
 11
58.95346295218299
 21
84.96401138184522
 31
0.0
  0
LINE
  5
22F
330
1E
100
AcDbEntity
  8
0
100
AcDbLine
 10
57.3561
 20
84.12224499999998
 30
0.0
 11
58.9413
 21
84.65474499999999
 31
0.0
  0
LINE
  5
230
330
1E
100
AcDbEntity
  8
0
100
AcDbLine
 10
66.8712
 20
86.800245
 30
0.0
 11
67.50399999999999
 21
86.93174499999999
 31
0.0
  0
LINE
  5
231
330
1E
100
AcDbEntity
  8
0
100
AcDbLine
 10
66.22329999999999
 20
86.760745
 30
0.0
 11
66.8712
 21
86.800245
 31
0.0
  0
LINE
  5
232
330
1E
100
AcDbEntity
  8
0
100
AcDbLine
 10
65.56799999999999
 20
86.81624499999999
 30
0.0
 11
66.22329999999999
 21
86.760745
 31
0.0
  0
LINE
  5
233
330
1E
100
AcDbEntity
  8
0
100
AcDbLine
 10
64.9444
 20
86.93224499999999
 30
0.0
 11
65.56799999999999
 21
86.81624499999999
 31
0.0
  0
LINE
  5
234
330
1E
100
AcDbEntity
  8
0
100
AcDbLine
 10
64.4231
 20
87.12824499999999
 30
0.0
 11
64.9444
 21
86.93224499999999
 31
0.0
  0
LINE
  5
235
330
1E
100
AcDbEntity
  8
0
100
AcDbLine
 10
64.0065
 20
87.400245
 30
0.0
 11
64.4231
 21
87.12824499999999
 31
0.0
  0
LINE
  5
236
330
1E
100
AcDbEntity
  8
0
100
AcDbLine
 10
67.50399999999999
 20
86.93174499999999
 30
0.0
 11
68.0488
 21
87.14024499999998
 31
0.0
  0
LINE
  5
237
330
1E
100
AcDbEntity
  8
0
100
AcDbLine
 10
68.0488
 20
87.14024499999998
 30
0.0
 11
68.4401
 21
87.400745
 31
0.0
  0
LINE
  5
238
330
1E
100
AcDbEntity
  8
0
100
AcDbLine
 10
63.6644
 20
88.040745
 30
0.0
 11
63.7431
 21
87.71674499999999
 31
0.0
  0
LINE
  5
239
330
1E
100
AcDbEntity
  8
0
100
AcDbLine
 10
63.6644
 20
88.040745
 30
0.0
 11
63.77600000000001
 21
88.368245
 31
0.0
  0
LINE
  5
23A
330
1E
100
AcDbEntity
  8
0
100
AcDbLine
 10
63.7431
 20
87.71674499999999
 30
0.0
 11
64.0065
 21
87.400245
 31
0.0
  0
LINE
  5
23B
330
1E
100
AcDbEntity
  8
0
100
AcDbLine
 10
68.4401
 20
87.400745
 30
0.0
 11
68.67149999999999
 21
87.712245
 31
0.0
  0
LINE
  5
23C
330
1E
100
AcDbEntity
  8
0
100
AcDbLine
 10
68.67149999999999
 20
87.712245
 30
0.0
 11
69.2719091279111
 21
88.76462889810499
 31
0.0
  0
LINE
  5
23D
330
1E
100
AcDbEntity
  8
0
100
AcDbLine
 10
68.67149999999999
 20
87.712245
 30
0.0
 11
68.78289999999999
 21
88.040245
 31
0.0
  0
LINE
  5
23E
330
1E
100
AcDbEntity
  8
0
100
AcDbLine
 10
63.77600000000001
 20
88.368245
 30
0.0
 11
64.0074
 21
88.679745
 31
0.0
  0
LINE
  5
23F
330
1E
100
AcDbEntity
  8
0
100
AcDbLine
 10
68.7043
 20
88.36374499999999
 30
0.0
 11
68.78289999999999
 21
88.040245
 31
0.0
  0
LINE
  5
240
330
1E
100
AcDbEntity
  8
0
100
AcDbLine
 10
81.3335
 20
87.71674499999999
 30
0.0
 11
81.56489999999999
 21
87.40524499999999
 31
0.0
  0
LINE
  5
241
330
1E
100
AcDbEntity
  8
0
100
AcDbLine
 10
81.2221
 20
88.04424499999999
 30
0.0
 11
81.30070000000001
 21
88.368245
 31
0.0
  0
LINE
  5
242
330
1E
100
AcDbEntity
  8
0
100
AcDbLine
 10
81.2221
 20
88.04424499999999
 30
0.0
 11
81.3335
 21
87.71674499999999
 31
0.0
  0
LINE
  5
243
330
1E
100
AcDbEntity
  8
0
100
AcDbLine
 10
64.0074
 20
88.679745
 30
0.0
 11
64.3993
 21
88.940745
 31
0.0
  0
LINE
  5
244
330
1E
100
AcDbEntity
  8
0
100
AcDbLine
 10
64.94410000000001
 20
89.14874499999999
 30
0.0
 11
65.5769
 21
89.28074499999999
 31
0.0
  0
LINE
  5
245
330
1E
100
AcDbEntity
  8
0
100
AcDbLine
 10
65.5769
 20
89.28074499999999
 30
0.0
 11
66.22410000000001
 21
89.319745
 31
0.0
  0
LINE
  5
246
330
1E
100
AcDbEntity
  8
0
100
AcDbLine
 10
66.22410000000001
 20
89.319745
 30
0.0
 11
66.87949999999999
 21
89.26424499999999
 31
0.0
  0
LINE
  5
247
330
1E
100
AcDbEntity
  8
0
100
AcDbLine
 10
66.87949999999999
 20
89.26424499999999
 30
0.0
 11
67.503
 21
89.14874499999999
 31
0.0
  0
LINE
  5
248
330
1E
100
AcDbEntity
  8
0
100
AcDbLine
 10
67.503
 20
89.14874499999999
 30
0.0
 11
68.0243
 21
88.95274499999999
 31
0.0
  0
LINE
  5
249
330
1E
100
AcDbEntity
  8
0
100
AcDbLine
 10
68.0243
 20
88.95274499999999
 30
0.0
 11
68.4409
 21
88.680245
 31
0.0
  0
LINE
  5
24A
330
1E
100
AcDbEntity
  8
0
100
AcDbLine
 10
64.3993
 20
88.940745
 30
0.0
 11
64.94410000000001
 21
89.14874499999999
 31
0.0
  0
LINE
  5
24B
330
1E
100
AcDbEntity
  8
0
100
AcDbLine
 10
63.06688962626389
 20
88.91175657709119
 30
0.0
 11
63.7431
 21
87.71674499999999
 31
0.0
  0
LINE
  5
24C
330
1E
100
AcDbEntity
  8
0
100
AcDbLine
 10
68.4409
 20
88.680245
 30
0.0
 11
68.7043
 21
88.36374499999999
 31
0.0
  0
LINE
  5
24D
330
1E
100
AcDbEntity
  8
0
100
AcDbLine
 10
80.7384141022587
 20
88.75972270922941
 30
0.0
 11
81.3335
 21
87.71674499999999
 31
0.0
  0
LINE
  5
24E
330
1E
100
AcDbEntity
  8
0
100
AcDbLine
 10
81.30070000000001
 20
88.368245
 30
0.0
 11
81.5642
 21
88.68474499999999
 31
0.0
  0
LINE
  5
24F
330
1E
100
AcDbEntity
  8
0
100
AcDbLine
 10
82.50100000000001
 20
86.936245
 30
0.0
 11
83.1338
 21
86.80424499999999
 31
0.0
  0
LINE
  5
250
330
1E
100
AcDbEntity
  8
0
100
AcDbLine
 10
83.1338
 20
86.80424499999999
 30
0.0
 11
83.78159999999999
 21
86.76524499999999
 31
0.0
  0
LINE
  5
251
330
1E
100
AcDbEntity
  8
0
100
AcDbLine
 10
83.78159999999999
 20
86.76524499999999
 30
0.0
 11
84.43700000000001
 21
86.820745
 31
0.0
  0
LINE
  5
252
330
1E
100
AcDbEntity
  8
0
100
AcDbLine
 10
84.43700000000001
 20
86.820745
 30
0.0
 11
85.06059999999999
 21
86.936245
 31
0.0
  0
LINE
  5
253
330
1E
100
AcDbEntity
  8
0
100
AcDbLine
 10
81.9561
 20
87.14424499999999
 30
0.0
 11
82.50100000000001
 21
86.936245
 31
0.0
  0
LINE
  5
254
330
1E
100
AcDbEntity
  8
0
100
AcDbLine
 10
81.56489999999999
 20
87.40524499999999
 30
0.0
 11
81.9561
 21
87.14424499999999
 31
0.0
  0
LINE
  5
255
330
1E
100
AcDbEntity
  8
0
100
AcDbLine
 10
85.06059999999999
 20
86.936245
 30
0.0
 11
85.58190000000001
 21
87.132245
 31
0.0
  0
LINE
  5
256
330
1E
100
AcDbEntity
  8
0
100
AcDbLine
 10
85.58190000000001
 20
87.132245
 30
0.0
 11
85.99850000000001
 21
87.40474499999999
 31
0.0
  0
LINE
  5
257
330
1E
100
AcDbEntity
  8
0
100
AcDbLine
 10
85.6057
 20
88.94524500000001
 30
0.0
 11
85.99760000000001
 21
88.68424499999999
 31
0.0
  0
LINE
  5
258
330
1E
100
AcDbEntity
  8
0
100
AcDbLine
 10
85.99760000000001
 20
88.68424499999999
 30
0.0
 11
86.22899999999999
 21
88.37274499999999
 31
0.0
  0
LINE
  5
259
330
1E
100
AcDbEntity
  8
0
100
AcDbLine
 10
88.5828
 20
83.41674499999999
 30
0.0
 11
89.7991
 21
82.699745
 31
0.0
  0
LINE
  5
25A
330
1E
100
AcDbEntity
  8
0
100
AcDbLine
 10
88.56366175948592
 20
84.0528842562592
 30
0.0
 11
88.5828
 21
83.41674499999999
 31
0.0
  0
LINE
  5
25B
330
1E
100
AcDbEntity
  8
0
100
AcDbLine
 10
89.76542780027569
 20
83.8210292508182
 30
0.0
 11
89.7991
 21
82.699745
 31
0.0
  0
LINE
  5
25C
330
1E
100
AcDbEntity
  8
0
100
AcDbLine
 10
94.01224782192599
 20
87.28448638117219
 30
0.0
 11
94.02700000000001
 21
86.96424499999999
 31
0.0
  0
LINE
  5
25D
330
1E
100
AcDbEntity
  8
0
100
AcDbLine
 10
94.02700000000001
 20
86.96424499999999
 30
0.0
 11
94.7924
 21
87.888245
 31
0.0
  0
LINE
  5
25E
330
1E
100
AcDbEntity
  8
0
100
AcDbLine
 10
94.02700000000001
 20
86.96424499999999
 30
0.0
 11
95.87299999999999
 21
86.65774499999999
 31
0.0
  0
LINE
  5
25F
330
1E
100
AcDbEntity
  8
0
100
AcDbLine
 10
103.6161713647719
 20
84.3876008786823
 30
0.0
 11
103.7009999999999
 21
83.67854499999999
 31
0.0
  0
LINE
  5
260
330
1E
100
AcDbEntity
  8
0
100
AcDbLine
 10
103.7009999999999
 20
83.67854499999999
 30
0.0
 11
104.7009999999999
 21
84.544545
 31
0.0
  0
LINE
  5
261
330
1E
100
AcDbEntity
  8
0
100
AcDbLine
 10
103.7009999999999
 20
83.67854499999999
 30
0.0
 11
105.4189999999999
 21
83.39524499999999
 31
0.0
  0
LINE
  5
262
330
1E
100
AcDbEntity
  8
0
100
AcDbLine
 10
104.7009999999999
 20
84.544545
 30
0.0
 11
106.4189999999999
 21
84.261245
 31
0.0
  0
LINE
  5
263
330
1E
100
AcDbEntity
  8
0
100
AcDbLine
 10
104.64930821318
 20
84.97662038616828
 30
0.0
 11
104.7009999999999
 21
84.544545
 31
0.0
  0
LINE
  5
264
330
1E
100
AcDbEntity
  8
0
100
AcDbLine
 10
116.399487320838
 20
85.7877015600882
 30
0.0
 11
116.569
 21
84.99634499999999
 31
0.0
  0
LINE
  5
265
330
1E
100
AcDbEntity
  8
0
100
AcDbLine
 10
116.569
 20
84.99634499999999
 30
0.0
 11
117.334
 21
85.920345
 31
0.0
  0
LINE
  5
266
330
1E
100
AcDbEntity
  8
0
100
AcDbLine
 10
116.569
 20
84.99634499999999
 30
0.0
 11
118.377
 21
84.97804499999999
 31
0.0
  0
LINE
  5
267
330
1E
100
AcDbEntity
  8
0
100
AcDbLine
 10
117.334
 20
85.920345
 30
0.0
 11
119.142
 21
85.902045
 31
0.0
  0
LINE
  5
268
330
1E
100
AcDbEntity
  8
0
100
AcDbLine
 10
117.173874213837
 20
86.66766889937109
 30
0.0
 11
117.334
 21
85.920345
 31
0.0
  0
LINE
  5
269
330
1E
100
AcDbEntity
  8
0
100
AcDbLine
 10
118.877157384991
 20
87.13802366699079
 30
0.0
 11
119.142
 21
85.902045
 31
0.0
  0
LINE
  5
26A
330
1E
100
AcDbEntity
  8
0
100
AcDbLine
 10
118.377
 20
84.97804499999999
 30
0.0
 11
119.142
 21
85.902045
 31
0.0
  0
LINE
  5
26B
330
1E
100
AcDbEntity
  8
0
100
AcDbLine
 10
106.367380401797
 20
84.6946304851051
 30
0.0
 11
106.4189999999999
 21
84.261245
 31
0.0
  0
LINE
  5
26C
330
1E
100
AcDbEntity
  8
0
100
AcDbLine
 10
105.4189999999999
 20
83.39524499999999
 30
0.0
 11
106.4189999999999
 21
84.261245
 31
0.0
  0
LINE
  5
26D
330
1E
100
AcDbEntity
  8
0
100
AcDbLine
 10
107.3099999999999
 20
87.694545
 30
0.0
 11
107.8279999999999
 21
88.660545
 31
0.0
  0
LINE
  5
26E
330
1E
100
AcDbEntity
  8
0
100
AcDbLine
 10
107.3099999999999
 20
87.694545
 30
0.0
 11
109.227
 21
87.650745
 31
0.0
  0
LINE
  5
26F
330
1E
100
AcDbEntity
  8
0
100
AcDbLine
 10
109.227
 20
87.650745
 30
0.0
 11
109.745
 21
88.61624499999999
 31
0.0
  0
LINE
  5
270
330
1E
100
AcDbEntity
  8
0
100
AcDbLine
 10
95.87299999999999
 20
86.65774499999999
 30
0.0
 11
96.6384
 21
87.58124499999999
 31
0.0
  0
LINE
  5
271
330
1E
100
AcDbEntity
  8
0
100
AcDbLine
 10
107.2167401058949
 20
88.38356641172241
 30
0.0
 11
107.3099999999999
 21
87.694545
 31
0.0
  0
LINE
  5
272
330
1E
100
AcDbEntity
  8
0
100
AcDbLine
 10
129.9989999999999
 20
88.489345
 30
0.0
 11
130.5169999999999
 21
89.45534499999999
 31
0.0
  0
LINE
  5
273
330
1E
100
AcDbEntity
  8
0
100
AcDbLine
 10
129.9989999999999
 20
88.489345
 30
0.0
 11
131.845
 21
88.75284499999999
 31
0.0
  0
LINE
  5
274
330
1E
100
AcDbEntity
  8
0
100
AcDbLine
 10
107.8279999999999
 20
88.660545
 30
0.0
 11
109.745
 21
88.61624499999999
 31
0.0
  0
LINE
  5
275
330
1E
100
AcDbEntity
  8
0
100
AcDbLine
 10
94.7924
 20
87.888245
 30
0.0
 11
96.6384
 21
87.58124499999999
 31
0.0
  0
LINE
  5
276
330
1E
100
AcDbEntity
  8
0
100
AcDbLine
 10
94.76223982806342
 20
88.5427769301023
 30
0.0
 11
94.7924
 21
87.888245
 31
0.0
  0
LINE
  5
277
330
1E
100
AcDbEntity
  8
0
100
AcDbLine
 10
131.845
 20
88.75284499999999
 30
0.0
 11
132.363
 21
89.71884499999999
 31
0.0
  0
LINE
  5
278
330
1E
100
AcDbEntity
  8
0
100
AcDbLine
 10
96.5873478572551
 20
88.6894253010252
 30
0.0
 11
96.6384
 21
87.58124499999999
 31
0.0
  0
LINE
  5
279
330
1E
100
AcDbEntity
  8
0
100
AcDbLine
 10
86.22899999999999
 20
88.37274499999999
 30
0.0
 11
86.34059999999999
 21
88.04474499999999
 31
0.0
  0
LINE
  5
27A
330
1E
100
AcDbEntity
  8
0
100
AcDbLine
 10
86.26179999999999
 20
87.721245
 30
0.0
 11
86.9354007085043
 21
88.91155751288851
 31
0.0
  0
LINE
  5
27B
330
1E
100
AcDbEntity
  8
0
100
AcDbLine
 10
86.26179999999999
 20
87.721245
 30
0.0
 11
86.34059999999999
 21
88.04474499999999
 31
0.0
  0
LINE
  5
27C
330
1E
100
AcDbEntity
  8
0
100
AcDbLine
 10
85.99850000000001
 20
87.40474499999999
 30
0.0
 11
86.26179999999999
 21
87.721245
 31
0.0
  0
LINE
  5
27D
330
1E
100
AcDbEntity
  8
0
100
AcDbLine
 10
129.821177755711
 20
89.0295190631348
 30
0.0
 11
129.9989999999999
 21
88.489345
 31
0.0
  0
LINE
  5
27E
330
1E
100
AcDbEntity
  8
0
100
AcDbLine
 10
107.7705918480069
 20
89.0828808543063
 30
0.0
 11
107.8279999999999
 21
88.660545
 31
0.0
  0
LINE
  5
27F
330
1E
100
AcDbEntity
  8
0
100
AcDbLine
 10
109.6863334456779
 20
89.04965964118909
 30
0.0
 11
109.745
 21
88.61624499999999
 31
0.0
  0
LINE
  5
280
330
1E
100
AcDbEntity
  8
0
100
AcDbLine
 10
85.0609
 20
89.153245
 30
0.0
 11
85.6057
 21
88.94524500000001
 31
0.0
  0
LINE
  5
281
330
1E
100
AcDbEntity
  8
0
100
AcDbLine
 10
130.5169999999999
 20
89.45534499999999
 30
0.0
 11
132.363
 21
89.71884499999999
 31
0.0
  0
LINE
  5
282
330
1E
100
AcDbEntity
  8
0
100
AcDbLine
 10
130.3370062324279
 20
90.00195765204848
 30
0.0
 11
130.5169999999999
 21
89.45534499999999
 31
0.0
  0
LINE
  5
283
330
1E
100
AcDbEntity
  8
0
100
AcDbLine
 10
132.247252431388
 20
90.07045362289691
 30
0.0
 11
132.363
 21
89.71884499999999
 31
0.0
  0
LINE
  5
284
330
1E
100
AcDbEntity
  8
0
100
AcDbLine
 10
84.42809999999999
 20
89.28524499999999
 30
0.0
 11
85.0609
 21
89.153245
 31
0.0
  0
LINE
  5
285
330
1E
100
AcDbEntity
  8
0
100
AcDbLine
 10
83.7809
 20
89.32424499999999
 30
0.0
 11
84.42809999999999
 21
89.28524499999999
 31
0.0
  0
LINE
  5
286
330
1E
100
AcDbEntity
  8
0
100
AcDbLine
 10
83.12549999999999
 20
89.268745
 30
0.0
 11
83.7809
 21
89.32424499999999
 31
0.0
  0
LINE
  5
287
330
1E
100
AcDbEntity
  8
0
100
AcDbLine
 10
82.5021
 20
89.152745
 30
0.0
 11
83.12549999999999
 21
89.268745
 31
0.0
  0
LINE
  5
288
330
1E
100
AcDbEntity
  8
0
100
AcDbLine
 10
81.98069999999999
 20
88.957245
 30
0.0
 11
82.5021
 21
89.152745
 31
0.0
  0
LINE
  5
289
330
1E
100
AcDbEntity
  8
0
100
AcDbLine
 10
81.5642
 20
88.68474499999999
 30
0.0
 11
81.98069999999999
 21
88.957245
 31
0.0
  0
LINE
  5
28A
330
1E
100
AcDbEntity
  8
0
100
AcDbLine
 10
131.3
 20
83.081145
 30
0.0
 11
134.8999999999999
 21
86.88114499999999
 31
0.0
  0
LINE
  5
28B
330
1E
100
AcDbEntity
  8
0
100
AcDbLine
 10
134.8999999999999
 20
86.88114499999999
 30
0.0
 11
137.7
 21
90.88114499999999
 31
0.0
  0
LINE
  5
28C
330
1E
100
AcDbEntity
  8
0
100
AcDbLine
 10
132.0999999999999
 20
82.40394499999998
 30
0.0
 11
137.4
 21
86.35404499999999
 31
0.0
  0
LINE
  5
28D
330
1E
100
AcDbEntity
  8
0
100
AcDbLine
 10
137.4
 20
86.35404499999999
 30
0.0
 11
141.5
 21
90.55404499999999
 31
0.0
  0
LINE
  5
28E
330
1E
100
AcDbEntity
  8
0
100
AcDbLine
 10
132.3
 20
82.30424499999999
 30
0.0
 11
137.5999999999999
 21
86.304045
 31
0.0
  0
LINE
  5
28F
330
1E
100
AcDbEntity
  8
0
100
AcDbLine
 10
137.5999999999999
 20
86.304045
 30
0.0
 11
141.6999999999999
 21
90.50404499999999
 31
0.0
  0
LINE
  5
290
330
1E
100
AcDbEntity
  8
0
100
AcDbLine
 10
119.889
 20
90.68784499999999
 30
0.0
 11
120.15
 21
91.67934499999999
 31
0.0
  0
LINE
  5
291
330
1E
100
AcDbEntity
  8
0
100
AcDbLine
 10
119.889
 20
90.68784499999999
 30
0.0
 11
121.8289999999999
 21
90.916045
 31
0.0
  0
LINE
  5
292
330
1E
100
AcDbEntity
  8
0
100
AcDbLine
 10
72.5231
 20
95.984745
 30
0.0
 11
72.7791
 21
96.28524499999999
 31
0.0
  0
LINE
  5
293
330
1E
100
AcDbEntity
  8
0
100
AcDbLine
 10
72.435
 20
95.64474500000001
 30
0.0
 11
72.5231
 21
95.305245
 31
0.0
  0
LINE
  5
294
330
1E
100
AcDbEntity
  8
0
100
AcDbLine
 10
72.435
 20
95.64474500000001
 30
0.0
 11
72.5231
 21
95.984745
 31
0.0
  0
LINE
  5
295
330
1E
100
AcDbEntity
  8
0
100
AcDbLine
 10
61.4172
 20
99.47574499999999
 30
0.0
 11
63.0039
 21
100.0842449999999
 31
0.0
  0
LINE
  5
296
330
1E
100
AcDbEntity
  8
0
100
AcDbLine
 10
63.0039
 20
100.0842449999999
 30
0.0
 11
63.0508013782147
 21
101.5822626544669
 31
0.0
  0
LINE
  5
297
330
1E
100
AcDbEntity
  8
0
100
AcDbLine
 10
71.2663
 20
101.7957449999999
 30
0.0
 11
73.2492
 21
101.926245
 31
0.0
  0
LINE
  5
298
330
1E
100
AcDbEntity
  8
0
100
AcDbLine
 10
71.0055
 20
102.861745
 30
0.0
 11
71.00784827520441
 21
103.2092279335329
 31
0.0
  0
LINE
  5
299
330
1E
100
AcDbEntity
  8
0
100
AcDbLine
 10
71.0055
 20
102.861745
 30
0.0
 11
72.9884
 21
102.9922449999999
 31
0.0
  0
LINE
  5
29A
330
1E
100
AcDbEntity
  8
0
100
AcDbLine
 10
71.0055
 20
102.861745
 30
0.0
 11
71.2663
 21
101.7957449999999
 31
0.0
  0
LINE
  5
29B
330
1E
100
AcDbEntity
  8
0
100
AcDbLine
 10
61.7876
 20
100.9522449999999
 30
0.0
 11
61.8258333588499
 21
102.175640344783
 31
0.0
  0
LINE
  5
29C
330
1E
100
AcDbEntity
  8
0
100
AcDbLine
 10
61.7876
 20
100.9522449999999
 30
0.0
 11
63.0039
 21
100.0842449999999
 31
0.0
  0
LINE
  5
29D
330
1E
100
AcDbEntity
  8
0
100
AcDbLine
 10
60.20089999999999
 20
100.343745
 30
0.0
 11
60.2189481136127
 21
100.921250582562
 31
0.0
  0
LINE
  5
29E
330
1E
100
AcDbEntity
  8
0
100
AcDbLine
 10
60.20089999999999
 20
100.343745
 30
0.0
 11
61.7876
 21
100.9522449999999
 31
0.0
  0
LINE
  5
29F
330
1E
100
AcDbEntity
  8
0
100
AcDbLine
 10
60.20089999999999
 20
100.343745
 30
0.0
 11
61.4172
 21
99.47574499999999
 31
0.0
  0
LINE
  5
2A0
330
1E
100
AcDbEntity
  8
0
100
AcDbLine
 10
71.97566179332929
 20
96.27275529888819
 30
0.0
 11
72.5231
 21
95.305245
 31
0.0
  0
LINE
  5
2A1
330
1E
100
AcDbEntity
  8
0
100
AcDbLine
 10
72.9884
 20
102.9922449999999
 30
0.0
 11
72.9994040869544
 21
104.62056028801
 31
0.0
  0
LINE
  5
2A2
330
1E
100
AcDbEntity
  8
0
100
AcDbLine
 10
72.9884
 20
102.9922449999999
 30
0.0
 11
73.2492
 21
101.926245
 31
0.0
  0
LINE
  5
2A3
330
1E
100
AcDbEntity
  8
0
100
AcDbLine
 10
72.7791
 20
96.28524499999999
 30
0.0
 11
73.203
 21
96.54124499999999
 31
0.0
  0
LINE
  5
2A4
330
1E
100
AcDbEntity
  8
0
100
AcDbLine
 10
72.5231
 20
95.305245
 30
0.0
 11
72.77899999999999
 21
95.005245
 31
0.0
  0
LINE
  5
2A5
330
1E
100
AcDbEntity
  8
0
100
AcDbLine
 10
72.77899999999999
 20
95.005245
 30
0.0
 11
73.20289999999999
 21
94.749245
 31
0.0
  0
LINE
  5
2A6
330
1E
100
AcDbEntity
  8
0
100
AcDbLine
 10
73.203
 20
96.54124499999999
 30
0.0
 11
73.71500000000001
 21
96.753245
 31
0.0
  0
LINE
  5
2A7
330
1E
100
AcDbEntity
  8
0
100
AcDbLine
 10
73.71500000000001
 20
96.753245
 30
0.0
 11
74.3151
 21
96.881245
 31
0.0
  0
LINE
  5
2A8
330
1E
100
AcDbEntity
  8
0
100
AcDbLine
 10
73.20289999999999
 20
94.749245
 30
0.0
 11
73.71500000000001
 21
94.53724499999999
 31
0.0
  0
LINE
  5
2A9
330
1E
100
AcDbEntity
  8
0
100
AcDbLine
 10
73.71500000000001
 20
94.53724499999999
 30
0.0
 11
74.31499999999999
 21
94.40924499999999
 31
0.0
  0
LINE
  5
2AA
330
1E
100
AcDbEntity
  8
0
100
AcDbLine
 10
75.67499999999999
 20
94.40924499999999
 30
0.0
 11
76.2749
 21
94.53724499999999
 31
0.0
  0
LINE
  5
2AB
330
1E
100
AcDbEntity
  8
0
100
AcDbLine
 10
74.99500000000001
 20
94.365245
 30
0.0
 11
75.67499999999999
 21
94.40924499999999
 31
0.0
  0
LINE
  5
2AC
330
1E
100
AcDbEntity
  8
0
100
AcDbLine
 10
76.2749
 20
94.53724499999999
 30
0.0
 11
76.78699999999999
 21
94.749245
 31
0.0
  0
LINE
  5
2AD
330
1E
100
AcDbEntity
  8
0
100
AcDbLine
 10
77.4669
 20
95.305245
 30
0.0
 11
78.0151999748039
 21
96.27427833753271
 31
0.0
  0
LINE
  5
2AE
330
1E
100
AcDbEntity
  8
0
100
AcDbLine
 10
77.4669
 20
95.305245
 30
0.0
 11
77.5549
 21
95.64474500000001
 31
0.0
  0
LINE
  5
2AF
330
1E
100
AcDbEntity
  8
0
100
AcDbLine
 10
77.21099999999999
 20
95.005245
 30
0.0
 11
77.4669
 21
95.305245
 31
0.0
  0
LINE
  5
2B0
330
1E
100
AcDbEntity
  8
0
100
AcDbLine
 10
76.78699999999999
 20
94.749245
 30
0.0
 11
77.21099999999999
 21
95.005245
 31
0.0
  0
LINE
  5
2B1
330
1E
100
AcDbEntity
  8
0
100
AcDbLine
 10
95.63324527596702
 20
94.61920353528228
 30
0.0
 11
95.6986
 21
93.31324499999999
 31
0.0
  0
LINE
  5
2B2
330
1E
100
AcDbEntity
  8
0
100
AcDbLine
 10
95.6986
 20
93.31324499999999
 30
0.0
 11
95.95969999999999
 21
92.32174499999999
 31
0.0
  0
LINE
  5
2B3
330
1E
100
AcDbEntity
  8
0
100
AcDbLine
 10
95.6986
 20
93.31324499999999
 30
0.0
 11
97.6796
 21
93.51874499999999
 31
0.0
  0
LINE
  5
2B4
330
1E
100
AcDbEntity
  8
0
100
AcDbLine
 10
95.95969999999999
 20
92.32174499999999
 30
0.0
 11
97.94070000000001
 21
92.52774499999999
 31
0.0
  0
LINE
  5
2B5
330
1E
100
AcDbEntity
  8
0
100
AcDbLine
 10
97.6231999822872
 20
94.6460264664279
 30
0.0
 11
97.6796
 21
93.51874499999999
 31
0.0
  0
LINE
  5
2B6
330
1E
100
AcDbEntity
  8
0
100
AcDbLine
 10
108.7179999999999
 20
92.04104499999999
 30
0.0
 11
110.7029999999999
 21
92.25374499999999
 31
0.0
  0
LINE
  5
2B7
330
1E
100
AcDbEntity
  8
0
100
AcDbLine
 10
108.7179999999999
 20
92.04104499999999
 30
0.0
 11
108.7179999999999
 21
93.04104499999999
 31
0.0
  0
LINE
  5
2B8
330
1E
100
AcDbEntity
  8
0
100
AcDbLine
 10
108.7179999999999
 20
93.04104499999999
 30
0.0
 11
108.7179999999999
 21
92.04104499999999
 31
0.0
  0
LINE
  5
2B9
330
1E
100
AcDbEntity
  8
0
100
AcDbLine
 10
108.7179999999999
 20
93.04104499999999
 30
0.0
 11
110.7029999999999
 21
93.253745
 31
0.0
  0
LINE
  5
2BA
330
1E
100
AcDbEntity
  8
0
100
AcDbLine
 10
108.6288903140369
 20
92.66372609825491
 30
0.0
 11
108.7179999999999
 21
92.04104499999999
 31
0.0
  0
LINE
  5
2BB
330
1E
100
AcDbEntity
  8
0
100
AcDbLine
 10
119.579853606194
 20
91.9922457768072
 30
0.0
 11
119.889
 21
90.68784499999999
 31
0.0
  0
LINE
  5
2BC
330
1E
100
AcDbEntity
  8
0
100
AcDbLine
 10
120.15
 20
91.67934499999999
 30
0.0
 11
122.09
 21
91.907545
 31
0.0
  0
LINE
  5
2BD
330
1E
100
AcDbEntity
  8
0
100
AcDbLine
 10
120.034244849337
 20
92.16775797025992
 30
0.0
 11
120.15
 21
91.67934499999999
 31
0.0
  0
LINE
  5
2BE
330
1E
100
AcDbEntity
  8
0
100
AcDbLine
 10
121.799248344887
 20
93.1376316706104
 30
0.0
 11
122.09
 21
91.907545
 31
0.0
  0
LINE
  5
2BF
330
1E
100
AcDbEntity
  8
0
100
AcDbLine
 10
121.8289999999999
 20
90.916045
 30
0.0
 11
122.09
 21
91.907545
 31
0.0
  0
LINE
  5
2C0
330
1E
100
AcDbEntity
  8
0
100
AcDbLine
 10
110.7029999999999
 20
92.25374499999999
 30
0.0
 11
110.7029999999999
 21
93.253745
 31
0.0
  0
LINE
  5
2C1
330
1E
100
AcDbEntity
  8
0
100
AcDbLine
 10
108.551477966131
 20
94.20466848057079
 30
0.0
 11
108.7179999999999
 21
93.04104499999999
 31
0.0
  0
LINE
  5
2C2
330
1E
100
AcDbEntity
  8
0
100
AcDbLine
 10
110.7029999999999
 20
93.253745
 30
0.0
 11
110.7029999999999
 21
92.25374499999999
 31
0.0
  0
LINE
  5
2C3
330
1E
100
AcDbEntity
  8
0
100
AcDbLine
 10
110.595760403567
 20
94.0030707817405
 30
0.0
 11
110.7029999999999
 21
93.253745
 31
0.0
  0
LINE
  5
2C4
330
1E
100
AcDbEntity
  8
0
100
AcDbLine
 10
97.9091489788626
 20
93.15745079686669
 30
0.0
 11
97.94070000000001
 21
92.52774499999999
 31
0.0
  0
LINE
  5
2C5
330
1E
100
AcDbEntity
  8
0
100
AcDbLine
 10
97.6796
 20
93.51874499999999
 30
0.0
 11
97.94070000000001
 21
92.52774499999999
 31
0.0
  0
LINE
  5
2C6
330
1E
100
AcDbEntity
  8
0
100
AcDbLine
 10
132.2069999999999
 20
95.875345
 30
0.0
 11
134.118
 21
96.386345
 31
0.0
  0
LINE
  5
2C7
330
1E
100
AcDbEntity
  8
0
100
AcDbLine
 10
132.2069999999999
 20
95.875345
 30
0.0
 11
132.2069999999999
 21
96.87534499999999
 31
0.0
  0
LINE
  5
2C8
330
1E
100
AcDbEntity
  8
0
100
AcDbLine
 10
77.4669
 20
95.984745
 30
0.0
 11
77.5549
 21
95.64474500000001
 31
0.0
  0
LINE
  5
2C9
330
1E
100
AcDbEntity
  8
0
100
AcDbLine
 10
107.8279999999999
 20
96.421545
 30
0.0
 11
109.745
 21
96.891245
 31
0.0
  0
LINE
  5
2CA
330
1E
100
AcDbEntity
  8
0
100
AcDbLine
 10
120.15
 20
96.614345
 30
0.0
 11
122.09
 21
97.098545
 31
0.0
  0
LINE
  5
2CB
330
1E
100
AcDbEntity
  8
0
100
AcDbLine
 10
134.118
 20
96.386345
 30
0.0
 11
134.118
 21
97.38634499999999
 31
0.0
  0
LINE
  5
2CC
330
1E
100
AcDbEntity
  8
0
100
AcDbLine
 10
77.21099999999999
 20
96.28524499999999
 30
0.0
 11
77.4669
 21
95.984745
 31
0.0
  0
LINE
  5
2CD
330
1E
100
AcDbEntity
  8
0
100
AcDbLine
 10
76.7869
 20
96.54124499999999
 30
0.0
 11
77.21099999999999
 21
96.28524499999999
 31
0.0
  0
LINE
  5
2CE
330
1E
100
AcDbEntity
  8
0
100
AcDbLine
 10
132.2069999999999
 20
96.87534499999999
 30
0.0
 11
132.2069999999999
 21
95.875345
 31
0.0
  0
LINE
  5
2CF
330
1E
100
AcDbEntity
  8
0
100
AcDbLine
 10
132.2069999999999
 20
96.87534499999999
 30
0.0
 11
134.118
 21
97.38634499999999
 31
0.0
  0
LINE
  5
2D0
330
1E
100
AcDbEntity
  8
0
100
AcDbLine
 10
76.27500000000001
 20
96.753245
 30
0.0
 11
76.7869
 21
96.54124499999999
 31
0.0
  0
LINE
  5
2D1
330
1E
100
AcDbEntity
  8
0
100
AcDbLine
 10
75.67499999999999
 20
96.881245
 30
0.0
 11
76.27500000000001
 21
96.753245
 31
0.0
  0
LINE
  5
2D2
330
1E
100
AcDbEntity
  8
0
100
AcDbLine
 10
82.11589999999999
 20
101.3422449999999
 30
0.0
 11
82.8805
 21
102.340745
 31
0.0
  0
LINE
  5
2D3
330
1E
100
AcDbEntity
  8
0
100
AcDbLine
 10
82.11589999999999
 20
101.3422449999999
 30
0.0
 11
83.96359999999999
 21
100.959745
 31
0.0
  0
LINE
  5
2D4
330
1E
100
AcDbEntity
  8
0
100
AcDbLine
 10
92.27619999999999
 20
97.444245
 30
0.0
 11
93.86140000000001
 21
98.12774499999999
 31
0.0
  0
LINE
  5
2D5
330
1E
100
AcDbEntity
  8
0
100
AcDbLine
 10
91.05870000000001
 20
98.23774499999998
 30
0.0
 11
92.6439
 21
98.92124500000001
 31
0.0
  0
LINE
  5
2D6
330
1E
100
AcDbEntity
  8
0
100
AcDbLine
 10
91.05870000000001
 20
98.23774499999998
 30
0.0
 11
92.27619999999999
 21
97.444245
 31
0.0
  0
LINE
  5
2D7
330
1E
100
AcDbEntity
  8
0
100
AcDbLine
 10
91.0028115319511
 20
99.61594976925171
 30
0.0
 11
91.05870000000001
 21
98.23774499999998
 31
0.0
  0
LINE
  5
2D8
330
1E
100
AcDbEntity
  8
0
100
AcDbLine
 10
92.5968400263007
 20
100.081671761018
 30
0.0
 11
92.6439
 21
98.92124500000001
 31
0.0
  0
LINE
  5
2D9
330
1E
100
AcDbEntity
  8
0
100
AcDbLine
 10
92.6439
 20
98.92124500000001
 30
0.0
 11
93.86140000000001
 21
98.12774499999999
 31
0.0
  0
LINE
  5
2DA
330
1E
100
AcDbEntity
  8
0
100
AcDbLine
 10
107.3099999999999
 20
97.38754499999998
 30
0.0
 11
107.8279999999999
 21
96.421545
 31
0.0
  0
LINE
  5
2DB
330
1E
100
AcDbEntity
  8
0
100
AcDbLine
 10
107.3099999999999
 20
97.38754499999998
 30
0.0
 11
109.227
 21
97.85674499999998
 31
0.0
  0
LINE
  5
2DC
330
1E
100
AcDbEntity
  8
0
100
AcDbLine
 10
119.889
 20
97.605845
 30
0.0
 11
120.15
 21
96.614345
 31
0.0
  0
LINE
  5
2DD
330
1E
100
AcDbEntity
  8
0
100
AcDbLine
 10
119.889
 20
97.605845
 30
0.0
 11
121.8289999999999
 21
98.090045
 31
0.0
  0
LINE
  5
2DE
330
1E
100
AcDbEntity
  8
0
100
AcDbLine
 10
109.227
 20
97.85674499999998
 30
0.0
 11
109.745
 21
96.891245
 31
0.0
  0
LINE
  5
2DF
330
1E
100
AcDbEntity
  8
0
100
AcDbLine
 10
121.9368311683139
 20
97.72623614095721
 30
0.0
 11
122.09
 21
97.098545
 31
0.0
  0
LINE
  5
2E0
330
1E
100
AcDbEntity
  8
0
100
AcDbLine
 10
134.118
 20
97.38634499999999
 30
0.0
 11
134.118
 21
96.386345
 31
0.0
  0
LINE
  5
2E1
330
1E
100
AcDbEntity
  8
0
100
AcDbLine
 10
132.0501740280489
 20
97.31525514165809
 30
0.0
 11
132.2069999999999
 21
96.87534499999999
 31
0.0
  0
LINE
  5
2E2
330
1E
100
AcDbEntity
  8
0
100
AcDbLine
 10
131.714410296451
 20
97.2571008633453
 30
0.0
 11
132.2069999999999
 21
95.875345
 31
0.0
  0
LINE
  5
2E3
330
1E
100
AcDbEntity
  8
0
100
AcDbLine
 10
107.153430619778
 20
98.50202830985001
 30
0.0
 11
107.3099999999999
 21
97.38754499999998
 31
0.0
  0
LINE
  5
2E4
330
1E
100
AcDbEntity
  8
0
100
AcDbLine
 10
109.5538527731739
 20
98.25177772967258
 30
0.0
 11
109.745
 21
96.891245
 31
0.0
  0
LINE
  5
2E5
330
1E
100
AcDbEntity
  8
0
100
AcDbLine
 10
119.769514967171
 20
98.094474356065
 30
0.0
 11
119.889
 21
97.605845
 31
0.0
  0
LINE
  5
2E6
330
1E
100
AcDbEntity
  8
0
100
AcDbLine
 10
104.7009999999999
 20
100.537545
 30
0.0
 11
106.4189999999999
 21
101.246245
 31
0.0
  0
LINE
  5
2E7
330
1E
100
AcDbEntity
  8
0
100
AcDbLine
 10
109.1277177411309
 20
98.563617926646
 30
0.0
 11
109.227
 21
97.85674499999998
 31
0.0
  0
LINE
  5
2E8
330
1E
100
AcDbEntity
  8
0
100
AcDbLine
 10
121.725671653307
 20
98.5134881190388
 30
0.0
 11
121.8289999999999
 21
98.090045
 31
0.0
  0
LINE
  5
2E9
330
1E
100
AcDbEntity
  8
0
100
AcDbLine
 10
121.8289999999999
 20
98.090045
 30
0.0
 11
122.09
 21
97.098545
 31
0.0
  0
LINE
  5
2EA
330
1E
100
AcDbEntity
  8
0
100
AcDbLine
 10
133.944310020244
 20
97.87356011270652
 30
0.0
 11
134.118
 21
97.38634499999999
 31
0.0
  0
LINE
  5
2EB
330
1E
100
AcDbEntity
  8
0
100
AcDbLine
 10
93.8375020521089
 20
98.71703173533511
 30
0.0
 11
93.86140000000001
 21
98.12774499999999
 31
0.0
  0
LINE
  5
2EC
330
1E
100
AcDbEntity
  8
0
100
AcDbLine
 10
103.7009999999999
 20
101.4035449999999
 30
0.0
 11
104.7009999999999
 21
100.537545
 31
0.0
  0
LINE
  5
2ED
330
1E
100
AcDbEntity
  8
0
100
AcDbLine
 10
103.7009999999999
 20
101.4035449999999
 30
0.0
 11
105.4189999999999
 21
102.112245
 31
0.0
  0
LINE
  5
2EE
330
1E
100
AcDbEntity
  8
0
100
AcDbLine
 10
105.4189999999999
 20
102.112245
 30
0.0
 11
106.4189999999999
 21
101.246245
 31
0.0
  0
LINE
  5
2EF
330
1E
100
AcDbEntity
  8
0
100
AcDbLine
 10
117.334
 20
102.3733449999999
 30
0.0
 11
119.142
 21
103.104045
 31
0.0
  0
LINE
  5
2F0
330
1E
100
AcDbEntity
  8
0
100
AcDbLine
 10
83.96359999999999
 20
100.959745
 30
0.0
 11
84.7283
 21
101.9582449999999
 31
0.0
  0
LINE
  5
2F1
330
1E
100
AcDbEntity
  8
0
100
AcDbLine
 10
82.8805
 20
102.340745
 30
0.0
 11
84.7283
 21
101.9582449999999
 31
0.0
  0
LINE
  5
2F2
330
1E
100
AcDbEntity
  8
0
100
AcDbLine
 10
103.558729228013
 20
102.510585269916
 30
0.0
 11
103.7009999999999
 21
101.4035449999999
 31
0.0
  0
LINE
  5
2F3
330
1E
100
AcDbEntity
  8
0
100
AcDbLine
 10
105.3317664895589
 20
102.794435740375
 30
0.0
 11
105.4189999999999
 21
102.112245
 31
0.0
  0
LINE
  5
2F4
330
1E
100
AcDbEntity
  8
0
100
AcDbLine
 10
106.240214054164
 20
102.644401696233
 30
0.0
 11
106.4189999999999
 21
101.246245
 31
0.0
  0
LINE
  5
2F5
330
1E
100
AcDbEntity
  8
0
100
AcDbLine
 10
130.5169999999999
 20
103.2953449999999
 30
0.0
 11
132.363
 21
104.0538449999999
 31
0.0
  0
LINE
  5
2F6
330
1E
100
AcDbEntity
  8
0
100
AcDbLine
 10
116.569
 20
103.2973449999999
 30
0.0
 11
117.334
 21
102.3733449999999
 31
0.0
  0
LINE
  5
2F7
330
1E
100
AcDbEntity
  8
0
100
AcDbLine
 10
116.569
 20
103.2973449999999
 30
0.0
 11
118.377
 21
104.028045
 31
0.0
  0
LINE
  5
2F8
330
1E
100
AcDbEntity
  8
0
100
AcDbLine
 10
84.71790031299299
 20
102.48458125499
 30
0.0
 11
84.7283
 21
101.9582449999999
 31
0.0
  0
LINE
  5
2F9
330
1E
100
AcDbEntity
  8
0
100
AcDbLine
 10
74.99500000000001
 20
96.92524499999999
 30
0.0
 11
75.67499999999999
 21
96.881245
 31
0.0
  0
LINE
  5
2FA
330
1E
100
AcDbEntity
  8
0
100
AcDbLine
 10
74.3151
 20
96.881245
 30
0.0
 11
74.99500000000001
 21
96.92524499999999
 31
0.0
  0
LINE
  5
2FB
330
1E
100
AcDbEntity
  8
0
100
AcDbLine
 10
74.31499999999999
 20
94.40924499999999
 30
0.0
 11
74.99500000000001
 21
94.365245
 31
0.0
  0
LINE
  5
2FC
330
1E
100
AcDbEntity
  8
0
100
AcDbLine
 10
137.7
 20
90.88114499999999
 30
0.0
 11
139.3
 21
95.031145
 31
0.0
  0
LINE
  5
2FD
330
1E
100
AcDbEntity
  8
0
100
AcDbLine
 10
140.0
 20
100.1474449999999
 30
0.0
 11
140.0
 21
99.28074500000001
 31
0.0
  0
LINE
  5
2FE
330
1E
100
AcDbEntity
  8
0
100
AcDbLine
 10
139.3
 20
95.031145
 30
0.0
 11
140.0
 21
99.28074500000001
 31
0.0
  0
LINE
  5
2FF
330
1E
100
AcDbEntity
  8
0
100
AcDbLine
 10
118.997553473138
 20
103.7184749105759
 30
0.0
 11
119.142
 21
103.104045
 31
0.0
  0
LINE
  5
300
330
1E
100
AcDbEntity
  8
0
100
AcDbLine
 10
118.377
 20
104.028045
 30
0.0
 11
119.142
 21
103.104045
 31
0.0
  0
LINE
  5
301
330
1E
100
AcDbEntity
  8
0
100
AcDbLine
 10
129.9989999999999
 20
104.2613449999999
 30
0.0
 11
130.5169999999999
 21
103.2953449999999
 31
0.0
  0
LINE
  5
302
330
1E
100
AcDbEntity
  8
0
100
AcDbLine
 10
129.9989999999999
 20
104.2613449999999
 30
0.0
 11
131.845
 21
105.0198449999999
 31
0.0
  0
LINE
  5
303
330
1E
100
AcDbEntity
  8
0
100
AcDbLine
 10
118.2961183749219
 20
104.3719834683249
 30
0.0
 11
118.377
 21
104.028045
 31
0.0
  0
LINE
  5
304
330
1E
100
AcDbEntity
  8
0
100
AcDbLine
 10
99.54920000000001
 20
104.1085449999999
 30
0.0
 11
100.9529999999999
 21
105.0227449999999
 31
0.0
  0
LINE
  5
305
330
1E
100
AcDbEntity
  8
0
100
AcDbLine
 10
82.85406978378979
 20
103.6824157952489
 30
0.0
 11
82.8805
 21
102.340745
 31
0.0
  0
LINE
  5
306
330
1E
100
AcDbEntity
  8
0
100
AcDbLine
 10
139.3
 20
103.5307449999999
 30
0.0
 11
140.0
 21
99.28074500000001
 31
0.0
  0
LINE
  5
307
330
1E
100
AcDbEntity
  8
0
100
AcDbLine
 10
140.0
 20
99.28074500000001
 30
0.0
 11
140.0
 21
100.1474449999999
 31
0.0
  0
LINE
  5
308
330
1E
100
AcDbEntity
  8
0
100
AcDbLine
 10
57.2751
 20
106.8910449999999
 30
0.0
 11
59.0071
 21
107.3910449999999
 31
0.0
  0
LINE
  5
309
330
1E
100
AcDbEntity
  8
0
100
AcDbLine
 10
59.0071
 20
107.3910449999999
 30
0.0
 11
59.1020688930066
 21
108.638401087381
 31
0.0
  0
LINE
  5
30A
330
1E
100
AcDbEntity
  8
0
100
AcDbLine
 10
58.0147
 20
108.4632449999999
 30
0.0
 11
58.0684229873248
 21
109.169037308234
 31
0.0
  0
LINE
  5
30B
330
1E
100
AcDbEntity
  8
0
100
AcDbLine
 10
58.0147
 20
108.4632449999999
 30
0.0
 11
59.0071
 21
107.3910449999999
 31
0.0
  0
LINE
  5
30C
330
1E
100
AcDbEntity
  8
0
100
AcDbLine
 10
65.3073
 20
108.696045
 30
0.0
 11
67.2391
 21
108.9550449999999
 31
0.0
  0
LINE
  5
30D
330
1E
100
AcDbEntity
  8
0
100
AcDbLine
 10
67.2391
 20
108.9550449999999
 30
0.0
 11
67.2932716981409
 21
110.318280894253
 31
0.0
  0
LINE
  5
30E
330
1E
100
AcDbEntity
  8
0
100
AcDbLine
 10
66.72539999999999
 20
110.1265449999999
 30
0.0
 11
66.7507205460428
 21
110.764543010527
 31
0.0
  0
LINE
  5
30F
330
1E
100
AcDbEntity
  8
0
100
AcDbLine
 10
66.72539999999999
 20
110.1265449999999
 30
0.0
 11
67.2391
 21
108.9550449999999
 31
0.0
  0
LINE
  5
310
330
1E
100
AcDbEntity
  8
0
100
AcDbLine
 10
64.7935
 20
109.8675449999999
 30
0.0
 11
64.8571
 21
111.467545
 31
0.0
  0
LINE
  5
311
330
1E
100
AcDbEntity
  8
0
100
AcDbLine
 10
64.7935
 20
109.8675449999999
 30
0.0
 11
66.72539999999999
 21
110.1265449999999
 31
0.0
  0
LINE
  5
312
330
1E
100
AcDbEntity
  8
0
100
AcDbLine
 10
64.7935
 20
109.8675449999999
 30
0.0
 11
65.3073
 21
108.696045
 31
0.0
  0
LINE
  5
313
330
1E
100
AcDbEntity
  8
0
100
AcDbLine
 10
74.0
 20
110.9955449999999
 30
0.0
 11
74.0
 21
109.400045
 31
0.0
  0
LINE
  5
314
330
1E
100
AcDbEntity
  8
0
100
AcDbLine
 10
74.0
 20
109.400045
 30
0.0
 11
74.0
 21
110.6055449999999
 31
0.0
  0
LINE
  5
315
330
1E
100
AcDbEntity
  8
0
100
AcDbLine
 10
74.0
 20
109.400045
 30
0.0
 11
74.0
 21
110.9955449999999
 31
0.0
  0
LINE
  5
316
330
1E
100
AcDbEntity
  8
0
100
AcDbLine
 10
74.0
 20
109.400045
 30
0.0
 11
76.0
 21
109.400045
 31
0.0
  0
LINE
  5
317
330
1E
100
AcDbEntity
  8
0
100
AcDbLine
 10
98.13500000000001
 20
104.815545
 30
0.0
 11
99.5385
 21
105.7302449999999
 31
0.0
  0
LINE
  5
318
330
1E
100
AcDbEntity
  8
0
100
AcDbLine
 10
98.13500000000001
 20
104.815545
 30
0.0
 11
99.54920000000001
 21
104.1085449999999
 31
0.0
  0
LINE
  5
319
330
1E
100
AcDbEntity
  8
0
100
AcDbLine
 10
98.01210990026859
 20
105.9704430932739
 30
0.0
 11
98.13500000000001
 21
104.815545
 31
0.0
  0
LINE
  5
31A
330
1E
100
AcDbEntity
  8
0
100
AcDbLine
 10
129.8788835984709
 20
104.5939831400229
 30
0.0
 11
129.9989999999999
 21
104.2613449999999
 31
0.0
  0
LINE
  5
31B
330
1E
100
AcDbEntity
  8
0
100
AcDbLine
 10
131.6829281557299
 20
105.4686702739999
 30
0.0
 11
131.845
 21
105.0198449999999
 31
0.0
  0
LINE
  5
31C
330
1E
100
AcDbEntity
  8
0
100
AcDbLine
 10
131.9298018580069
 20
105.2534998546249
 30
0.0
 11
132.363
 21
104.0538449999999
 31
0.0
  0
LINE
  5
31D
330
1E
100
AcDbEntity
  8
0
100
AcDbLine
 10
131.845
 20
105.0198449999999
 30
0.0
 11
132.363
 21
104.0538449999999
 31
0.0
  0
LINE
  5
31E
330
1E
100
AcDbEntity
  8
0
100
AcDbLine
 10
116.260771513353
 20
104.608127195846
 30
0.0
 11
116.569
 21
103.2973449999999
 31
0.0
  0
LINE
  5
31F
330
1E
100
AcDbEntity
  8
0
100
AcDbLine
 10
99.5385
 20
105.7302449999999
 30
0.0
 11
100.9529999999999
 21
105.0227449999999
 31
0.0
  0
LINE
  5
320
330
1E
100
AcDbEntity
  8
0
100
AcDbLine
 10
84.69269999999999
 20
108.696045
 30
0.0
 11
85.20650000000001
 21
109.8675449999999
 31
0.0
  0
LINE
  5
321
330
1E
100
AcDbEntity
  8
0
100
AcDbLine
 10
82.76090000000001
 20
108.9550449999999
 30
0.0
 11
83.2746
 21
110.1265449999999
 31
0.0
  0
LINE
  5
322
330
1E
100
AcDbEntity
  8
0
100
AcDbLine
 10
82.76090000000001
 20
108.9550449999999
 30
0.0
 11
84.69269999999999
 21
108.696045
 31
0.0
  0
LINE
  5
323
330
1E
100
AcDbEntity
  8
0
100
AcDbLine
 10
90.89793110699341
 20
108.638401087381
 30
0.0
 11
90.99290000000001
 21
107.3910449999999
 31
0.0
  0
LINE
  5
324
330
1E
100
AcDbEntity
  8
0
100
AcDbLine
 10
90.99290000000001
 20
107.3910449999999
 30
0.0
 11
91.98529999999999
 21
108.4632449999999
 31
0.0
  0
LINE
  5
325
330
1E
100
AcDbEntity
  8
0
100
AcDbLine
 10
90.99290000000001
 20
107.3910449999999
 30
0.0
 11
92.72490000000001
 21
106.8910449999999
 31
0.0
  0
LINE
  5
326
330
1E
100
AcDbEntity
  8
0
100
AcDbLine
 10
92.72490000000001
 20
106.8910449999999
 30
0.0
 11
93.7174
 21
107.963245
 31
0.0
  0
LINE
  5
327
330
1E
100
AcDbEntity
  8
0
100
AcDbLine
 10
91.98529999999999
 20
108.4632449999999
 30
0.0
 11
93.7174
 21
107.963245
 31
0.0
  0
LINE
  5
328
330
1E
100
AcDbEntity
  8
0
100
AcDbLine
 10
82.70672830185908
 20
110.318280894253
 30
0.0
 11
82.76090000000001
 21
108.9550449999999
 31
0.0
  0
LINE
  5
329
330
1E
100
AcDbEntity
  8
0
100
AcDbLine
 10
83.2746
 20
110.1265449999999
 30
0.0
 11
85.20650000000001
 21
109.8675449999999
 31
0.0
  0
LINE
  5
32A
330
1E
100
AcDbEntity
  8
0
100
AcDbLine
 10
93.5946
 20
109.5761449999999
 30
0.0
 11
93.7174
 21
107.963245
 31
0.0
  0
LINE
  5
32B
330
1E
100
AcDbEntity
  8
0
100
AcDbLine
 10
91.93157701267521
 20
109.169037308234
 30
0.0
 11
91.98529999999999
 21
108.4632449999999
 31
0.0
  0
LINE
  5
32C
330
1E
100
AcDbEntity
  8
0
100
AcDbLine
 10
111.633
 20
107.571345
 30
0.0
 11
113.186
 21
108.523545
 31
0.0
  0
LINE
  5
32D
330
1E
100
AcDbEntity
  8
0
100
AcDbLine
 10
110.416
 20
108.3648449999999
 30
0.0
 11
111.968
 21
109.3165449999999
 31
0.0
  0
LINE
  5
32E
330
1E
100
AcDbEntity
  8
0
100
AcDbLine
 10
110.416
 20
108.3648449999999
 30
0.0
 11
111.633
 21
107.571345
 31
0.0
  0
LINE
  5
32F
330
1E
100
AcDbEntity
  8
0
100
AcDbLine
 10
110.178201190848
 20
109.50635200528
 30
0.0
 11
110.416
 21
108.3648449999999
 31
0.0
  0
LINE
  5
330
330
1E
100
AcDbEntity
  8
0
100
AcDbLine
 10
125.0429999999999
 20
110.244545
 30
0.0
 11
126.6979999999999
 21
111.2325449999999
 31
0.0
  0
LINE
  5
331
330
1E
100
AcDbEntity
  8
0
100
AcDbLine
 10
111.968
 20
109.3165449999999
 30
0.0
 11
113.186
 21
108.523545
 31
0.0
  0
LINE
  5
332
330
1E
100
AcDbEntity
  8
0
100
AcDbLine
 10
113.059883813376
 20
109.130527505559
 30
0.0
 11
113.186
 21
108.523545
 31
0.0
  0
LINE
  5
333
330
1E
100
AcDbEntity
  8
0
100
AcDbLine
 10
100.782541865597
 20
106.6219166011419
 30
0.0
 11
100.9529999999999
 21
105.0227449999999
 31
0.0
  0
LINE
  5
334
330
1E
100
AcDbEntity
  8
0
100
AcDbLine
 10
99.46477861272709
 20
106.422852552624
 30
0.0
 11
99.5385
 21
105.7302449999999
 31
0.0
  0
LINE
  5
335
330
1E
100
AcDbEntity
  8
0
100
AcDbLine
 10
76.0
 20
109.400045
 30
0.0
 11
76.0
 21
110.6055449999999
 31
0.0
  0
LINE
  5
336
330
1E
100
AcDbEntity
  8
0
100
AcDbLine
 10
124.0429999999999
 20
111.1105449999999
 30
0.0
 11
125.0429999999999
 21
110.244545
 31
0.0
  0
LINE
  5
337
330
1E
100
AcDbEntity
  8
0
100
AcDbLine
 10
124.0429999999999
 20
111.1105449999999
 30
0.0
 11
125.6979999999999
 21
112.098545
 31
0.0
  0
LINE
  5
338
330
1E
100
AcDbEntity
  8
0
100
AcDbLine
 10
111.642
 20
110.8865449999999
 30
0.0
 11
111.968
 21
109.3165449999999
 31
0.0
  0
LINE
  5
339
330
1E
100
AcDbEntity
  8
0
100
AcDbLine
 10
85.1429
 20
111.467545
 30
0.0
 11
85.20650000000001
 21
109.8675449999999
 31
0.0
  0
LINE
  5
33A
330
1E
100
AcDbEntity
  8
0
100
AcDbLine
 10
83.24927945395719
 20
110.764543010527
 30
0.0
 11
83.2746
 21
110.1265449999999
 31
0.0
  0
LINE
  5
33B
330
1E
100
AcDbEntity
  8
0
100
AcDbLine
 10
76.0
 20
110.6055449999999
 30
0.0
 11
76.0
 21
112.2015449999999
 31
0.0
  0
LINE
  5
33C
330
1E
100
AcDbEntity
  8
0
100
AcDbLine
 10
76.0
 20
110.6055449999999
 30
0.0
 11
76.0
 21
109.400045
 31
0.0
  0
LINE
  5
33D
330
1E
100
AcDbEntity
  8
0
100
AcDbLine
 10
74.0
 20
110.6055449999999
 30
0.0
 11
76.0
 21
110.6055449999999
 31
0.0
  0
LINE
  5
33E
330
1E
100
AcDbEntity
  8
0
100
AcDbLine
 10
74.0
 20
110.6055449999999
 30
0.0
 11
74.0
 21
112.2015449999999
 31
0.0
  0
LINE
  5
33F
330
1E
100
AcDbEntity
  8
0
100
AcDbLine
 10
74.0
 20
110.6055449999999
 30
0.0
 11
74.0
 21
109.400045
 31
0.0
  0
LINE
  5
340
330
1E
100
AcDbEntity
  8
0
100
AcDbLine
 10
125.6979999999999
 20
112.098545
 30
0.0
 11
126.6979999999999
 21
111.2325449999999
 31
0.0
  0
LINE
  5
341
330
1E
100
AcDbEntity
  8
0
100
AcDbLine
 10
103.436
 20
111.854545
 30
0.0
 11
104.627
 21
112.986545
 31
0.0
  0
LINE
  5
342
330
1E
100
AcDbEntity
  8
0
100
AcDbLine
 10
125.54904215652
 20
112.538130964712
 30
0.0
 11
125.6979999999999
 21
112.098545
 31
0.0
  0
LINE
  5
343
330
1E
100
AcDbEntity
  8
0
100
AcDbLine
 10
126.2808807081089
 20
112.4634958653059
 30
0.0
 11
126.6979999999999
 21
111.2325449999999
 31
0.0
  0
LINE
  5
344
330
1E
100
AcDbEntity
  8
0
100
AcDbLine
 10
101.8489999999999
 20
112.4635449999999
 30
0.0
 11
103.041
 21
113.5955449999999
 31
0.0
  0
LINE
  5
345
330
1E
100
AcDbEntity
  8
0
100
AcDbLine
 10
101.8489999999999
 20
112.4635449999999
 30
0.0
 11
103.436
 21
111.854545
 31
0.0
  0
LINE
  5
346
330
1E
100
AcDbEntity
  8
0
100
AcDbLine
 10
76.0
 20
112.2015449999999
 30
0.0
 11
76.0
 21
110.6055449999999
 31
0.0
  0
LINE
  5
347
330
1E
100
AcDbEntity
  8
0
100
AcDbLine
 10
74.0
 20
112.2015449999999
 30
0.0
 11
74.0
 21
110.6055449999999
 31
0.0
  0
LINE
  5
348
330
1E
100
AcDbEntity
  8
0
100
AcDbLine
 10
134.8999999999999
 20
111.681545
 30
0.0
 11
137.7
 21
107.681545
 31
0.0
  0
LINE
  5
349
330
1E
100
AcDbEntity
  8
0
100
AcDbLine
 10
137.7
 20
107.681545
 30
0.0
 11
139.3
 21
103.5307449999999
 31
0.0
  0
LINE
  5
34A
330
1E
100
AcDbEntity
  8
0
100
AcDbLine
 10
101.676170006911
 20
113.5226471976499
 30
0.0
 11
101.8489999999999
 21
112.4635449999999
 31
0.0
  0
LINE
  5
34B
330
1E
100
AcDbEntity
  8
0
100
AcDbLine
 10
123.546491014006
 20
112.5748092698489
 30
0.0
 11
124.0429999999999
 21
111.1105449999999
 31
0.0
  0
LINE
  5
34C
330
1E
100
AcDbEntity
  8
0
100
AcDbLine
 10
103.041
 20
113.5955449999999
 30
0.0
 11
104.627
 21
112.986545
 31
0.0
  0
LINE
  5
34D
330
1E
100
AcDbEntity
  8
0
100
AcDbLine
 10
134.8999999999999
 20
112.5475449999999
 30
0.0
 11
137.7
 21
108.547545
 31
0.0
  0
LINE
  5
34E
330
1E
100
AcDbEntity
  8
0
100
AcDbLine
 10
137.7
 20
108.547545
 30
0.0
 11
139.3
 21
104.3974449999999
 31
0.0
  0
LINE
  5
34F
330
1E
100
AcDbEntity
  8
0
100
AcDbLine
 10
139.3
 20
104.3974449999999
 30
0.0
 11
140.0
 21
100.1474449999999
 31
0.0
  0
LINE
  5
350
330
1E
100
AcDbEntity
  8
0
100
AcDbLine
 10
141.5
 20
90.55404499999999
 30
0.0
 11
144.5
 21
95.004045
 31
0.0
  0
LINE
  5
351
330
1E
100
AcDbEntity
  8
0
100
AcDbLine
 10
141.6999999999999
 20
90.50404499999999
 30
0.0
 11
143.4
 21
92.40574499999999
 31
0.0
  0
LINE
  5
352
330
1E
100
AcDbEntity
  8
0
100
AcDbLine
 10
141.6999999999999
 20
90.50404499999999
 30
0.0
 11
144.6999999999999
 21
95.004045
 31
0.0
  0
LINE
  5
353
330
1E
100
AcDbEntity
  8
0
100
AcDbLine
 10
144.5
 20
95.004045
 30
0.0
 11
146.4
 21
99.603745
 31
0.0
  0
LINE
  5
354
330
1E
100
AcDbEntity
  8
0
100
AcDbLine
 10
146.4
 20
99.603745
 30
0.0
 11
147.0999999999999
 21
104.3037449999999
 31
0.0
  0
LINE
  5
355
330
1E
100
AcDbEntity
  8
0
100
AcDbLine
 10
144.6999999999999
 20
95.004045
 30
0.0
 11
146.6
 21
99.603745
 31
0.0
  0
LINE
  5
356
330
1E
100
AcDbEntity
  8
0
100
AcDbLine
 10
143.4
 20
92.40574499999999
 30
0.0
 11
146.5
 21
97.005745
 31
0.0
  0
LINE
  5
357
330
1E
100
AcDbEntity
  8
0
100
AcDbLine
 10
144.5
 20
113.603545
 30
0.0
 11
146.4
 21
109.003745
 31
0.0
  0
LINE
  5
358
330
1E
100
AcDbEntity
  8
0
100
AcDbLine
 10
146.6
 20
99.603745
 30
0.0
 11
147.3
 21
104.3037449999999
 31
0.0
  0
LINE
  5
359
330
1E
100
AcDbEntity
  8
0
100
AcDbLine
 10
146.5
 20
97.005745
 30
0.0
 11
148.5
 21
101.755645
 31
0.0
  0
LINE
  5
35A
330
1E
100
AcDbEntity
  8
0
100
AcDbLine
 10
146.4
 20
109.003745
 30
0.0
 11
147.0999999999999
 21
104.3037449999999
 31
0.0
  0
LINE
  5
35B
330
1E
100
AcDbEntity
  8
0
100
AcDbLine
 10
56.6993
 20
114.931545
 30
0.0
 11
58.5471
 21
115.3135449999999
 31
0.0
  0
LINE
  5
35C
330
1E
100
AcDbEntity
  8
0
100
AcDbLine
 10
58.5471
 20
115.3135449999999
 30
0.0
 11
58.6515569172732
 21
116.312323020942
 31
0.0
  0
LINE
  5
35D
330
1E
100
AcDbEntity
  8
0
100
AcDbLine
 10
57.7981
 20
116.5735449999999
 30
0.0
 11
57.95539999999999
 21
118.0785449999999
 31
0.0
  0
LINE
  5
35E
330
1E
100
AcDbEntity
  8
0
100
AcDbLine
 10
57.7981
 20
116.5735449999999
 30
0.0
 11
58.5471
 21
115.3135449999999
 31
0.0
  0
LINE
  5
35F
330
1E
100
AcDbEntity
  8
0
100
AcDbLine
 10
68.08159999999999
 20
116.5915449999999
 30
0.0
 11
70.0645
 21
116.721545
 31
0.0
  0
LINE
  5
360
330
1E
100
AcDbEntity
  8
0
100
AcDbLine
 10
70.0645
 20
116.721545
 30
0.0
 11
70.1003499799339
 21
117.716932711014
 31
0.0
  0
LINE
  5
361
330
1E
100
AcDbEntity
  8
0
100
AcDbLine
 10
69.8091
 20
118.047545
 30
0.0
 11
69.819225845712
 21
118.3294062276549
 31
0.0
  0
LINE
  5
362
330
1E
100
AcDbEntity
  8
0
100
AcDbLine
 10
69.8091
 20
118.047545
 30
0.0
 11
70.0645
 21
116.721545
 31
0.0
  0
LINE
  5
363
330
1E
100
AcDbEntity
  8
0
100
AcDbLine
 10
67.8262
 20
117.917545
 30
0.0
 11
67.8799
 21
119.408545
 31
0.0
  0
LINE
  5
364
330
1E
100
AcDbEntity
  8
0
100
AcDbLine
 10
67.8262
 20
117.917545
 30
0.0
 11
69.8091
 21
118.047545
 31
0.0
  0
LINE
  5
365
330
1E
100
AcDbEntity
  8
0
100
AcDbLine
 10
67.8262
 20
117.917545
 30
0.0
 11
68.08159999999999
 21
116.5915449999999
 31
0.0
  0
LINE
  5
366
330
1E
100
AcDbEntity
  8
0
100
AcDbLine
 10
79.89965002006609
 20
117.716932711014
 30
0.0
 11
79.9355
 21
116.721545
 31
0.0
  0
LINE
  5
367
330
1E
100
AcDbEntity
  8
0
100
AcDbLine
 10
79.9355
 20
116.721545
 30
0.0
 11
80.1909
 21
118.047545
 31
0.0
  0
LINE
  5
368
330
1E
100
AcDbEntity
  8
0
100
AcDbLine
 10
79.9355
 20
116.721545
 30
0.0
 11
81.9184
 21
116.5915449999999
 31
0.0
  0
LINE
  5
369
330
1E
100
AcDbEntity
  8
0
100
AcDbLine
 10
91.34844308272681
 20
116.312323020942
 30
0.0
 11
91.45290000000001
 21
115.3135449999999
 31
0.0
  0
LINE
  5
36A
330
1E
100
AcDbEntity
  8
0
100
AcDbLine
 10
91.45290000000001
 20
115.3135449999999
 30
0.0
 11
92.2019
 21
116.5735449999999
 31
0.0
  0
LINE
  5
36B
330
1E
100
AcDbEntity
  8
0
100
AcDbLine
 10
91.45290000000001
 20
115.3135449999999
 30
0.0
 11
93.3007
 21
114.931545
 31
0.0
  0
LINE
  5
36C
330
1E
100
AcDbEntity
  8
0
100
AcDbLine
 10
104.377
 20
114.5185449999999
 30
0.0
 11
104.627
 21
112.986545
 31
0.0
  0
LINE
  5
36D
330
1E
100
AcDbEntity
  8
0
100
AcDbLine
 10
116.1589999999999
 20
116.247545
 30
0.0
 11
117.51
 21
117.434545
 31
0.0
  0
LINE
  5
36E
330
1E
100
AcDbEntity
  8
0
100
AcDbLine
 10
114.744
 20
116.9545449999999
 30
0.0
 11
116.0959999999999
 21
118.141545
 31
0.0
  0
LINE
  5
36F
330
1E
100
AcDbEntity
  8
0
100
AcDbLine
 10
114.744
 20
116.9545449999999
 30
0.0
 11
116.1589999999999
 21
116.247545
 31
0.0
  0
LINE
  5
370
330
1E
100
AcDbEntity
  8
0
100
AcDbLine
 10
102.79
 20
115.1275449999999
 30
0.0
 11
103.041
 21
113.5955449999999
 31
0.0
  0
LINE
  5
371
330
1E
100
AcDbEntity
  8
0
100
AcDbLine
 10
93.3007
 20
114.931545
 30
0.0
 11
94.0497
 21
116.1915449999999
 31
0.0
  0
LINE
  5
372
330
1E
100
AcDbEntity
  8
0
100
AcDbLine
 10
92.2019
 20
116.5735449999999
 30
0.0
 11
94.0497
 21
116.1915449999999
 31
0.0
  0
LINE
  5
373
330
1E
100
AcDbEntity
  8
0
100
AcDbLine
 10
93.89230000000001
 20
117.6965449999999
 30
0.0
 11
94.0497
 21
116.1915449999999
 31
0.0
  0
LINE
  5
374
330
1E
100
AcDbEntity
  8
0
100
AcDbLine
 10
81.9184
 20
116.5915449999999
 30
0.0
 11
82.1738
 21
117.917545
 31
0.0
  0
LINE
  5
375
330
1E
100
AcDbEntity
  8
0
100
AcDbLine
 10
114.327
 20
118.4005449999999
 30
0.0
 11
114.744
 21
116.9545449999999
 31
0.0
  0
LINE
  5
376
330
1E
100
AcDbEntity
  8
0
100
AcDbLine
 10
116.0959999999999
 20
118.141545
 30
0.0
 11
117.51
 21
117.434545
 31
0.0
  0
LINE
  5
377
330
1E
100
AcDbEntity
  8
0
100
AcDbLine
 10
117.2026051287039
 20
118.5004754170109
 30
0.0
 11
117.51
 21
117.434545
 31
0.0
  0
LINE
  5
378
330
1E
100
AcDbEntity
  8
0
100
AcDbLine
 10
92.0446
 20
118.0785449999999
 30
0.0
 11
92.2019
 21
116.5735449999999
 31
0.0
  0
LINE
  5
379
330
1E
100
AcDbEntity
  8
0
100
AcDbLine
 10
80.1909
 20
118.047545
 30
0.0
 11
82.1738
 21
117.917545
 31
0.0
  0
LINE
  5
37A
330
1E
100
AcDbEntity
  8
0
100
AcDbLine
 10
80.180774154288
 20
118.3294062276549
 30
0.0
 11
80.1909
 21
118.047545
 31
0.0
  0
LINE
  5
37B
330
1E
100
AcDbEntity
  8
0
100
AcDbLine
 10
115.8030933901569
 20
119.154805664672
 30
0.0
 11
116.0959999999999
 21
118.141545
 31
0.0
  0
LINE
  5
37C
330
1E
100
AcDbEntity
  8
0
100
AcDbLine
 10
82.12009999999999
 20
119.408545
 30
0.0
 11
82.1738
 21
117.917545
 31
0.0
  0
LINE
  5
37D
330
1E
100
AcDbEntity
  8
0
100
AcDbLine
 10
126.5
 20
119.0305449999999
 30
0.0
 11
131.3
 21
115.480545
 31
0.0
  0
LINE
  5
37E
330
1E
100
AcDbEntity
  8
0
100
AcDbLine
 10
131.3
 20
115.480545
 30
0.0
 11
134.8999999999999
 21
111.681545
 31
0.0
  0
LINE
  5
37F
330
1E
100
AcDbEntity
  8
0
100
AcDbLine
 10
104.4699999999999
 20
120.8965449999999
 30
0.0
 11
105.4249999999999
 21
122.235545
 31
0.0
  0
LINE
  5
380
330
1E
100
AcDbEntity
  8
0
100
AcDbLine
 10
102.7379999999999
 20
121.3965449999999
 30
0.0
 11
103.6929999999999
 21
122.735545
 31
0.0
  0
LINE
  5
381
330
1E
100
AcDbEntity
  8
0
100
AcDbLine
 10
102.7379999999999
 20
121.3965449999999
 30
0.0
 11
104.4699999999999
 21
120.8965449999999
 31
0.0
  0
LINE
  5
382
330
1E
100
AcDbEntity
  8
0
100
AcDbLine
 10
120.9
 20
122.2305449999999
 30
0.0
 11
126.5
 21
119.0305449999999
 31
0.0
  0
LINE
  5
383
330
1E
100
AcDbEntity
  8
0
100
AcDbLine
 10
126.5
 20
119.897545
 30
0.0
 11
131.3
 21
116.3475449999999
 31
0.0
  0
LINE
  5
384
330
1E
100
AcDbEntity
  8
0
100
AcDbLine
 10
131.3
 20
116.3475449999999
 30
0.0
 11
134.8999999999999
 21
112.5475449999999
 31
0.0
  0
LINE
  5
385
330
1E
100
AcDbEntity
  8
0
100
AcDbLine
 10
137.4
 20
122.2535449999999
 30
0.0
 11
141.5
 21
118.053545
 31
0.0
  0
LINE
  5
386
330
1E
100
AcDbEntity
  8
0
100
AcDbLine
 10
141.5
 20
118.053545
 30
0.0
 11
144.5
 21
113.603545
 31
0.0
  0
LINE
  5
387
330
1E
100
AcDbEntity
  8
0
100
AcDbLine
 10
59.2278
 20
123.8745449999999
 30
0.0
 11
61.1596
 21
124.133545
 31
0.0
  0
LINE
  5
388
330
1E
100
AcDbEntity
  8
0
100
AcDbLine
 10
61.1596
 20
124.133545
 30
0.0
 11
61.3124
 21
125.5035449999999
 31
0.0
  0
LINE
  5
389
330
1E
100
AcDbEntity
  8
0
100
AcDbLine
 10
76.0
 20
124.978545
 30
0.0
 11
76.0
 21
126.445545
 31
0.0
  0
LINE
  5
38A
330
1E
100
AcDbEntity
  8
0
100
AcDbLine
 10
60.665
 20
125.567545
 30
0.0
 11
60.7665226562045
 21
126.477793946336
 31
0.0
  0
LINE
  5
38B
330
1E
100
AcDbEntity
  8
0
100
AcDbLine
 10
60.665
 20
125.567545
 30
0.0
 11
61.1596
 21
124.133545
 31
0.0
  0
LINE
  5
38C
330
1E
100
AcDbEntity
  8
0
100
AcDbLine
 10
58.73319999999999
 20
125.3085449999999
 30
0.0
 11
58.83551707855279
 21
126.2265174794849
 31
0.0
  0
LINE
  5
38D
330
1E
100
AcDbEntity
  8
0
100
AcDbLine
 10
58.73319999999999
 20
125.3085449999999
 30
0.0
 11
60.665
 21
125.567545
 31
0.0
  0
LINE
  5
38E
330
1E
100
AcDbEntity
  8
0
100
AcDbLine
 10
58.73319999999999
 20
125.3085449999999
 30
0.0
 11
59.2278
 21
123.8745449999999
 31
0.0
  0
LINE
  5
38F
330
1E
100
AcDbEntity
  8
0
100
AcDbLine
 10
74.0
 20
126.3385449999999
 30
0.0
 11
74.0
 21
124.978545
 31
0.0
  0
LINE
  5
390
330
1E
100
AcDbEntity
  8
0
100
AcDbLine
 10
74.0
 20
124.978545
 30
0.0
 11
74.0
 21
126.445545
 31
0.0
  0
LINE
  5
391
330
1E
100
AcDbEntity
  8
0
100
AcDbLine
 10
74.0
 20
124.978545
 30
0.0
 11
74.0
 21
126.3385449999999
 31
0.0
  0
LINE
  5
392
330
1E
100
AcDbEntity
  8
0
100
AcDbLine
 10
74.0
 20
124.978545
 30
0.0
 11
76.0
 21
124.978545
 31
0.0
  0
LINE
  5
393
330
1E
100
AcDbEntity
  8
0
100
AcDbLine
 10
88.68759999999999
 20
125.5035449999999
 30
0.0
 11
88.8404
 21
124.133545
 31
0.0
  0
LINE
  5
394
330
1E
100
AcDbEntity
  8
0
100
AcDbLine
 10
88.8404
 20
124.133545
 30
0.0
 11
89.335
 21
125.567545
 31
0.0
  0
LINE
  5
395
330
1E
100
AcDbEntity
  8
0
100
AcDbLine
 10
88.8404
 20
124.133545
 30
0.0
 11
90.7722
 21
123.8745449999999
 31
0.0
  0
LINE
  5
396
330
1E
100
AcDbEntity
  8
0
100
AcDbLine
 10
102.442
 20
122.7965449999999
 30
0.0
 11
102.7379999999999
 21
121.3965449999999
 31
0.0
  0
LINE
  5
397
330
1E
100
AcDbEntity
  8
0
100
AcDbLine
 10
103.6929999999999
 20
122.735545
 30
0.0
 11
105.4249999999999
 21
122.235545
 31
0.0
  0
LINE
  5
398
330
1E
100
AcDbEntity
  8
0
100
AcDbLine
 10
105.2188720468939
 20
123.213080614897
 30
0.0
 11
105.4249999999999
 21
122.235545
 31
0.0
  0
LINE
  5
399
330
1E
100
AcDbEntity
  8
0
100
AcDbLine
 10
103.490494536475
 20
123.69590141855
 30
0.0
 11
103.6929999999999
 21
122.735545
 31
0.0
  0
LINE
  5
39A
330
1E
100
AcDbEntity
  8
0
100
AcDbLine
 10
90.7722
 20
123.8745449999999
 30
0.0
 11
91.2668
 21
125.3085449999999
 31
0.0
  0
LINE
  5
39B
330
1E
100
AcDbEntity
  8
0
100
AcDbLine
 10
89.335
 20
125.567545
 30
0.0
 11
91.2668
 21
125.3085449999999
 31
0.0
  0
LINE
  5
39C
330
1E
100
AcDbEntity
  8
0
100
AcDbLine
 10
91.1644829214472
 20
126.2265174794849
 30
0.0
 11
91.2668
 21
125.3085449999999
 31
0.0
  0
LINE
  5
39D
330
1E
100
AcDbEntity
  8
0
100
AcDbLine
 10
76.0
 20
126.445545
 30
0.0
 11
76.0
 21
127.383583961039
 31
0.0
  0
LINE
  5
39E
330
1E
100
AcDbEntity
  8
0
100
AcDbLine
 10
76.0
 20
126.445545
 30
0.0
 11
76.0
 21
124.978545
 31
0.0
  0
LINE
  5
39F
330
1E
100
AcDbEntity
  8
0
100
AcDbLine
 10
89.23347734379552
 20
126.477793946336
 30
0.0
 11
89.335
 21
125.567545
 31
0.0
  0
LINE
  5
3A0
330
1E
100
AcDbEntity
  8
0
100
AcDbLine
 10
76.0
 20
127.383583961039
 30
0.0
 11
76.0
 21
126.445545
 31
0.0
  0
LINE
  5
3A1
330
1E
100
AcDbEntity
  8
0
100
AcDbLine
 10
74.0
 20
127.383583961039
 30
0.0
 11
74.0
 21
126.445545
 31
0.0
  0
LINE
  5
3A2
330
1E
100
AcDbEntity
  8
0
100
AcDbLine
 10
74.0
 20
126.445545
 30
0.0
 11
76.0
 21
126.445545
 31
0.0
  0
LINE
  5
3A3
330
1E
100
AcDbEntity
  8
0
100
AcDbLine
 10
74.0
 20
126.445545
 30
0.0
 11
74.0
 21
127.383583961039
 31
0.0
  0
LINE
  5
3A4
330
1E
100
AcDbEntity
  8
0
100
AcDbLine
 10
74.0
 20
126.445545
 30
0.0
 11
74.0
 21
124.978545
 31
0.0
  0
LINE
  5
3A5
330
1E
100
AcDbEntity
  8
0
100
AcDbLine
 10
107.4
 20
127.4305449999999
 30
0.0
 11
114.5
 21
125.0305449999999
 31
0.0
  0
LINE
  5
3A6
330
1E
100
AcDbEntity
  8
0
100
AcDbLine
 10
99.8
 20
129.230545
 30
0.0
 11
107.4
 21
127.4305449999999
 31
0.0
  0
LINE
  5
3A7
330
1E
100
AcDbEntity
  8
0
100
AcDbLine
 10
120.9
 20
123.097545
 30
0.0
 11
126.5
 21
119.897545
 31
0.0
  0
LINE
  5
3A8
330
1E
100
AcDbEntity
  8
0
100
AcDbLine
 10
114.5
 20
125.0305449999999
 30
0.0
 11
120.9
 21
122.2305449999999
 31
0.0
  0
LINE
  5
3A9
330
1E
100
AcDbEntity
  8
0
100
AcDbLine
 10
114.5
 20
125.8975449999999
 30
0.0
 11
120.9
 21
123.097545
 31
0.0
  0
LINE
  5
3AA
330
1E
100
AcDbEntity
  8
0
100
AcDbLine
 10
107.4
 20
128.2975449999999
 30
0.0
 11
114.5
 21
125.8975449999999
 31
0.0
  0
LINE
  5
3AB
330
1E
100
AcDbEntity
  8
0
100
AcDbLine
 10
125.9
 20
129.753545
 30
0.0
 11
132.0999999999999
 21
126.2035449999999
 31
0.0
  0
LINE
  5
3AC
330
1E
100
AcDbEntity
  8
0
100
AcDbLine
 10
132.0999999999999
 20
126.2035449999999
 30
0.0
 11
137.4
 21
122.2535449999999
 31
0.0
  0
LINE
  5
3AD
330
1E
100
AcDbEntity
  8
0
100
AcDbLine
 10
58.2
 20
130.6305449999999
 30
0.0
 11
66.5
 21
131.4305449999999
 31
0.0
  0
LINE
  5
3AE
330
1E
100
AcDbEntity
  8
0
100
AcDbLine
 10
66.5
 20
131.4305449999999
 30
0.0
 11
75.0
 21
131.7805449999999
 31
0.0
  0
LINE
  5
3AF
330
1E
100
AcDbEntity
  8
0
100
AcDbLine
 10
58.2
 20
131.497545
 30
0.0
 11
66.5
 21
132.2975449999999
 31
0.0
  0
LINE
  5
3B0
330
1E
100
AcDbEntity
  8
0
100
AcDbLine
 10
83.49999999999999
 20
131.4305449999999
 30
0.0
 11
91.79999999999999
 21
130.6305449999999
 31
0.0
  0
LINE
  5
3B1
330
1E
100
AcDbEntity
  8
0
100
AcDbLine
 10
75.0
 20
131.7805449999999
 30
0.0
 11
83.49999999999999
 21
131.4305449999999
 31
0.0
  0
LINE
  5
3B2
330
1E
100
AcDbEntity
  8
0
100
AcDbLine
 10
91.79999999999999
 20
130.6305449999999
 30
0.0
 11
99.8
 21
129.230545
 31
0.0
  0
LINE
  5
3B3
330
1E
100
AcDbEntity
  8
0
100
AcDbLine
 10
99.8
 20
130.0975449999999
 30
0.0
 11
107.4
 21
128.2975449999999
 31
0.0
  0
LINE
  5
3B4
330
1E
100
AcDbEntity
  8
0
100
AcDbLine
 10
91.79999999999999
 20
131.497545
 30
0.0
 11
99.8
 21
130.0975449999999
 31
0.0
  0
LINE
  5
3B5
330
1E
100
AcDbEntity
  8
0
100
AcDbLine
 10
83.49999999999999
 20
132.2975449999999
 30
0.0
 11
91.79999999999999
 21
131.497545
 31
0.0
  0
LINE
  5
3B6
330
1E
100
AcDbEntity
  8
0
100
AcDbLine
 10
75.0
 20
132.647545
 30
0.0
 11
83.49999999999999
 21
132.2975449999999
 31
0.0
  0
LINE
  5
3B7
330
1E
100
AcDbEntity
  8
0
100
AcDbLine
 10
66.5
 20
132.2975449999999
 30
0.0
 11
75.0
 21
132.647545
 31
0.0
  0
LINE
  5
3B8
330
1E
100
AcDbEntity
  8
0
100
AcDbLine
 10
118.7999999999999
 20
132.8535449999999
 30
0.0
 11
125.9
 21
129.753545
 31
0.0
  0
LINE
  5
3B9
330
1E
100
AcDbEntity
  8
0
100
AcDbLine
 10
119.0
 20
132.9535449999999
 30
0.0
 11
126.0
 21
129.8035449999999
 31
0.0
  0
LINE
  5
3BA
330
1E
100
AcDbEntity
  8
0
100
AcDbLine
 10
126.0
 20
129.8035449999999
 30
0.0
 11
132.3
 21
126.303545
 31
0.0
  0
LINE
  5
3BB
330
1E
100
AcDbEntity
  8
0
100
AcDbLine
 10
137.5999999999999
 20
131.3105449999999
 30
0.0
 11
141.6999999999999
 21
127.110545
 31
0.0
  0
LINE
  5
3BC
330
1E
100
AcDbEntity
  8
0
100
AcDbLine
 10
141.6999999999999
 20
127.110545
 30
0.0
 11
143.4
 21
125.208545
 31
0.0
  0
LINE
  5
3BD
330
1E
100
AcDbEntity
  8
0
100
AcDbLine
 10
132.3
 20
126.303545
 30
0.0
 11
137.5999999999999
 21
122.303545
 31
0.0
  0
LINE
  5
3BE
330
1E
100
AcDbEntity
  8
0
100
AcDbLine
 10
137.5999999999999
 20
122.303545
 30
0.0
 11
141.6999999999999
 21
118.1035449999999
 31
0.0
  0
LINE
  5
3BF
330
1E
100
AcDbEntity
  8
0
100
AcDbLine
 10
143.4
 20
125.208545
 30
0.0
 11
146.5
 21
120.608545
 31
0.0
  0
LINE
  5
3C0
330
1E
100
AcDbEntity
  8
0
100
AcDbLine
 10
146.5
 20
120.608545
 30
0.0
 11
148.5
 21
115.8585449999999
 31
0.0
  0
LINE
  5
3C1
330
1E
100
AcDbEntity
  8
0
100
AcDbLine
 10
141.6999999999999
 20
118.1035449999999
 30
0.0
 11
144.6999999999999
 21
113.603545
 31
0.0
  0
LINE
  5
3C2
330
1E
100
AcDbEntity
  8
0
100
AcDbLine
 10
144.6999999999999
 20
113.603545
 30
0.0
 11
146.6
 21
109.003745
 31
0.0
  0
LINE
  5
3C3
330
1E
100
AcDbEntity
  8
0
100
AcDbLine
 10
148.5
 20
101.755645
 30
0.0
 11
149.1999999999999
 21
103.9075449999999
 31
0.0
  0
LINE
  5
3C4
330
1E
100
AcDbEntity
  8
0
100
AcDbLine
 10
149.1999999999999
 20
103.9075449999999
 30
0.0
 11
150.0
 21
108.8075449999999
 31
0.0
  0
LINE
  5
3C5
330
1E
100
AcDbEntity
  8
0
100
AcDbLine
 10
148.5
 20
115.8585449999999
 30
0.0
 11
149.1999999999999
 21
113.7075449999999
 31
0.0
  0
LINE
  5
3C6
330
1E
100
AcDbEntity
  8
0
100
AcDbLine
 10
146.6
 20
109.003745
 30
0.0
 11
147.3
 21
104.3037449999999
 31
0.0
  0
LINE
  5
3C7
330
1E
100
AcDbEntity
  8
0
100
AcDbLine
 10
102.4999999999999
 20
137.5535449999999
 30
0.0
 11
110.8999999999999
 21
135.503545
 31
0.0
  0
LINE
  5
3C8
330
1E
100
AcDbEntity
  8
0
100
AcDbLine
 10
93.59999999999999
 20
139.0535449999999
 30
0.0
 11
102.4999999999999
 21
137.5535449999999
 31
0.0
  0
LINE
  5
3C9
330
1E
100
AcDbEntity
  8
0
100
AcDbLine
 10
110.8999999999999
 20
135.503545
 30
0.0
 11
118.7999999999999
 21
132.8535449999999
 31
0.0
  0
LINE
  5
3CA
330
1E
100
AcDbEntity
  8
0
100
AcDbLine
 10
111.0
 20
135.603545
 30
0.0
 11
119.0
 21
132.9535449999999
 31
0.0
  0
LINE
  5
3CB
330
1E
100
AcDbEntity
  8
0
100
AcDbLine
 10
102.6
 20
137.653545
 30
0.0
 11
111.0
 21
135.603545
 31
0.0
  0
LINE
  5
3CC
330
1E
100
AcDbEntity
  8
0
100
AcDbLine
 10
84.40000000000001
 20
140.003545
 30
0.0
 11
93.59999999999999
 21
139.0535449999999
 31
0.0
  0
LINE
  5
3CD
330
1E
100
AcDbEntity
  8
0
100
AcDbLine
 10
93.59999999999999
 20
139.153545
 30
0.0
 11
102.6
 21
137.653545
 31
0.0
  0
LINE
  5
3CE
330
1E
100
AcDbEntity
  8
0
100
AcDbLine
 10
126.0
 20
138.8105449999999
 30
0.0
 11
132.3
 21
135.3105449999999
 31
0.0
  0
LINE
  5
3CF
330
1E
100
AcDbEntity
  8
0
100
AcDbLine
 10
132.3
 20
135.3105449999999
 30
0.0
 11
137.5999999999999
 21
131.3105449999999
 31
0.0
  0
LINE
  5
3D2
330
1E
100
AcDbEntity
  8
0
100
AcDbLine
 10
149.1999999999999
 20
113.7075449999999
 30
0.0
 11
150.0
 21
108.8075449999999
 31
0.0
  0
LINE
  5
3D3
330
1E
100
AcDbEntity
  8
0
100
AcDbLine
 10
84.40000000000001
 20
140.103545
 30
0.0
 11
93.59999999999999
 21
139.153545
 31
0.0
  0
LINE
  5
3D4
330
1E
100
AcDbEntity
  8
0
100
AcDbLine
 10
65.59999999999999
 20
140.003545
 30
0.0
 11
75.0
 21
140.3535449999999
 31
0.0
  0
LINE
  5
3D5
330
1E
100
AcDbEntity
  8
0
100
AcDbLine
 10
56.4
 20
139.153545
 30
0.0
 11
65.59999999999999
 21
140.103545
 31
0.0
  0
LINE
  5
3D6
330
1E
100
AcDbEntity
  8
0
100
AcDbLine
 10
75.0
 20
140.3535449999999
 30
0.0
 11
84.40000000000001
 21
140.003545
 31
0.0
  0
LINE
  5
3D7
330
1E
100
AcDbEntity
  8
0
100
AcDbLine
 10
75.0
 20
140.453545
 30
0.0
 11
84.40000000000001
 21
140.103545
 31
0.0
  0
LINE
  5
3D8
330
1E
100
AcDbEntity
  8
0
100
AcDbLine
 10
117.0
 20
142.7395449999999
 30
0.0
 11
119.0
 21
141.9605449999999
 31
0.0
  0
LINE
  5
3D9
330
1E
100
AcDbEntity
  8
0
100
AcDbLine
 10
109.4
 20
145.2895449999999
 30
0.0
 11
117.0
 21
142.7395449999999
 31
0.0
  0
LINE
  5
3DA
330
1E
100
AcDbEntity
  8
0
100
AcDbLine
 10
101.4
 20
147.239545
 30
0.0
 11
109.4
 21
145.2895449999999
 31
0.0
  0
LINE
  5
3DB
330
1E
100
AcDbEntity
  8
0
100
AcDbLine
 10
119.0
 20
141.9605449999999
 30
0.0
 11
126.0
 21
138.8105449999999
 31
0.0
  0
LINE
  5
3DC
330
1E
100
AcDbEntity
  8
0
100
AcDbLine
 10
65.59999999999999
 20
140.103545
 30
0.0
 11
75.0
 21
140.453545
 31
0.0
  0
LINE
  5
3DD
330
1E
100
AcDbEntity
  8
0
100
AcDbLine
 10
40.6
 20
145.2895449999999
 30
0.0
 11
48.6
 21
147.239545
 31
0.0
  0
LINE
  5
3DE
330
1E
100
AcDbEntity
  8
0
100
AcDbLine
 10
58.2
 20
148.8175449999999
 30
0.0
 11
62.5700465116299
 21
149.2387543023259
 31
0.0
  0
LINE
  5
3DF
330
1E
100
AcDbEntity
  8
0
100
AcDbLine
 10
62.5700465116299
 20
149.2387543023259
 30
0.0
 11
66.5
 21
149.617545
 31
0.0
  0
LINE
  5
3E0
330
1E
100
AcDbEntity
  8
0
100
AcDbLine
 10
57.2
 20
148.6895449999999
 30
0.0
 11
58.2
 21
148.8175449999999
 31
0.0
  0
LINE
  5
3E1
330
1E
100
AcDbEntity
  8
0
100
AcDbLine
 10
91.79999999999999
 20
148.8175449999999
 30
0.0
 11
92.79999999999999
 21
148.6895449999999
 31
0.0
  0
LINE
  5
3E2
330
1E
100
AcDbEntity
  8
0
100
AcDbLine
 10
83.49999999999999
 20
149.617545
 30
0.0
 11
87.4299534883703
 21
149.2387543023259
 31
0.0
  0
LINE
  5
3E3
330
1E
100
AcDbEntity
  8
0
100
AcDbLine
 10
87.4299534883703
 20
149.2387543023259
 30
0.0
 11
91.79999999999999
 21
148.8175449999999
 31
0.0
  0
LINE
  5
3E4
330
1E
100
AcDbEntity
  8
0
100
AcDbLine
 10
75.0
 20
149.9675449999999
 30
0.0
 11
83.49999999999999
 21
149.617545
 31
0.0
  0
LINE
  5
3E5
330
1E
100
AcDbEntity
  8
0
100
AcDbLine
 10
92.79999999999999
 20
148.6895449999999
 30
0.0
 11
101.4
 21
147.239545
 31
0.0
  0
LINE
  5
3E6
330
1E
100
AcDbEntity
  8
0
100
AcDbLine
 10
66.5
 20
149.617545
 30
0.0
 11
75.0
 21
149.9675449999999
 31
0.0
  0
LINE
  5
3E7
330
1E
100
AcDbEntity
  8
0
100
AcDbLine
 10
48.6
 20
147.239545
 30
0.0
 11
57.2
 21
148.6895449999999
 31
0.0
  0
LINE
  5
3E8
330
1E
100
AcDbEntity
  8
0
100
AcDbLine
 10
24.0
 20
78.80414499999999
 30
0.0
 11
27.6345452406166
 21
77.1685477196477
 31
0.0
  0
ENDSEC
  0
SECTION
  2
OBJECTS
  0
DICTIONARY
  5
C
330
0
100
AcDbDictionary
281
     1
  3
ACAD_GROUP
350
D
  3
ACAD_LAYOUT
350
19
  3
ACAD_MLINESTYLE
350
16
  3
ACAD_PLOTSETTINGS
350
18
  3
ACAD_PLOTSTYLENAME
350
E
  3
AcDbVariableDictionary
350
3ED
  0
DICTIONARY
  5
D
102
{ACAD_REACTORS
330
C
102
}
330
C
100
AcDbDictionary
281
     1
  0
DICTIONARY
  5
19
102
{ACAD_REACTORS
330
C
102
}
330
C
100
AcDbDictionary
281
     1
  3
Layout1
350
1D
  3
Model
350
21
  0
DICTIONARY
  5
16
102
{ACAD_REACTORS
330
C
102
}
330
C
100
AcDbDictionary
281
     1
  3
Standard
350
17
  0
DICTIONARY
  5
18
102
{ACAD_REACTORS
330
C
102
}
330
C
100
AcDbDictionary
281
     1
  0
ACDBDICTIONARYWDFLT
  5
E
102
{ACAD_REACTORS
330
C
102
}
330
C
100
AcDbDictionary
281
     1
  3
Normal
350
F
100
AcDbDictionaryWithDefault
340
F
  0
DICTIONARY
  5
3ED
102
{ACAD_REACTORS
330
C
102
}
330
C
100
AcDbDictionary
281
     1
  3
DIMASSOC
350
3EE
  0
LAYOUT
  5
1D
102
{ACAD_REACTORS
330
19
102
}
330
19
100
AcDbPlotSettings
  1

  2
hp deskjet 980c series
  4

  6

 40
0.0
 41
0.0
 42
0.0
 43
0.0
 44
0.0
 45
0.0
 46
0.0
 47
0.0
 48
0.0
 49
0.0
140
0.0
141
0.0
142
1.0
143
1.0
 70
   688
 72
     0
 73
     0
 74
     5
  7

 75
    16
147
1.0
148
0.0
149
0.0
100
AcDbLayout
  1
Layout1
 70
     1
 71
     1
 10
0.0
 20
0.0
 11
12.0
 21
9.0
 12
0.0
 22
0.0
 32
0.0
 14
1.000000000000000E+20
 24
1.000000000000000E+20
 34
1.000000000000000E+20
 15
-1.000000000000000E+20
 25
-1.000000000000000E+20
 35
-1.000000000000000E+20
146
0.0
 13
0.0
 23
0.0
 33
0.0
 16
1.0
 26
0.0
 36
0.0
 17
0.0
 27
1.0
 37
0.0
 76
     0
330
1A
  0
LAYOUT
  5
21
102
{ACAD_REACTORS
330
19
102
}
330
19
100
AcDbPlotSettings
  1

  2
hp deskjet 980c series
  4

  6

 40
0.0
 41
0.0
 42
0.0
 43
0.0
 44
0.0
 45
0.0
 46
0.0
 47
0.0
 48
0.0
 49
0.0
140
0.0
141
0.0
142
1.0
143
1.0
 70
  1712
 72
     0
 73
     0
 74
     0
  7

 75
     0
147
1.0
148
0.0
149
0.0
100
AcDbLayout
  1
Model
 70
     1
 71
     0
 10
0.0
 20
0.0
 11
12.0
 21
9.0
 12
0.0
 22
0.0
 32
0.0
 14
0.0
 24
0.0
 34
0.0
 15
0.0
 25
0.0
 35
0.0
146
0.0
 13
0.0
 23
0.0
 33
0.0
 16
1.0
 26
0.0
 36
0.0
 17
0.0
 27
1.0
 37
0.0
 76
     0
330
1E
  0
MLINESTYLE
  5
17
102
{ACAD_REACTORS
330
16
102
}
330
16
100
AcDbMlineStyle
  2
STANDARD
 70
     0
  3

 62
   256
 51
90.0
 52
90.0
 71
     2
 49
0.5
 62
   256
  6
BYLAYER
 49
-0.5
 62
   256
  6
BYLAYER
  0
ACDBPLACEHOLDER
  5
F
102
{ACAD_REACTORS
330
E
102
}
330
E
  0
DICTIONARYVAR
  5
3EE
102
{ACAD_REACTORS
330
3ED
102
}
330
3ED
100
DictionaryVariables
280
     0
  1
1
  0
ENDSEC
  0
EOF
