  0
SECTION
  2
HEADER
  9
$ACADVER
  1
AC1015
  9
$ACADMAINTVER
 70
    13
  9
$DWGCODEPAGE
  3
ANSI_1252
  9
$INSBASE
 10
0.0
 20
0.0
 30
0.0
  9
$EXTMIN
 10
-0.0000000000000036
 20
-0.0346350000000046
 30
0.0
  9
$EXTMAX
 10
130.0
 20
140.034635
 30
0.0
  9
$LIMMIN
 10
0.0
 20
0.0
  9
$LIMMAX
 10
12.0
 20
9.0
  9
$ORTHOMODE
 70
     0
  9
$REGENMODE
 70
     1
  9
$FILLMODE
 70
     1
  9
$QTEXTMODE
 70
     0
  9
$MIRRTEXT
 70
     1
  9
$LTSCALE
 40
1.0
  9
$ATTMODE
 70
     1
  9
$TEXTSIZE
 40
0.2
  9
$TRACEWID
 40
0.05
  9
$TEXTSTYLE
  7
Standard
  9
$CLAYER
  8
0
  9
$CELTYPE
  6
Continuous
  9
$CECOLOR
 62
   256
  9
$CELTSCALE
 40
1.0
  9
$DISPSILH
 70
     0
  9
$DIMSCALE
 40
1.0
  9
$DIMASZ
 40
0.18
  9
$DIMEXO
 40
0.0625
  9
$DIMDLI
 40
0.38
  9
$DIMRND
 40
0.0
  9
$DIMDLE
 40
0.0
  9
$DIMEXE
 40
0.18
  9
$DIMTP
 40
0.0
  9
$DIMTM
 40
0.0
  9
$DIMTXT
 40
0.18
  9
$DIMCEN
 40
0.09
  9
$DIMTSZ
 40
0.0
  9
$DIMTOL
 70
     0
  9
$DIMLIM
 70
     0
  9
$DIMTIH
 70
     1
  9
$DIMTOH
 70
     1
  9
$DIMSE1
 70
     0
  9
$DIMSE2
 70
     0
  9
$DIMTAD
 70
     0
  9
$DIMZIN
 70
     0
  9
$DIMBLK
  1

  9
$DIMASO
 70
     1
  9
$DIMSHO
 70
     1
  9
$DIMPOST
  1

  9
$DIMAPOST
  1

  9
$DIMALT
 70
     0
  9
$DIMALTD
 70
     2
  9
$DIMALTF
 40
25.4
  9
$DIMLFAC
 40
1.0
  9
$DIMTOFL
 70
     0
  9
$DIMTVP
 40
0.0
  9
$DIMTIX
 70
     0
  9
$DIMSOXD
 70
     0
  9
$DIMSAH
 70
     0
  9
$DIMBLK1
  1

  9
$DIMBLK2
  1

  9
$DIMSTYLE
  2
Standard
  9
$DIMCLRD
 70
     0
  9
$DIMCLRE
 70
     0
  9
$DIMCLRT
 70
     0
  9
$DIMTFAC
 40
1.0
  9
$DIMGAP
 40
0.09
  9
$DIMJUST
 70
     0
  9
$DIMSD1
 70
     0
  9
$DIMSD2
 70
     0
  9
$DIMTOLJ
 70
     1
  9
$DIMTZIN
 70
     0
  9
$DIMALTZ
 70
     0
  9
$DIMALTTZ
 70
     0
  9
$DIMUPT
 70
     0
  9
$DIMDEC
 70
     4
  9
$DIMTDEC
 70
     4
  9
$DIMALTU
 70
     2
  9
$DIMALTTD
 70
     2
  9
$DIMTXSTY
  7
Standard
  9
$DIMAUNIT
 70
     0
  9
$DIMADEC
 70
     0
  9
$DIMALTRND
 40
0.0
  9
$DIMAZIN
 70
     0
  9
$DIMDSEP
 70
    46
  9
$DIMATFIT
 70
     3
  9
$DIMFRAC
 70
     0
  9
$DIMLDRBLK
  1

  9
$DIMLUNIT
 70
     2
  9
$DIMLWD
 70
    -2
  9
$DIMLWE
 70
    -2
  9
$DIMTMOVE
 70
     0
  9
$LUNITS
 70
     2
  9
$LUPREC
 70
     4
  9
$SKETCHINC
 40
0.1
  9
$FILLETRAD
 40
0.0
  9
$AUNITS
 70
     0
  9
$AUPREC
 70
     0
  9
$MENU
  1
.
  9
$ELEVATION
 40
0.0
  9
$PELEVATION
 40
0.0
  9
$THICKNESS
 40
0.0
  9
$LIMCHECK
 70
     0
  9
$CHAMFERA
 40
0.0
  9
$CHAMFERB
 40
0.0
  9
$CHAMFERC
 40
0.0
  9
$CHAMFERD
 40
0.0
  9
$SKPOLY
 70
     0
  9
$TDCREATE
 40
2454738.448654873
  9
$TDUCREATE
 40
2454738.365321539
  9
$TDUPDATE
 40
2454738.450176319
  9
$TDUUPDATE
 40
2454738.366842986
  9
$TDINDWG
 40
0.0015214468
  9
$TDUSRTIMER
 40
0.0015214468
  9
$USRTIMER
 70
     1
  9
$ANGBASE
 50
0.0
  9
$ANGDIR
 70
     0
  9
$PDMODE
 70
     0
  9
$PDSIZE
 40
0.0
  9
$PLINEWID
 40
0.0
  9
$SPLFRAME
 70
     0
  9
$SPLINETYPE
 70
     6
  9
$SPLINESEGS
 70
     8
  9
$HANDSEED
  5
401
  9
$SURFTAB1
 70
     6
  9
$SURFTAB2
 70
     6
  9
$SURFTYPE
 70
     6
  9
$SURFU
 70
     6
  9
$SURFV
 70
     6
  9
$UCSBASE
  2

  9
$UCSNAME
  2

  9
$UCSORG
 10
0.0
 20
0.0
 30
0.0
  9
$UCSXDIR
 10
1.0
 20
0.0
 30
0.0
  9
$UCSYDIR
 10
0.0
 20
1.0
 30
0.0
  9
$UCSORTHOREF
  2

  9
$UCSORTHOVIEW
 70
     1
  9
$UCSORGTOP
 10
0.0
 20
0.0
 30
0.0
  9
$UCSORGBOTTOM
 10
0.0
 20
0.0
 30
0.0
  9
$UCSORGLEFT
 10
0.0
 20
0.0
 30
0.0
  9
$UCSORGRIGHT
 10
0.0
 20
0.0
 30
0.0
  9
$UCSORGFRONT
 10
0.0
 20
0.0
 30
0.0
  9
$UCSORGBACK
 10
0.0
 20
0.0
 30
0.0
  9
$PUCSBASE
  2

  9
$PUCSNAME
  2

  9
$PUCSORG
 10
0.0
 20
0.0
 30
0.0
  9
$PUCSXDIR
 10
1.0
 20
0.0
 30
0.0
  9
$PUCSYDIR
 10
0.0
 20
1.0
 30
0.0
  9
$PUCSORTHOREF
  2

  9
$PUCSORTHOVIEW
 70
     0
  9
$PUCSORGTOP
 10
0.0
 20
0.0
 30
0.0
  9
$PUCSORGBOTTOM
 10
0.0
 20
0.0
 30
0.0
  9
$PUCSORGLEFT
 10
0.0
 20
0.0
 30
0.0
  9
$PUCSORGRIGHT
 10
0.0
 20
0.0
 30
0.0
  9
$PUCSORGFRONT
 10
0.0
 20
0.0
 30
0.0
  9
$PUCSORGBACK
 10
0.0
 20
0.0
 30
0.0
  9
$USERI1
 70
     0
  9
$USERI2
 70
     0
  9
$USERI3
 70
     0
  9
$USERI4
 70
     0
  9
$USERI5
 70
     0
  9
$USERR1
 40
0.0
  9
$USERR2
 40
0.0
  9
$USERR3
 40
0.0
  9
$USERR4
 40
0.0
  9
$USERR5
 40
0.0
  9
$WORLDVIEW
 70
     1
  9
$SHADEDGE
 70
     3
  9
$SHADEDIF
 70
    70
  9
$TILEMODE
 70
     1
  9
$MAXACTVP
 70
    64
  9
$PINSBASE
 10
0.0
 20
0.0
 30
0.0
  9
$PLIMCHECK
 70
     0
  9
$PEXTMIN
 10
1.000000000000000E+20
 20
1.000000000000000E+20
 30
1.000000000000000E+20
  9
$PEXTMAX
 10
-1.000000000000000E+20
 20
-1.000000000000000E+20
 30
-1.000000000000000E+20
  9
$PLIMMIN
 10
0.0
 20
0.0
  9
$PLIMMAX
 10
12.0
 20
9.0
  9
$UNITMODE
 70
     0
  9
$VISRETAIN
 70
     1
  9
$PLINEGEN
 70
     0
  9
$PSLTSCALE
 70
     1
  9
$TREEDEPTH
 70
  3020
  9
$CMLSTYLE
  2
Standard
  9
$CMLJUST
 70
     0
  9
$CMLSCALE
 40
1.0
  9
$PROXYGRAPHICS
 70
     1
  9
$MEASUREMENT
 70
     0
  9
$CELWEIGHT
370
    -1
  9
$ENDCAPS
280
     0
  9
$JOINSTYLE
280
     0
  9
$LWDISPLAY
290
     0
  9
$INSUNITS
 70
     0
  9
$HYPERLINKBASE
  1

  9
$STYLESHEET
  1

  9
$XEDIT
290
     1
  9
$CEPSNTYPE
380
     0
  9
$PSTYLEMODE
290
     1
  9
$FINGERPRINTGUID
  2
{61603AD4-9551-46CD-8BB3-AC2C3B3A7FEE}
  9
$VERSIONGUID
  2
{33B8A1D8-1753-4969-8DA6-54EFEEE4F338}
  9
$EXTNAMES
290
     1
  9
$PSVPSCALE
 40
0.0
  9
$OLESTARTUP
290
     0
  0
ENDSEC
  0
SECTION
  2
CLASSES
  0
CLASS
  1
ACDBDICTIONARYWDFLT
  2
AcDbDictionaryWithDefault
  3
AutoCAD 2000
 90
        0
280
     0
281
     0
  0
CLASS
  1
ACDBPLACEHOLDER
  2
AcDbPlaceHolder
  3
AutoCAD 2000
 90
        0
280
     0
281
     0
  0
CLASS
  1
LAYOUT
  2
AcDbLayout
  3
AutoCAD 2000
 90
        0
280
     0
281
     0
  0
CLASS
  1
DICTIONARYVAR
  2
AcDbDictionaryVar
  3
AutoCAD 2000
 90
        0
280
     0
281
     0
  0
ENDSEC
  0
SECTION
  2
TABLES
  0
TABLE
  2
VPORT
  5
8
330
0
100
AcDbSymbolTable
 70
     2
  0
VPORT
  5
400
330
8
100
AcDbSymbolTableRecord
100
AcDbViewportTableRecord
  2
*Active
 70
     0
 10
0.0
 20
0.0
 11
1.0
 21
1.0
 12
65.0
 22
70.0
 13
0.0
 23
0.0
 14
1.0
 24
1.0
 15
0.0
 25
0.0
 16
0.0
 26
0.0
 36
1.0
 17
0.0
 27
0.0
 37
0.0
 40
141.1439702813299
 41
2.078104993597951
 42
50.0
 43
0.0
 44
0.0
 50
0.0
 51
0.0
 71
     0
 72
   100
 73
     1
 74
     3
 75
     0
 76
     0
 77
     0
 78
     0
281
     0
 65
     1
110
0.0
120
0.0
130
0.0
111
1.0
121
0.0
131
0.0
112
0.0
122
1.0
132
0.0
 79
     1
146
0.0
  0
ENDTAB
  0
TABLE
  2
LTYPE
  5
5
330
0
100
AcDbSymbolTable
 70
     1
  0
LTYPE
  5
13
330
5
100
AcDbSymbolTableRecord
100
AcDbLinetypeTableRecord
  2
ByBlock
 70
     0
  3

 72
    65
 73
     0
 40
0.0
  0
LTYPE
  5
14
330
5
100
AcDbSymbolTableRecord
100
AcDbLinetypeTableRecord
  2
ByLayer
 70
     0
  3

 72
    65
 73
     0
 40
0.0
  0
LTYPE
  5
15
330
5
100
AcDbSymbolTableRecord
100
AcDbLinetypeTableRecord
  2
Continuous
 70
     0
  3
Solid line
 72
    65
 73
     0
 40
0.0
  0
ENDTAB
  0
TABLE
  2
LAYER
  5
2
330
0
100
AcDbSymbolTable
 70
     1
  0
LAYER
  5
10
330
2
100
AcDbSymbolTableRecord
100
AcDbLayerTableRecord
  2
0
 70
     0
 62
     7
  6
Continuous
370
    -3
390
F
  0
ENDTAB
  0
TABLE
  2
STYLE
  5
3
330
0
100
AcDbSymbolTable
 70
     1
  0
STYLE
  5
11
330
3
100
AcDbSymbolTableRecord
100
AcDbTextStyleTableRecord
  2
Standard
 70
     0
 40
0.0
 41
1.0
 50
0.0
 71
     0
 42
0.2
  3
txt
  4

  0
ENDTAB
  0
TABLE
  2
VIEW
  5
6
330
0
100
AcDbSymbolTable
 70
     0
  0
ENDTAB
  0
TABLE
  2
UCS
  5
7
330
0
100
AcDbSymbolTable
 70
     0
  0
ENDTAB
  0
TABLE
  2
APPID
  5
9
330
0
100
AcDbSymbolTable
 70
     1
  0
APPID
  5
12
330
9
100
AcDbSymbolTableRecord
100
AcDbRegAppTableRecord
  2
ACAD
 70
     0
  0
ENDTAB
  0
TABLE
  2
DIMSTYLE
  5
A
330
0
100
AcDbSymbolTable
 70
     1
100
AcDbDimStyleTable
 71
     0
  0
DIMSTYLE
105
3F8
330
A
100
AcDbSymbolTableRecord
100
AcDbDimStyleTableRecord
  2
Standard
 70
     0
340
11
  0
ENDTAB
  0
TABLE
  2
BLOCK_RECORD
  5
1
330
0
100
AcDbSymbolTable
 70
     0
  0
BLOCK_RECORD
  5
1E
330
1
100
AcDbSymbolTableRecord
100
AcDbBlockTableRecord
  2
*Model_Space
340
21
  0
BLOCK_RECORD
  5
1A
330
1
100
AcDbSymbolTableRecord
100
AcDbBlockTableRecord
  2
*Paper_Space
340
1D
  0
ENDTAB
  0
ENDSEC
  0
SECTION
  2
BLOCKS
  0
BLOCK
  5
1F
330
1E
100
AcDbEntity
  8
0
100
AcDbBlockBegin
  2
*Model_Space
 70
     0
 10
0.0
 20
0.0
 30
0.0
  3
*Model_Space
  1

  0
ENDBLK
  5
20
330
1E
100
AcDbEntity
  8
0
100
AcDbBlockEnd
  0
BLOCK
  5
1B
330
1A
100
AcDbEntity
 67
     1
  8
0
100
AcDbBlockBegin
  2
*Paper_Space
 70
     0
 10
0.0
 20
0.0
 30
0.0
  3
*Paper_Space
  1

  0
ENDBLK
  5
1C
330
1A
100
AcDbEntity
 67
     1
  8
0
100
AcDbBlockEnd
  0
ENDSEC
  0
SECTION
  2
ENTITIES
  0
LINE
  5
22
330
1E
100
AcDbEntity
  8
0
100
AcDbLine
 10
62.4
 20
0.211774999999995
 30
0.0
 11
65.0
 21
-0.0346350000000045
 31
0.0
  0
LINE
  5
23
330
1E
100
AcDbEntity
  8
0
100
AcDbLine
 10
62.4
 20
0.211774999999995
 30
0.0
 11
65.0
 21
-0.0346350000000046
 31
0.0
  0
LINE
  5
24
330
1E
100
AcDbEntity
  8
0
100
AcDbLine
 10
60.0
 20
0.654604999999995
 30
0.0
 11
62.4
 21
0.211774999999995
 31
0.0
  0
LINE
  5
25
330
1E
100
AcDbEntity
  8
0
100
AcDbLine
 10
65.0
 20
-0.0346350000000045
 30
0.0
 11
67.59999999999999
 21
0.211774999999995
 31
0.0
  0
LINE
  5
26
330
1E
100
AcDbEntity
  8
0
100
AcDbLine
 10
65.0
 20
-0.0346350000000046
 30
0.0
 11
67.59999999999999
 21
0.211774999999995
 31
0.0
  0
LINE
  5
27
330
1E
100
AcDbEntity
  8
0
100
AcDbLine
 10
67.59999999999999
 20
0.211774999999995
 30
0.0
 11
70.0
 21
0.654604999999995
 31
0.0
  0
LINE
  5
28
330
1E
100
AcDbEntity
  8
0
100
AcDbLine
 10
57.9
 20
1.467035
 30
0.0
 11
60.0
 21
0.654604999999995
 31
0.0
  0
LINE
  5
29
330
1E
100
AcDbEntity
  8
0
100
AcDbLine
 10
56.2
 20
2.334025
 30
0.0
 11
57.9
 21
1.467035
 31
0.0
  0
LINE
  5
2A
330
1E
100
AcDbEntity
  8
0
100
AcDbLine
 10
70.0
 20
0.654604999999995
 30
0.0
 11
72.09999999999999
 21
1.467035
 31
0.0
  0
LINE
  5
2B
330
1E
100
AcDbEntity
  8
0
100
AcDbLine
 10
72.09999999999999
 20
1.467035
 30
0.0
 11
73.79999999999999
 21
2.334025
 31
0.0
  0
LINE
  5
2C
330
1E
100
AcDbEntity
  8
0
100
AcDbLine
 10
54.2
 20
3.589284999999999
 30
0.0
 11
56.2
 21
2.334025
 31
0.0
  0
LINE
  5
2D
330
1E
100
AcDbEntity
  8
0
100
AcDbLine
 10
53.0
 20
5.09094499999999
 30
0.0
 11
54.2
 21
3.589284999999999
 31
0.0
  0
LINE
  5
2E
330
1E
100
AcDbEntity
  8
0
100
AcDbLine
 10
73.79999999999999
 20
2.334025
 30
0.0
 11
75.8
 21
3.589284999999999
 31
0.0
  0
LINE
  5
2F
330
1E
100
AcDbEntity
  8
0
100
AcDbLine
 10
75.8
 20
3.589284999999999
 30
0.0
 11
77.0
 21
5.09094499999999
 31
0.0
  0
LINE
  5
30
330
1E
100
AcDbEntity
  8
0
100
AcDbLine
 10
51.0
 20
9.314835
 30
0.0
 11
51.0
 21
17.858335
 31
0.0
  0
LINE
  5
31
330
1E
100
AcDbEntity
  8
0
100
AcDbLine
 10
51.0
 20
9.314835
 30
0.0
 11
51.5
 21
7.530174999999999
 31
0.0
  0
LINE
  5
32
330
1E
100
AcDbEntity
  8
0
100
AcDbLine
 10
51.5
 20
7.530174999999999
 30
0.0
 11
53.0
 21
5.09094499999999
 31
0.0
  0
LINE
  5
33
330
1E
100
AcDbEntity
  8
0
100
AcDbLine
 10
51.0
 20
17.858335
 30
0.0
 11
51.0
 21
24.999235
 31
0.0
  0
LINE
  5
34
330
1E
100
AcDbEntity
  8
0
100
AcDbLine
 10
51.0
 20
17.858335
 30
0.0
 11
51.0
 21
9.314835
 31
0.0
  0
LINE
  5
35
330
1E
100
AcDbEntity
  8
0
100
AcDbLine
 10
77.0
 20
5.09094499999999
 30
0.0
 11
78.5
 21
7.530174999999999
 31
0.0
  0
LINE
  5
36
330
1E
100
AcDbEntity
  8
0
100
AcDbLine
 10
79.0
 20
9.314835
 30
0.0
 11
79.0
 21
17.858335
 31
0.0
  0
LINE
  5
37
330
1E
100
AcDbEntity
  8
0
100
AcDbLine
 10
78.5
 20
7.530174999999999
 30
0.0
 11
79.0
 21
9.314835
 31
0.0
  0
LINE
  5
38
330
1E
100
AcDbEntity
  8
0
100
AcDbLine
 10
51.0
 20
24.999235
 30
0.0
 11
51.0
 21
34.47943499999999
 31
0.0
  0
LINE
  5
39
330
1E
100
AcDbEntity
  8
0
100
AcDbLine
 10
51.0
 20
24.999235
 30
0.0
 11
51.0
 21
17.858335
 31
0.0
  0
LINE
  5
3A
330
1E
100
AcDbEntity
  8
0
100
AcDbLine
 10
51.0
 20
34.47943499999999
 30
0.0
 11
51.0
 21
42.65333499999999
 31
0.0
  0
LINE
  5
3B
330
1E
100
AcDbEntity
  8
0
100
AcDbLine
 10
51.0
 20
34.47943499999999
 30
0.0
 11
51.0
 21
24.999235
 31
0.0
  0
LINE
  5
3C
330
1E
100
AcDbEntity
  8
0
100
AcDbLine
 10
79.0
 20
17.858335
 30
0.0
 11
79.0
 21
24.999235
 31
0.0
  0
LINE
  5
3D
330
1E
100
AcDbEntity
  8
0
100
AcDbLine
 10
79.0
 20
17.858335
 30
0.0
 11
79.0
 21
9.314835
 31
0.0
  0
LINE
  5
3E
330
1E
100
AcDbEntity
  8
0
100
AcDbLine
 10
79.0
 20
24.999235
 30
0.0
 11
79.0
 21
34.47943499999999
 31
0.0
  0
LINE
  5
3F
330
1E
100
AcDbEntity
  8
0
100
AcDbLine
 10
79.0
 20
24.999235
 30
0.0
 11
79.0
 21
17.858335
 31
0.0
  0
LINE
  5
40
330
1E
100
AcDbEntity
  8
0
100
AcDbLine
 10
51.0
 20
42.65333499999999
 30
0.0
 11
51.0
 21
50.367435
 31
0.0
  0
LINE
  5
41
330
1E
100
AcDbEntity
  8
0
100
AcDbLine
 10
51.0
 20
42.65333499999999
 30
0.0
 11
51.0
 21
34.47943499999999
 31
0.0
  0
LINE
  5
42
330
1E
100
AcDbEntity
  8
0
100
AcDbLine
 10
51.0
 20
50.367435
 30
0.0
 11
51.0
 21
57.485135
 31
0.0
  0
LINE
  5
43
330
1E
100
AcDbEntity
  8
0
100
AcDbLine
 10
51.0
 20
50.367435
 30
0.0
 11
51.0
 21
42.65333499999999
 31
0.0
  0
LINE
  5
44
330
1E
100
AcDbEntity
  8
0
100
AcDbLine
 10
79.0
 20
34.47943499999999
 30
0.0
 11
79.0
 21
42.65333499999999
 31
0.0
  0
LINE
  5
45
330
1E
100
AcDbEntity
  8
0
100
AcDbLine
 10
79.0
 20
34.47943499999999
 30
0.0
 11
79.0
 21
24.999235
 31
0.0
  0
LINE
  5
46
330
1E
100
AcDbEntity
  8
0
100
AcDbLine
 10
79.0
 20
42.65333499999999
 30
0.0
 11
79.0
 21
50.367435
 31
0.0
  0
LINE
  5
47
330
1E
100
AcDbEntity
  8
0
100
AcDbLine
 10
79.0
 20
42.65333499999999
 30
0.0
 11
79.0
 21
34.47943499999999
 31
0.0
  0
LINE
  5
48
330
1E
100
AcDbEntity
  8
0
100
AcDbLine
 10
51.0
 20
57.485135
 30
0.0
 11
51.0
 21
63.969835
 31
0.0
  0
LINE
  5
49
330
1E
100
AcDbEntity
  8
0
100
AcDbLine
 10
51.0
 20
57.485135
 30
0.0
 11
51.0
 21
50.367435
 31
0.0
  0
LINE
  5
4A
330
1E
100
AcDbEntity
  8
0
100
AcDbLine
 10
64.0
 20
60.23803499999999
 30
0.0
 11
64.0
 21
60.486135
 31
0.0
  0
LINE
  5
4B
330
1E
100
AcDbEntity
  8
0
100
AcDbLine
 10
64.0
 20
60.23803499999999
 30
0.0
 11
64.0
 21
60.536935
 31
0.0
  0
LINE
  5
4C
330
1E
100
AcDbEntity
  8
0
100
AcDbLine
 10
64.0
 20
60.23803499999999
 30
0.0
 11
66.0
 21
60.23803499999999
 31
0.0
  0
LINE
  5
4D
330
1E
100
AcDbEntity
  8
0
100
AcDbLine
 10
66.0
 20
60.23803499999999
 30
0.0
 11
66.0
 21
60.486135
 31
0.0
  0
LINE
  5
4E
330
1E
100
AcDbEntity
  8
0
100
AcDbLine
 10
64.0
 20
60.486135
 30
0.0
 11
64.0
 21
61.075835
 31
0.0
  0
LINE
  5
4F
330
1E
100
AcDbEntity
  8
0
100
AcDbLine
 10
64.0
 20
60.486135
 30
0.0
 11
64.0
 21
60.23803499999999
 31
0.0
  0
LINE
  5
50
330
1E
100
AcDbEntity
  8
0
100
AcDbLine
 10
64.0
 20
60.536935
 30
0.0
 11
64.0
 21
60.23803499999999
 31
0.0
  0
LINE
  5
51
330
1E
100
AcDbEntity
  8
0
100
AcDbLine
 10
64.0
 20
60.536935
 30
0.0
 11
64.0
 21
61.314235
 31
0.0
  0
LINE
  5
52
330
1E
100
AcDbEntity
  8
0
100
AcDbLine
 10
64.0
 20
62.32233499999999
 30
0.0
 11
64.0
 21
61.314235
 31
0.0
  0
LINE
  5
53
330
1E
100
AcDbEntity
  8
0
100
AcDbLine
 10
64.0
 20
61.314235
 30
0.0
 11
64.0
 21
60.536935
 31
0.0
  0
LINE
  5
54
330
1E
100
AcDbEntity
  8
0
100
AcDbLine
 10
64.0
 20
61.314235
 30
0.0
 11
64.0
 21
62.32233499999999
 31
0.0
  0
LINE
  5
55
330
1E
100
AcDbEntity
  8
0
100
AcDbLine
 10
64.0
 20
61.075835
 30
0.0
 11
64.0
 21
62.87993499999999
 31
0.0
  0
LINE
  5
56
330
1E
100
AcDbEntity
  8
0
100
AcDbLine
 10
64.0
 20
61.075835
 30
0.0
 11
64.0
 21
60.486135
 31
0.0
  0
LINE
  5
57
330
1E
100
AcDbEntity
  8
0
100
AcDbLine
 10
64.0
 20
62.87993499999999
 30
0.0
 11
64.0
 21
67.637556515592
 31
0.0
  0
LINE
  5
58
330
1E
100
AcDbEntity
  8
0
100
AcDbLine
 10
64.0
 20
62.87993499999999
 30
0.0
 11
64.0
 21
61.075835
 31
0.0
  0
LINE
  5
59
330
1E
100
AcDbEntity
  8
0
100
AcDbLine
 10
66.0
 20
60.486135
 30
0.0
 11
66.0
 21
60.23803499999999
 31
0.0
  0
LINE
  5
5A
330
1E
100
AcDbEntity
  8
0
100
AcDbLine
 10
66.0
 20
60.486135
 30
0.0
 11
66.0
 21
61.075835
 31
0.0
  0
LINE
  5
5B
330
1E
100
AcDbEntity
  8
0
100
AcDbLine
 10
66.0
 20
61.075835
 30
0.0
 11
66.0
 21
60.486135
 31
0.0
  0
LINE
  5
5C
330
1E
100
AcDbEntity
  8
0
100
AcDbLine
 10
66.0
 20
61.075835
 30
0.0
 11
66.0
 21
62.93103499999999
 31
0.0
  0
LINE
  5
5D
330
1E
100
AcDbEntity
  8
0
100
AcDbLine
 10
66.0
 20
62.93103499999999
 30
0.0
 11
66.0
 21
61.075835
 31
0.0
  0
LINE
  5
5E
330
1E
100
AcDbEntity
  8
0
100
AcDbLine
 10
66.0
 20
62.93103499999999
 30
0.0
 11
66.0
 21
67.637556515592
 31
0.0
  0
LINE
  5
5F
330
1E
100
AcDbEntity
  8
0
100
AcDbLine
 10
51.0
 20
63.969835
 30
0.0
 11
51.0
 21
66.03038988145769
 31
0.0
  0
LINE
  5
60
330
1E
100
AcDbEntity
  8
0
100
AcDbLine
 10
51.0
 20
63.969835
 30
0.0
 11
51.0
 21
57.485135
 31
0.0
  0
LINE
  5
61
330
1E
100
AcDbEntity
  8
0
100
AcDbLine
 10
79.0
 20
50.367435
 30
0.0
 11
79.0
 21
57.485135
 31
0.0
  0
LINE
  5
62
330
1E
100
AcDbEntity
  8
0
100
AcDbLine
 10
79.0
 20
50.367435
 30
0.0
 11
79.0
 21
42.65333499999999
 31
0.0
  0
LINE
  5
63
330
1E
100
AcDbEntity
  8
0
100
AcDbLine
 10
79.0
 20
57.485135
 30
0.0
 11
79.0
 21
63.969835
 31
0.0
  0
LINE
  5
64
330
1E
100
AcDbEntity
  8
0
100
AcDbLine
 10
79.0
 20
57.485135
 30
0.0
 11
79.0
 21
50.367435
 31
0.0
  0
LINE
  5
65
330
1E
100
AcDbEntity
  8
0
100
AcDbLine
 10
2.946699999999999
 20
94.490435
 30
0.0
 11
4.5933
 21
90.50373499999999
 31
0.0
  0
LINE
  5
66
330
1E
100
AcDbEntity
  8
0
100
AcDbLine
 10
4.76669999999999
 20
90.50373499999999
 30
0.0
 11
7.36669999999999
 21
86.64713499999999
 31
0.0
  0
LINE
  5
67
330
1E
100
AcDbEntity
  8
0
100
AcDbLine
 10
10.66
 20
86.20703500000001
 30
0.0
 11
13.0867
 21
82.74033499999999
 31
0.0
  0
LINE
  5
68
330
1E
100
AcDbEntity
  8
0
100
AcDbLine
 10
39.5347
 20
68.36133499999999
 30
0.0
 11
40.4827
 21
68.63133499999999
 31
0.0
  0
LINE
  5
69
330
1E
100
AcDbEntity
  8
0
100
AcDbLine
 10
19.8928
 20
77.81623499999999
 30
0.0
 11
21.5348
 21
77.739335
 31
0.0
  0
LINE
  5
6A
330
1E
100
AcDbEntity
  8
0
100
AcDbLine
 10
21.5348
 20
77.739335
 30
0.0
 11
21.83053890505319
 21
78.7060416096032
 31
0.0
  0
LINE
  5
6B
330
1E
100
AcDbEntity
  8
0
100
AcDbLine
 10
20.3667
 20
76.370335
 30
0.0
 11
25.22
 21
73.59703499999999
 31
0.0
  0
LINE
  5
6C
330
1E
100
AcDbEntity
  8
0
100
AcDbLine
 10
20.53479999999999
 20
78.60533499999999
 30
0.0
 11
21.5348
 21
77.739335
 31
0.0
  0
LINE
  5
6D
330
1E
100
AcDbEntity
  8
0
100
AcDbLine
 10
20.53479999999999
 20
78.60533499999999
 30
0.0
 11
20.68577236301599
 21
79.0988310490529
 31
0.0
  0
LINE
  5
6E
330
1E
100
AcDbEntity
  8
0
100
AcDbLine
 10
18.8928
 20
78.68223499999999
 30
0.0
 11
19.8928
 21
77.81623499999999
 31
0.0
  0
LINE
  5
6F
330
1E
100
AcDbEntity
  8
0
100
AcDbLine
 10
18.8928
 20
78.68223499999999
 30
0.0
 11
19.2053406695911
 21
79.7041051290025
 31
0.0
  0
LINE
  5
70
330
1E
100
AcDbEntity
  8
0
100
AcDbLine
 10
18.8928
 20
78.68223499999999
 30
0.0
 11
20.53479999999999
 21
78.60533499999999
 31
0.0
  0
LINE
  5
71
330
1E
100
AcDbEntity
  8
0
100
AcDbLine
 10
16.2067
 20
79.447035
 30
0.0
 11
20.3667
 21
76.370335
 31
0.0
  0
LINE
  5
72
330
1E
100
AcDbEntity
  8
0
100
AcDbLine
 10
17.5933
 20
78.263035
 30
0.0
 11
18.5634418974512
 21
77.7040090875269
 31
0.0
  0
LINE
  5
73
330
1E
100
AcDbEntity
  8
0
100
AcDbLine
 10
29.8097
 20
72.561735
 30
0.0
 11
30.0526992937624
 21
73.570136159045
 31
0.0
  0
LINE
  5
74
330
1E
100
AcDbEntity
  8
0
100
AcDbLine
 10
28.469
 20
72.44233499999999
 30
0.0
 11
29.8097
 21
72.561735
 31
0.0
  0
LINE
  5
75
330
1E
100
AcDbEntity
  8
0
100
AcDbLine
 10
28.3955
 20
73.268835
 30
0.0
 11
29.8097
 21
72.561735
 31
0.0
  0
LINE
  5
76
330
1E
100
AcDbEntity
  8
0
100
AcDbLine
 10
28.3955
 20
73.268835
 30
0.0
 11
28.53363388275269
 21
73.84206451566839
 31
0.0
  0
LINE
  5
77
330
1E
100
AcDbEntity
  8
0
100
AcDbLine
 10
27.0547
 20
73.149435
 30
0.0
 11
27.3052742752777
 21
74.1892709011859
 31
0.0
  0
LINE
  5
78
330
1E
100
AcDbEntity
  8
0
100
AcDbLine
 10
27.0547
 20
73.149435
 30
0.0
 11
28.469
 21
72.44233499999999
 31
0.0
  0
LINE
  5
79
330
1E
100
AcDbEntity
  8
0
100
AcDbLine
 10
27.0547
 20
73.149435
 30
0.0
 11
28.3955
 21
73.268835
 31
0.0
  0
LINE
  5
7A
330
1E
100
AcDbEntity
  8
0
100
AcDbLine
 10
32.69509999999999
 20
75.677435
 30
0.0
 11
33.0778011976497
 21
77.2239256484133
 31
0.0
  0
LINE
  5
7B
330
1E
100
AcDbEntity
  8
0
100
AcDbLine
 10
31.1746
 20
75.58943499999999
 30
0.0
 11
32.69509999999999
 21
75.677435
 31
0.0
  0
LINE
  5
7C
330
1E
100
AcDbEntity
  8
0
100
AcDbLine
 10
36.8661
 20
78.560535
 30
0.0
 11
38.5709
 21
78.746235
 31
0.0
  0
LINE
  5
7D
330
1E
100
AcDbEntity
  8
0
100
AcDbLine
 10
35.8661
 20
79.426535
 30
0.0
 11
36.8661
 21
78.560535
 31
0.0
  0
LINE
  5
7E
330
1E
100
AcDbEntity
  8
0
100
AcDbLine
 10
35.8661
 20
79.426535
 30
0.0
 11
35.98443139334249
 21
80.11884121383928
 31
0.0
  0
LINE
  5
7F
330
1E
100
AcDbEntity
  8
0
100
AcDbLine
 10
35.8661
 20
79.426535
 30
0.0
 11
37.5709
 21
79.612235
 31
0.0
  0
LINE
  5
80
330
1E
100
AcDbEntity
  8
0
100
AcDbLine
 10
31.4775
 20
76.47073499999999
 30
0.0
 11
32.69509999999999
 21
75.677435
 31
0.0
  0
LINE
  5
81
330
1E
100
AcDbEntity
  8
0
100
AcDbLine
 10
31.4775
 20
76.47073499999999
 30
0.0
 11
31.79653272568049
 21
77.75994216693042
 31
0.0
  0
LINE
  5
82
330
1E
100
AcDbEntity
  8
0
100
AcDbLine
 10
29.9571
 20
76.382835
 30
0.0
 11
30.09745276875889
 21
76.9499987447115
 31
0.0
  0
LINE
  5
83
330
1E
100
AcDbEntity
  8
0
100
AcDbLine
 10
29.9571
 20
76.382835
 30
0.0
 11
31.1746
 21
75.58943499999999
 31
0.0
  0
LINE
  5
84
330
1E
100
AcDbEntity
  8
0
100
AcDbLine
 10
29.9571
 20
76.382835
 30
0.0
 11
31.4775
 21
76.47073499999999
 31
0.0
  0
LINE
  5
85
330
1E
100
AcDbEntity
  8
0
100
AcDbLine
 10
25.22
 20
73.59703499999999
 30
0.0
 11
30.7667
 21
71.170535
 31
0.0
  0
LINE
  5
86
330
1E
100
AcDbEntity
  8
0
100
AcDbLine
 10
30.7667
 20
71.170535
 30
0.0
 11
36.92
 21
69.090535
 31
0.0
  0
LINE
  5
87
330
1E
100
AcDbEntity
  8
0
100
AcDbLine
 10
38.7507
 20
69.13133499999999
 30
0.0
 11
40.4827
 21
68.63133499999999
 31
0.0
  0
LINE
  5
88
330
1E
100
AcDbEntity
  8
0
100
AcDbLine
 10
38.7507
 20
69.13133499999999
 30
0.0
 11
38.8619733047866
 21
69.8021230831775
 31
0.0
  0
LINE
  5
89
330
1E
100
AcDbEntity
  8
0
100
AcDbLine
 10
37.8026
 20
68.86133499999999
 30
0.0
 11
37.9721771964567
 21
69.8835427152016
 31
0.0
  0
LINE
  5
8A
330
1E
100
AcDbEntity
  8
0
100
AcDbLine
 10
37.8026
 20
68.86133499999999
 30
0.0
 11
39.5347
 21
68.36133499999999
 31
0.0
  0
LINE
  5
8B
330
1E
100
AcDbEntity
  8
0
100
AcDbLine
 10
37.8026
 20
68.86133499999999
 30
0.0
 11
38.7507
 21
69.13133499999999
 31
0.0
  0
LINE
  5
8C
330
1E
100
AcDbEntity
  8
0
100
AcDbLine
 10
40.4827
 20
68.63133499999999
 30
0.0
 11
40.64940672846209
 21
69.6362920025114
 31
0.0
  0
LINE
  5
8D
330
1E
100
AcDbEntity
  8
0
100
AcDbLine
 10
40.53779999999999
 20
71.940635
 30
0.0
 11
40.8446625367384
 21
73.6032624032472
 31
0.0
  0
LINE
  5
8E
330
1E
100
AcDbEntity
  8
0
100
AcDbLine
 10
39.3711
 20
71.67583499999999
 30
0.0
 11
40.53779999999999
 21
71.940635
 31
0.0
  0
LINE
  5
8F
330
1E
100
AcDbEntity
  8
0
100
AcDbLine
 10
38.95109999999999
 20
72.549435
 30
0.0
 11
40.53779999999999
 21
71.940635
 31
0.0
  0
LINE
  5
90
330
1E
100
AcDbEntity
  8
0
100
AcDbLine
 10
38.95109999999999
 20
72.549435
 30
0.0
 11
39.18943222771149
 21
73.840754875935
 31
0.0
  0
LINE
  5
91
330
1E
100
AcDbEntity
  8
0
100
AcDbLine
 10
37.78439999999999
 20
72.28453499999999
 30
0.0
 11
37.88415613890649
 21
72.8250287727197
 31
0.0
  0
LINE
  5
92
330
1E
100
AcDbEntity
  8
0
100
AcDbLine
 10
37.78439999999999
 20
72.28453499999999
 30
0.0
 11
39.3711
 21
71.67583499999999
 31
0.0
  0
LINE
  5
93
330
1E
100
AcDbEntity
  8
0
100
AcDbLine
 10
37.78439999999999
 20
72.28453499999999
 30
0.0
 11
38.95109999999999
 21
72.549435
 31
0.0
  0
LINE
  5
94
330
1E
100
AcDbEntity
  8
0
100
AcDbLine
 10
42.3277
 20
75.21613499999999
 30
0.0
 11
43.7196
 21
75.60563499999999
 31
0.0
  0
LINE
  5
95
330
1E
100
AcDbEntity
  8
0
100
AcDbLine
 10
38.5709
 20
78.746235
 30
0.0
 11
38.75371379000299
 21
79.81614912608829
 31
0.0
  0
LINE
  5
96
330
1E
100
AcDbEntity
  8
0
100
AcDbLine
 10
42.3053
 20
76.31283499999999
 30
0.0
 11
43.7196
 21
75.60563499999999
 31
0.0
  0
LINE
  5
97
330
1E
100
AcDbEntity
  8
0
100
AcDbLine
 10
42.3053
 20
76.31283499999999
 30
0.0
 11
42.34524911278979
 21
76.6049968168773
 31
0.0
  0
LINE
  5
98
330
1E
100
AcDbEntity
  8
0
100
AcDbLine
 10
40.9134
 20
75.92323499999999
 30
0.0
 11
41.01027096147479
 21
76.6316861802822
 31
0.0
  0
LINE
  5
99
330
1E
100
AcDbEntity
  8
0
100
AcDbLine
 10
40.9134
 20
75.92323499999999
 30
0.0
 11
42.3277
 21
75.21613499999999
 31
0.0
  0
LINE
  5
9A
330
1E
100
AcDbEntity
  8
0
100
AcDbLine
 10
40.9134
 20
75.92323499999999
 30
0.0
 11
42.3053
 21
76.31283499999999
 31
0.0
  0
LINE
  5
9B
330
1E
100
AcDbEntity
  8
0
100
AcDbLine
 10
36.92
 20
69.090535
 30
0.0
 11
37.8058186427195
 21
68.8807369095082
 31
0.0
  0
LINE
  5
9C
330
1E
100
AcDbEntity
  8
0
100
AcDbLine
 10
39.7454387397066
 20
68.42135552713161
 30
0.0
 11
43.5067
 21
67.530535
 31
0.0
  0
LINE
  5
9D
330
1E
100
AcDbEntity
  8
0
100
AcDbLine
 10
49.3142
 20
68.95623499999999
 30
0.0
 11
50.0476
 21
69.34613500000001
 31
0.0
  0
LINE
  5
9E
330
1E
100
AcDbEntity
  8
0
100
AcDbLine
 10
48.19980000000001
 20
69.728835
 30
0.0
 11
50.0476
 21
69.34613500000001
 31
0.0
  0
LINE
  5
9F
330
1E
100
AcDbEntity
  8
0
100
AcDbLine
 10
48.19980000000001
 20
69.728835
 30
0.0
 11
48.35050621517161
 21
71.0533835946488
 31
0.0
  0
LINE
  5
A0
330
1E
100
AcDbEntity
  8
0
100
AcDbLine
 10
47.4664
 20
69.338835
 30
0.0
 11
47.65985531694299
 21
71.03919146321749
 31
0.0
  0
LINE
  5
A1
330
1E
100
AcDbEntity
  8
0
100
AcDbLine
 10
47.4664
 20
69.338835
 30
0.0
 11
49.3142
 21
68.95623499999999
 31
0.0
  0
LINE
  5
A2
330
1E
100
AcDbEntity
  8
0
100
AcDbLine
 10
47.4664
 20
69.338835
 30
0.0
 11
48.19980000000001
 21
69.728835
 31
0.0
  0
LINE
  5
A3
330
1E
100
AcDbEntity
  8
0
100
AcDbLine
 10
50.8947
 20
66.474935
 30
0.0
 11
52.82659999999999
 21
66.21613499999999
 31
0.0
  0
LINE
  5
A4
330
1E
100
AcDbEntity
  8
0
100
AcDbLine
 10
50.8947
 20
66.474935
 30
0.0
 11
50.95712475323889
 21
67.21379847276221
 31
0.0
  0
LINE
  5
A5
330
1E
100
AcDbEntity
  8
0
100
AcDbLine
 10
50.40399999999999
 20
66.110235
 30
0.0
 11
50.49176516496419
 21
67.1496070295545
 31
0.0
  0
LINE
  5
A6
330
1E
100
AcDbEntity
  8
0
100
AcDbLine
 10
50.40399999999999
 20
66.110235
 30
0.0
 11
52.33579999999999
 21
65.851435
 31
0.0
  0
LINE
  5
A7
330
1E
100
AcDbEntity
  8
0
100
AcDbLine
 10
50.40399999999999
 20
66.110235
 30
0.0
 11
50.8947
 21
66.474935
 31
0.0
  0
LINE
  5
A8
330
1E
100
AcDbEntity
  8
0
100
AcDbLine
 10
50.0476
 20
69.34613500000001
 30
0.0
 11
50.2390381665277
 21
71.02867446360291
 31
0.0
  0
LINE
  5
A9
330
1E
100
AcDbEntity
  8
0
100
AcDbLine
 10
49.3343
 20
72.69253499999999
 30
0.0
 11
50.3185
 21
73.23843499999999
 31
0.0
  0
LINE
  5
AA
330
1E
100
AcDbEntity
  8
0
100
AcDbLine
 10
43.7196
 20
75.60563499999999
 30
0.0
 11
43.8659049680607
 21
76.67610065795421
 31
0.0
  0
LINE
  5
AB
330
1E
100
AcDbEntity
  8
0
100
AcDbLine
 10
48.5864
 20
73.73843499999999
 30
0.0
 11
50.3185
 21
73.23843499999999
 31
0.0
  0
LINE
  5
AC
330
1E
100
AcDbEntity
  8
0
100
AcDbLine
 10
48.5864
 20
73.73843499999999
 30
0.0
 11
48.6135626536633
 21
74.0237119600964
 31
0.0
  0
LINE
  5
AD
330
1E
100
AcDbEntity
  8
0
100
AcDbLine
 10
50.5961
 20
77.35013499999999
 30
0.0
 11
50.65406160127889
 21
78.81761360128199
 31
0.0
  0
LINE
  5
AE
330
1E
100
AcDbEntity
  8
0
100
AcDbLine
 10
50.5961
 20
77.35013499999999
 30
0.0
 11
52.1828
 21
76.74133499999999
 31
0.0
  0
LINE
  5
AF
330
1E
100
AcDbEntity
  8
0
100
AcDbLine
 10
50.5961
 20
77.35013499999999
 30
0.0
 11
51.8116
 21
78.042435
 31
0.0
  0
LINE
  5
B0
330
1E
100
AcDbEntity
  8
0
100
AcDbLine
 10
50.3185
 20
73.23843499999999
 30
0.0
 11
50.4205955885014
 21
74.3106983910501
 31
0.0
  0
LINE
  5
B1
330
1E
100
AcDbEntity
  8
0
100
AcDbLine
 10
47.6022
 20
73.19253499999999
 30
0.0
 11
47.6684304507822
 21
73.8881232109003
 31
0.0
  0
LINE
  5
B2
330
1E
100
AcDbEntity
  8
0
100
AcDbLine
 10
47.6022
 20
73.19253499999999
 30
0.0
 11
49.3343
 21
72.69253499999999
 31
0.0
  0
LINE
  5
B3
330
1E
100
AcDbEntity
  8
0
100
AcDbLine
 10
47.6022
 20
73.19253499999999
 30
0.0
 11
48.5864
 21
73.73843499999999
 31
0.0
  0
LINE
  5
B4
330
1E
100
AcDbEntity
  8
0
100
AcDbLine
 10
43.5067
 20
67.530535
 30
0.0
 11
50.4217322916683
 21
66.3202323034573
 31
0.0
  0
LINE
  5
B5
330
1E
100
AcDbEntity
  8
0
100
AcDbLine
 10
27.05389999999999
 20
80.301735
 30
0.0
 11
27.50045129521669
 21
81.7968874441661
 31
0.0
  0
LINE
  5
B6
330
1E
100
AcDbEntity
  8
0
100
AcDbLine
 10
26.28849999999999
 20
81.225635
 30
0.0
 11
27.05389999999999
 21
80.301735
 31
0.0
  0
LINE
  5
B7
330
1E
100
AcDbEntity
  8
0
100
AcDbLine
 10
26.28849999999999
 20
81.225635
 30
0.0
 11
26.6777886721605
 21
82.52881289741969
 31
0.0
  0
LINE
  5
B8
330
1E
100
AcDbEntity
  8
0
100
AcDbLine
 10
25.2833
 20
80.43043500000001
 30
0.0
 11
27.05389999999999
 21
80.301735
 31
0.0
  0
LINE
  5
B9
330
1E
100
AcDbEntity
  8
0
100
AcDbLine
 10
24.5179
 20
81.35433499999999
 30
0.0
 11
25.2833
 21
80.43043500000001
 31
0.0
  0
LINE
  5
BA
330
1E
100
AcDbEntity
  8
0
100
AcDbLine
 10
24.5179
 20
81.35433499999999
 30
0.0
 11
24.6892535876293
 21
81.92792370742679
 31
0.0
  0
LINE
  5
BB
330
1E
100
AcDbEntity
  8
0
100
AcDbLine
 10
24.5179
 20
81.35433499999999
 30
0.0
 11
26.28849999999999
 21
81.225635
 31
0.0
  0
LINE
  5
BC
330
1E
100
AcDbEntity
  8
0
100
AcDbLine
 10
37.5709
 20
79.612235
 30
0.0
 11
38.5709
 21
78.746235
 31
0.0
  0
LINE
  5
BD
330
1E
100
AcDbEntity
  8
0
100
AcDbLine
 10
37.5709
 20
79.612235
 30
0.0
 11
37.6398706475519
 21
80.0158843641975
 31
0.0
  0
LINE
  5
BE
330
1E
100
AcDbEntity
  8
0
100
AcDbLine
 10
46.5715
 20
81.456935
 30
0.0
 11
46.6131213845074
 21
82.141966659299
 31
0.0
  0
LINE
  5
BF
330
1E
100
AcDbEntity
  8
0
100
AcDbLine
 10
44.72679999999999
 20
81.17463499999999
 30
0.0
 11
46.5715
 21
81.456935
 31
0.0
  0
LINE
  5
C0
330
1E
100
AcDbEntity
  8
0
100
AcDbLine
 10
15.7044
 20
84.77723500000001
 30
0.0
 11
16.2221
 21
83.811335
 31
0.0
  0
LINE
  5
C1
330
1E
100
AcDbEntity
  8
0
100
AcDbLine
 10
15.7044
 20
84.77723500000001
 30
0.0
 11
15.8717171280829
 21
85.2466812344064
 31
0.0
  0
LINE
  5
C2
330
1E
100
AcDbEntity
  8
0
100
AcDbLine
 10
16.2221
 20
83.811335
 30
0.0
 11
16.5544297003103
 21
84.7439132509602
 31
0.0
  0
LINE
  5
C3
330
1E
100
AcDbEntity
  8
0
100
AcDbLine
 10
14.3906
 20
84.116935
 30
0.0
 11
16.2221
 21
83.811335
 31
0.0
  0
LINE
  5
C4
330
1E
100
AcDbEntity
  8
0
100
AcDbLine
 10
13.8729
 20
85.082835
 30
0.0
 11
14.3906
 21
84.116935
 31
0.0
  0
LINE
  5
C5
330
1E
100
AcDbEntity
  8
0
100
AcDbLine
 10
13.8729
 20
85.082835
 30
0.0
 11
14.23680501495939
 21
86.10385323591939
 31
0.0
  0
LINE
  5
C6
330
1E
100
AcDbEntity
  8
0
100
AcDbLine
 10
13.8729
 20
85.082835
 30
0.0
 11
15.7044
 21
84.77723500000001
 31
0.0
  0
LINE
  5
C7
330
1E
100
AcDbEntity
  8
0
100
AcDbLine
 10
23.99859999999999
 20
85.49863499999998
 30
0.0
 11
24.48918932721449
 21
86.9664242952802
 31
0.0
  0
LINE
  5
C8
330
1E
100
AcDbEntity
  8
0
100
AcDbLine
 10
23.99859999999999
 20
85.49863499999998
 30
0.0
 11
24.48918932721449
 21
86.9664242952802
 31
0.0
  0
LINE
  5
C9
330
1E
100
AcDbEntity
  8
0
100
AcDbLine
 10
22.0986
 20
85.868835
 30
0.0
 11
23.99859999999999
 21
85.49863499999998
 31
0.0
  0
LINE
  5
CA
330
1E
100
AcDbEntity
  8
0
100
AcDbLine
 10
35.2233
 20
82.446035
 30
0.0
 11
35.4292711884877
 21
83.50120785761708
 31
0.0
  0
LINE
  5
CB
330
1E
100
AcDbEntity
  8
0
100
AcDbLine
 10
34.70559999999999
 20
83.41193500000001
 30
0.0
 11
35.2233
 21
82.446035
 31
0.0
  0
LINE
  5
CC
330
1E
100
AcDbEntity
  8
0
100
AcDbLine
 10
34.70559999999999
 20
83.41193500000001
 30
0.0
 11
34.7835856498477
 21
83.81135477361999
 31
0.0
  0
LINE
  5
CD
330
1E
100
AcDbEntity
  8
0
100
AcDbLine
 10
33.3219
 20
82.49773499999999
 30
0.0
 11
35.2233
 21
82.446035
 31
0.0
  0
LINE
  5
CE
330
1E
100
AcDbEntity
  8
0
100
AcDbLine
 10
32.80429999999999
 20
83.463635
 30
0.0
 11
33.3219
 21
82.49773499999999
 31
0.0
  0
LINE
  5
CF
330
1E
100
AcDbEntity
  8
0
100
AcDbLine
 10
32.80429999999999
 20
83.463635
 30
0.0
 11
32.9296385940819
 21
84.1057339433434
 31
0.0
  0
LINE
  5
D0
330
1E
100
AcDbEntity
  8
0
100
AcDbLine
 10
32.80429999999999
 20
83.463635
 30
0.0
 11
34.70559999999999
 21
83.41193500000001
 31
0.0
  0
LINE
  5
D1
330
1E
100
AcDbEntity
  8
0
100
AcDbLine
 10
23.7376
 20
86.49003499999999
 30
0.0
 11
23.99859999999999
 21
85.49863499999998
 31
0.0
  0
LINE
  5
D2
330
1E
100
AcDbEntity
  8
0
100
AcDbLine
 10
23.7376
 20
86.49003499999999
 30
0.0
 11
24.1666911366228
 21
87.77405485337499
 31
0.0
  0
LINE
  5
D3
330
1E
100
AcDbEntity
  8
0
100
AcDbLine
 10
33.90489999999999
 20
86.453035
 30
0.0
 11
33.90489999999999
 21
87.453035
 31
0.0
  0
LINE
  5
D4
330
1E
100
AcDbEntity
  8
0
100
AcDbLine
 10
33.90489999999999
 20
86.453035
 30
0.0
 11
34.1169624780861
 21
87.4748069231019
 31
0.0
  0
LINE
  5
D5
330
1E
100
AcDbEntity
  8
0
100
AcDbLine
 10
45.80619999999999
 20
82.380835
 30
0.0
 11
46.5715
 21
81.456935
 31
0.0
  0
LINE
  5
D6
330
1E
100
AcDbEntity
  8
0
100
AcDbLine
 10
45.80619999999999
 20
82.380835
 30
0.0
 11
45.865379493822
 21
83.35484937576181
 31
0.0
  0
LINE
  5
D7
330
1E
100
AcDbEntity
  8
0
100
AcDbLine
 10
43.9615
 20
82.09853499999999
 30
0.0
 11
44.72679999999999
 21
81.17463499999999
 31
0.0
  0
LINE
  5
D8
330
1E
100
AcDbEntity
  8
0
100
AcDbLine
 10
43.9615
 20
82.09853499999999
 30
0.0
 11
43.9841307914305
 21
82.4710071988072
 31
0.0
  0
LINE
  5
D9
330
1E
100
AcDbEntity
  8
0
100
AcDbLine
 10
43.9615
 20
82.09853499999999
 30
0.0
 11
45.80619999999999
 21
82.380835
 31
0.0
  0
LINE
  5
DA
330
1E
100
AcDbEntity
  8
0
100
AcDbLine
 10
13.0867
 20
82.74033499999999
 30
0.0
 11
16.2067
 21
79.447035
 31
0.0
  0
LINE
  5
DB
330
1E
100
AcDbEntity
  8
0
100
AcDbLine
 10
15.5133
 20
79.583735
 30
0.0
 11
17.5933
 21
78.263035
 31
0.0
  0
LINE
  5
DC
330
1E
100
AcDbEntity
  8
0
100
AcDbLine
 10
10.92
 20
83.00713499999998
 30
0.0
 11
15.5133
 21
79.583735
 31
0.0
  0
LINE
  5
DD
330
1E
100
AcDbEntity
  8
0
100
AcDbLine
 10
15.33999999999999
 20
79.49723500000001
 30
0.0
 11
18.4507529734575
 21
77.76894394780519
 31
0.0
  0
LINE
  5
DE
330
1E
100
AcDbEntity
  8
0
100
AcDbLine
 10
10.7467
 20
82.96373499999999
 30
0.0
 11
15.33999999999999
 21
79.49723500000001
 31
0.0
  0
LINE
  5
DF
330
1E
100
AcDbEntity
  8
0
100
AcDbLine
 10
21.83749999999999
 20
86.86033499999998
 30
0.0
 11
22.0986
 21
85.868835
 31
0.0
  0
LINE
  5
E0
330
1E
100
AcDbEntity
  8
0
100
AcDbLine
 10
21.83749999999999
 20
86.86033499999998
 30
0.0
 11
22.0110005341837
 21
87.37952104568799
 31
0.0
  0
LINE
  5
E1
330
1E
100
AcDbEntity
  8
0
100
AcDbLine
 10
21.83749999999999
 20
86.86033499999998
 30
0.0
 11
23.7376
 21
86.49003499999999
 31
0.0
  0
LINE
  5
E2
330
1E
100
AcDbEntity
  8
0
100
AcDbLine
 10
31.93649999999999
 20
86.759435
 30
0.0
 11
33.90489999999999
 21
86.453035
 31
0.0
  0
LINE
  5
E3
330
1E
100
AcDbEntity
  8
0
100
AcDbLine
 10
31.93649999999999
 20
86.759435
 30
0.0
 11
31.93649999999999
 21
87.759435
 31
0.0
  0
LINE
  5
E4
330
1E
100
AcDbEntity
  8
0
100
AcDbLine
 10
33.90489999999999
 20
87.453035
 30
0.0
 11
34.0372094626741
 21
88.09053624652479
 31
0.0
  0
LINE
  5
E5
330
1E
100
AcDbEntity
  8
0
100
AcDbLine
 10
33.90489999999999
 20
87.453035
 30
0.0
 11
33.90489999999999
 21
86.453035
 31
0.0
  0
LINE
  5
E6
330
1E
100
AcDbEntity
  8
0
100
AcDbLine
 10
31.93649999999999
 20
87.759435
 30
0.0
 11
31.93649999999999
 21
86.759435
 31
0.0
  0
LINE
  5
E7
330
1E
100
AcDbEntity
  8
0
100
AcDbLine
 10
31.93649999999999
 20
87.759435
 30
0.0
 11
32.04585696772239
 21
88.28634518337
 31
0.0
  0
LINE
  5
E8
330
1E
100
AcDbEntity
  8
0
100
AcDbLine
 10
31.93649999999999
 20
87.759435
 30
0.0
 11
33.90489999999999
 21
87.453035
 31
0.0
  0
LINE
  5
E9
330
1E
100
AcDbEntity
  8
0
100
AcDbLine
 10
44.68259999999999
 20
86.647835
 30
0.0
 11
44.94369999999999
 21
87.639335
 31
0.0
  0
LINE
  5
EA
330
1E
100
AcDbEntity
  8
0
100
AcDbLine
 10
44.94369999999999
 20
87.639335
 30
0.0
 11
45.0002032755021
 21
88.49113919530978
 31
0.0
  0
LINE
  5
EB
330
1E
100
AcDbEntity
  8
0
100
AcDbLine
 10
42.9641
 20
87.86933499999999
 30
0.0
 11
43.0089065537697
 21
88.544846765545
 31
0.0
  0
LINE
  5
EC
330
1E
100
AcDbEntity
  8
0
100
AcDbLine
 10
42.9641
 20
87.86933499999999
 30
0.0
 11
44.94369999999999
 21
87.639335
 31
0.0
  0
LINE
  5
ED
330
1E
100
AcDbEntity
  8
0
100
AcDbLine
 10
42.703
 20
86.87793499999999
 30
0.0
 11
42.7925991838956
 21
88.22867015757159
 31
0.0
  0
LINE
  5
EE
330
1E
100
AcDbEntity
  8
0
100
AcDbLine
 10
42.703
 20
86.87793499999999
 30
0.0
 11
42.9641
 21
87.86933499999999
 31
0.0
  0
LINE
  5
EF
330
1E
100
AcDbEntity
  8
0
100
AcDbLine
 10
42.703
 20
86.87793499999999
 30
0.0
 11
44.68259999999999
 21
86.647835
 31
0.0
  0
LINE
  5
F0
330
1E
100
AcDbEntity
  8
0
100
AcDbLine
 10
14.2334
 20
90.363935
 30
0.0
 11
14.2334
 21
91.363935
 31
0.0
  0
LINE
  5
F1
330
1E
100
AcDbEntity
  8
0
100
AcDbLine
 10
14.2334
 20
90.363935
 30
0.0
 11
14.5590723612746
 21
91.20453007143829
 31
0.0
  0
LINE
  5
F2
330
1E
100
AcDbEntity
  8
0
100
AcDbLine
 10
34.70559999999999
 20
90.494035
 30
0.0
 11
35.2233
 21
91.45993500000001
 31
0.0
  0
LINE
  5
F3
330
1E
100
AcDbEntity
  8
0
100
AcDbLine
 10
9.27329999999999
 20
89.80363500000001
 30
0.0
 11
10.66
 21
86.20703500000001
 31
0.0
  0
LINE
  5
F4
330
1E
100
AcDbEntity
  8
0
100
AcDbLine
 10
7.36669999999999
 20
86.64713499999999
 30
0.0
 11
10.92
 21
83.00713499999998
 31
0.0
  0
LINE
  5
F5
330
1E
100
AcDbEntity
  8
0
100
AcDbLine
 10
7.193299999999999
 20
86.603735
 30
0.0
 11
10.7467
 21
82.96373499999999
 31
0.0
  0
LINE
  5
F6
330
1E
100
AcDbEntity
  8
0
100
AcDbLine
 10
5.719999999999999
 20
88.57613499999999
 30
0.0
 11
7.193299999999999
 21
86.603735
 31
0.0
  0
LINE
  5
F7
330
1E
100
AcDbEntity
  8
0
100
AcDbLine
 10
12.3373
 20
90.914935
 30
0.0
 11
14.2334
 21
90.363935
 31
0.0
  0
LINE
  5
F8
330
1E
100
AcDbEntity
  8
0
100
AcDbLine
 10
12.3373
 20
90.914935
 30
0.0
 11
12.3373
 21
91.91493499999999
 31
0.0
  0
LINE
  5
F9
330
1E
100
AcDbEntity
  8
0
100
AcDbLine
 10
23.7376
 20
90.91373500000001
 30
0.0
 11
23.99859999999999
 21
91.90513499999999
 31
0.0
  0
LINE
  5
FA
330
1E
100
AcDbEntity
  8
0
100
AcDbLine
 10
23.7376
 20
90.91373500000001
 30
0.0
 11
24.2398561409742
 21
92.3505365120833
 31
0.0
  0
LINE
  5
FB
330
1E
100
AcDbEntity
  8
0
100
AcDbLine
 10
14.2334
 20
91.363935
 30
0.0
 11
14.3783808848568
 21
91.738146114466
 31
0.0
  0
LINE
  5
FC
330
1E
100
AcDbEntity
  8
0
100
AcDbLine
 10
14.2334
 20
91.363935
 30
0.0
 11
14.2334
 21
90.363935
 31
0.0
  0
LINE
  5
FD
330
1E
100
AcDbEntity
  8
0
100
AcDbLine
 10
12.3373
 20
91.91493499999999
 30
0.0
 11
12.3373
 21
90.914935
 31
0.0
  0
LINE
  5
FE
330
1E
100
AcDbEntity
  8
0
100
AcDbLine
 10
12.3373
 20
91.91493499999999
 30
0.0
 11
12.7198616285077
 21
92.90236733287109
 31
0.0
  0
LINE
  5
FF
330
1E
100
AcDbEntity
  8
0
100
AcDbLine
 10
12.3373
 20
91.91493499999999
 30
0.0
 11
14.2334
 21
91.363935
 31
0.0
  0
LINE
  5
100
330
1E
100
AcDbEntity
  8
0
100
AcDbLine
 10
23.99859999999999
 20
91.90513499999999
 30
0.0
 11
24.162525090164
 21
92.37402087144252
 31
0.0
  0
LINE
  5
101
330
1E
100
AcDbEntity
  8
0
100
AcDbLine
 10
22.0986
 20
92.52563499999999
 30
0.0
 11
22.2487624197871
 21
92.9552038478587
 31
0.0
  0
LINE
  5
102
330
1E
100
AcDbEntity
  8
0
100
AcDbLine
 10
22.0986
 20
92.52563499999999
 30
0.0
 11
23.99859999999999
 21
91.90513499999999
 31
0.0
  0
LINE
  5
103
330
1E
100
AcDbEntity
  8
0
100
AcDbLine
 10
21.83749999999999
 20
91.53413499999999
 30
0.0
 11
22.0986
 21
92.52563499999999
 31
0.0
  0
LINE
  5
104
330
1E
100
AcDbEntity
  8
0
100
AcDbLine
 10
21.83749999999999
 20
91.53413499999999
 30
0.0
 11
23.7376
 21
90.91373500000001
 31
0.0
  0
LINE
  5
105
330
1E
100
AcDbEntity
  8
0
100
AcDbLine
 10
35.2233
 20
91.45993500000001
 30
0.0
 11
35.3458952107219
 21
92.0551514313365
 31
0.0
  0
LINE
  5
106
330
1E
100
AcDbEntity
  8
0
100
AcDbLine
 10
33.3219
 20
92.02113500000001
 30
0.0
 11
33.3684157252019
 21
92.24689549308779
 31
0.0
  0
LINE
  5
107
330
1E
100
AcDbEntity
  8
0
100
AcDbLine
 10
33.3219
 20
92.02113500000001
 30
0.0
 11
35.2233
 21
91.45993500000001
 31
0.0
  0
LINE
  5
108
330
1E
100
AcDbEntity
  8
0
100
AcDbLine
 10
32.80429999999999
 20
91.055235
 30
0.0
 11
33.020933694794
 21
92.10695766986772
 31
0.0
  0
LINE
  5
109
330
1E
100
AcDbEntity
  8
0
100
AcDbLine
 10
32.80429999999999
 20
91.055235
 30
0.0
 11
33.3219
 21
92.02113500000001
 31
0.0
  0
LINE
  5
10A
330
1E
100
AcDbEntity
  8
0
100
AcDbLine
 10
32.80429999999999
 20
91.055235
 30
0.0
 11
34.70559999999999
 21
90.494035
 31
0.0
  0
LINE
  5
10B
330
1E
100
AcDbEntity
  8
0
100
AcDbLine
 10
48.23769999999999
 20
91.61563499999999
 30
0.0
 11
49.4553
 21
92.408935
 31
0.0
  0
LINE
  5
10C
330
1E
100
AcDbEntity
  8
0
100
AcDbLine
 10
49.4553
 20
92.408935
 30
0.0
 11
49.5017069496971
 21
93.27008126699729
 31
0.0
  0
LINE
  5
10D
330
1E
100
AcDbEntity
  8
0
100
AcDbLine
 10
47.8712
 20
93.116435
 30
0.0
 11
47.9058829129712
 21
93.75928317138392
 31
0.0
  0
LINE
  5
10E
330
1E
100
AcDbEntity
  8
0
100
AcDbLine
 10
47.8712
 20
93.116435
 30
0.0
 11
49.4553
 21
92.408935
 31
0.0
  0
LINE
  5
10F
330
1E
100
AcDbEntity
  8
0
100
AcDbLine
 10
46.6537
 20
92.323135
 30
0.0
 11
46.7351431157347
 21
93.83433743555499
 31
0.0
  0
LINE
  5
110
330
1E
100
AcDbEntity
  8
0
100
AcDbLine
 10
46.6537
 20
92.323135
 30
0.0
 11
47.8712
 21
93.116435
 31
0.0
  0
LINE
  5
111
330
1E
100
AcDbEntity
  8
0
100
AcDbLine
 10
46.6537
 20
92.323135
 30
0.0
 11
48.23769999999999
 21
91.61563499999999
 31
0.0
  0
LINE
  5
112
330
1E
100
AcDbEntity
  8
0
100
AcDbLine
 10
37.5709
 20
94.293735
 30
0.0
 11
38.5709
 21
95.159835
 31
0.0
  0
LINE
  5
113
330
1E
100
AcDbEntity
  8
0
100
AcDbLine
 10
26.28849999999999
 20
96.178035
 30
0.0
 11
27.05389999999999
 21
97.101935
 31
0.0
  0
LINE
  5
114
330
1E
100
AcDbEntity
  8
0
100
AcDbLine
 10
38.5709
 20
95.159835
 30
0.0
 11
38.677612367452
 21
95.72272184163141
 31
0.0
  0
LINE
  5
115
330
1E
100
AcDbEntity
  8
0
100
AcDbLine
 10
36.8661
 20
95.95833499999999
 30
0.0
 11
36.88366786243929
 21
96.05097753200849
 31
0.0
  0
LINE
  5
116
330
1E
100
AcDbEntity
  8
0
100
AcDbLine
 10
36.8661
 20
95.95833499999999
 30
0.0
 11
36.88366786243929
 21
96.05097753200849
 31
0.0
  0
LINE
  5
117
330
1E
100
AcDbEntity
  8
0
100
AcDbLine
 10
36.8661
 20
95.95833499999999
 30
0.0
 11
38.5709
 21
95.159835
 31
0.0
  0
LINE
  5
118
330
1E
100
AcDbEntity
  8
0
100
AcDbLine
 10
35.8661
 20
95.09233499999998
 30
0.0
 11
36.0599827846671
 21
96.11469505409109
 31
0.0
  0
LINE
  5
119
330
1E
100
AcDbEntity
  8
0
100
AcDbLine
 10
35.8661
 20
95.09233499999998
 30
0.0
 11
36.8661
 21
95.95833499999999
 31
0.0
  0
LINE
  5
11A
330
1E
100
AcDbEntity
  8
0
100
AcDbLine
 10
35.8661
 20
95.09233499999998
 30
0.0
 11
37.5709
 21
94.293735
 31
0.0
  0
LINE
  5
11B
330
1E
100
AcDbEntity
  8
0
100
AcDbLine
 10
8.6667
 20
94.362335
 30
0.0
 11
9.27329999999999
 21
98.045635
 31
0.0
  0
LINE
  5
11C
330
1E
100
AcDbEntity
  8
0
100
AcDbLine
 10
8.6667
 20
94.362335
 30
0.0
 11
8.6667
 21
93.48703499999999
 31
0.0
  0
LINE
  5
11D
330
1E
100
AcDbEntity
  8
0
100
AcDbLine
 10
8.6667
 20
93.48703499999999
 30
0.0
 11
9.27329999999999
 21
89.80363500000001
 31
0.0
  0
LINE
  5
11E
330
1E
100
AcDbEntity
  8
0
100
AcDbLine
 10
8.6667
 20
93.48703499999999
 30
0.0
 11
8.6667
 21
94.362335
 31
0.0
  0
LINE
  5
11F
330
1E
100
AcDbEntity
  8
0
100
AcDbLine
 10
8.6667
 20
93.48703499999999
 30
0.0
 11
9.27329999999999
 21
97.17033499999999
 31
0.0
  0
LINE
  5
120
330
1E
100
AcDbEntity
  8
0
100
AcDbLine
 10
3.12
 20
94.490435
 30
0.0
 11
4.76669999999999
 21
90.50373499999999
 31
0.0
  0
LINE
  5
121
330
1E
100
AcDbEntity
  8
0
100
AcDbLine
 10
4.5933
 20
90.50373499999999
 30
0.0
 11
7.193299999999999
 21
86.603735
 31
0.0
  0
LINE
  5
122
330
1E
100
AcDbEntity
  8
0
100
AcDbLine
 10
3.03329999999999
 20
92.562835
 30
0.0
 11
5.719999999999999
 21
88.57613499999999
 31
0.0
  0
LINE
  5
123
330
1E
100
AcDbEntity
  8
0
100
AcDbLine
 10
9.27329999999999
 20
97.17033499999999
 30
0.0
 11
10.66
 21
100.766635
 31
0.0
  0
LINE
  5
124
330
1E
100
AcDbEntity
  8
0
100
AcDbLine
 10
15.7044
 20
96.95063499999999
 30
0.0
 11
16.2221
 21
97.916635
 31
0.0
  0
LINE
  5
125
330
1E
100
AcDbEntity
  8
0
100
AcDbLine
 10
16.2221
 20
97.916635
 30
0.0
 11
16.5310526426457
 21
98.70080658134179
 31
0.0
  0
LINE
  5
126
330
1E
100
AcDbEntity
  8
0
100
AcDbLine
 10
13.8729
 20
97.74703500000001
 30
0.0
 11
14.07314202657
 21
98.2551988282481
 31
0.0
  0
LINE
  5
127
330
1E
100
AcDbEntity
  8
0
100
AcDbLine
 10
13.8729
 20
97.74703500000001
 30
0.0
 11
14.3906
 21
98.712935
 31
0.0
  0
LINE
  5
128
330
1E
100
AcDbEntity
  8
0
100
AcDbLine
 10
13.8729
 20
97.74703500000001
 30
0.0
 11
15.7044
 21
96.95063499999999
 31
0.0
  0
LINE
  5
129
330
1E
100
AcDbEntity
  8
0
100
AcDbLine
 10
27.05389999999999
 20
97.101935
 30
0.0
 11
27.181338028309
 21
97.47583200092257
 31
0.0
  0
LINE
  5
12A
330
1E
100
AcDbEntity
  8
0
100
AcDbLine
 10
25.2833
 20
97.964035
 30
0.0
 11
25.7637178654365
 21
99.3732910393305
 31
0.0
  0
LINE
  5
12B
330
1E
100
AcDbEntity
  8
0
100
AcDbLine
 10
25.2833
 20
97.964035
 30
0.0
 11
27.05389999999999
 21
97.101935
 31
0.0
  0
LINE
  5
12C
330
1E
100
AcDbEntity
  8
0
100
AcDbLine
 10
24.5179
 20
97.040135
 30
0.0
 11
25.00626558000199
 21
98.47270483666441
 31
0.0
  0
LINE
  5
12D
330
1E
100
AcDbEntity
  8
0
100
AcDbLine
 10
24.5179
 20
97.040135
 30
0.0
 11
25.2833
 21
97.964035
 31
0.0
  0
LINE
  5
12E
330
1E
100
AcDbEntity
  8
0
100
AcDbLine
 10
24.5179
 20
97.040135
 30
0.0
 11
26.28849999999999
 21
96.178035
 31
0.0
  0
LINE
  5
12F
330
1E
100
AcDbEntity
  8
0
100
AcDbLine
 10
42.3053
 20
97.593235
 30
0.0
 11
43.7196
 21
98.300335
 31
0.0
  0
LINE
  5
130
330
1E
100
AcDbEntity
  8
0
100
AcDbLine
 10
43.7196
 20
98.300335
 30
0.0
 11
43.8077962952548
 21
98.85737165727519
 31
0.0
  0
LINE
  5
131
330
1E
100
AcDbEntity
  8
0
100
AcDbLine
 10
9.27329999999999
 20
98.045635
 30
0.0
 11
10.66
 21
101.6426349999999
 31
0.0
  0
LINE
  5
132
330
1E
100
AcDbEntity
  8
0
100
AcDbLine
 10
10.66
 20
100.766635
 30
0.0
 11
13.0867
 21
104.233635
 31
0.0
  0
LINE
  5
133
330
1E
100
AcDbEntity
  8
0
100
AcDbLine
 10
14.3906
 20
98.712935
 30
0.0
 11
14.48350382979749
 21
98.94875500605081
 31
0.0
  0
LINE
  5
134
330
1E
100
AcDbEntity
  8
0
100
AcDbLine
 10
14.3906
 20
98.712935
 30
0.0
 11
16.2221
 21
97.916635
 31
0.0
  0
LINE
  5
135
330
1E
100
AcDbEntity
  8
0
100
AcDbLine
 10
42.3277
 20
99.302735
 30
0.0
 11
42.36164956145739
 21
99.51715614065591
 31
0.0
  0
LINE
  5
136
330
1E
100
AcDbEntity
  8
0
100
AcDbLine
 10
42.3277
 20
99.302735
 30
0.0
 11
43.7196
 21
98.300335
 31
0.0
  0
LINE
  5
137
330
1E
100
AcDbEntity
  8
0
100
AcDbLine
 10
40.9134
 20
98.595635
 30
0.0
 11
41.0795835017421
 21
99.64480949780909
 31
0.0
  0
LINE
  5
138
330
1E
100
AcDbEntity
  8
0
100
AcDbLine
 10
40.9134
 20
98.595635
 30
0.0
 11
42.3277
 21
99.302735
 31
0.0
  0
LINE
  5
139
330
1E
100
AcDbEntity
  8
0
100
AcDbLine
 10
40.9134
 20
98.595635
 30
0.0
 11
42.3053
 21
97.593235
 31
0.0
  0
LINE
  5
13A
330
1E
100
AcDbEntity
  8
0
100
AcDbLine
 10
31.4775
 20
100.932935
 30
0.0
 11
32.69509999999999
 21
101.7263349999999
 31
0.0
  0
LINE
  5
13B
330
1E
100
AcDbEntity
  8
0
100
AcDbLine
 10
48.5864
 20
100.1675349999999
 30
0.0
 11
50.3185
 21
100.667535
 31
0.0
  0
LINE
  5
13C
330
1E
100
AcDbEntity
  8
0
100
AcDbLine
 10
50.3185
 20
100.667535
 30
0.0
 11
50.3805233026867
 21
101.211544929048
 31
0.0
  0
LINE
  5
13D
330
1E
100
AcDbEntity
  8
0
100
AcDbLine
 10
32.69509999999999
 20
101.7263349999999
 30
0.0
 11
33.1489
 21
103.2119349999999
 31
0.0
  0
LINE
  5
13E
330
1E
100
AcDbEntity
  8
0
100
AcDbLine
 10
29.9571
 20
102.0116349999999
 30
0.0
 11
30.4109
 21
103.497235
 31
0.0
  0
LINE
  5
13F
330
1E
100
AcDbEntity
  8
0
100
AcDbLine
 10
29.9571
 20
102.0116349999999
 30
0.0
 11
31.1746
 21
102.805035
 31
0.0
  0
LINE
  5
140
330
1E
100
AcDbEntity
  8
0
100
AcDbLine
 10
29.9571
 20
102.0116349999999
 30
0.0
 11
31.4775
 21
100.932935
 31
0.0
  0
LINE
  5
141
330
1E
100
AcDbEntity
  8
0
100
AcDbLine
 10
49.3343
 20
101.826335
 30
0.0
 11
49.369160660763
 21
102.1320801394779
 31
0.0
  0
LINE
  5
142
330
1E
100
AcDbEntity
  8
0
100
AcDbLine
 10
49.3343
 20
101.826335
 30
0.0
 11
50.3185
 21
100.667535
 31
0.0
  0
LINE
  5
143
330
1E
100
AcDbEntity
  8
0
100
AcDbLine
 10
47.6022
 20
101.326335
 30
0.0
 11
47.6318702212425
 21
101.5865574322089
 31
0.0
  0
LINE
  5
144
330
1E
100
AcDbEntity
  8
0
100
AcDbLine
 10
47.6022
 20
101.326335
 30
0.0
 11
49.3343
 21
101.826335
 31
0.0
  0
LINE
  5
145
330
1E
100
AcDbEntity
  8
0
100
AcDbLine
 10
47.6022
 20
101.326335
 30
0.0
 11
48.5864
 21
100.1675349999999
 31
0.0
  0
LINE
  5
146
330
1E
100
AcDbEntity
  8
0
100
AcDbLine
 10
10.66
 20
101.6426349999999
 30
0.0
 11
13.0867
 21
105.108635
 31
0.0
  0
LINE
  5
147
330
1E
100
AcDbEntity
  8
0
100
AcDbLine
 10
31.1746
 20
102.805035
 30
0.0
 11
31.6284
 21
104.2906349999999
 31
0.0
  0
LINE
  5
148
330
1E
100
AcDbEntity
  8
0
100
AcDbLine
 10
31.1746
 20
102.805035
 30
0.0
 11
32.69509999999999
 21
101.7263349999999
 31
0.0
  0
LINE
  5
149
330
1E
100
AcDbEntity
  8
0
100
AcDbLine
 10
3.12
 20
102.6366349999999
 30
0.0
 11
4.76669999999999
 21
106.623635
 31
0.0
  0
LINE
  5
14A
330
1E
100
AcDbEntity
  8
0
100
AcDbLine
 10
2.946699999999999
 20
102.6366349999999
 30
0.0
 11
4.5933
 21
106.623635
 31
0.0
  0
LINE
  5
14B
330
1E
100
AcDbEntity
  8
0
100
AcDbLine
 10
2.5133
 20
98.563735
 30
0.0
 11
3.12
 21
94.490435
 31
0.0
  0
LINE
  5
14C
330
1E
100
AcDbEntity
  8
0
100
AcDbLine
 10
2.5133
 20
98.563735
 30
0.0
 11
3.12
 21
102.6366349999999
 31
0.0
  0
LINE
  5
14D
330
1E
100
AcDbEntity
  8
0
100
AcDbLine
 10
2.33999999999999
 20
98.563735
 30
0.0
 11
2.946699999999999
 21
94.490435
 31
0.0
  0
LINE
  5
14E
330
1E
100
AcDbEntity
  8
0
100
AcDbLine
 10
2.33999999999999
 20
98.563735
 30
0.0
 11
2.946699999999999
 21
102.6366349999999
 31
0.0
  0
LINE
  5
14F
330
1E
100
AcDbEntity
  8
0
100
AcDbLine
 10
1.29999999999999
 20
96.67943499999999
 30
0.0
 11
3.03329999999999
 21
92.562835
 31
0.0
  0
LINE
  5
150
330
1E
100
AcDbEntity
  8
0
100
AcDbLine
 10
0.6933000000000041
 20
98.868535
 30
0.0
 11
1.29999999999999
 21
96.67943499999999
 31
0.0
  0
LINE
  5
151
330
1E
100
AcDbEntity
  8
0
100
AcDbLine
 10
3.03329999999999
 20
113.667635
 30
0.0
 11
5.719999999999999
 21
117.654635
 31
0.0
  0
LINE
  5
152
330
1E
100
AcDbEntity
  8
0
100
AcDbLine
 10
1.29999999999999
 20
109.550635
 30
0.0
 11
3.03329999999999
 21
113.667635
 31
0.0
  0
LINE
  5
153
330
1E
100
AcDbEntity
  8
0
100
AcDbLine
 10
0.6933000000000041
 20
107.3616349999999
 30
0.0
 11
1.29999999999999
 21
109.550635
 31
0.0
  0
LINE
  5
154
330
1E
100
AcDbEntity
  8
0
100
AcDbLine
 10
13.0867
 20
104.233635
 30
0.0
 11
16.2067
 21
107.526635
 31
0.0
  0
LINE
  5
155
330
1E
100
AcDbEntity
  8
0
100
AcDbLine
 10
20.53479999999999
 20
103.122635
 30
0.0
 11
21.5348
 21
103.9886349999999
 31
0.0
  0
LINE
  5
156
330
1E
100
AcDbEntity
  8
0
100
AcDbLine
 10
21.5348
 20
103.9886349999999
 30
0.0
 11
21.8127219746616
 21
104.736653672274
 31
0.0
  0
LINE
  5
157
330
1E
100
AcDbEntity
  8
0
100
AcDbLine
 10
18.8928
 20
104.1476349999999
 30
0.0
 11
19.375259431338
 21
105.4463958216999
 31
0.0
  0
LINE
  5
158
330
1E
100
AcDbEntity
  8
0
100
AcDbLine
 10
18.8928
 20
104.1476349999999
 30
0.0
 11
19.8928
 21
105.013635
 31
0.0
  0
LINE
  5
159
330
1E
100
AcDbEntity
  8
0
100
AcDbLine
 10
18.8928
 20
104.1476349999999
 30
0.0
 11
20.53479999999999
 21
103.122635
 31
0.0
  0
LINE
  5
15A
330
1E
100
AcDbEntity
  8
0
100
AcDbLine
 10
19.8928
 20
105.013635
 30
0.0
 11
20.4279674884862
 21
106.454283730123
 31
0.0
  0
LINE
  5
15B
330
1E
100
AcDbEntity
  8
0
100
AcDbLine
 10
19.8928
 20
105.013635
 30
0.0
 11
21.5348
 21
103.9886349999999
 31
0.0
  0
LINE
  5
15C
330
1E
100
AcDbEntity
  8
0
100
AcDbLine
 10
38.95109999999999
 20
104.8543349999999
 30
0.0
 11
40.53779999999999
 21
105.462635
 31
0.0
  0
LINE
  5
15D
330
1E
100
AcDbEntity
  8
0
100
AcDbLine
 10
40.53779999999999
 20
105.462635
 30
0.0
 11
40.88599999999999
 21
106.895635
 31
0.0
  0
LINE
  5
15E
330
1E
100
AcDbEntity
  8
0
100
AcDbLine
 10
39.3711
 20
106.718635
 30
0.0
 11
39.7193
 21
108.151635
 31
0.0
  0
LINE
  5
15F
330
1E
100
AcDbEntity
  8
0
100
AcDbLine
 10
39.3711
 20
106.718635
 30
0.0
 11
40.53779999999999
 21
105.462635
 31
0.0
  0
LINE
  5
160
330
1E
100
AcDbEntity
  8
0
100
AcDbLine
 10
37.78439999999999
 20
106.109635
 30
0.0
 11
38.13259999999999
 21
107.542635
 31
0.0
  0
LINE
  5
161
330
1E
100
AcDbEntity
  8
0
100
AcDbLine
 10
37.78439999999999
 20
106.109635
 30
0.0
 11
39.3711
 21
106.718635
 31
0.0
  0
LINE
  5
162
330
1E
100
AcDbEntity
  8
0
100
AcDbLine
 10
37.78439999999999
 20
106.109635
 30
0.0
 11
38.95109999999999
 21
104.8543349999999
 31
0.0
  0
LINE
  5
163
330
1E
100
AcDbEntity
  8
0
100
AcDbLine
 10
48.19980000000001
 20
107.674635
 30
0.0
 11
50.0476
 21
108.057635
 31
0.0
  0
LINE
  5
164
330
1E
100
AcDbEntity
  8
0
100
AcDbLine
 10
50.0476
 20
108.057635
 30
0.0
 11
50.2665
 21
109.452635
 31
0.0
  0
LINE
  5
165
330
1E
100
AcDbEntity
  8
0
100
AcDbLine
 10
16.2067
 20
107.526635
 30
0.0
 11
20.3667
 21
110.603635
 31
0.0
  0
LINE
  5
166
330
1E
100
AcDbEntity
  8
0
100
AcDbLine
 10
28.3955
 20
108.458635
 30
0.0
 11
29.8097
 21
109.166635
 31
0.0
  0
LINE
  5
167
330
1E
100
AcDbEntity
  8
0
100
AcDbLine
 10
29.8097
 20
109.166635
 30
0.0
 11
30.25959999999999
 21
110.583635
 31
0.0
  0
LINE
  5
168
330
1E
100
AcDbEntity
  8
0
100
AcDbLine
 10
28.469
 20
110.3876349999999
 30
0.0
 11
28.9188
 21
111.8046349999999
 31
0.0
  0
LINE
  5
169
330
1E
100
AcDbEntity
  8
0
100
AcDbLine
 10
28.469
 20
110.3876349999999
 30
0.0
 11
29.8097
 21
109.166635
 31
0.0
  0
LINE
  5
16A
330
1E
100
AcDbEntity
  8
0
100
AcDbLine
 10
27.0547
 20
109.680635
 30
0.0
 11
27.5046
 21
111.097635
 31
0.0
  0
LINE
  5
16B
330
1E
100
AcDbEntity
  8
0
100
AcDbLine
 10
27.0547
 20
109.680635
 30
0.0
 11
28.469
 21
110.3876349999999
 31
0.0
  0
LINE
  5
16C
330
1E
100
AcDbEntity
  8
0
100
AcDbLine
 10
27.0547
 20
109.680635
 30
0.0
 11
28.3955
 21
108.458635
 31
0.0
  0
LINE
  5
16D
330
1E
100
AcDbEntity
  8
0
100
AcDbLine
 10
49.3142
 20
109.438635
 30
0.0
 11
49.5331
 21
110.833635
 31
0.0
  0
LINE
  5
16E
330
1E
100
AcDbEntity
  8
0
100
AcDbLine
 10
49.3142
 20
109.438635
 30
0.0
 11
50.0476
 21
108.057635
 31
0.0
  0
LINE
  5
16F
330
1E
100
AcDbEntity
  8
0
100
AcDbLine
 10
47.4664
 20
109.055635
 30
0.0
 11
47.6853
 21
110.450635
 31
0.0
  0
LINE
  5
170
330
1E
100
AcDbEntity
  8
0
100
AcDbLine
 10
47.4664
 20
109.055635
 30
0.0
 11
49.3142
 21
109.438635
 31
0.0
  0
LINE
  5
171
330
1E
100
AcDbEntity
  8
0
100
AcDbLine
 10
47.4664
 20
109.055635
 30
0.0
 11
48.19980000000001
 21
107.674635
 31
0.0
  0
LINE
  5
172
330
1E
100
AcDbEntity
  8
0
100
AcDbLine
 10
16.2067
 20
108.402635
 30
0.0
 11
20.3667
 21
111.478635
 31
0.0
  0
LINE
  5
173
330
1E
100
AcDbEntity
  8
0
100
AcDbLine
 10
13.0867
 20
105.108635
 30
0.0
 11
16.2067
 21
108.402635
 31
0.0
  0
LINE
  5
174
330
1E
100
AcDbEntity
  8
0
100
AcDbLine
 10
7.36669999999999
 20
110.480635
 30
0.0
 11
10.92
 21
114.120635
 31
0.0
  0
LINE
  5
175
330
1E
100
AcDbEntity
  8
0
100
AcDbLine
 10
4.76669999999999
 20
106.623635
 30
0.0
 11
7.36669999999999
 21
110.480635
 31
0.0
  0
LINE
  5
176
330
1E
100
AcDbEntity
  8
0
100
AcDbLine
 10
10.7467
 20
123.266635
 30
0.0
 11
15.33999999999999
 21
126.733635
 31
0.0
  0
LINE
  5
177
330
1E
100
AcDbEntity
  8
0
100
AcDbLine
 10
7.193299999999999
 20
119.626635
 30
0.0
 11
10.7467
 21
123.266635
 31
0.0
  0
LINE
  5
178
330
1E
100
AcDbEntity
  8
0
100
AcDbLine
 10
5.719999999999999
 20
117.654635
 30
0.0
 11
7.193299999999999
 21
119.626635
 31
0.0
  0
LINE
  5
179
330
1E
100
AcDbEntity
  8
0
100
AcDbLine
 10
20.3667
 20
110.603635
 30
0.0
 11
25.22
 21
113.376635
 31
0.0
  0
LINE
  5
17A
330
1E
100
AcDbEntity
  8
0
100
AcDbLine
 10
25.22
 20
113.376635
 30
0.0
 11
30.7667
 21
115.803635
 31
0.0
  0
LINE
  5
17B
330
1E
100
AcDbEntity
  8
0
100
AcDbLine
 10
38.7507
 20
112.596635
 30
0.0
 11
40.4827
 21
113.096635
 31
0.0
  0
LINE
  5
17C
330
1E
100
AcDbEntity
  8
0
100
AcDbLine
 10
40.4827
 20
113.096635
 30
0.0
 11
40.8008
 21
114.462635
 31
0.0
  0
LINE
  5
17D
330
1E
100
AcDbEntity
  8
0
100
AcDbLine
 10
39.5347
 20
114.468635
 30
0.0
 11
39.8528
 21
115.835635
 31
0.0
  0
LINE
  5
17E
330
1E
100
AcDbEntity
  8
0
100
AcDbLine
 10
39.5347
 20
114.468635
 30
0.0
 11
40.4827
 21
113.096635
 31
0.0
  0
LINE
  5
17F
330
1E
100
AcDbEntity
  8
0
100
AcDbLine
 10
37.8026
 20
113.968635
 30
0.0
 11
38.1207
 21
115.335635
 31
0.0
  0
LINE
  5
180
330
1E
100
AcDbEntity
  8
0
100
AcDbLine
 10
37.8026
 20
113.968635
 30
0.0
 11
39.5347
 21
114.468635
 31
0.0
  0
LINE
  5
181
330
1E
100
AcDbEntity
  8
0
100
AcDbLine
 10
37.8026
 20
113.968635
 30
0.0
 11
38.7507
 21
112.596635
 31
0.0
  0
LINE
  5
182
330
1E
100
AcDbEntity
  8
0
100
AcDbLine
 10
50.8947
 20
115.252635
 30
0.0
 11
52.82659999999999
 21
115.511635
 31
0.0
  0
LINE
  5
183
330
1E
100
AcDbEntity
  8
0
100
AcDbLine
 10
30.7667
 20
115.803635
 30
0.0
 11
36.92
 21
117.883635
 31
0.0
  0
LINE
  5
184
330
1E
100
AcDbEntity
  8
0
100
AcDbLine
 10
25.22
 20
114.252635
 30
0.0
 11
30.7667
 21
116.678635
 31
0.0
  0
LINE
  5
185
330
1E
100
AcDbEntity
  8
0
100
AcDbLine
 10
50.40399999999999
 20
116.719635
 30
0.0
 11
50.5686
 21
118.0546349999999
 31
0.0
  0
LINE
  5
186
330
1E
100
AcDbEntity
  8
0
100
AcDbLine
 10
50.40399999999999
 20
116.719635
 30
0.0
 11
52.33579999999999
 21
116.978635
 31
0.0
  0
LINE
  5
187
330
1E
100
AcDbEntity
  8
0
100
AcDbLine
 10
50.40399999999999
 20
116.719635
 30
0.0
 11
50.8947
 21
115.252635
 31
0.0
  0
LINE
  5
188
330
1E
100
AcDbEntity
  8
0
100
AcDbLine
 10
30.7667
 20
116.678635
 30
0.0
 11
36.92
 21
118.758635
 31
0.0
  0
LINE
  5
189
330
1E
100
AcDbEntity
  8
0
100
AcDbLine
 10
20.3667
 20
111.478635
 30
0.0
 11
25.22
 21
114.252635
 31
0.0
  0
LINE
  5
18A
330
1E
100
AcDbEntity
  8
0
100
AcDbLine
 10
15.5133
 20
117.543635
 30
0.0
 11
20.8867
 21
120.620635
 31
0.0
  0
LINE
  5
18B
330
1E
100
AcDbEntity
  8
0
100
AcDbLine
 10
10.92
 20
114.120635
 30
0.0
 11
15.5133
 21
117.543635
 31
0.0
  0
LINE
  5
18C
330
1E
100
AcDbEntity
  8
0
100
AcDbLine
 10
20.8867
 20
120.620635
 30
0.0
 11
27.04
 21
123.306635
 31
0.0
  0
LINE
  5
18D
330
1E
100
AcDbEntity
  8
0
100
AcDbLine
 10
20.8
 20
120.663635
 30
0.0
 11
26.8667
 21
123.393635
 31
0.0
  0
LINE
  5
18E
330
1E
100
AcDbEntity
  8
0
100
AcDbLine
 10
27.04
 20
123.306635
 30
0.0
 11
33.88669999999999
 21
125.603635
 31
0.0
  0
LINE
  5
18F
330
1E
100
AcDbEntity
  8
0
100
AcDbLine
 10
26.8667
 20
123.393635
 30
0.0
 11
33.79999999999999
 21
125.690635
 31
0.0
  0
LINE
  5
190
330
1E
100
AcDbEntity
  8
0
100
AcDbLine
 10
22.7067
 20
130.9136349999999
 30
0.0
 11
28.6
 21
133.470635
 31
0.0
  0
LINE
  5
191
330
1E
100
AcDbEntity
  8
0
100
AcDbLine
 10
36.92
 20
117.883635
 30
0.0
 11
43.5067
 21
119.443635
 31
0.0
  0
LINE
  5
192
330
1E
100
AcDbEntity
  8
0
100
AcDbLine
 10
36.92
 20
118.758635
 30
0.0
 11
43.5067
 21
120.318635
 31
0.0
  0
LINE
  5
193
330
1E
100
AcDbEntity
  8
0
100
AcDbLine
 10
33.88669999999999
 20
125.603635
 30
0.0
 11
41.1667
 21
127.380635
 31
0.0
  0
LINE
  5
194
330
1E
100
AcDbEntity
  8
0
100
AcDbLine
 10
33.79999999999999
 20
125.690635
 30
0.0
 11
41.07999999999999
 21
127.466635
 31
0.0
  0
LINE
  5
195
330
1E
100
AcDbEntity
  8
0
100
AcDbLine
 10
43.5067
 20
119.443635
 30
0.0
 11
50.44
 21
120.656635
 31
0.0
  0
LINE
  5
196
330
1E
100
AcDbEntity
  8
0
100
AcDbLine
 10
43.5067
 20
120.318635
 30
0.0
 11
50.44
 21
121.532635
 31
0.0
  0
LINE
  5
197
330
1E
100
AcDbEntity
  8
0
100
AcDbLine
 10
41.1667
 20
127.380635
 30
0.0
 11
48.88
 21
128.6806349999999
 31
0.0
  0
LINE
  5
198
330
1E
100
AcDbEntity
  8
0
100
AcDbLine
 10
41.07999999999999
 20
127.466635
 30
0.0
 11
48.88
 21
128.766635
 31
0.0
  0
LINE
  5
199
330
1E
100
AcDbEntity
  8
0
100
AcDbLine
 10
36.92
 20
136.264635
 30
0.0
 11
43.5067
 21
137.8246349999999
 31
0.0
  0
LINE
  5
19A
330
1E
100
AcDbEntity
  8
0
100
AcDbLine
 10
35.1867
 20
135.680635
 30
0.0
 11
36.92
 21
136.264635
 31
0.0
  0
LINE
  5
19B
330
1E
100
AcDbEntity
  8
0
100
AcDbLine
 10
50.44
 20
120.656635
 30
0.0
 11
57.63329999999999
 21
121.350635
 31
0.0
  0
LINE
  5
19C
330
1E
100
AcDbEntity
  8
0
100
AcDbLine
 10
50.44
 20
121.532635
 30
0.0
 11
57.63329999999999
 21
122.225635
 31
0.0
  0
LINE
  5
19D
330
1E
100
AcDbEntity
  8
0
100
AcDbLine
 10
48.88
 20
128.6806349999999
 30
0.0
 11
56.8533
 21
129.5036349999999
 31
0.0
  0
LINE
  5
19E
330
1E
100
AcDbEntity
  8
0
100
AcDbLine
 10
48.88
 20
128.766635
 30
0.0
 11
56.8533
 21
129.590635
 31
0.0
  0
LINE
  5
19F
330
1E
100
AcDbEntity
  8
0
100
AcDbLine
 10
43.5067
 20
137.8246349999999
 30
0.0
 11
50.44
 21
139.037635
 31
0.0
  0
LINE
  5
1A0
330
1E
100
AcDbEntity
  8
0
100
AcDbLine
 10
50.44
 20
139.037635
 30
0.0
 11
57.63329999999999
 21
139.731635
 31
0.0
  0
LINE
  5
1A1
330
1E
100
AcDbEntity
  8
0
100
AcDbLine
 10
28.6
 20
133.470635
 30
0.0
 11
35.1867
 21
135.680635
 31
0.0
  0
LINE
  5
1A2
330
1E
100
AcDbEntity
  8
0
100
AcDbLine
 10
15.33999999999999
 20
117.630635
 30
0.0
 11
20.8
 21
120.663635
 31
0.0
  0
LINE
  5
1A3
330
1E
100
AcDbEntity
  8
0
100
AcDbLine
 10
10.7467
 20
114.163635
 30
0.0
 11
15.33999999999999
 21
117.630635
 31
0.0
  0
LINE
  5
1A4
330
1E
100
AcDbEntity
  8
0
100
AcDbLine
 10
7.193299999999999
 20
110.523635
 30
0.0
 11
10.7467
 21
114.163635
 31
0.0
  0
LINE
  5
1A5
330
1E
100
AcDbEntity
  8
0
100
AcDbLine
 10
4.5933
 20
106.623635
 30
0.0
 11
7.193299999999999
 21
110.523635
 31
0.0
  0
LINE
  5
1A6
330
1E
100
AcDbEntity
  8
0
100
AcDbLine
 10
-0.0000000000000036
 20
103.115635
 30
0.0
 11
0.6933000000000041
 21
98.868535
 31
0.0
  0
LINE
  5
1A7
330
1E
100
AcDbEntity
  8
0
100
AcDbLine
 10
-0.0000000000000036
 20
103.115635
 30
0.0
 11
0.6933000000000041
 21
107.3616349999999
 31
0.0
  0
LINE
  5
1A8
330
1E
100
AcDbEntity
  8
0
100
AcDbLine
 10
51.8116
 20
78.042435
 30
0.0
 11
53.3983
 21
77.433635
 31
0.0
  0
LINE
  5
1A9
330
1E
100
AcDbEntity
  8
0
100
AcDbLine
 10
51.8116
 20
78.042435
 30
0.0
 11
51.85060692270449
 21
79.0300168318971
 31
0.0
  0
LINE
  5
1AA
330
1E
100
AcDbEntity
  8
0
100
AcDbLine
 10
52.33579999999999
 20
65.851435
 30
0.0
 11
52.82659999999999
 21
66.21613499999999
 31
0.0
  0
LINE
  5
1AB
330
1E
100
AcDbEntity
  8
0
100
AcDbLine
 10
52.1828
 20
76.74133499999999
 30
0.0
 11
53.3983
 21
77.433635
 31
0.0
  0
LINE
  5
1AC
330
1E
100
AcDbEntity
  8
0
100
AcDbLine
 10
52.33579999999999
 20
116.978635
 30
0.0
 11
52.3670634354081
 21
117.2320453598659
 31
0.0
  0
LINE
  5
1AD
330
1E
100
AcDbEntity
  8
0
100
AcDbLine
 10
52.33579999999999
 20
116.978635
 30
0.0
 11
52.82659999999999
 21
115.511635
 31
0.0
  0
LINE
  5
1AE
330
1E
100
AcDbEntity
  8
0
100
AcDbLine
 10
52.82659999999999
 20
66.21613499999999
 30
0.0
 11
52.91308103972361
 21
67.24035212537799
 31
0.0
  0
LINE
  5
1AF
330
1E
100
AcDbEntity
  8
0
100
AcDbLine
 10
53.3983
 20
77.433635
 30
0.0
 11
53.42470635717269
 21
78.10223190935559
 31
0.0
  0
LINE
  5
1B0
330
1E
100
AcDbEntity
  8
0
100
AcDbLine
 10
55.4766
 20
71.420335
 30
0.0
 11
55.5305350889715
 21
72.52500901598391
 31
0.0
  0
LINE
  5
1B1
330
1E
100
AcDbEntity
  8
0
100
AcDbLine
 10
55.4766
 20
71.420335
 30
0.0
 11
57.40845
 21
71.161535
 31
0.0
  0
LINE
  5
1B2
330
1E
100
AcDbEntity
  8
0
100
AcDbLine
 10
55.4766
 20
71.420335
 30
0.0
 11
55.98607
 21
72.06463499999999
 31
0.0
  0
LINE
  5
1B3
330
1E
100
AcDbEntity
  8
0
100
AcDbLine
 10
55.98607
 20
72.06463499999999
 30
0.0
 11
57.91792
 21
71.805835
 31
0.0
  0
LINE
  5
1B4
330
1E
100
AcDbEntity
  8
0
100
AcDbLine
 10
55.98607
 20
72.06463499999999
 30
0.0
 11
56.0046082747761
 21
72.4443072883829
 31
0.0
  0
LINE
  5
1B5
330
1E
100
AcDbEntity
  8
0
100
AcDbLine
 10
56.22332
 20
81.471035
 30
0.0
 11
56.87119
 21
81.51023499999999
 31
0.0
  0
LINE
  5
1B6
330
1E
100
AcDbEntity
  8
0
100
AcDbLine
 10
55.56801
 20
81.52653499999999
 30
0.0
 11
56.22332
 21
81.471035
 31
0.0
  0
LINE
  5
1B7
330
1E
100
AcDbEntity
  8
0
100
AcDbLine
 10
54.9444
 20
81.642135
 30
0.0
 11
55.56801
 21
81.52653499999999
 31
0.0
  0
LINE
  5
1B8
330
1E
100
AcDbEntity
  8
0
100
AcDbLine
 10
54.42309999999999
 20
81.83813499999999
 30
0.0
 11
54.9444
 21
81.642135
 31
0.0
  0
LINE
  5
1B9
330
1E
100
AcDbEntity
  8
0
100
AcDbLine
 10
53.6644
 20
82.75063499999999
 30
0.0
 11
53.7431
 21
82.42703500000001
 31
0.0
  0
LINE
  5
1BA
330
1E
100
AcDbEntity
  8
0
100
AcDbLine
 10
53.6644
 20
82.75063499999999
 30
0.0
 11
53.77600000000001
 21
83.078435
 31
0.0
  0
LINE
  5
1BB
330
1E
100
AcDbEntity
  8
0
100
AcDbLine
 10
52.82659999999999
 20
115.511635
 30
0.0
 11
52.9912
 21
116.846635
 31
0.0
  0
LINE
  5
1BC
330
1E
100
AcDbEntity
  8
0
100
AcDbLine
 10
53.2416844333904
 20
83.31310919662151
 30
0.0
 11
53.7431
 21
82.42703500000001
 31
0.0
  0
LINE
  5
1BD
330
1E
100
AcDbEntity
  8
0
100
AcDbLine
 10
54.9441
 20
83.85903499999999
 30
0.0
 11
55.57691999999999
 21
83.99093499999999
 31
0.0
  0
LINE
  5
1BE
330
1E
100
AcDbEntity
  8
0
100
AcDbLine
 10
55.4766
 20
103.0984349999999
 30
0.0
 11
55.49544672077829
 21
103.4141041963519
 31
0.0
  0
LINE
  5
1BF
330
1E
100
AcDbEntity
  8
0
100
AcDbLine
 10
55.4766
 20
103.0984349999999
 30
0.0
 11
57.40845
 21
103.3573349999999
 31
0.0
  0
LINE
  5
1C0
330
1E
100
AcDbEntity
  8
0
100
AcDbLine
 10
55.4766
 20
103.0984349999999
 30
0.0
 11
55.98607
 21
101.841335
 31
0.0
  0
LINE
  5
1C1
330
1E
100
AcDbEntity
  8
0
100
AcDbLine
 10
55.98607
 20
101.841335
 30
0.0
 11
57.91792
 21
102.100235
 31
0.0
  0
LINE
  5
1C2
330
1E
100
AcDbEntity
  8
0
100
AcDbLine
 10
55.52019
 20
96.05113500000001
 30
0.0
 11
55.56426
 21
97.727035
 31
0.0
  0
LINE
  5
1C3
330
1E
100
AcDbEntity
  8
0
100
AcDbLine
 10
55.52019
 20
96.05113500000001
 30
0.0
 11
57.36795
 21
96.433735
 31
0.0
  0
LINE
  5
1C4
330
1E
100
AcDbEntity
  8
0
100
AcDbLine
 10
55.52019
 20
96.05113500000001
 30
0.0
 11
56.28429
 21
95.029035
 31
0.0
  0
LINE
  5
1C5
330
1E
100
AcDbEntity
  8
0
100
AcDbLine
 10
55.57691999999999
 20
83.99093499999999
 30
0.0
 11
56.2241
 21
84.030035
 31
0.0
  0
LINE
  5
1C6
330
1E
100
AcDbEntity
  8
0
100
AcDbLine
 10
56.28429
 20
95.029035
 30
0.0
 11
58.13204
 21
95.41173499999999
 31
0.0
  0
LINE
  5
1C7
330
1E
100
AcDbEntity
  8
0
100
AcDbLine
 10
56.2241
 20
84.030035
 30
0.0
 11
56.87948000000001
 21
83.97443499999999
 31
0.0
  0
LINE
  5
1C8
330
1E
100
AcDbEntity
  8
0
100
AcDbLine
 10
54.3993
 20
83.650935
 30
0.0
 11
54.9441
 21
83.85903499999999
 31
0.0
  0
LINE
  5
1C9
330
1E
100
AcDbEntity
  8
0
100
AcDbLine
 10
54.00739999999999
 20
83.390035
 30
0.0
 11
54.3993
 21
83.650935
 31
0.0
  0
LINE
  5
1CA
330
1E
100
AcDbEntity
  8
0
100
AcDbLine
 10
53.77600000000001
 20
83.078435
 30
0.0
 11
54.00739999999999
 21
83.390035
 31
0.0
  0
LINE
  5
1CB
330
1E
100
AcDbEntity
  8
0
100
AcDbLine
 10
53.7431
 20
82.42703500000001
 30
0.0
 11
54.0065
 21
82.110435
 31
0.0
  0
LINE
  5
1CC
330
1E
100
AcDbEntity
  8
0
100
AcDbLine
 10
54.0065
 20
82.110435
 30
0.0
 11
54.42309999999999
 21
81.83813499999999
 31
0.0
  0
LINE
  5
1CD
330
1E
100
AcDbEntity
  8
0
100
AcDbLine
 10
52.67270730789899
 20
66.1017815672184
 30
0.0
 11
57.63329999999999
 21
65.623535
 31
0.0
  0
LINE
  5
1CE
330
1E
100
AcDbEntity
  8
0
100
AcDbLine
 10
56.8533
 20
129.5036349999999
 30
0.0
 11
65.0
 21
129.806635
 31
0.0
  0
LINE
  5
1CF
330
1E
100
AcDbEntity
  8
0
100
AcDbLine
 10
64.0
 20
65.48063499999999
 30
0.0
 11
64.0
 21
65.083535
 31
0.0
  0
LINE
  5
1D0
330
1E
100
AcDbEntity
  8
0
100
AcDbLine
 10
64.0
 20
65.48063499999999
 30
0.0
 11
64.0
 21
66.2104962335726
 31
0.0
  0
LINE
  5
1D1
330
1E
100
AcDbEntity
  8
0
100
AcDbLine
 10
64.0
 20
65.083535
 30
0.0
 11
64.0
 21
66.0971461963294
 31
0.0
  0
LINE
  5
1D2
330
1E
100
AcDbEntity
  8
0
100
AcDbLine
 10
64.0
 20
65.083535
 30
0.0
 11
64.0
 21
65.48063499999999
 31
0.0
  0
LINE
  5
1D3
330
1E
100
AcDbEntity
  8
0
100
AcDbLine
 10
60.32618000000001
 20
67.61603499999999
 30
0.0
 11
60.57633
 21
68.07063499999999
 31
0.0
  0
LINE
  5
1D4
330
1E
100
AcDbEntity
  8
0
100
AcDbLine
 10
64.0
 20
66.2104962335726
 30
0.0
 11
64.0
 21
65.48063499999999
 31
0.0
  0
LINE
  5
1D5
330
1E
100
AcDbEntity
  8
0
100
AcDbLine
 10
64.0
 20
66.0971461963294
 30
0.0
 11
64.0
 21
65.083535
 31
0.0
  0
LINE
  5
1D6
330
1E
100
AcDbEntity
  8
0
100
AcDbLine
 10
57.63329999999999
 20
65.623535
 30
0.0
 11
64.0
 21
65.3616660356062
 31
0.0
  0
LINE
  5
1D7
330
1E
100
AcDbEntity
  8
0
100
AcDbLine
 10
57.40845
 20
71.161535
 30
0.0
 11
57.91792
 21
71.805835
 31
0.0
  0
LINE
  5
1D8
330
1E
100
AcDbEntity
  8
0
100
AcDbLine
 10
57.40845
 20
103.3573349999999
 30
0.0
 11
57.4281495473773
 21
103.6872669258279
 31
0.0
  0
LINE
  5
1D9
330
1E
100
AcDbEntity
  8
0
100
AcDbLine
 10
57.40845
 20
103.3573349999999
 30
0.0
 11
57.91792
 21
102.100235
 31
0.0
  0
LINE
  5
1DA
330
1E
100
AcDbEntity
  8
0
100
AcDbLine
 10
57.36795
 20
96.433735
 30
0.0
 11
57.382176837827
 21
96.9747874211027
 31
0.0
  0
LINE
  5
1DB
330
1E
100
AcDbEntity
  8
0
100
AcDbLine
 10
57.36795
 20
96.433735
 30
0.0
 11
58.13204
 21
95.41173499999999
 31
0.0
  0
LINE
  5
1DC
330
1E
100
AcDbEntity
  8
0
100
AcDbLine
 10
56.87948000000001
 20
83.97443499999999
 30
0.0
 11
57.50295
 21
83.858735
 31
0.0
  0
LINE
  5
1DD
330
1E
100
AcDbEntity
  8
0
100
AcDbLine
 10
57.50295
 20
83.858735
 30
0.0
 11
58.02431999999999
 21
83.66283499999999
 31
0.0
  0
LINE
  5
1DE
330
1E
100
AcDbEntity
  8
0
100
AcDbLine
 10
56.87119
 20
81.51023499999999
 30
0.0
 11
57.50404
 21
81.64203499999999
 31
0.0
  0
LINE
  5
1DF
330
1E
100
AcDbEntity
  8
0
100
AcDbLine
 10
57.50404
 20
81.64203499999999
 30
0.0
 11
58.04884000000001
 21
81.85023499999999
 31
0.0
  0
LINE
  5
1E0
330
1E
100
AcDbEntity
  8
0
100
AcDbLine
 10
57.63329999999999
 20
121.350635
 30
0.0
 11
65.0
 21
121.653635
 31
0.0
  0
LINE
  5
1E1
330
1E
100
AcDbEntity
  8
0
100
AcDbLine
 10
58.34329
 20
67.74653499999999
 30
0.0
 11
58.4107641845398
 21
69.50270745375999
 31
0.0
  0
LINE
  5
1E2
330
1E
100
AcDbEntity
  8
0
100
AcDbLine
 10
58.34329
 20
67.74653499999999
 30
0.0
 11
60.32618000000001
 21
67.61603499999999
 31
0.0
  0
LINE
  5
1E3
330
1E
100
AcDbEntity
  8
0
100
AcDbLine
 10
58.34329
 20
67.74653499999999
 30
0.0
 11
58.59344
 21
68.20113499999999
 31
0.0
  0
LINE
  5
1E4
330
1E
100
AcDbEntity
  8
0
100
AcDbLine
 10
57.91792
 20
71.805835
 30
0.0
 11
57.9733335642999
 21
72.94072996834251
 31
0.0
  0
LINE
  5
1E5
330
1E
100
AcDbEntity
  8
0
100
AcDbLine
 10
58.04884000000001
 20
81.85023499999999
 30
0.0
 11
58.44011
 21
82.110935
 31
0.0
  0
LINE
  5
1E6
330
1E
100
AcDbEntity
  8
0
100
AcDbLine
 10
58.59344
 20
68.20113499999999
 30
0.0
 11
60.57633
 21
68.07063499999999
 31
0.0
  0
LINE
  5
1E7
330
1E
100
AcDbEntity
  8
0
100
AcDbLine
 10
58.59344
 20
68.20113499999999
 30
0.0
 11
58.644904606359
 21
69.54068990942269
 31
0.0
  0
LINE
  5
1E8
330
1E
100
AcDbEntity
  8
0
100
AcDbLine
 10
58.44011
 20
82.110935
 30
0.0
 11
58.6715
 21
82.42243499999998
 31
0.0
  0
LINE
  5
1E9
330
1E
100
AcDbEntity
  8
0
100
AcDbLine
 10
58.6715
 20
82.42243499999998
 30
0.0
 11
58.87855467658249
 21
82.7853577364333
 31
0.0
  0
LINE
  5
1EA
330
1E
100
AcDbEntity
  8
0
100
AcDbLine
 10
58.6715
 20
82.42243499999998
 30
0.0
 11
58.78293000000001
 21
82.75023500000001
 31
0.0
  0
LINE
  5
1EB
330
1E
100
AcDbEntity
  8
0
100
AcDbLine
 10
58.70430999999999
 20
83.07403499999999
 30
0.0
 11
58.78293000000001
 21
82.75023500000001
 31
0.0
  0
LINE
  5
1EC
330
1E
100
AcDbEntity
  8
0
100
AcDbLine
 10
58.02431999999999
 20
83.66283499999999
 30
0.0
 11
58.44088000000001
 21
83.390535
 31
0.0
  0
LINE
  5
1ED
330
1E
100
AcDbEntity
  8
0
100
AcDbLine
 10
58.44088000000001
 20
83.390535
 30
0.0
 11
58.70430999999999
 21
83.07403499999999
 31
0.0
  0
LINE
  5
1EE
330
1E
100
AcDbEntity
  8
0
100
AcDbLine
 10
60.57633
 20
68.07063499999999
 30
0.0
 11
60.63932338099729
 21
69.7102685024376
 31
0.0
  0
LINE
  5
1EF
330
1E
100
AcDbEntity
  8
0
100
AcDbLine
 10
63.07318000000001
 20
74.766035
 30
0.0
 11
63.33379
 21
75.65613499999999
 31
0.0
  0
LINE
  5
1F0
330
1E
100
AcDbEntity
  8
0
100
AcDbLine
 10
61.35091
 20
75.78663500000001
 30
0.0
 11
63.33379
 21
75.65613499999999
 31
0.0
  0
LINE
  5
1F1
330
1E
100
AcDbEntity
  8
0
100
AcDbLine
 10
61.35091
 20
75.78663500000001
 30
0.0
 11
61.3603866562697
 21
76.91286277304491
 31
0.0
  0
LINE
  5
1F2
330
1E
100
AcDbEntity
  8
0
100
AcDbLine
 10
63.33379
 20
75.65613499999999
 30
0.0
 11
63.33858379781999
 21
76.22546223844129
 31
0.0
  0
LINE
  5
1F3
330
1E
100
AcDbEntity
  8
0
100
AcDbLine
 10
61.09029
 20
74.896535
 30
0.0
 11
61.10531999999999
 21
76.682835
 31
0.0
  0
LINE
  5
1F4
330
1E
100
AcDbEntity
  8
0
100
AcDbLine
 10
61.09029
 20
74.896535
 30
0.0
 11
63.07318000000001
 21
74.766035
 31
0.0
  0
LINE
  5
1F5
330
1E
100
AcDbEntity
  8
0
100
AcDbLine
 10
61.09029
 20
74.896535
 30
0.0
 11
61.35091
 21
75.78663500000001
 31
0.0
  0
LINE
  5
1F6
330
1E
100
AcDbEntity
  8
0
100
AcDbLine
 10
64.0
 20
71.40543499999999
 30
0.0
 11
64.0
 21
70.72763499999999
 31
0.0
  0
LINE
  5
1F7
330
1E
100
AcDbEntity
  8
0
100
AcDbLine
 10
64.0
 20
71.40543499999999
 30
0.0
 11
64.0
 21
71.8068431569218
 31
0.0
  0
LINE
  5
1F8
330
1E
100
AcDbEntity
  8
0
100
AcDbLine
 10
64.0
 20
71.40543499999999
 30
0.0
 11
66.0
 21
71.40543499999999
 31
0.0
  0
LINE
  5
1F9
330
1E
100
AcDbEntity
  8
0
100
AcDbLine
 10
64.0
 20
71.8068431569218
 30
0.0
 11
64.0
 21
70.72763499999999
 31
0.0
  0
LINE
  5
1FA
330
1E
100
AcDbEntity
  8
0
100
AcDbLine
 10
64.0
 20
71.8068431569218
 30
0.0
 11
64.0
 21
71.40543499999999
 31
0.0
  0
LINE
  5
1FB
330
1E
100
AcDbEntity
  8
0
100
AcDbLine
 10
64.0
 20
70.72763499999999
 30
0.0
 11
66.0
 21
70.72763499999999
 31
0.0
  0
LINE
  5
1FC
330
1E
100
AcDbEntity
  8
0
100
AcDbLine
 10
64.0
 20
70.72763499999999
 30
0.0
 11
64.0
 21
71.8068431569218
 31
0.0
  0
LINE
  5
1FD
330
1E
100
AcDbEntity
  8
0
100
AcDbLine
 10
64.0
 20
70.72763499999999
 30
0.0
 11
64.0
 21
71.40543499999999
 31
0.0
  0
LINE
  5
1FE
330
1E
100
AcDbEntity
  8
0
100
AcDbLine
 10
63.464
 20
82.82783499999998
 30
0.0
 11
65.0
 21
82.71983500000001
 31
0.0
  0
LINE
  5
1FF
330
1E
100
AcDbEntity
  8
0
100
AcDbLine
 10
62.02399999999999
 20
83.11583500000001
 30
0.0
 11
63.464
 21
82.82783499999998
 31
0.0
  0
LINE
  5
200
330
1E
100
AcDbEntity
  8
0
100
AcDbLine
 10
60.75199999999999
 20
83.59583499999999
 30
0.0
 11
62.02399999999999
 21
83.11583500000001
 31
0.0
  0
LINE
  5
201
330
1E
100
AcDbEntity
  8
0
100
AcDbLine
 10
59.792
 20
84.231835
 30
0.0
 11
60.75199999999999
 21
83.59583499999999
 31
0.0
  0
LINE
  5
202
330
1E
100
AcDbEntity
  8
0
100
AcDbLine
 10
59.216
 20
84.95183500000001
 30
0.0
 11
59.792
 21
84.231835
 31
0.0
  0
LINE
  5
203
330
1E
100
AcDbEntity
  8
0
100
AcDbLine
 10
57.91792
 20
102.100235
 30
0.0
 11
57.94429954373711
 21
102.5420448294829
 31
0.0
  0
LINE
  5
204
330
1E
100
AcDbEntity
  8
0
100
AcDbLine
 10
58.59344
 20
109.202635
 30
0.0
 11
60.57633
 21
109.332635
 31
0.0
  0
LINE
  5
205
330
1E
100
AcDbEntity
  8
0
100
AcDbLine
 10
58.34329
 20
110.647635
 30
0.0
 11
58.41795
 21
112.023635
 31
0.0
  0
LINE
  5
206
330
1E
100
AcDbEntity
  8
0
100
AcDbLine
 10
58.34329
 20
110.647635
 30
0.0
 11
60.32618000000001
 21
110.778635
 31
0.0
  0
LINE
  5
207
330
1E
100
AcDbEntity
  8
0
100
AcDbLine
 10
58.34329
 20
110.647635
 30
0.0
 11
58.59344
 21
109.202635
 31
0.0
  0
LINE
  5
208
330
1E
100
AcDbEntity
  8
0
100
AcDbLine
 10
58.13204
 20
95.41173499999999
 30
0.0
 11
58.1567198652187
 21
96.35005138203389
 31
0.0
  0
LINE
  5
209
330
1E
100
AcDbEntity
  8
0
100
AcDbLine
 10
59.0
 20
86.1364432196343
 30
0.0
 11
59.0
 21
85.71983499999999
 31
0.0
  0
LINE
  5
20A
330
1E
100
AcDbEntity
  8
0
100
AcDbLine
 10
60.57633
 20
109.332635
 30
0.0
 11
60.65099
 21
110.709635
 31
0.0
  0
LINE
  5
20B
330
1E
100
AcDbEntity
  8
0
100
AcDbLine
 10
60.32618000000001
 20
110.778635
 30
0.0
 11
60.40084
 21
112.154635
 31
0.0
  0
LINE
  5
20C
330
1E
100
AcDbEntity
  8
0
100
AcDbLine
 10
60.32618000000001
 20
110.778635
 30
0.0
 11
60.57633
 21
109.332635
 31
0.0
  0
LINE
  5
20D
330
1E
100
AcDbEntity
  8
0
100
AcDbLine
 10
62.52311999999999
 20
90.69503500000001
 30
0.0
 11
62.77905
 21
90.995235
 31
0.0
  0
LINE
  5
20E
330
1E
100
AcDbEntity
  8
0
100
AcDbLine
 10
62.43503
 20
90.355135
 30
0.0
 11
62.52309
 21
90.01513499999999
 31
0.0
  0
LINE
  5
20F
330
1E
100
AcDbEntity
  8
0
100
AcDbLine
 10
62.43503
 20
90.355135
 30
0.0
 11
62.52311999999999
 21
90.69503500000001
 31
0.0
  0
LINE
  5
210
330
1E
100
AcDbEntity
  8
0
100
AcDbLine
 10
62.3427312329596
 20
90.33389440963908
 30
0.0
 11
62.52309
 21
90.01513499999999
 31
0.0
  0
LINE
  5
211
330
1E
100
AcDbEntity
  8
0
100
AcDbLine
 10
62.52309
 20
90.01513499999999
 30
0.0
 11
62.77900999999999
 21
89.71533499999999
 31
0.0
  0
LINE
  5
212
330
1E
100
AcDbEntity
  8
0
100
AcDbLine
 10
62.77905
 20
90.995235
 30
0.0
 11
63.20299
 21
91.25113499999999
 31
0.0
  0
LINE
  5
213
330
1E
100
AcDbEntity
  8
0
100
AcDbLine
 10
63.20299
 20
91.25113499999999
 30
0.0
 11
63.71496
 21
91.463435
 31
0.0
  0
LINE
  5
214
330
1E
100
AcDbEntity
  8
0
100
AcDbLine
 10
62.77900999999999
 20
89.71533499999999
 30
0.0
 11
63.20295
 21
89.459435
 31
0.0
  0
LINE
  5
215
330
1E
100
AcDbEntity
  8
0
100
AcDbLine
 10
63.20295
 20
89.459435
 30
0.0
 11
63.71499
 21
89.247235
 31
0.0
  0
LINE
  5
216
330
1E
100
AcDbEntity
  8
0
100
AcDbLine
 10
64.0
 20
102.6497132736149
 30
0.0
 11
64.0
 21
102.500535
 31
0.0
  0
LINE
  5
217
330
1E
100
AcDbEntity
  8
0
100
AcDbLine
 10
64.0
 20
102.500535
 30
0.0
 11
64.0
 21
103.791235
 31
0.0
  0
LINE
  5
218
330
1E
100
AcDbEntity
  8
0
100
AcDbLine
 10
64.0
 20
102.500535
 30
0.0
 11
64.0
 21
102.6497132736149
 31
0.0
  0
LINE
  5
219
330
1E
100
AcDbEntity
  8
0
100
AcDbLine
 10
64.0
 20
102.500535
 30
0.0
 11
66.0
 21
102.500535
 31
0.0
  0
LINE
  5
21A
330
1E
100
AcDbEntity
  8
0
100
AcDbLine
 10
64.0
 20
104.138662009207
 30
0.0
 11
64.0
 21
103.791235
 31
0.0
  0
LINE
  5
21B
330
1E
100
AcDbEntity
  8
0
100
AcDbLine
 10
64.0
 20
103.791235
 30
0.0
 11
66.0
 21
103.791235
 31
0.0
  0
LINE
  5
21C
330
1E
100
AcDbEntity
  8
0
100
AcDbLine
 10
64.0
 20
103.791235
 30
0.0
 11
64.0
 21
104.138662009207
 31
0.0
  0
LINE
  5
21D
330
1E
100
AcDbEntity
  8
0
100
AcDbLine
 10
64.0
 20
103.791235
 30
0.0
 11
64.0
 21
102.500535
 31
0.0
  0
LINE
  5
21E
330
1E
100
AcDbEntity
  8
0
100
AcDbLine
 10
64.0
 20
116.9541433612039
 30
0.0
 11
64.0
 21
116.247635
 31
0.0
  0
LINE
  5
21F
330
1E
100
AcDbEntity
  8
0
100
AcDbLine
 10
64.0
 20
116.247635
 30
0.0
 11
64.0
 21
117.746635
 31
0.0
  0
LINE
  5
220
330
1E
100
AcDbEntity
  8
0
100
AcDbLine
 10
64.0
 20
116.247635
 30
0.0
 11
64.0
 21
116.9541433612039
 31
0.0
  0
LINE
  5
221
330
1E
100
AcDbEntity
  8
0
100
AcDbLine
 10
64.0
 20
116.247635
 30
0.0
 11
66.0
 21
116.247635
 31
0.0
  0
LINE
  5
222
330
1E
100
AcDbEntity
  8
0
100
AcDbLine
 10
64.0
 20
119.070635
 30
0.0
 11
64.0
 21
117.746635
 31
0.0
  0
LINE
  5
223
330
1E
100
AcDbEntity
  8
0
100
AcDbLine
 10
64.0
 20
117.746635
 30
0.0
 11
66.0
 21
117.746635
 31
0.0
  0
LINE
  5
224
330
1E
100
AcDbEntity
  8
0
100
AcDbLine
 10
64.0
 20
117.746635
 30
0.0
 11
64.0
 21
119.070635
 31
0.0
  0
LINE
  5
225
330
1E
100
AcDbEntity
  8
0
100
AcDbLine
 10
64.0
 20
117.746635
 30
0.0
 11
64.0
 21
116.247635
 31
0.0
  0
LINE
  5
226
330
1E
100
AcDbEntity
  8
0
100
AcDbLine
 10
63.71496
 20
91.463435
 30
0.0
 11
64.315054
 21
91.591135
 31
0.0
  0
LINE
  5
227
330
1E
100
AcDbEntity
  8
0
100
AcDbLine
 10
63.71499
 20
89.247235
 30
0.0
 11
64.315034
 21
89.11943499999999
 31
0.0
  0
LINE
  5
228
330
1E
100
AcDbEntity
  8
0
100
AcDbLine
 10
63.464
 20
88.611835
 30
0.0
 11
65.0
 21
88.719835
 31
0.0
  0
LINE
  5
229
330
1E
100
AcDbEntity
  8
0
100
AcDbLine
 10
62.02399999999999
 20
88.323835
 30
0.0
 11
63.464
 21
88.611835
 31
0.0
  0
LINE
  5
22A
330
1E
100
AcDbEntity
  8
0
100
AcDbLine
 10
60.75199999999999
 20
87.843835
 30
0.0
 11
62.02399999999999
 21
88.323835
 31
0.0
  0
LINE
  5
22B
330
1E
100
AcDbEntity
  8
0
100
AcDbLine
 10
59.792
 20
87.20783500000001
 30
0.0
 11
60.75199999999999
 21
87.843835
 31
0.0
  0
LINE
  5
22C
330
1E
100
AcDbEntity
  8
0
100
AcDbLine
 10
59.216
 20
86.487835
 30
0.0
 11
59.792
 21
87.20783500000001
 31
0.0
  0
LINE
  5
22D
330
1E
100
AcDbEntity
  8
0
100
AcDbLine
 10
59.0
 20
85.71983499999999
 30
0.0
 11
59.216
 21
86.487835
 31
0.0
  0
LINE
  5
22E
330
1E
100
AcDbEntity
  8
0
100
AcDbLine
 10
59.0
 20
85.71983499999999
 30
0.0
 11
59.216
 21
84.95183500000001
 31
0.0
  0
LINE
  5
22F
330
1E
100
AcDbEntity
  8
0
100
AcDbLine
 10
59.0
 20
85.71983499999999
 30
0.0
 11
59.0
 21
86.1364432196343
 31
0.0
  0
LINE
  5
230
330
1E
100
AcDbEntity
  8
0
100
AcDbLine
 10
57.63329999999999
 20
122.225635
 30
0.0
 11
65.0
 21
122.528635
 31
0.0
  0
LINE
  5
231
330
1E
100
AcDbEntity
  8
0
100
AcDbLine
 10
64.0
 20
67.637556515592
 30
0.0
 11
64.0
 21
62.87993499999999
 31
0.0
  0
LINE
  5
232
330
1E
100
AcDbEntity
  8
0
100
AcDbLine
 10
65.0
 20
82.71983500000001
 30
0.0
 11
66.536
 21
82.82783499999998
 31
0.0
  0
LINE
  5
233
330
1E
100
AcDbEntity
  8
0
100
AcDbLine
 10
64.99496399999999
 20
89.07523499999999
 30
0.0
 11
65.67501400000001
 21
89.11943499999999
 31
0.0
  0
LINE
  5
234
330
1E
100
AcDbEntity
  8
0
100
AcDbLine
 10
64.99496399999999
 20
91.63543500000001
 30
0.0
 11
65.67499399999999
 21
91.591135
 31
0.0
  0
LINE
  5
235
330
1E
100
AcDbEntity
  8
0
100
AcDbLine
 10
64.315054
 20
91.591135
 30
0.0
 11
64.99496399999999
 21
91.63543500000001
 31
0.0
  0
LINE
  5
236
330
1E
100
AcDbEntity
  8
0
100
AcDbLine
 10
64.315034
 20
89.11943499999999
 30
0.0
 11
64.99496399999999
 21
89.07523499999999
 31
0.0
  0
LINE
  5
237
330
1E
100
AcDbEntity
  8
0
100
AcDbLine
 10
65.0
 20
88.719835
 30
0.0
 11
66.536
 21
88.611835
 31
0.0
  0
LINE
  5
238
330
1E
100
AcDbEntity
  8
0
100
AcDbLine
 10
65.0
 20
121.653635
 30
0.0
 11
72.3667
 21
121.350635
 31
0.0
  0
LINE
  5
239
330
1E
100
AcDbEntity
  8
0
100
AcDbLine
 10
65.0
 20
122.528635
 30
0.0
 11
72.3667
 21
122.225635
 31
0.0
  0
LINE
  5
23A
330
1E
100
AcDbEntity
  8
0
100
AcDbLine
 10
64.0
 20
65.3616660356062
 30
0.0
 11
64.0
 21
62.32233499999999
 31
0.0
  0
LINE
  5
23B
330
1E
100
AcDbEntity
  8
0
100
AcDbLine
 10
65.0
 20
129.806635
 30
0.0
 11
73.14669999999999
 21
129.5036349999999
 31
0.0
  0
LINE
  5
23C
330
1E
100
AcDbEntity
  8
0
100
AcDbLine
 10
69.67381999999999
 20
67.61603499999999
 30
0.0
 11
71.65671
 21
67.74653499999999
 31
0.0
  0
LINE
  5
23D
330
1E
100
AcDbEntity
  8
0
100
AcDbLine
 10
72.3667
 20
65.623535
 30
0.0
 11
77.32729269210091
 21
66.1017815672184
 31
0.0
  0
LINE
  5
23E
330
1E
100
AcDbEntity
  8
0
100
AcDbLine
 10
66.0
 20
65.3616660356062
 30
0.0
 11
72.3667
 21
65.623535
 31
0.0
  0
LINE
  5
23F
330
1E
100
AcDbEntity
  8
0
100
AcDbLine
 10
66.0
 20
71.40543499999999
 30
0.0
 11
66.0
 21
71.8068431569218
 31
0.0
  0
LINE
  5
240
330
1E
100
AcDbEntity
  8
0
100
AcDbLine
 10
66.0
 20
71.40543499999999
 30
0.0
 11
66.0
 21
70.72763499999999
 31
0.0
  0
LINE
  5
241
330
1E
100
AcDbEntity
  8
0
100
AcDbLine
 10
66.0
 20
70.72763499999999
 30
0.0
 11
66.0
 21
71.40543499999999
 31
0.0
  0
LINE
  5
242
330
1E
100
AcDbEntity
  8
0
100
AcDbLine
 10
66.0
 20
71.8068431569218
 30
0.0
 11
66.0
 21
71.40543499999999
 31
0.0
  0
LINE
  5
243
330
1E
100
AcDbEntity
  8
0
100
AcDbLine
 10
66.536
 20
82.82783499999998
 30
0.0
 11
67.976
 21
83.11583500000001
 31
0.0
  0
LINE
  5
244
330
1E
100
AcDbEntity
  8
0
100
AcDbLine
 10
67.976
 20
83.11583500000001
 30
0.0
 11
69.24800000000001
 21
83.59583499999999
 31
0.0
  0
LINE
  5
245
330
1E
100
AcDbEntity
  8
0
100
AcDbLine
 10
69.36067661900271
 20
69.7102685024376
 30
0.0
 11
69.42367
 21
68.07063499999999
 31
0.0
  0
LINE
  5
246
330
1E
100
AcDbEntity
  8
0
100
AcDbLine
 10
69.42367
 20
68.07063499999999
 30
0.0
 11
69.67381999999999
 21
67.61603499999999
 31
0.0
  0
LINE
  5
247
330
1E
100
AcDbEntity
  8
0
100
AcDbLine
 10
69.42367
 20
68.07063499999999
 30
0.0
 11
71.40655999999999
 21
68.20113499999999
 31
0.0
  0
LINE
  5
248
330
1E
100
AcDbEntity
  8
0
100
AcDbLine
 10
69.24800000000001
 20
83.59583499999999
 30
0.0
 11
70.208
 21
84.231835
 31
0.0
  0
LINE
  5
249
330
1E
100
AcDbEntity
  8
0
100
AcDbLine
 10
70.208
 20
84.231835
 30
0.0
 11
70.78399999999999
 21
84.95183500000001
 31
0.0
  0
LINE
  5
24A
330
1E
100
AcDbEntity
  8
0
100
AcDbLine
 10
70.78399999999999
 20
84.95183500000001
 30
0.0
 11
71.0
 21
85.71983499999999
 31
0.0
  0
LINE
  5
24B
330
1E
100
AcDbEntity
  8
0
100
AcDbLine
 10
66.27495
 20
89.247235
 30
0.0
 11
66.78699
 21
89.459435
 31
0.0
  0
LINE
  5
24C
330
1E
100
AcDbEntity
  8
0
100
AcDbLine
 10
65.67501400000001
 20
89.11943499999999
 30
0.0
 11
66.27495
 21
89.247235
 31
0.0
  0
LINE
  5
24D
330
1E
100
AcDbEntity
  8
0
100
AcDbLine
 10
66.27498
 20
91.463435
 30
0.0
 11
66.78695000000001
 21
91.25113499999999
 31
0.0
  0
LINE
  5
24E
330
1E
100
AcDbEntity
  8
0
100
AcDbLine
 10
66.0
 20
102.500535
 30
0.0
 11
66.0
 21
103.791235
 31
0.0
  0
LINE
  5
24F
330
1E
100
AcDbEntity
  8
0
100
AcDbLine
 10
66.0
 20
104.138662009207
 30
0.0
 11
66.0
 21
103.791235
 31
0.0
  0
LINE
  5
250
330
1E
100
AcDbEntity
  8
0
100
AcDbLine
 10
66.0
 20
103.791235
 30
0.0
 11
66.0
 21
104.138662009207
 31
0.0
  0
LINE
  5
251
330
1E
100
AcDbEntity
  8
0
100
AcDbLine
 10
66.0
 20
103.791235
 30
0.0
 11
66.0
 21
102.500535
 31
0.0
  0
LINE
  5
252
330
1E
100
AcDbEntity
  8
0
100
AcDbLine
 10
66.0
 20
116.247635
 30
0.0
 11
66.0
 21
117.746635
 31
0.0
  0
LINE
  5
253
330
1E
100
AcDbEntity
  8
0
100
AcDbLine
 10
66.0
 20
119.070635
 30
0.0
 11
66.0
 21
117.746635
 31
0.0
  0
LINE
  5
254
330
1E
100
AcDbEntity
  8
0
100
AcDbLine
 10
66.0
 20
117.746635
 30
0.0
 11
66.0
 21
119.070635
 31
0.0
  0
LINE
  5
255
330
1E
100
AcDbEntity
  8
0
100
AcDbLine
 10
66.0
 20
117.746635
 30
0.0
 11
66.0
 21
116.247635
 31
0.0
  0
LINE
  5
256
330
1E
100
AcDbEntity
  8
0
100
AcDbLine
 10
65.67499399999999
 20
91.591135
 30
0.0
 11
66.27498
 21
91.463435
 31
0.0
  0
LINE
  5
257
330
1E
100
AcDbEntity
  8
0
100
AcDbLine
 10
66.78699
 20
89.459435
 30
0.0
 11
67.21103000000001
 21
89.71533499999999
 31
0.0
  0
LINE
  5
258
330
1E
100
AcDbEntity
  8
0
100
AcDbLine
 10
67.46694000000001
 20
90.01513499999999
 30
0.0
 11
67.6351311574825
 21
90.3124115553585
 31
0.0
  0
LINE
  5
259
330
1E
100
AcDbEntity
  8
0
100
AcDbLine
 10
67.46694000000001
 20
90.01513499999999
 30
0.0
 11
67.55490999999999
 21
90.355135
 31
0.0
  0
LINE
  5
25A
330
1E
100
AcDbEntity
  8
0
100
AcDbLine
 10
67.21103000000001
 20
89.71533499999999
 30
0.0
 11
67.46694000000001
 21
90.01513499999999
 31
0.0
  0
LINE
  5
25B
330
1E
100
AcDbEntity
  8
0
100
AcDbLine
 10
67.46691
 20
90.69503500000001
 30
0.0
 11
67.55490999999999
 21
90.355135
 31
0.0
  0
LINE
  5
25C
330
1E
100
AcDbEntity
  8
0
100
AcDbLine
 10
67.21098999999999
 20
90.995235
 30
0.0
 11
67.46691
 21
90.69503500000001
 31
0.0
  0
LINE
  5
25D
330
1E
100
AcDbEntity
  8
0
100
AcDbLine
 10
66.65671967786351
 20
97.02853923168371
 30
0.0
 11
66.66620999999999
 21
95.97343499999999
 31
0.0
  0
LINE
  5
25E
330
1E
100
AcDbEntity
  8
0
100
AcDbLine
 10
66.66620999999999
 20
95.97343499999999
 30
0.0
 11
66.92681999999999
 21
97.063035
 31
0.0
  0
LINE
  5
25F
330
1E
100
AcDbEntity
  8
0
100
AcDbLine
 10
66.66620999999999
 20
95.97343499999999
 30
0.0
 11
68.64909
 21
95.84293499999999
 31
0.0
  0
LINE
  5
260
330
1E
100
AcDbEntity
  8
0
100
AcDbLine
 10
68.64909
 20
95.84293499999999
 30
0.0
 11
68.90971
 21
96.93243500000001
 31
0.0
  0
LINE
  5
261
330
1E
100
AcDbEntity
  8
0
100
AcDbLine
 10
66.92681999999999
 20
97.063035
 30
0.0
 11
68.90971
 21
96.93243500000001
 31
0.0
  0
LINE
  5
262
330
1E
100
AcDbEntity
  8
0
100
AcDbLine
 10
68.89468
 20
98.604535
 30
0.0
 11
68.90971
 21
96.93243500000001
 31
0.0
  0
LINE
  5
263
330
1E
100
AcDbEntity
  8
0
100
AcDbLine
 10
66.9236546235362
 20
97.4151857641503
 30
0.0
 11
66.92681999999999
 21
97.063035
 31
0.0
  0
LINE
  5
264
330
1E
100
AcDbEntity
  8
0
100
AcDbLine
 10
66.78695000000001
 20
91.25113499999999
 30
0.0
 11
67.21098999999999
 21
90.995235
 31
0.0
  0
LINE
  5
265
330
1E
100
AcDbEntity
  8
0
100
AcDbLine
 10
66.536
 20
88.611835
 30
0.0
 11
67.976
 21
88.323835
 31
0.0
  0
LINE
  5
266
330
1E
100
AcDbEntity
  8
0
100
AcDbLine
 10
67.976
 20
88.323835
 30
0.0
 11
69.24800000000001
 21
87.843835
 31
0.0
  0
LINE
  5
267
330
1E
100
AcDbEntity
  8
0
100
AcDbLine
 10
69.34900999999999
 20
110.709635
 30
0.0
 11
69.42367
 21
109.332635
 31
0.0
  0
LINE
  5
268
330
1E
100
AcDbEntity
  8
0
100
AcDbLine
 10
69.42367
 20
109.332635
 30
0.0
 11
69.67381999999999
 21
110.778635
 31
0.0
  0
LINE
  5
269
330
1E
100
AcDbEntity
  8
0
100
AcDbLine
 10
69.42367
 20
109.332635
 30
0.0
 11
71.40655999999999
 21
109.202635
 31
0.0
  0
LINE
  5
26A
330
1E
100
AcDbEntity
  8
0
100
AcDbLine
 10
69.67381999999999
 20
110.778635
 30
0.0
 11
71.65671
 21
110.647635
 31
0.0
  0
LINE
  5
26B
330
1E
100
AcDbEntity
  8
0
100
AcDbLine
 10
69.59915999999999
 20
112.154635
 30
0.0
 11
69.67381999999999
 21
110.778635
 31
0.0
  0
LINE
  5
26C
330
1E
100
AcDbEntity
  8
0
100
AcDbLine
 10
69.24800000000001
 20
87.843835
 30
0.0
 11
70.208
 21
87.20783500000001
 31
0.0
  0
LINE
  5
26D
330
1E
100
AcDbEntity
  8
0
100
AcDbLine
 10
70.208
 20
87.20783500000001
 30
0.0
 11
70.78399999999999
 21
86.487835
 31
0.0
  0
LINE
  5
26E
330
1E
100
AcDbEntity
  8
0
100
AcDbLine
 10
71.1269915200809
 20
82.78882480932221
 30
0.0
 11
71.33353000000001
 21
82.426835
 31
0.0
  0
LINE
  5
26F
330
1E
100
AcDbEntity
  8
0
100
AcDbLine
 10
71.40655999999999
 20
68.20113499999999
 30
0.0
 11
71.65671
 21
67.74653499999999
 31
0.0
  0
LINE
  5
270
330
1E
100
AcDbEntity
  8
0
100
AcDbLine
 10
71.355095393641
 20
69.54068990942269
 30
0.0
 11
71.40655999999999
 21
68.20113499999999
 31
0.0
  0
LINE
  5
271
330
1E
100
AcDbEntity
  8
0
100
AcDbLine
 10
71.33353000000001
 20
82.426835
 30
0.0
 11
71.56487
 21
82.115235
 31
0.0
  0
LINE
  5
272
330
1E
100
AcDbEntity
  8
0
100
AcDbLine
 10
71.22209000000001
 20
82.75463499999998
 30
0.0
 11
71.30065999999999
 21
83.07833499999999
 31
0.0
  0
LINE
  5
273
330
1E
100
AcDbEntity
  8
0
100
AcDbLine
 10
71.22209000000001
 20
82.75463499999998
 30
0.0
 11
71.33353000000001
 21
82.426835
 31
0.0
  0
LINE
  5
274
330
1E
100
AcDbEntity
  8
0
100
AcDbLine
 10
71.30065999999999
 20
83.07833499999999
 30
0.0
 11
71.56416
 21
83.394835
 31
0.0
  0
LINE
  5
275
330
1E
100
AcDbEntity
  8
0
100
AcDbLine
 10
71.58923581546019
 20
69.50270745375999
 30
0.0
 11
71.65671
 21
67.74653499999999
 31
0.0
  0
LINE
  5
276
330
1E
100
AcDbEntity
  8
0
100
AcDbLine
 10
71.85199648671221
 20
76.86332878593879
 30
0.0
 11
71.86796
 21
76.21783499999999
 31
0.0
  0
LINE
  5
277
330
1E
100
AcDbEntity
  8
0
100
AcDbLine
 10
72.02666643570021
 20
72.94072996834251
 30
0.0
 11
72.08208
 21
71.805835
 31
0.0
  0
LINE
  5
278
330
1E
100
AcDbEntity
  8
0
100
AcDbLine
 10
72.08208
 20
71.805835
 30
0.0
 11
72.59154999999999
 21
71.161535
 31
0.0
  0
LINE
  5
279
330
1E
100
AcDbEntity
  8
0
100
AcDbLine
 10
72.08208
 20
71.805835
 30
0.0
 11
74.01393
 21
72.06463499999999
 31
0.0
  0
LINE
  5
27A
330
1E
100
AcDbEntity
  8
0
100
AcDbLine
 10
71.86796
 20
76.21783499999999
 30
0.0
 11
72.63205000000001
 21
75.395235
 31
0.0
  0
LINE
  5
27B
330
1E
100
AcDbEntity
  8
0
100
AcDbLine
 10
71.86796
 20
76.21783499999999
 30
0.0
 11
73.71571
 21
76.600535
 31
0.0
  0
LINE
  5
27C
330
1E
100
AcDbEntity
  8
0
100
AcDbLine
 10
71.95614
 20
81.85453499999999
 30
0.0
 11
72.50099
 21
81.646435
 31
0.0
  0
LINE
  5
27D
330
1E
100
AcDbEntity
  8
0
100
AcDbLine
 10
71.56487
 20
82.115235
 30
0.0
 11
71.95614
 21
81.85453499999999
 31
0.0
  0
LINE
  5
27E
330
1E
100
AcDbEntity
  8
0
100
AcDbLine
 10
71.98064999999999
 20
83.66723499999999
 30
0.0
 11
72.50206999999999
 21
83.86313499999999
 31
0.0
  0
LINE
  5
27F
330
1E
100
AcDbEntity
  8
0
100
AcDbLine
 10
71.56416
 20
83.394835
 30
0.0
 11
71.98064999999999
 21
83.66723499999999
 31
0.0
  0
LINE
  5
280
330
1E
100
AcDbEntity
  8
0
100
AcDbLine
 10
72.0557004562629
 20
102.5420448294829
 30
0.0
 11
72.08208
 21
102.100235
 31
0.0
  0
LINE
  5
281
330
1E
100
AcDbEntity
  8
0
100
AcDbLine
 10
72.08208
 20
102.100235
 30
0.0
 11
72.59154999999999
 21
103.3573349999999
 31
0.0
  0
LINE
  5
282
330
1E
100
AcDbEntity
  8
0
100
AcDbLine
 10
72.08208
 20
102.100235
 30
0.0
 11
74.01393
 21
101.841335
 31
0.0
  0
LINE
  5
283
330
1E
100
AcDbEntity
  8
0
100
AcDbLine
 10
71.40655999999999
 20
109.202635
 30
0.0
 11
71.65671
 21
110.647635
 31
0.0
  0
LINE
  5
284
330
1E
100
AcDbEntity
  8
0
100
AcDbLine
 10
71.58204999999999
 20
112.023635
 30
0.0
 11
71.65671
 21
110.647635
 31
0.0
  0
LINE
  5
285
330
1E
100
AcDbEntity
  8
0
100
AcDbLine
 10
71.0
 20
86.1364432196343
 30
0.0
 11
71.0
 21
85.71983499999999
 31
0.0
  0
LINE
  5
286
330
1E
100
AcDbEntity
  8
0
100
AcDbLine
 10
71.0
 20
85.71983499999999
 30
0.0
 11
71.0
 21
86.1364432196343
 31
0.0
  0
LINE
  5
287
330
1E
100
AcDbEntity
  8
0
100
AcDbLine
 10
70.78399999999999
 20
86.487835
 30
0.0
 11
71.0
 21
85.71983499999999
 31
0.0
  0
LINE
  5
288
330
1E
100
AcDbEntity
  8
0
100
AcDbLine
 10
72.3667
 20
121.350635
 30
0.0
 11
79.56
 21
120.656635
 31
0.0
  0
LINE
  5
289
330
1E
100
AcDbEntity
  8
0
100
AcDbLine
 10
72.59154999999999
 20
71.161535
 30
0.0
 11
74.52339999999999
 21
71.420335
 31
0.0
  0
LINE
  5
28A
330
1E
100
AcDbEntity
  8
0
100
AcDbLine
 10
72.63205000000001
 20
75.395235
 30
0.0
 11
74.47981
 21
75.777935
 31
0.0
  0
LINE
  5
28B
330
1E
100
AcDbEntity
  8
0
100
AcDbLine
 10
72.50099
 20
81.646435
 30
0.0
 11
73.13379000000001
 21
81.514535
 31
0.0
  0
LINE
  5
28C
330
1E
100
AcDbEntity
  8
0
100
AcDbLine
 10
73.13379000000001
 20
81.514535
 30
0.0
 11
73.78165
 21
81.47533499999999
 31
0.0
  0
LINE
  5
28D
330
1E
100
AcDbEntity
  8
0
100
AcDbLine
 10
72.59154999999999
 20
103.3573349999999
 30
0.0
 11
74.52339999999999
 21
103.0984349999999
 31
0.0
  0
LINE
  5
28E
330
1E
100
AcDbEntity
  8
0
100
AcDbLine
 10
72.5718504526227
 20
103.6872669258279
 30
0.0
 11
72.59154999999999
 21
103.3573349999999
 31
0.0
  0
LINE
  5
28F
330
1E
100
AcDbEntity
  8
0
100
AcDbLine
 10
73.12555
 20
83.97873500000001
 30
0.0
 11
73.78088000000001
 21
84.034335
 31
0.0
  0
LINE
  5
290
330
1E
100
AcDbEntity
  8
0
100
AcDbLine
 10
72.50206999999999
 20
83.86313499999999
 30
0.0
 11
73.12555
 21
83.97873500000001
 31
0.0
  0
LINE
  5
291
330
1E
100
AcDbEntity
  8
0
100
AcDbLine
 10
72.3667
 20
122.225635
 30
0.0
 11
79.56
 21
121.532635
 31
0.0
  0
LINE
  5
292
330
1E
100
AcDbEntity
  8
0
100
AcDbLine
 10
66.0
 20
67.637556515592
 30
0.0
 11
66.0
 21
62.93103499999999
 31
0.0
  0
LINE
  5
293
330
1E
100
AcDbEntity
  8
0
100
AcDbLine
 10
74.01393
 20
72.06463499999999
 30
0.0
 11
74.52339999999999
 21
71.420335
 31
0.0
  0
LINE
  5
294
330
1E
100
AcDbEntity
  8
0
100
AcDbLine
 10
73.9953917252239
 20
72.4443072883829
 30
0.0
 11
74.01393
 21
72.06463499999999
 31
0.0
  0
LINE
  5
295
330
1E
100
AcDbEntity
  8
0
100
AcDbLine
 10
73.71571
 20
76.600535
 30
0.0
 11
74.47981
 21
75.777935
 31
0.0
  0
LINE
  5
296
330
1E
100
AcDbEntity
  8
0
100
AcDbLine
 10
73.69063918136451
 20
77.6145179166323
 30
0.0
 11
73.71571
 21
76.600535
 31
0.0
  0
LINE
  5
297
330
1E
100
AcDbEntity
  8
0
100
AcDbLine
 10
73.78165
 20
81.47533499999999
 30
0.0
 11
74.43701999999999
 21
81.530935
 31
0.0
  0
LINE
  5
298
330
1E
100
AcDbEntity
  8
0
100
AcDbLine
 10
74.46946491102849
 20
72.52500901598391
 30
0.0
 11
74.52339999999999
 21
71.420335
 31
0.0
  0
LINE
  5
299
330
1E
100
AcDbEntity
  8
0
100
AcDbLine
 10
74.4413363888478
 20
77.33399046897209
 30
0.0
 11
74.47981
 21
75.777935
 31
0.0
  0
LINE
  5
29A
330
1E
100
AcDbEntity
  8
0
100
AcDbLine
 10
74.43701999999999
 20
81.530935
 30
0.0
 11
75.06059999999999
 21
81.646535
 31
0.0
  0
LINE
  5
29B
330
1E
100
AcDbEntity
  8
0
100
AcDbLine
 10
75.06059999999999
 20
81.646535
 30
0.0
 11
75.5819
 21
81.84243499999999
 31
0.0
  0
LINE
  5
29C
330
1E
100
AcDbEntity
  8
0
100
AcDbLine
 10
77.08691896027641
 20
67.24035212537799
 30
0.0
 11
77.1734
 21
66.21613499999999
 31
0.0
  0
LINE
  5
29D
330
1E
100
AcDbEntity
  8
0
100
AcDbLine
 10
77.1734
 20
66.21613499999999
 30
0.0
 11
77.6642
 21
65.851435
 31
0.0
  0
LINE
  5
29E
330
1E
100
AcDbEntity
  8
0
100
AcDbLine
 10
77.1734
 20
66.21613499999999
 30
0.0
 11
79.1053
 21
66.474935
 31
0.0
  0
LINE
  5
29F
330
1E
100
AcDbEntity
  8
0
100
AcDbLine
 10
77.6642
 20
65.851435
 30
0.0
 11
79.596
 21
66.110235
 31
0.0
  0
LINE
  5
2A0
330
1E
100
AcDbEntity
  8
0
100
AcDbLine
 10
75.5819
 20
81.84243499999999
 30
0.0
 11
75.9985
 21
82.114735
 31
0.0
  0
LINE
  5
2A1
330
1E
100
AcDbEntity
  8
0
100
AcDbLine
 10
75.0609
 20
83.863435
 30
0.0
 11
75.6057
 21
83.65533499999999
 31
0.0
  0
LINE
  5
2A2
330
1E
100
AcDbEntity
  8
0
100
AcDbLine
 10
75.6057
 20
83.65533499999999
 30
0.0
 11
75.9976
 21
83.394335
 31
0.0
  0
LINE
  5
2A3
330
1E
100
AcDbEntity
  8
0
100
AcDbLine
 10
75.9976
 20
83.394335
 30
0.0
 11
76.229
 21
83.08283499999999
 31
0.0
  0
LINE
  5
2A4
330
1E
100
AcDbEntity
  8
0
100
AcDbLine
 10
76.229
 20
83.08283499999999
 30
0.0
 11
76.34059999999999
 21
82.75503499999999
 31
0.0
  0
LINE
  5
2A5
330
1E
100
AcDbEntity
  8
0
100
AcDbLine
 10
76.26179999999999
 20
82.431335
 30
0.0
 11
76.76071137635251
 21
83.3129193340077
 31
0.0
  0
LINE
  5
2A6
330
1E
100
AcDbEntity
  8
0
100
AcDbLine
 10
76.26179999999999
 20
82.431335
 30
0.0
 11
76.34059999999999
 21
82.75503499999999
 31
0.0
  0
LINE
  5
2A7
330
1E
100
AcDbEntity
  8
0
100
AcDbLine
 10
75.9985
 20
82.114735
 30
0.0
 11
76.26179999999999
 21
82.431335
 31
0.0
  0
LINE
  5
2A8
330
1E
100
AcDbEntity
  8
0
100
AcDbLine
 10
74.42806
 20
83.99523499999999
 30
0.0
 11
75.0609
 21
83.863435
 31
0.0
  0
LINE
  5
2A9
330
1E
100
AcDbEntity
  8
0
100
AcDbLine
 10
74.01393
 20
101.841335
 30
0.0
 11
74.52339999999999
 21
103.0984349999999
 31
0.0
  0
LINE
  5
2AA
330
1E
100
AcDbEntity
  8
0
100
AcDbLine
 10
74.50455327922171
 20
103.4141041963519
 30
0.0
 11
74.52339999999999
 21
103.0984349999999
 31
0.0
  0
LINE
  5
2AB
330
1E
100
AcDbEntity
  8
0
100
AcDbLine
 10
76.56468829675801
 20
95.0847966605993
 30
0.0
 11
76.60169999999999
 21
94.19593499999999
 31
0.0
  0
LINE
  5
2AC
330
1E
100
AcDbEntity
  8
0
100
AcDbLine
 10
76.60169999999999
 20
94.19593499999999
 30
0.0
 11
77.81719999999999
 21
95.08763499999998
 31
0.0
  0
LINE
  5
2AD
330
1E
100
AcDbEntity
  8
0
100
AcDbLine
 10
76.60169999999999
 20
94.19593499999999
 30
0.0
 11
78.1884
 21
93.587135
 31
0.0
  0
LINE
  5
2AE
330
1E
100
AcDbEntity
  8
0
100
AcDbLine
 10
77.00879999999999
 20
116.846635
 30
0.0
 11
77.1734
 21
115.511635
 31
0.0
  0
LINE
  5
2AF
330
1E
100
AcDbEntity
  8
0
100
AcDbLine
 10
77.1734
 20
115.511635
 30
0.0
 11
77.6642
 21
116.978635
 31
0.0
  0
LINE
  5
2B0
330
1E
100
AcDbEntity
  8
0
100
AcDbLine
 10
77.1734
 20
115.511635
 30
0.0
 11
79.1053
 21
115.252635
 31
0.0
  0
LINE
  5
2B1
330
1E
100
AcDbEntity
  8
0
100
AcDbLine
 10
78.1884
 20
93.587135
 30
0.0
 11
79.40389999999999
 21
94.47893499999999
 31
0.0
  0
LINE
  5
2B2
330
1E
100
AcDbEntity
  8
0
100
AcDbLine
 10
77.81719999999999
 20
95.08763499999998
 30
0.0
 11
79.40389999999999
 21
94.47893499999999
 31
0.0
  0
LINE
  5
2B3
330
1E
100
AcDbEntity
  8
0
100
AcDbLine
 10
77.79171254839609
 20
95.69973378423808
 30
0.0
 11
77.81719999999999
 21
95.08763499999998
 31
0.0
  0
LINE
  5
2B4
330
1E
100
AcDbEntity
  8
0
100
AcDbLine
 10
77.6642
 20
116.978635
 30
0.0
 11
79.596
 21
116.719635
 31
0.0
  0
LINE
  5
2B5
330
1E
100
AcDbEntity
  8
0
100
AcDbLine
 10
77.6329365645919
 20
117.2320453598659
 30
0.0
 11
77.6642
 21
116.978635
 31
0.0
  0
LINE
  5
2B6
330
1E
100
AcDbEntity
  8
0
100
AcDbLine
 10
73.78088000000001
 20
84.034335
 30
0.0
 11
74.42806
 21
83.99523499999999
 31
0.0
  0
LINE
  5
2B7
330
1E
100
AcDbEntity
  8
0
100
AcDbLine
 10
73.14669999999999
 20
129.5036349999999
 30
0.0
 11
81.12
 21
128.6806349999999
 31
0.0
  0
LINE
  5
2B8
330
1E
100
AcDbEntity
  8
0
100
AcDbLine
 10
73.14669999999999
 20
129.590635
 30
0.0
 11
81.12
 21
128.766635
 31
0.0
  0
LINE
  5
2B9
330
1E
100
AcDbEntity
  8
0
100
AcDbLine
 10
65.0
 20
129.893635
 30
0.0
 11
73.14669999999999
 21
129.590635
 31
0.0
  0
LINE
  5
2BA
330
1E
100
AcDbEntity
  8
0
100
AcDbLine
 10
72.3667
 20
139.731635
 30
0.0
 11
79.56
 21
139.037635
 31
0.0
  0
LINE
  5
2BB
330
1E
100
AcDbEntity
  8
0
100
AcDbLine
 10
56.8533
 20
129.590635
 30
0.0
 11
65.0
 21
129.893635
 31
0.0
  0
LINE
  5
2BC
330
1E
100
AcDbEntity
  8
0
100
AcDbLine
 10
65.0
 20
140.034635
 30
0.0
 11
72.3667
 21
139.731635
 31
0.0
  0
LINE
  5
2BD
330
1E
100
AcDbEntity
  8
0
100
AcDbLine
 10
57.63329999999999
 20
139.731635
 30
0.0
 11
65.0
 21
140.034635
 31
0.0
  0
LINE
  5
2BE
330
1E
100
AcDbEntity
  8
0
100
AcDbLine
 10
51.0
 20
66.03038988145769
 30
0.0
 11
51.0
 21
63.969835
 31
0.0
  0
LINE
  5
2BF
330
1E
100
AcDbEntity
  8
0
100
AcDbLine
 10
79.0
 20
63.969835
 30
0.0
 11
79.0
 21
66.03038988145769
 31
0.0
  0
LINE
  5
2C0
330
1E
100
AcDbEntity
  8
0
100
AcDbLine
 10
79.0
 20
63.969835
 30
0.0
 11
79.0
 21
57.485135
 31
0.0
  0
LINE
  5
2C1
330
1E
100
AcDbEntity
  8
0
100
AcDbLine
 10
79.1053
 20
66.474935
 30
0.0
 11
79.596
 21
66.110235
 31
0.0
  0
LINE
  5
2C2
330
1E
100
AcDbEntity
  8
0
100
AcDbLine
 10
79.0428752467611
 20
67.21379847276221
 30
0.0
 11
79.1053
 21
66.474935
 31
0.0
  0
LINE
  5
2C3
330
1E
100
AcDbEntity
  8
0
100
AcDbLine
 10
79.5082348350358
 20
67.1496070295545
 30
0.0
 11
79.596
 21
66.110235
 31
0.0
  0
LINE
  5
2C4
330
1E
100
AcDbEntity
  8
0
100
AcDbLine
 10
89.51730000000001
 20
68.63133499999999
 30
0.0
 11
90.4653
 21
68.36133499999999
 31
0.0
  0
LINE
  5
2C5
330
1E
100
AcDbEntity
  8
0
100
AcDbLine
 10
89.51730000000001
 20
68.63133499999999
 30
0.0
 11
91.2493
 21
69.13133499999999
 31
0.0
  0
LINE
  5
2C6
330
1E
100
AcDbEntity
  8
0
100
AcDbLine
 10
90.4653
 20
68.36133499999999
 30
0.0
 11
92.19739999999999
 21
68.86133499999999
 31
0.0
  0
LINE
  5
2C7
330
1E
100
AcDbEntity
  8
0
100
AcDbLine
 10
86.4933
 20
67.530535
 30
0.0
 11
90.2545612602935
 21
68.42135552713161
 31
0.0
  0
LINE
  5
2C8
330
1E
100
AcDbEntity
  8
0
100
AcDbLine
 10
79.76096183347229
 20
71.02867446360291
 30
0.0
 11
79.95239999999999
 21
69.34613500000001
 31
0.0
  0
LINE
  5
2C9
330
1E
100
AcDbEntity
  8
0
100
AcDbLine
 10
79.95239999999999
 20
69.34613500000001
 30
0.0
 11
80.6858
 21
68.95623499999999
 31
0.0
  0
LINE
  5
2CA
330
1E
100
AcDbEntity
  8
0
100
AcDbLine
 10
79.95239999999999
 20
69.34613500000001
 30
0.0
 11
81.8002
 21
69.728835
 31
0.0
  0
LINE
  5
2CB
330
1E
100
AcDbEntity
  8
0
100
AcDbLine
 10
91.2493
 20
69.13133499999999
 30
0.0
 11
92.19739999999999
 21
68.86133499999999
 31
0.0
  0
LINE
  5
2CC
330
1E
100
AcDbEntity
  8
0
100
AcDbLine
 10
89.35059327153792
 20
69.6362920025114
 30
0.0
 11
89.51730000000001
 21
68.63133499999999
 31
0.0
  0
LINE
  5
2CD
330
1E
100
AcDbEntity
  8
0
100
AcDbLine
 10
91.13802669521341
 20
69.8021230831775
 30
0.0
 11
91.2493
 21
69.13133499999999
 31
0.0
  0
LINE
  5
2CE
330
1E
100
AcDbEntity
  8
0
100
AcDbLine
 10
92.0278228035433
 20
69.8835427152016
 30
0.0
 11
92.19739999999999
 21
68.86133499999999
 31
0.0
  0
LINE
  5
2CF
330
1E
100
AcDbEntity
  8
0
100
AcDbLine
 10
81.8002
 20
69.728835
 30
0.0
 11
82.5336
 21
69.338835
 31
0.0
  0
LINE
  5
2D0
330
1E
100
AcDbEntity
  8
0
100
AcDbLine
 10
80.6858
 20
68.95623499999999
 30
0.0
 11
82.5336
 21
69.338835
 31
0.0
  0
LINE
  5
2D1
330
1E
100
AcDbEntity
  8
0
100
AcDbLine
 10
79.6815
 20
73.23843499999999
 30
0.0
 11
80.6657
 21
72.69253499999999
 31
0.0
  0
LINE
  5
2D2
330
1E
100
AcDbEntity
  8
0
100
AcDbLine
 10
79.6815
 20
73.23843499999999
 30
0.0
 11
81.4136
 21
73.73843499999999
 31
0.0
  0
LINE
  5
2D3
330
1E
100
AcDbEntity
  8
0
100
AcDbLine
 10
80.6657
 20
72.69253499999999
 30
0.0
 11
82.39780000000001
 21
73.19253499999999
 31
0.0
  0
LINE
  5
2D4
330
1E
100
AcDbEntity
  8
0
100
AcDbLine
 10
89.4622
 20
71.940635
 30
0.0
 11
90.62890000000001
 21
71.67583499999999
 31
0.0
  0
LINE
  5
2D5
330
1E
100
AcDbEntity
  8
0
100
AcDbLine
 10
89.4622
 20
71.940635
 30
0.0
 11
91.04890000000001
 21
72.549435
 31
0.0
  0
LINE
  5
2D6
330
1E
100
AcDbEntity
  8
0
100
AcDbLine
 10
91.04890000000001
 20
72.549435
 30
0.0
 11
92.2156
 21
72.28453499999999
 31
0.0
  0
LINE
  5
2D7
330
1E
100
AcDbEntity
  8
0
100
AcDbLine
 10
90.62890000000001
 20
71.67583499999999
 30
0.0
 11
92.2156
 21
72.28453499999999
 31
0.0
  0
LINE
  5
2D8
330
1E
100
AcDbEntity
  8
0
100
AcDbLine
 10
92.11584386109349
 20
72.8250287727197
 30
0.0
 11
92.2156
 21
72.28453499999999
 31
0.0
  0
LINE
  5
2D9
330
1E
100
AcDbEntity
  8
0
100
AcDbLine
 10
81.64949378482841
 20
71.0533835946488
 30
0.0
 11
81.8002
 21
69.728835
 31
0.0
  0
LINE
  5
2DA
330
1E
100
AcDbEntity
  8
0
100
AcDbLine
 10
82.340144683057
 20
71.03919146321749
 30
0.0
 11
82.5336
 21
69.338835
 31
0.0
  0
LINE
  5
2DB
330
1E
100
AcDbEntity
  8
0
100
AcDbLine
 10
100.1902999999999
 20
72.561735
 30
0.0
 11
101.531
 21
72.44233499999999
 31
0.0
  0
LINE
  5
2DC
330
1E
100
AcDbEntity
  8
0
100
AcDbLine
 10
100.1902999999999
 20
72.561735
 30
0.0
 11
101.6045
 21
73.268835
 31
0.0
  0
LINE
  5
2DD
330
1E
100
AcDbEntity
  8
0
100
AcDbLine
 10
99.9472927695122
 20
73.5701690949559
 30
0.0
 11
100.1902999999999
 21
72.561735
 31
0.0
  0
LINE
  5
2DE
330
1E
100
AcDbEntity
  8
0
100
AcDbLine
 10
101.6045
 20
73.268835
 30
0.0
 11
102.9452999999999
 21
73.149435
 31
0.0
  0
LINE
  5
2DF
330
1E
100
AcDbEntity
  8
0
100
AcDbLine
 10
101.531
 20
72.44233499999999
 30
0.0
 11
102.9452999999999
 21
73.149435
 31
0.0
  0
LINE
  5
2E0
330
1E
100
AcDbEntity
  8
0
100
AcDbLine
 10
99.23329999999999
 20
71.170535
 30
0.0
 11
104.78
 21
73.59703499999999
 31
0.0
  0
LINE
  5
2E1
330
1E
100
AcDbEntity
  8
0
100
AcDbLine
 10
93.07999999999999
 20
69.090535
 30
0.0
 11
99.23329999999999
 21
71.170535
 31
0.0
  0
LINE
  5
2E2
330
1E
100
AcDbEntity
  8
0
100
AcDbLine
 10
92.1941813572806
 20
68.8807369095082
 30
0.0
 11
93.07999999999999
 21
69.090535
 31
0.0
  0
LINE
  5
2E3
330
1E
100
AcDbEntity
  8
0
100
AcDbLine
 10
79.57826770833169
 20
66.3202323034573
 30
0.0
 11
86.4933
 21
67.530535
 31
0.0
  0
LINE
  5
2E4
330
1E
100
AcDbEntity
  8
0
100
AcDbLine
 10
81.4136
 20
73.73843499999999
 30
0.0
 11
82.39780000000001
 21
73.19253499999999
 31
0.0
  0
LINE
  5
2E5
330
1E
100
AcDbEntity
  8
0
100
AcDbLine
 10
81.38643734633669
 20
74.0237119600964
 30
0.0
 11
81.4136
 21
73.73843499999999
 31
0.0
  0
LINE
  5
2E6
330
1E
100
AcDbEntity
  8
0
100
AcDbLine
 10
79.5794044114986
 20
74.3106983910501
 30
0.0
 11
79.6815
 21
73.23843499999999
 31
0.0
  0
LINE
  5
2E7
330
1E
100
AcDbEntity
  8
0
100
AcDbLine
 10
87.6547508872102
 20
76.6049968168773
 30
0.0
 11
87.6947
 21
76.31283499999999
 31
0.0
  0
LINE
  5
2E8
330
1E
100
AcDbEntity
  8
0
100
AcDbLine
 10
86.2804
 20
75.60563499999999
 30
0.0
 11
87.67230000000001
 21
75.21613499999999
 31
0.0
  0
LINE
  5
2E9
330
1E
100
AcDbEntity
  8
0
100
AcDbLine
 10
86.2804
 20
75.60563499999999
 30
0.0
 11
87.6947
 21
76.31283499999999
 31
0.0
  0
LINE
  5
2EA
330
1E
100
AcDbEntity
  8
0
100
AcDbLine
 10
87.6947
 20
76.31283499999999
 30
0.0
 11
89.08660000000001
 21
75.92323499999999
 31
0.0
  0
LINE
  5
2EB
330
1E
100
AcDbEntity
  8
0
100
AcDbLine
 10
87.67230000000001
 20
75.21613499999999
 30
0.0
 11
89.08660000000001
 21
75.92323499999999
 31
0.0
  0
LINE
  5
2EC
330
1E
100
AcDbEntity
  8
0
100
AcDbLine
 10
86.13409503193929
 20
76.67610065795421
 30
0.0
 11
86.2804
 21
75.60563499999999
 31
0.0
  0
LINE
  5
2ED
330
1E
100
AcDbEntity
  8
0
100
AcDbLine
 10
88.9897290385252
 20
76.6316861802822
 30
0.0
 11
89.08660000000001
 21
75.92323499999999
 31
0.0
  0
LINE
  5
2EE
330
1E
100
AcDbEntity
  8
0
100
AcDbLine
 10
101.466329966664
 20
73.8422145337607
 30
0.0
 11
101.6045
 21
73.268835
 31
0.0
  0
LINE
  5
2EF
330
1E
100
AcDbEntity
  8
0
100
AcDbLine
 10
98.52249999999999
 20
76.47073499999999
 30
0.0
 11
100.0429
 21
76.382835
 31
0.0
  0
LINE
  5
2F0
330
1E
100
AcDbEntity
  8
0
100
AcDbLine
 10
97.30490000000001
 20
75.677435
 30
0.0
 11
98.8254
 21
75.58943499999999
 31
0.0
  0
LINE
  5
2F1
330
1E
100
AcDbEntity
  8
0
100
AcDbLine
 10
97.30490000000001
 20
75.677435
 30
0.0
 11
98.52249999999999
 21
76.47073499999999
 31
0.0
  0
LINE
  5
2F2
330
1E
100
AcDbEntity
  8
0
100
AcDbLine
 10
96.92219968514629
 20
77.22392208104619
 30
0.0
 11
97.30490000000001
 21
75.677435
 31
0.0
  0
LINE
  5
2F3
330
1E
100
AcDbEntity
  8
0
100
AcDbLine
 10
98.8254
 20
75.58943499999999
 30
0.0
 11
100.0429
 21
76.382835
 31
0.0
  0
LINE
  5
2F4
330
1E
100
AcDbEntity
  8
0
100
AcDbLine
 10
99.9025522541542
 20
76.94997844718399
 30
0.0
 11
100.0429
 21
76.382835
 31
0.0
  0
LINE
  5
2F5
330
1E
100
AcDbEntity
  8
0
100
AcDbLine
 10
102.694704600503
 20
74.1893585627039
 30
0.0
 11
102.9452999999999
 21
73.149435
 31
0.0
  0
LINE
  5
2F6
330
1E
100
AcDbEntity
  8
0
100
AcDbLine
 10
90.8105677722885
 20
73.840754875935
 30
0.0
 11
91.04890000000001
 21
72.549435
 31
0.0
  0
LINE
  5
2F7
330
1E
100
AcDbEntity
  8
0
100
AcDbLine
 10
89.15533746326159
 20
73.6032624032472
 30
0.0
 11
89.4622
 21
71.940635
 31
0.0
  0
LINE
  5
2F8
330
1E
100
AcDbEntity
  8
0
100
AcDbLine
 10
82.3315695492178
 20
73.8881232109003
 30
0.0
 11
82.39780000000001
 21
73.19253499999999
 31
0.0
  0
LINE
  5
2F9
330
1E
100
AcDbEntity
  8
0
100
AcDbLine
 10
104.78
 20
73.59703499999999
 30
0.0
 11
109.633
 21
76.370335
 31
0.0
  0
LINE
  5
2FA
330
1E
100
AcDbEntity
  8
0
100
AcDbLine
 10
109.633
 20
76.370335
 30
0.0
 11
113.7929999999999
 21
79.447035
 31
0.0
  0
LINE
  5
2FB
330
1E
100
AcDbEntity
  8
0
100
AcDbLine
 10
80.5447
 20
79.220635
 30
0.0
 11
82.1288
 21
78.712535
 31
0.0
  0
LINE
  5
2FC
330
1E
100
AcDbEntity
  8
0
100
AcDbLine
 10
80.5447
 20
79.220635
 30
0.0
 11
81.7623
 21
80.013935
 31
0.0
  0
LINE
  5
2FD
330
1E
100
AcDbEntity
  8
0
100
AcDbLine
 10
108.4651999999999
 20
77.739335
 30
0.0
 11
110.1072
 21
77.81623499999999
 31
0.0
  0
LINE
  5
2FE
330
1E
100
AcDbEntity
  8
0
100
AcDbLine
 10
108.4651999999999
 20
77.739335
 30
0.0
 11
109.4651999999999
 21
78.60533499999999
 31
0.0
  0
LINE
  5
2FF
330
1E
100
AcDbEntity
  8
0
100
AcDbLine
 10
91.4291
 20
78.746235
 30
0.0
 11
93.1339
 21
78.560535
 31
0.0
  0
LINE
  5
300
330
1E
100
AcDbEntity
  8
0
100
AcDbLine
 10
91.4291
 20
78.746235
 30
0.0
 11
92.4291
 21
79.612235
 31
0.0
  0
LINE
  5
301
330
1E
100
AcDbEntity
  8
0
100
AcDbLine
 10
109.4651999999999
 20
78.60533499999999
 30
0.0
 11
111.1072
 21
78.68223499999999
 31
0.0
  0
LINE
  5
302
330
1E
100
AcDbEntity
  8
0
100
AcDbLine
 10
109.314222547737
 20
79.0988476847036
 30
0.0
 11
109.4651999999999
 21
78.60533499999999
 31
0.0
  0
LINE
  5
303
330
1E
100
AcDbEntity
  8
0
100
AcDbLine
 10
108.16947658772
 20
78.7059909670745
 30
0.0
 11
108.4651999999999
 21
77.739335
 31
0.0
  0
LINE
  5
304
330
1E
100
AcDbEntity
  8
0
100
AcDbLine
 10
110.1072
 20
77.81623499999999
 30
0.0
 11
111.1072
 21
78.68223499999999
 31
0.0
  0
LINE
  5
305
330
1E
100
AcDbEntity
  8
0
100
AcDbLine
 10
93.1339
 20
78.560535
 30
0.0
 11
94.13389999999999
 21
79.426535
 31
0.0
  0
LINE
  5
306
330
1E
100
AcDbEntity
  8
0
100
AcDbLine
 10
98.20346330137251
 20
77.75995822155819
 30
0.0
 11
98.52249999999999
 21
76.47073499999999
 31
0.0
  0
LINE
  5
307
330
1E
100
AcDbEntity
  8
0
100
AcDbLine
 10
82.1288
 20
78.712535
 30
0.0
 11
83.3463
 21
79.505935
 31
0.0
  0
LINE
  5
308
330
1E
100
AcDbEntity
  8
0
100
AcDbLine
 10
111.4345441331489
 20
77.7027414505912
 30
0.0
 11
112.407
 21
78.263035
 31
0.0
  0
LINE
  5
309
330
1E
100
AcDbEntity
  8
0
100
AcDbLine
 10
113.7929999999999
 20
79.447035
 30
0.0
 11
116.913
 21
82.74033499999999
 31
0.0
  0
LINE
  5
30A
330
1E
100
AcDbEntity
  8
0
100
AcDbLine
 10
112.407
 20
78.263035
 30
0.0
 11
114.487
 21
79.583735
 31
0.0
  0
LINE
  5
30B
330
1E
100
AcDbEntity
  8
0
100
AcDbLine
 10
111.5548298434839
 20
77.77204568318841
 30
0.0
 11
114.66
 21
79.49723500000001
 31
0.0
  0
LINE
  5
30C
330
1E
100
AcDbEntity
  8
0
100
AcDbLine
 10
92.4291
 20
79.612235
 30
0.0
 11
94.13389999999999
 21
79.426535
 31
0.0
  0
LINE
  5
30D
330
1E
100
AcDbEntity
  8
0
100
AcDbLine
 10
91.246286209997
 20
79.81614912608829
 30
0.0
 11
91.4291
 21
78.746235
 31
0.0
  0
LINE
  5
30E
330
1E
100
AcDbEntity
  8
0
100
AcDbLine
 10
92.3601293524481
 20
80.0158843641975
 30
0.0
 11
92.4291
 21
79.612235
 31
0.0
  0
LINE
  5
30F
330
1E
100
AcDbEntity
  8
0
100
AcDbLine
 10
94.01556860665751
 20
80.11884121383928
 30
0.0
 11
94.13389999999999
 21
79.426535
 31
0.0
  0
LINE
  5
310
330
1E
100
AcDbEntity
  8
0
100
AcDbLine
 10
81.7623
 20
80.013935
 30
0.0
 11
83.3463
 21
79.505935
 31
0.0
  0
LINE
  5
311
330
1E
100
AcDbEntity
  8
0
100
AcDbLine
 10
80.50926530398509
 20
79.90534355103459
 30
0.0
 11
80.5447
 21
79.220635
 31
0.0
  0
LINE
  5
312
330
1E
100
AcDbEntity
  8
0
100
AcDbLine
 10
81.7109731885221
 20
81.0046435427707
 30
0.0
 11
81.7623
 21
80.013935
 31
0.0
  0
LINE
  5
313
330
1E
100
AcDbEntity
  8
0
100
AcDbLine
 10
83.27124028846741
 20
80.95632210937321
 30
0.0
 11
83.3463
 21
79.505935
 31
0.0
  0
LINE
  5
314
330
1E
100
AcDbEntity
  8
0
100
AcDbLine
 10
103.7115
 20
81.225635
 30
0.0
 11
105.4821
 21
81.35433499999999
 31
0.0
  0
LINE
  5
315
330
1E
100
AcDbEntity
  8
0
100
AcDbLine
 10
102.9460999999999
 20
80.301735
 30
0.0
 11
104.7166999999999
 21
80.43043500000001
 31
0.0
  0
LINE
  5
316
330
1E
100
AcDbEntity
  8
0
100
AcDbLine
 10
102.9460999999999
 20
80.301735
 30
0.0
 11
103.7115
 21
81.225635
 31
0.0
  0
LINE
  5
317
330
1E
100
AcDbEntity
  8
0
100
AcDbLine
 10
94.77670000000001
 20
82.446035
 30
0.0
 11
96.67810000000001
 21
82.49773499999999
 31
0.0
  0
LINE
  5
318
330
1E
100
AcDbEntity
  8
0
100
AcDbLine
 10
94.77670000000001
 20
82.446035
 30
0.0
 11
95.29439999999999
 21
83.41193500000001
 31
0.0
  0
LINE
  5
319
330
1E
100
AcDbEntity
  8
0
100
AcDbLine
 10
95.29439999999999
 20
83.41193500000001
 30
0.0
 11
97.1957
 21
83.463635
 31
0.0
  0
LINE
  5
31A
330
1E
100
AcDbEntity
  8
0
100
AcDbLine
 10
85.0563
 20
83.990235
 30
0.0
 11
87.0359
 21
83.95963499999998
 31
0.0
  0
LINE
  5
31B
330
1E
100
AcDbEntity
  8
0
100
AcDbLine
 10
85.0563
 20
83.990235
 30
0.0
 11
85.3174
 21
84.981635
 31
0.0
  0
LINE
  5
31C
330
1E
100
AcDbEntity
  8
0
100
AcDbLine
 10
85.3174
 20
84.981635
 30
0.0
 11
87.29700000000001
 21
84.951135
 31
0.0
  0
LINE
  5
31D
330
1E
100
AcDbEntity
  8
0
100
AcDbLine
 10
85.25250420027701
 20
85.9685398632131
 30
0.0
 11
85.3174
 21
84.981635
 31
0.0
  0
LINE
  5
31E
330
1E
100
AcDbEntity
  8
0
100
AcDbLine
 10
85.0113812407344
 20
84.67333840820101
 30
0.0
 11
85.0563
 21
83.990235
 31
0.0
  0
LINE
  5
31F
330
1E
100
AcDbEntity
  8
0
100
AcDbLine
 10
87.2720866088343
 20
85.33000615969729
 30
0.0
 11
87.29700000000001
 21
84.951135
 31
0.0
  0
LINE
  5
320
330
1E
100
AcDbEntity
  8
0
100
AcDbLine
 10
87.0359
 20
83.95963499999998
 30
0.0
 11
87.29700000000001
 21
84.951135
 31
0.0
  0
LINE
  5
321
330
1E
100
AcDbEntity
  8
0
100
AcDbLine
 10
95.21641435015231
 20
83.81135477361999
 30
0.0
 11
95.29439999999999
 21
83.41193500000001
 31
0.0
  0
LINE
  5
322
330
1E
100
AcDbEntity
  8
0
100
AcDbLine
 10
94.5707288115123
 20
83.50120785761708
 30
0.0
 11
94.77670000000001
 21
82.446035
 31
0.0
  0
LINE
  5
323
330
1E
100
AcDbEntity
  8
0
100
AcDbLine
 10
97.0703634559813
 20
84.10572344104428
 30
0.0
 11
97.1957
 21
83.463635
 31
0.0
  0
LINE
  5
324
330
1E
100
AcDbEntity
  8
0
100
AcDbLine
 10
96.67810000000001
 20
82.49773499999999
 30
0.0
 11
97.1957
 21
83.463635
 31
0.0
  0
LINE
  5
325
330
1E
100
AcDbEntity
  8
0
100
AcDbLine
 10
103.32221132784
 20
82.52881289741969
 30
0.0
 11
103.7115
 21
81.225635
 31
0.0
  0
LINE
  5
326
330
1E
100
AcDbEntity
  8
0
100
AcDbLine
 10
102.499547936218
 20
81.7968900174918
 30
0.0
 11
102.9460999999999
 21
80.301735
 31
0.0
  0
LINE
  5
327
330
1E
100
AcDbEntity
  8
0
100
AcDbLine
 10
110.7946854699979
 20
79.7040196640753
 30
0.0
 11
111.1072
 21
78.68223499999999
 31
0.0
  0
LINE
  5
328
330
1E
100
AcDbEntity
  8
0
100
AcDbLine
 10
113.7779
 20
83.811335
 30
0.0
 11
115.6093999999999
 21
84.116935
 31
0.0
  0
LINE
  5
329
330
1E
100
AcDbEntity
  8
0
100
AcDbLine
 10
113.7779
 20
83.811335
 30
0.0
 11
114.2955999999999
 21
84.77723500000001
 31
0.0
  0
LINE
  5
32A
330
1E
100
AcDbEntity
  8
0
100
AcDbLine
 10
106.0014
 20
85.49863499999998
 30
0.0
 11
107.9013999999999
 21
85.868835
 31
0.0
  0
LINE
  5
32B
330
1E
100
AcDbEntity
  8
0
100
AcDbLine
 10
106.0014
 20
85.49863499999998
 30
0.0
 11
106.2624
 21
86.49003499999999
 31
0.0
  0
LINE
  5
32C
330
1E
100
AcDbEntity
  8
0
100
AcDbLine
 10
107.9013999999999
 20
85.868835
 30
0.0
 11
108.1625
 21
86.86033499999998
 31
0.0
  0
LINE
  5
32D
330
1E
100
AcDbEntity
  8
0
100
AcDbLine
 10
114.2955999999999
 20
84.77723500000001
 30
0.0
 11
116.1270999999999
 21
85.082835
 31
0.0
  0
LINE
  5
32E
330
1E
100
AcDbEntity
  8
0
100
AcDbLine
 10
114.1282828719169
 20
85.2466812344064
 30
0.0
 11
114.2955999999999
 21
84.77723500000001
 31
0.0
  0
LINE
  5
32F
330
1E
100
AcDbEntity
  8
0
100
AcDbLine
 10
113.445563560987
 20
84.74393216100031
 30
0.0
 11
113.7779
 21
83.811335
 31
0.0
  0
LINE
  5
330
330
1E
100
AcDbEntity
  8
0
100
AcDbLine
 10
115.7632064355769
 20
86.1038211088381
 30
0.0
 11
116.1270999999999
 21
85.082835
 31
0.0
  0
LINE
  5
331
330
1E
100
AcDbEntity
  8
0
100
AcDbLine
 10
115.6093999999999
 20
84.116935
 30
0.0
 11
116.1270999999999
 21
85.082835
 31
0.0
  0
LINE
  5
332
330
1E
100
AcDbEntity
  8
0
100
AcDbLine
 10
105.3107436781659
 20
81.9279328599002
 30
0.0
 11
105.4821
 21
81.35433499999999
 31
0.0
  0
LINE
  5
333
330
1E
100
AcDbEntity
  8
0
100
AcDbLine
 10
104.7166999999999
 20
80.43043500000001
 30
0.0
 11
105.4821
 21
81.35433499999999
 31
0.0
  0
LINE
  5
334
330
1E
100
AcDbEntity
  8
0
100
AcDbLine
 10
106.2624
 20
86.49003499999999
 30
0.0
 11
108.1625
 21
86.86033499999998
 31
0.0
  0
LINE
  5
335
330
1E
100
AcDbEntity
  8
0
100
AcDbLine
 10
96.0951
 20
86.453035
 30
0.0
 11
96.0951
 21
87.453035
 31
0.0
  0
LINE
  5
336
330
1E
100
AcDbEntity
  8
0
100
AcDbLine
 10
96.0951
 20
86.453035
 30
0.0
 11
98.06350000000001
 21
86.759435
 31
0.0
  0
LINE
  5
337
330
1E
100
AcDbEntity
  8
0
100
AcDbLine
 10
116.913
 20
82.74033499999999
 30
0.0
 11
119.34
 21
86.20703500000001
 31
0.0
  0
LINE
  5
338
330
1E
100
AcDbEntity
  8
0
100
AcDbLine
 10
114.487
 20
79.583735
 30
0.0
 11
119.08
 21
83.00713499999998
 31
0.0
  0
LINE
  5
339
330
1E
100
AcDbEntity
  8
0
100
AcDbLine
 10
119.08
 20
83.00713499999998
 30
0.0
 11
122.6329999999999
 21
86.64713499999999
 31
0.0
  0
LINE
  5
33A
330
1E
100
AcDbEntity
  8
0
100
AcDbLine
 10
114.66
 20
79.49723500000001
 30
0.0
 11
119.2529999999999
 21
82.96373499999999
 31
0.0
  0
LINE
  5
33B
330
1E
100
AcDbEntity
  8
0
100
AcDbLine
 10
119.34
 20
86.20703500000001
 30
0.0
 11
120.727
 21
89.80363500000001
 31
0.0
  0
LINE
  5
33C
330
1E
100
AcDbEntity
  8
0
100
AcDbLine
 10
119.2529999999999
 20
82.96373499999999
 30
0.0
 11
122.8069999999999
 21
86.603735
 31
0.0
  0
LINE
  5
33D
330
1E
100
AcDbEntity
  8
0
100
AcDbLine
 10
95.88303752191379
 20
87.4748069231019
 30
0.0
 11
96.0951
 21
86.453035
 31
0.0
  0
LINE
  5
33E
330
1E
100
AcDbEntity
  8
0
100
AcDbLine
 10
105.5108193782479
 20
86.9663982494942
 30
0.0
 11
106.0014
 21
85.49863499999998
 31
0.0
  0
LINE
  5
33F
330
1E
100
AcDbEntity
  8
0
100
AcDbLine
 10
107.988995767393
 20
87.3795321129139
 30
0.0
 11
108.1625
 21
86.86033499999998
 31
0.0
  0
LINE
  5
340
330
1E
100
AcDbEntity
  8
0
100
AcDbLine
 10
98.06350000000001
 20
86.759435
 30
0.0
 11
98.06350000000001
 21
87.759435
 31
0.0
  0
LINE
  5
341
330
1E
100
AcDbEntity
  8
0
100
AcDbLine
 10
96.0951
 20
87.453035
 30
0.0
 11
98.06350000000001
 21
87.759435
 31
0.0
  0
LINE
  5
342
330
1E
100
AcDbEntity
  8
0
100
AcDbLine
 10
96.0951
 20
87.453035
 30
0.0
 11
96.0951
 21
86.453035
 31
0.0
  0
LINE
  5
343
330
1E
100
AcDbEntity
  8
0
100
AcDbLine
 10
84.1938
 20
89.248735
 30
0.0
 11
86.03849999999999
 21
89.730535
 31
0.0
  0
LINE
  5
344
330
1E
100
AcDbEntity
  8
0
100
AcDbLine
 10
83.4285
 20
90.172635
 30
0.0
 11
85.27320000000001
 21
90.65443499999998
 31
0.0
  0
LINE
  5
345
330
1E
100
AcDbEntity
  8
0
100
AcDbLine
 10
83.4285
 20
90.172635
 30
0.0
 11
84.1938
 21
89.248735
 31
0.0
  0
LINE
  5
346
330
1E
100
AcDbEntity
  8
0
100
AcDbLine
 10
79.4013575153872
 20
94.53999452704341
 30
0.0
 11
79.40389999999999
 21
94.47893499999999
 31
0.0
  0
LINE
  5
347
330
1E
100
AcDbEntity
  8
0
100
AcDbLine
 10
83.37536038930808
 20
91.02521610349741
 30
0.0
 11
83.4285
 21
90.172635
 31
0.0
  0
LINE
  5
348
330
1E
100
AcDbEntity
  8
0
100
AcDbLine
 10
85.2319025141568
 20
91.31701900453881
 30
0.0
 11
85.27320000000001
 21
90.65443499999998
 31
0.0
  0
LINE
  5
349
330
1E
100
AcDbEntity
  8
0
100
AcDbLine
 10
85.27320000000001
 20
90.65443499999998
 30
0.0
 11
86.03849999999999
 21
89.730535
 31
0.0
  0
LINE
  5
34A
330
1E
100
AcDbEntity
  8
0
100
AcDbLine
 10
92.4291
 20
94.293735
 30
0.0
 11
94.13389999999999
 21
95.09233499999998
 31
0.0
  0
LINE
  5
34B
330
1E
100
AcDbEntity
  8
0
100
AcDbLine
 10
91.4291
 20
95.159835
 30
0.0
 11
93.1339
 21
95.95833499999999
 31
0.0
  0
LINE
  5
34C
330
1E
100
AcDbEntity
  8
0
100
AcDbLine
 10
91.4291
 20
95.159835
 30
0.0
 11
92.4291
 21
94.293735
 31
0.0
  0
LINE
  5
34D
330
1E
100
AcDbEntity
  8
0
100
AcDbLine
 10
91.32238763254802
 20
95.72272184163141
 30
0.0
 11
91.4291
 21
95.159835
 31
0.0
  0
LINE
  5
34E
330
1E
100
AcDbEntity
  8
0
100
AcDbLine
 10
93.11633213756071
 20
96.05097753200849
 30
0.0
 11
93.1339
 21
95.95833499999999
 31
0.0
  0
LINE
  5
34F
330
1E
100
AcDbEntity
  8
0
100
AcDbLine
 10
95.29439999999999
 20
90.494035
 30
0.0
 11
97.1957
 21
91.055235
 31
0.0
  0
LINE
  5
350
330
1E
100
AcDbEntity
  8
0
100
AcDbLine
 10
94.77670000000001
 20
91.45993500000001
 30
0.0
 11
96.67810000000001
 21
92.02113500000001
 31
0.0
  0
LINE
  5
351
330
1E
100
AcDbEntity
  8
0
100
AcDbLine
 10
94.77670000000001
 20
91.45993500000001
 30
0.0
 11
95.29439999999999
 21
90.494035
 31
0.0
  0
LINE
  5
352
330
1E
100
AcDbEntity
  8
0
100
AcDbLine
 10
94.65410478927809
 20
92.0551514313365
 30
0.0
 11
94.77670000000001
 21
91.45993500000001
 31
0.0
  0
LINE
  5
353
330
1E
100
AcDbEntity
  8
0
100
AcDbLine
 10
96.67810000000001
 20
92.02113500000001
 30
0.0
 11
97.1957
 21
91.055235
 31
0.0
  0
LINE
  5
354
330
1E
100
AcDbEntity
  8
0
100
AcDbLine
 10
96.6315833099064
 20
92.24690017611569
 30
0.0
 11
96.67810000000001
 21
92.02113500000001
 31
0.0
  0
LINE
  5
355
330
1E
100
AcDbEntity
  8
0
100
AcDbLine
 10
96.97906609942
 20
92.1069586689266
 30
0.0
 11
97.1957
 21
91.055235
 31
0.0
  0
LINE
  5
356
330
1E
100
AcDbEntity
  8
0
100
AcDbLine
 10
93.1339
 20
95.95833499999999
 30
0.0
 11
94.13389999999999
 21
95.09233499999998
 31
0.0
  0
LINE
  5
357
330
1E
100
AcDbEntity
  8
0
100
AcDbLine
 10
93.94001721533291
 20
96.11469505409109
 30
0.0
 11
94.13389999999999
 21
95.09233499999998
 31
0.0
  0
LINE
  5
358
330
1E
100
AcDbEntity
  8
0
100
AcDbLine
 10
85.95128009637051
 20
91.12990621697321
 30
0.0
 11
86.03849999999999
 21
89.730535
 31
0.0
  0
LINE
  5
359
330
1E
100
AcDbEntity
  8
0
100
AcDbLine
 10
95.9627905373259
 20
88.09053624652479
 30
0.0
 11
96.0951
 21
87.453035
 31
0.0
  0
LINE
  5
35A
330
1E
100
AcDbEntity
  8
0
100
AcDbLine
 10
105.833358851548
 20
87.77390526789508
 30
0.0
 11
106.2624
 21
86.49003499999999
 31
0.0
  0
LINE
  5
35B
330
1E
100
AcDbEntity
  8
0
100
AcDbLine
 10
106.2624
 20
90.91373500000001
 30
0.0
 11
108.1625
 21
91.53413499999999
 31
0.0
  0
LINE
  5
35C
330
1E
100
AcDbEntity
  8
0
100
AcDbLine
 10
106.0014
 20
91.90513499999999
 30
0.0
 11
107.9013999999999
 21
92.52563499999999
 31
0.0
  0
LINE
  5
35D
330
1E
100
AcDbEntity
  8
0
100
AcDbLine
 10
106.0014
 20
91.90513499999999
 30
0.0
 11
106.2624
 21
90.91373500000001
 31
0.0
  0
LINE
  5
35E
330
1E
100
AcDbEntity
  8
0
100
AcDbLine
 10
115.440916919748
 20
91.2045577382608
 30
0.0
 11
115.7666
 21
90.363935
 31
0.0
  0
LINE
  5
35F
330
1E
100
AcDbEntity
  8
0
100
AcDbLine
 10
117.6627
 20
90.914935
 30
0.0
 11
117.6627
 21
91.91493499999999
 31
0.0
  0
LINE
  5
360
330
1E
100
AcDbEntity
  8
0
100
AcDbLine
 10
115.7666
 20
90.363935
 30
0.0
 11
115.7666
 21
91.363935
 31
0.0
  0
LINE
  5
361
330
1E
100
AcDbEntity
  8
0
100
AcDbLine
 10
115.7666
 20
90.363935
 30
0.0
 11
117.6627
 21
90.914935
 31
0.0
  0
LINE
  5
362
330
1E
100
AcDbEntity
  8
0
100
AcDbLine
 10
115.7666
 20
91.363935
 30
0.0
 11
117.6627
 21
91.91493499999999
 31
0.0
  0
LINE
  5
363
330
1E
100
AcDbEntity
  8
0
100
AcDbLine
 10
115.7666
 20
91.363935
 30
0.0
 11
115.7666
 21
90.363935
 31
0.0
  0
LINE
  5
364
330
1E
100
AcDbEntity
  8
0
100
AcDbLine
 10
115.62162243311
 20
91.7381375504412
 30
0.0
 11
115.7666
 21
91.363935
 31
0.0
  0
LINE
  5
365
330
1E
100
AcDbEntity
  8
0
100
AcDbLine
 10
105.760157420238
 20
92.35049771759459
 30
0.0
 11
106.2624
 21
90.91373500000001
 31
0.0
  0
LINE
  5
366
330
1E
100
AcDbEntity
  8
0
100
AcDbLine
 10
105.837487768486
 20
92.37398409098828
 30
0.0
 11
106.0014
 21
91.90513499999999
 31
0.0
  0
LINE
  5
367
330
1E
100
AcDbEntity
  8
0
100
AcDbLine
 10
107.7512330177659
 20
92.95521689962601
 30
0.0
 11
107.9013999999999
 21
92.52563499999999
 31
0.0
  0
LINE
  5
368
330
1E
100
AcDbEntity
  8
0
100
AcDbLine
 10
107.9013999999999
 20
92.52563499999999
 30
0.0
 11
108.1625
 21
91.53413499999999
 31
0.0
  0
LINE
  5
369
330
1E
100
AcDbEntity
  8
0
100
AcDbLine
 10
114.2955999999999
 20
96.95063499999999
 30
0.0
 11
116.1270999999999
 21
97.74703500000001
 31
0.0
  0
LINE
  5
36A
330
1E
100
AcDbEntity
  8
0
100
AcDbLine
 10
103.7115
 20
96.178035
 30
0.0
 11
105.4821
 21
97.040135
 31
0.0
  0
LINE
  5
36B
330
1E
100
AcDbEntity
  8
0
100
AcDbLine
 10
102.9460999999999
 20
97.101935
 30
0.0
 11
104.7166999999999
 21
97.964035
 31
0.0
  0
LINE
  5
36C
330
1E
100
AcDbEntity
  8
0
100
AcDbLine
 10
102.9460999999999
 20
97.101935
 30
0.0
 11
103.7115
 21
96.178035
 31
0.0
  0
LINE
  5
36D
330
1E
100
AcDbEntity
  8
0
100
AcDbLine
 10
117.2801566967559
 20
92.90232003341209
 30
0.0
 11
117.6627
 21
91.91493499999999
 31
0.0
  0
LINE
  5
36E
330
1E
100
AcDbEntity
  8
0
100
AcDbLine
 10
117.6627
 20
91.91493499999999
 30
0.0
 11
117.6627
 21
90.914935
 31
0.0
  0
LINE
  5
36F
330
1E
100
AcDbEntity
  8
0
100
AcDbLine
 10
97.95414564386671
 20
88.28633260005791
 30
0.0
 11
98.06350000000001
 21
87.759435
 31
0.0
  0
LINE
  5
370
330
1E
100
AcDbEntity
  8
0
100
AcDbLine
 10
98.06350000000001
 20
87.759435
 30
0.0
 11
98.06350000000001
 21
86.759435
 31
0.0
  0
LINE
  5
371
330
1E
100
AcDbEntity
  8
0
100
AcDbLine
 10
121.333
 20
94.362335
 30
0.0
 11
121.333
 21
93.48703499999999
 31
0.0
  0
LINE
  5
372
330
1E
100
AcDbEntity
  8
0
100
AcDbLine
 10
120.727
 20
89.80363500000001
 30
0.0
 11
121.333
 21
93.48703499999999
 31
0.0
  0
LINE
  5
373
330
1E
100
AcDbEntity
  8
0
100
AcDbLine
 10
87.6947
 20
97.593235
 30
0.0
 11
89.08660000000001
 21
98.595635
 31
0.0
  0
LINE
  5
374
330
1E
100
AcDbEntity
  8
0
100
AcDbLine
 10
102.818652214236
 20
97.47586062882259
 30
0.0
 11
102.9460999999999
 21
97.101935
 31
0.0
  0
LINE
  5
375
330
1E
100
AcDbEntity
  8
0
100
AcDbLine
 10
113.7779
 20
97.916635
 30
0.0
 11
115.6093999999999
 21
98.712935
 31
0.0
  0
LINE
  5
376
330
1E
100
AcDbEntity
  8
0
100
AcDbLine
 10
113.7779
 20
97.916635
 30
0.0
 11
114.2955999999999
 21
96.95063499999999
 31
0.0
  0
LINE
  5
377
330
1E
100
AcDbEntity
  8
0
100
AcDbLine
 10
104.7166999999999
 20
97.964035
 30
0.0
 11
105.4821
 21
97.040135
 31
0.0
  0
LINE
  5
378
330
1E
100
AcDbEntity
  8
0
100
AcDbLine
 10
120.727
 20
97.17033499999999
 30
0.0
 11
121.333
 21
93.48703499999999
 31
0.0
  0
LINE
  5
379
330
1E
100
AcDbEntity
  8
0
100
AcDbLine
 10
121.333
 20
93.48703499999999
 30
0.0
 11
121.333
 21
94.362335
 31
0.0
  0
LINE
  5
37A
330
1E
100
AcDbEntity
  8
0
100
AcDbLine
 10
86.2804
 20
98.300335
 30
0.0
 11
87.67230000000001
 21
99.302735
 31
0.0
  0
LINE
  5
37B
330
1E
100
AcDbEntity
  8
0
100
AcDbLine
 10
86.2804
 20
98.300335
 30
0.0
 11
87.6947
 21
97.593235
 31
0.0
  0
LINE
  5
37C
330
1E
100
AcDbEntity
  8
0
100
AcDbLine
 10
79.6194766973133
 20
101.211544929048
 30
0.0
 11
79.6815
 21
100.667535
 31
0.0
  0
LINE
  5
37D
330
1E
100
AcDbEntity
  8
0
100
AcDbLine
 10
81.4136
 20
100.1675349999999
 30
0.0
 11
82.39780000000001
 21
101.326335
 31
0.0
  0
LINE
  5
37E
330
1E
100
AcDbEntity
  8
0
100
AcDbLine
 10
79.6815
 20
100.667535
 30
0.0
 11
80.6657
 21
101.826335
 31
0.0
  0
LINE
  5
37F
330
1E
100
AcDbEntity
  8
0
100
AcDbLine
 10
79.6815
 20
100.667535
 30
0.0
 11
81.4136
 21
100.1675349999999
 31
0.0
  0
LINE
  5
380
330
1E
100
AcDbEntity
  8
0
100
AcDbLine
 10
80.6657
 20
101.826335
 30
0.0
 11
82.39780000000001
 21
101.326335
 31
0.0
  0
LINE
  5
381
330
1E
100
AcDbEntity
  8
0
100
AcDbLine
 10
86.1922037047452
 20
98.85737165727519
 30
0.0
 11
86.2804
 21
98.300335
 31
0.0
  0
LINE
  5
382
330
1E
100
AcDbEntity
  8
0
100
AcDbLine
 10
87.67230000000001
 20
99.302735
 30
0.0
 11
89.08660000000001
 21
98.595635
 31
0.0
  0
LINE
  5
383
330
1E
100
AcDbEntity
  8
0
100
AcDbLine
 10
88.9204164982579
 20
99.64480949780909
 30
0.0
 11
89.08660000000001
 21
98.595635
 31
0.0
  0
LINE
  5
384
330
1E
100
AcDbEntity
  8
0
100
AcDbLine
 10
87.63835043854259
 20
99.51715614065591
 30
0.0
 11
87.67230000000001
 21
99.302735
 31
0.0
  0
LINE
  5
385
330
1E
100
AcDbEntity
  8
0
100
AcDbLine
 10
98.52249999999999
 20
100.932935
 30
0.0
 11
100.0429
 21
102.0116349999999
 31
0.0
  0
LINE
  5
386
330
1E
100
AcDbEntity
  8
0
100
AcDbLine
 10
97.30490000000001
 20
101.7263349999999
 30
0.0
 11
98.8254
 21
102.805035
 31
0.0
  0
LINE
  5
387
330
1E
100
AcDbEntity
  8
0
100
AcDbLine
 10
97.30490000000001
 20
101.7263349999999
 30
0.0
 11
98.52249999999999
 21
100.932935
 31
0.0
  0
LINE
  5
388
330
1E
100
AcDbEntity
  8
0
100
AcDbLine
 10
82.36812977875748
 20
101.5865574322089
 30
0.0
 11
82.39780000000001
 21
101.326335
 31
0.0
  0
LINE
  5
389
330
1E
100
AcDbEntity
  8
0
100
AcDbLine
 10
96.85110000000001
 20
103.2119349999999
 30
0.0
 11
97.30490000000001
 21
101.7263349999999
 31
0.0
  0
LINE
  5
38A
330
1E
100
AcDbEntity
  8
0
100
AcDbLine
 10
98.8254
 20
102.805035
 30
0.0
 11
100.0429
 21
102.0116349999999
 31
0.0
  0
LINE
  5
38B
330
1E
100
AcDbEntity
  8
0
100
AcDbLine
 10
99.58910000000001
 20
103.497235
 30
0.0
 11
100.0429
 21
102.0116349999999
 31
0.0
  0
LINE
  5
38C
330
1E
100
AcDbEntity
  8
0
100
AcDbLine
 10
80.63083933923699
 20
102.1320801394779
 30
0.0
 11
80.6657
 21
101.826335
 31
0.0
  0
LINE
  5
38D
330
1E
100
AcDbEntity
  8
0
100
AcDbLine
 10
104.236279003691
 20
99.37330022341932
 30
0.0
 11
104.7166999999999
 21
97.964035
 31
0.0
  0
LINE
  5
38E
330
1E
100
AcDbEntity
  8
0
100
AcDbLine
 10
104.9937096985059
 20
98.47277735460101
 30
0.0
 11
105.4821
 21
97.040135
 31
0.0
  0
LINE
  5
38F
330
1E
100
AcDbEntity
  8
0
100
AcDbLine
 10
113.46895005481
 20
98.700799734764
 30
0.0
 11
113.7779
 21
97.916635
 31
0.0
  0
LINE
  5
390
330
1E
100
AcDbEntity
  8
0
100
AcDbLine
 10
115.516496170202
 20
98.94875500605081
 30
0.0
 11
115.6093999999999
 21
98.712935
 31
0.0
  0
LINE
  5
391
330
1E
100
AcDbEntity
  8
0
100
AcDbLine
 10
115.6093999999999
 20
98.712935
 30
0.0
 11
116.1270999999999
 21
97.74703500000001
 31
0.0
  0
LINE
  5
392
330
1E
100
AcDbEntity
  8
0
100
AcDbLine
 10
115.926851848731
 20
98.25521437119171
 30
0.0
 11
116.1270999999999
 21
97.74703500000001
 31
0.0
  0
LINE
  5
393
330
1E
100
AcDbEntity
  8
0
100
AcDbLine
 10
109.4651999999999
 20
103.122635
 30
0.0
 11
111.1072
 21
104.1476349999999
 31
0.0
  0
LINE
  5
394
330
1E
100
AcDbEntity
  8
0
100
AcDbLine
 10
108.4651999999999
 20
103.9886349999999
 30
0.0
 11
110.1072
 21
105.013635
 31
0.0
  0
LINE
  5
395
330
1E
100
AcDbEntity
  8
0
100
AcDbLine
 10
108.4651999999999
 20
103.9886349999999
 30
0.0
 11
109.4651999999999
 21
103.122635
 31
0.0
  0
LINE
  5
396
330
1E
100
AcDbEntity
  8
0
100
AcDbLine
 10
98.3716
 20
104.2906349999999
 30
0.0
 11
98.8254
 21
102.805035
 31
0.0
  0
LINE
  5
397
330
1E
100
AcDbEntity
  8
0
100
AcDbLine
 10
91.04890000000001
 20
104.8543349999999
 30
0.0
 11
92.2156
 21
106.109635
 31
0.0
  0
LINE
  5
398
330
1E
100
AcDbEntity
  8
0
100
AcDbLine
 10
108.1872781340809
 20
104.736653379598
 30
0.0
 11
108.4651999999999
 21
103.9886349999999
 31
0.0
  0
LINE
  5
399
330
1E
100
AcDbEntity
  8
0
100
AcDbLine
 10
110.1072
 20
105.013635
 30
0.0
 11
111.1072
 21
104.1476349999999
 31
0.0
  0
LINE
  5
39A
330
1E
100
AcDbEntity
  8
0
100
AcDbLine
 10
116.913
 20
104.233635
 30
0.0
 11
119.34
 21
100.766635
 31
0.0
  0
LINE
  5
39B
330
1E
100
AcDbEntity
  8
0
100
AcDbLine
 10
119.34
 20
100.766635
 30
0.0
 11
120.727
 21
97.17033499999999
 31
0.0
  0
LINE
  5
39C
330
1E
100
AcDbEntity
  8
0
100
AcDbLine
 10
89.4622
 20
105.462635
 30
0.0
 11
90.62890000000001
 21
106.718635
 31
0.0
  0
LINE
  5
39D
330
1E
100
AcDbEntity
  8
0
100
AcDbLine
 10
89.4622
 20
105.462635
 30
0.0
 11
91.04890000000001
 21
104.8543349999999
 31
0.0
  0
LINE
  5
39E
330
1E
100
AcDbEntity
  8
0
100
AcDbLine
 10
109.572152270351
 20
106.45396134429
 30
0.0
 11
110.1072
 21
105.013635
 31
0.0
  0
LINE
  5
39F
330
1E
100
AcDbEntity
  8
0
100
AcDbLine
 10
110.62476952786
 20
105.4463178647369
 30
0.0
 11
111.1072
 21
104.1476349999999
 31
0.0
  0
LINE
  5
3A0
330
1E
100
AcDbEntity
  8
0
100
AcDbLine
 10
116.913
 20
105.108635
 30
0.0
 11
119.34
 21
101.6426349999999
 31
0.0
  0
LINE
  5
3A1
330
1E
100
AcDbEntity
  8
0
100
AcDbLine
 10
119.34
 20
101.6426349999999
 30
0.0
 11
120.727
 21
98.045635
 31
0.0
  0
LINE
  5
3A2
330
1E
100
AcDbEntity
  8
0
100
AcDbLine
 10
120.727
 20
98.045635
 30
0.0
 11
121.333
 21
94.362335
 31
0.0
  0
LINE
  5
3A3
330
1E
100
AcDbEntity
  8
0
100
AcDbLine
 10
122.6329999999999
 20
86.64713499999999
 30
0.0
 11
125.2329999999999
 21
90.50373499999999
 31
0.0
  0
LINE
  5
3A4
330
1E
100
AcDbEntity
  8
0
100
AcDbLine
 10
122.8069999999999
 20
86.603735
 30
0.0
 11
124.28
 21
88.57613499999999
 31
0.0
  0
LINE
  5
3A5
330
1E
100
AcDbEntity
  8
0
100
AcDbLine
 10
122.8069999999999
 20
86.603735
 30
0.0
 11
125.407
 21
90.50373499999999
 31
0.0
  0
LINE
  5
3A6
330
1E
100
AcDbEntity
  8
0
100
AcDbLine
 10
125.2329999999999
 20
90.50373499999999
 30
0.0
 11
126.8799999999999
 21
94.490435
 31
0.0
  0
LINE
  5
3A7
330
1E
100
AcDbEntity
  8
0
100
AcDbLine
 10
126.8799999999999
 20
94.490435
 30
0.0
 11
127.487
 21
98.563735
 31
0.0
  0
LINE
  5
3A8
330
1E
100
AcDbEntity
  8
0
100
AcDbLine
 10
125.407
 20
90.50373499999999
 30
0.0
 11
127.0529999999999
 21
94.490435
 31
0.0
  0
LINE
  5
3A9
330
1E
100
AcDbEntity
  8
0
100
AcDbLine
 10
124.28
 20
88.57613499999999
 30
0.0
 11
126.967
 21
92.562835
 31
0.0
  0
LINE
  5
3AA
330
1E
100
AcDbEntity
  8
0
100
AcDbLine
 10
125.2329999999999
 20
106.623635
 30
0.0
 11
126.8799999999999
 21
102.6366349999999
 31
0.0
  0
LINE
  5
3AB
330
1E
100
AcDbEntity
  8
0
100
AcDbLine
 10
127.0529999999999
 20
94.490435
 30
0.0
 11
127.6599999999999
 21
98.563735
 31
0.0
  0
LINE
  5
3AC
330
1E
100
AcDbEntity
  8
0
100
AcDbLine
 10
126.967
 20
92.562835
 30
0.0
 11
128.6999999999999
 21
96.67943499999999
 31
0.0
  0
LINE
  5
3AD
330
1E
100
AcDbEntity
  8
0
100
AcDbLine
 10
126.8799999999999
 20
102.6366349999999
 30
0.0
 11
127.487
 21
98.563735
 31
0.0
  0
LINE
  5
3AE
330
1E
100
AcDbEntity
  8
0
100
AcDbLine
 10
89.11399999999998
 20
106.895635
 30
0.0
 11
89.4622
 21
105.462635
 31
0.0
  0
LINE
  5
3AF
330
1E
100
AcDbEntity
  8
0
100
AcDbLine
 10
90.62890000000001
 20
106.718635
 30
0.0
 11
92.2156
 21
106.109635
 31
0.0
  0
LINE
  5
3B0
330
1E
100
AcDbEntity
  8
0
100
AcDbLine
 10
125.407
 20
106.623635
 30
0.0
 11
127.0529999999999
 21
102.6366349999999
 31
0.0
  0
LINE
  5
3B1
330
1E
100
AcDbEntity
  8
0
100
AcDbLine
 10
128.6999999999999
 20
96.67943499999999
 30
0.0
 11
129.307
 21
98.868535
 31
0.0
  0
LINE
  5
3B2
330
1E
100
AcDbEntity
  8
0
100
AcDbLine
 10
129.307
 20
98.868535
 30
0.0
 11
130.0
 21
103.115635
 31
0.0
  0
LINE
  5
3B3
330
1E
100
AcDbEntity
  8
0
100
AcDbLine
 10
127.0529999999999
 20
102.6366349999999
 30
0.0
 11
127.6599999999999
 21
98.563735
 31
0.0
  0
LINE
  5
3B4
330
1E
100
AcDbEntity
  8
0
100
AcDbLine
 10
79.7335
 20
109.452635
 30
0.0
 11
79.95239999999999
 21
108.057635
 31
0.0
  0
LINE
  5
3B5
330
1E
100
AcDbEntity
  8
0
100
AcDbLine
 10
79.95239999999999
 20
108.057635
 30
0.0
 11
80.6858
 21
109.438635
 31
0.0
  0
LINE
  5
3B6
330
1E
100
AcDbEntity
  8
0
100
AcDbLine
 10
79.95239999999999
 20
108.057635
 30
0.0
 11
81.8002
 21
107.674635
 31
0.0
  0
LINE
  5
3B7
330
1E
100
AcDbEntity
  8
0
100
AcDbLine
 10
81.8002
 20
107.674635
 30
0.0
 11
82.5336
 21
109.055635
 31
0.0
  0
LINE
  5
3B8
330
1E
100
AcDbEntity
  8
0
100
AcDbLine
 10
80.6858
 20
109.438635
 30
0.0
 11
82.5336
 21
109.055635
 31
0.0
  0
LINE
  5
3B9
330
1E
100
AcDbEntity
  8
0
100
AcDbLine
 10
82.31469999999999
 20
110.450635
 30
0.0
 11
82.5336
 21
109.055635
 31
0.0
  0
LINE
  5
3BA
330
1E
100
AcDbEntity
  8
0
100
AcDbLine
 10
100.1902999999999
 20
109.166635
 30
0.0
 11
101.531
 21
110.3876349999999
 31
0.0
  0
LINE
  5
3BB
330
1E
100
AcDbEntity
  8
0
100
AcDbLine
 10
100.1902999999999
 20
109.166635
 30
0.0
 11
101.6045
 21
108.458635
 31
0.0
  0
LINE
  5
3BC
330
1E
100
AcDbEntity
  8
0
100
AcDbLine
 10
99.7404
 20
110.583635
 30
0.0
 11
100.1902999999999
 21
109.166635
 31
0.0
  0
LINE
  5
3BD
330
1E
100
AcDbEntity
  8
0
100
AcDbLine
 10
101.6045
 20
108.458635
 30
0.0
 11
102.9452999999999
 21
109.680635
 31
0.0
  0
LINE
  5
3BE
330
1E
100
AcDbEntity
  8
0
100
AcDbLine
 10
101.531
 20
110.3876349999999
 30
0.0
 11
102.9452999999999
 21
109.680635
 31
0.0
  0
LINE
  5
3BF
330
1E
100
AcDbEntity
  8
0
100
AcDbLine
 10
91.8674
 20
107.542635
 30
0.0
 11
92.2156
 21
106.109635
 31
0.0
  0
LINE
  5
3C0
330
1E
100
AcDbEntity
  8
0
100
AcDbLine
 10
90.28069999999999
 20
108.151635
 30
0.0
 11
90.62890000000001
 21
106.718635
 31
0.0
  0
LINE
  5
3C1
330
1E
100
AcDbEntity
  8
0
100
AcDbLine
 10
102.4954
 20
111.097635
 30
0.0
 11
102.9452999999999
 21
109.680635
 31
0.0
  0
LINE
  5
3C2
330
1E
100
AcDbEntity
  8
0
100
AcDbLine
 10
80.46689999999999
 20
110.833635
 30
0.0
 11
80.6858
 21
109.438635
 31
0.0
  0
LINE
  5
3C3
330
1E
100
AcDbEntity
  8
0
100
AcDbLine
 10
109.633
 20
110.603635
 30
0.0
 11
113.7929999999999
 21
107.526635
 31
0.0
  0
LINE
  5
3C4
330
1E
100
AcDbEntity
  8
0
100
AcDbLine
 10
113.7929999999999
 20
107.526635
 30
0.0
 11
116.913
 21
104.233635
 31
0.0
  0
LINE
  5
3C5
330
1E
100
AcDbEntity
  8
0
100
AcDbLine
 10
101.0812
 20
111.8046349999999
 30
0.0
 11
101.531
 21
110.3876349999999
 31
0.0
  0
LINE
  5
3C6
330
1E
100
AcDbEntity
  8
0
100
AcDbLine
 10
91.2493
 20
112.596635
 30
0.0
 11
92.19739999999999
 21
113.968635
 31
0.0
  0
LINE
  5
3C7
330
1E
100
AcDbEntity
  8
0
100
AcDbLine
 10
89.51730000000001
 20
113.096635
 30
0.0
 11
90.4653
 21
114.468635
 31
0.0
  0
LINE
  5
3C8
330
1E
100
AcDbEntity
  8
0
100
AcDbLine
 10
89.51730000000001
 20
113.096635
 30
0.0
 11
91.2493
 21
112.596635
 31
0.0
  0
LINE
  5
3C9
330
1E
100
AcDbEntity
  8
0
100
AcDbLine
 10
104.78
 20
113.376635
 30
0.0
 11
109.633
 21
110.603635
 31
0.0
  0
LINE
  5
3CA
330
1E
100
AcDbEntity
  8
0
100
AcDbLine
 10
109.633
 20
111.478635
 30
0.0
 11
113.7929999999999
 21
108.402635
 31
0.0
  0
LINE
  5
3CB
330
1E
100
AcDbEntity
  8
0
100
AcDbLine
 10
113.7929999999999
 20
108.402635
 30
0.0
 11
116.913
 21
105.108635
 31
0.0
  0
LINE
  5
3CC
330
1E
100
AcDbEntity
  8
0
100
AcDbLine
 10
119.08
 20
114.120635
 30
0.0
 11
122.6329999999999
 21
110.480635
 31
0.0
  0
LINE
  5
3CD
330
1E
100
AcDbEntity
  8
0
100
AcDbLine
 10
122.6329999999999
 20
110.480635
 30
0.0
 11
125.2329999999999
 21
106.623635
 31
0.0
  0
LINE
  5
3CE
330
1E
100
AcDbEntity
  8
0
100
AcDbLine
 10
79.1053
 20
115.252635
 30
0.0
 11
79.596
 21
116.719635
 31
0.0
  0
LINE
  5
3CF
330
1E
100
AcDbEntity
  8
0
100
AcDbLine
 10
79.43139999999999
 20
118.0546349999999
 30
0.0
 11
79.596
 21
116.719635
 31
0.0
  0
LINE
  5
3D0
330
1E
100
AcDbEntity
  8
0
100
AcDbLine
 10
86.4933
 20
119.443635
 30
0.0
 11
93.07999999999999
 21
117.883635
 31
0.0
  0
LINE
  5
3D1
330
1E
100
AcDbEntity
  8
0
100
AcDbLine
 10
89.19920000000001
 20
114.462635
 30
0.0
 11
89.51730000000001
 21
113.096635
 31
0.0
  0
LINE
  5
3D2
330
1E
100
AcDbEntity
  8
0
100
AcDbLine
 10
90.4653
 20
114.468635
 30
0.0
 11
92.19739999999999
 21
113.968635
 31
0.0
  0
LINE
  5
3D3
330
1E
100
AcDbEntity
  8
0
100
AcDbLine
 10
91.87929999999999
 20
115.335635
 30
0.0
 11
92.19739999999999
 21
113.968635
 31
0.0
  0
LINE
  5
3D4
330
1E
100
AcDbEntity
  8
0
100
AcDbLine
 10
90.1472
 20
115.835635
 30
0.0
 11
90.4653
 21
114.468635
 31
0.0
  0
LINE
  5
3D5
330
1E
100
AcDbEntity
  8
0
100
AcDbLine
 10
99.23329999999999
 20
115.803635
 30
0.0
 11
104.78
 21
113.376635
 31
0.0
  0
LINE
  5
3D6
330
1E
100
AcDbEntity
  8
0
100
AcDbLine
 10
93.07999999999999
 20
117.883635
 30
0.0
 11
99.23329999999999
 21
115.803635
 31
0.0
  0
LINE
  5
3D7
330
1E
100
AcDbEntity
  8
0
100
AcDbLine
 10
104.78
 20
114.252635
 30
0.0
 11
109.633
 21
111.478635
 31
0.0
  0
LINE
  5
3D8
330
1E
100
AcDbEntity
  8
0
100
AcDbLine
 10
99.23329999999999
 20
116.678635
 30
0.0
 11
104.78
 21
114.252635
 31
0.0
  0
LINE
  5
3D9
330
1E
100
AcDbEntity
  8
0
100
AcDbLine
 10
93.07999999999999
 20
118.758635
 30
0.0
 11
99.23329999999999
 21
116.678635
 31
0.0
  0
LINE
  5
3DA
330
1E
100
AcDbEntity
  8
0
100
AcDbLine
 10
86.4933
 20
120.318635
 30
0.0
 11
93.07999999999999
 21
118.758635
 31
0.0
  0
LINE
  5
3DB
330
1E
100
AcDbEntity
  8
0
100
AcDbLine
 10
79.56
 20
120.656635
 30
0.0
 11
86.4933
 21
119.443635
 31
0.0
  0
LINE
  5
3DC
330
1E
100
AcDbEntity
  8
0
100
AcDbLine
 10
109.1129999999999
 20
120.620635
 30
0.0
 11
114.487
 21
117.543635
 31
0.0
  0
LINE
  5
3DD
330
1E
100
AcDbEntity
  8
0
100
AcDbLine
 10
114.487
 20
117.543635
 30
0.0
 11
119.08
 21
114.120635
 31
0.0
  0
LINE
  5
3DE
330
1E
100
AcDbEntity
  8
0
100
AcDbLine
 10
79.56
 20
121.532635
 30
0.0
 11
86.4933
 21
120.318635
 31
0.0
  0
LINE
  5
3DF
330
1E
100
AcDbEntity
  8
0
100
AcDbLine
 10
81.12
 20
128.6806349999999
 30
0.0
 11
88.83329999999999
 21
127.380635
 31
0.0
  0
LINE
  5
3E0
330
1E
100
AcDbEntity
  8
0
100
AcDbLine
 10
81.12
 20
128.766635
 30
0.0
 11
88.92000000000001
 21
127.466635
 31
0.0
  0
LINE
  5
3E1
330
1E
100
AcDbEntity
  8
0
100
AcDbLine
 10
88.83329999999999
 20
127.380635
 30
0.0
 11
96.1133
 21
125.603635
 31
0.0
  0
LINE
  5
3E2
330
1E
100
AcDbEntity
  8
0
100
AcDbLine
 10
88.92000000000001
 20
127.466635
 30
0.0
 11
96.2
 21
125.690635
 31
0.0
  0
LINE
  5
3E3
330
1E
100
AcDbEntity
  8
0
100
AcDbLine
 10
93.07999999999999
 20
136.264635
 30
0.0
 11
94.81329999999999
 21
135.680635
 31
0.0
  0
LINE
  5
3E4
330
1E
100
AcDbEntity
  8
0
100
AcDbLine
 10
86.4933
 20
137.8246349999999
 30
0.0
 11
93.07999999999999
 21
136.264635
 31
0.0
  0
LINE
  5
3E5
330
1E
100
AcDbEntity
  8
0
100
AcDbLine
 10
79.56
 20
139.037635
 30
0.0
 11
86.4933
 21
137.8246349999999
 31
0.0
  0
LINE
  5
3E6
330
1E
100
AcDbEntity
  8
0
100
AcDbLine
 10
102.9599999999999
 20
123.306635
 30
0.0
 11
109.1129999999999
 21
120.620635
 31
0.0
  0
LINE
  5
3E7
330
1E
100
AcDbEntity
  8
0
100
AcDbLine
 10
96.1133
 20
125.603635
 30
0.0
 11
102.9599999999999
 21
123.306635
 31
0.0
  0
LINE
  5
3E8
330
1E
100
AcDbEntity
  8
0
100
AcDbLine
 10
103.133
 20
123.393635
 30
0.0
 11
109.2
 21
120.663635
 31
0.0
  0
LINE
  5
3E9
330
1E
100
AcDbEntity
  8
0
100
AcDbLine
 10
96.2
 20
125.690635
 30
0.0
 11
103.133
 21
123.393635
 31
0.0
  0
LINE
  5
3EA
330
1E
100
AcDbEntity
  8
0
100
AcDbLine
 10
114.66
 20
126.733635
 30
0.0
 11
119.2529999999999
 21
123.266635
 31
0.0
  0
LINE
  5
3EB
330
1E
100
AcDbEntity
  8
0
100
AcDbLine
 10
101.4
 20
133.470635
 30
0.0
 11
107.2929999999999
 21
130.9136349999999
 31
0.0
  0
LINE
  5
3EC
330
1E
100
AcDbEntity
  8
0
100
AcDbLine
 10
94.81329999999999
 20
135.680635
 30
0.0
 11
101.4
 21
133.470635
 31
0.0
  0
LINE
  5
3ED
330
1E
100
AcDbEntity
  8
0
100
AcDbLine
 10
109.2
 20
120.663635
 30
0.0
 11
114.66
 21
117.630635
 31
0.0
  0
LINE
  5
3EE
330
1E
100
AcDbEntity
  8
0
100
AcDbLine
 10
119.2529999999999
 20
123.266635
 30
0.0
 11
122.8069999999999
 21
119.626635
 31
0.0
  0
LINE
  5
3EF
330
1E
100
AcDbEntity
  8
0
100
AcDbLine
 10
122.8069999999999
 20
119.626635
 30
0.0
 11
124.28
 21
117.654635
 31
0.0
  0
LINE
  5
3F0
330
1E
100
AcDbEntity
  8
0
100
AcDbLine
 10
114.66
 20
117.630635
 30
0.0
 11
119.2529999999999
 21
114.163635
 31
0.0
  0
LINE
  5
3F1
330
1E
100
AcDbEntity
  8
0
100
AcDbLine
 10
119.2529999999999
 20
114.163635
 30
0.0
 11
122.8069999999999
 21
110.523635
 31
0.0
  0
LINE
  5
3F2
330
1E
100
AcDbEntity
  8
0
100
AcDbLine
 10
124.28
 20
117.654635
 30
0.0
 11
126.967
 21
113.667635
 31
0.0
  0
LINE
  5
3F3
330
1E
100
AcDbEntity
  8
0
100
AcDbLine
 10
126.967
 20
113.667635
 30
0.0
 11
128.6999999999999
 21
109.550635
 31
0.0
  0
LINE
  5
3F4
330
1E
100
AcDbEntity
  8
0
100
AcDbLine
 10
128.6999999999999
 20
109.550635
 30
0.0
 11
129.307
 21
107.3616349999999
 31
0.0
  0
LINE
  5
3F5
330
1E
100
AcDbEntity
  8
0
100
AcDbLine
 10
122.8069999999999
 20
110.523635
 30
0.0
 11
125.407
 21
106.623635
 31
0.0
  0
LINE
  5
3F6
330
1E
100
AcDbEntity
  8
0
100
AcDbLine
 10
129.307
 20
107.3616349999999
 30
0.0
 11
130.0
 21
103.115635
 31
0.0
  0
LINE
  5
3F7
330
1E
100
AcDbEntity
  8
0
100
AcDbLine
 10
79.0
 20
66.03038988145769
 30
0.0
 11
79.0
 21
63.969835
 31
0.0
  0
LINE
  5
3FC
330
1E
100
AcDbEntity
  8
0
100
AcDbLine
 10
22.7067
 20
130.9136349999999
 30
0.0
 11
15.33999999999999
 21
126.733635
 31
0.0
  0
LINE
  5
3FD
330
1E
100
AcDbEntity
  8
0
100
AcDbLine
 10
107.2929999999999
 20
130.9136349999999
 30
0.0
 11
114.66
 21
126.733635
 31
0.0
  0
ENDSEC
  0
SECTION
  2
OBJECTS
  0
DICTIONARY
  5
C
330
0
100
AcDbDictionary
281
     1
  3
ACAD_GROUP
350
D
  3
ACAD_LAYOUT
350
19
  3
ACAD_MLINESTYLE
350
16
  3
ACAD_PLOTSETTINGS
350
18
  3
ACAD_PLOTSTYLENAME
350
E
  3
AcDbVariableDictionary
350
3FE
  0
DICTIONARY
  5
D
102
{ACAD_REACTORS
330
C
102
}
330
C
100
AcDbDictionary
281
     1
  0
DICTIONARY
  5
19
102
{ACAD_REACTORS
330
C
102
}
330
C
100
AcDbDictionary
281
     1
  3
Layout1
350
1D
  3
Model
350
21
  0
DICTIONARY
  5
16
102
{ACAD_REACTORS
330
C
102
}
330
C
100
AcDbDictionary
281
     1
  3
Standard
350
17
  0
DICTIONARY
  5
18
102
{ACAD_REACTORS
330
C
102
}
330
C
100
AcDbDictionary
281
     1
  0
ACDBDICTIONARYWDFLT
  5
E
102
{ACAD_REACTORS
330
C
102
}
330
C
100
AcDbDictionary
281
     1
  3
Normal
350
F
100
AcDbDictionaryWithDefault
340
F
  0
DICTIONARY
  5
3FE
102
{ACAD_REACTORS
330
C
102
}
330
C
100
AcDbDictionary
281
     1
  3
DIMASSOC
350
3FF
  0
LAYOUT
  5
1D
102
{ACAD_REACTORS
330
19
102
}
330
19
100
AcDbPlotSettings
  1

  2
hp deskjet 980c series
  4

  6

 40
0.0
 41
0.0
 42
0.0
 43
0.0
 44
0.0
 45
0.0
 46
0.0
 47
0.0
 48
0.0
 49
0.0
140
0.0
141
0.0
142
1.0
143
1.0
 70
   688
 72
     0
 73
     0
 74
     5
  7

 75
    16
147
1.0
148
0.0
149
0.0
100
AcDbLayout
  1
Layout1
 70
     1
 71
     1
 10
0.0
 20
0.0
 11
12.0
 21
9.0
 12
0.0
 22
0.0
 32
0.0
 14
1.000000000000000E+20
 24
1.000000000000000E+20
 34
1.000000000000000E+20
 15
-1.000000000000000E+20
 25
-1.000000000000000E+20
 35
-1.000000000000000E+20
146
0.0
 13
0.0
 23
0.0
 33
0.0
 16
1.0
 26
0.0
 36
0.0
 17
0.0
 27
1.0
 37
0.0
 76
     0
330
1A
  0
LAYOUT
  5
21
102
{ACAD_REACTORS
330
19
102
}
330
19
100
AcDbPlotSettings
  1

  2
hp deskjet 980c series
  4

  6

 40
0.0
 41
0.0
 42
0.0
 43
0.0
 44
0.0
 45
0.0
 46
0.0
 47
0.0
 48
0.0
 49
0.0
140
0.0
141
0.0
142
1.0
143
1.0
 70
  1712
 72
     0
 73
     0
 74
     0
  7

 75
     0
147
1.0
148
0.0
149
0.0
100
AcDbLayout
  1
Model
 70
     1
 71
     0
 10
0.0
 20
0.0
 11
12.0
 21
9.0
 12
0.0
 22
0.0
 32
0.0
 14
0.0
 24
0.0
 34
0.0
 15
0.0
 25
0.0
 35
0.0
146
0.0
 13
0.0
 23
0.0
 33
0.0
 16
1.0
 26
0.0
 36
0.0
 17
0.0
 27
1.0
 37
0.0
 76
     0
330
1E
  0
MLINESTYLE
  5
17
102
{ACAD_REACTORS
330
16
102
}
330
16
100
AcDbMlineStyle
  2
STANDARD
 70
     0
  3

 62
   256
 51
90.0
 52
90.0
 71
     2
 49
0.5
 62
   256
  6
BYLAYER
 49
-0.5
 62
   256
  6
BYLAYER
  0
ACDBPLACEHOLDER
  5
F
102
{ACAD_REACTORS
330
E
102
}
330
E
  0
DICTIONARYVAR
  5
3FF
102
{ACAD_REACTORS
330
3FE
102
}
330
3FE
100
DictionaryVariables
280
     0
  1
1
  0
ENDSEC
  0
EOF
