  0
SECTION
  2
HEADER
  9
$ACADVER
  1
AC1015
  9
$ACADMAINTVER
 70
    13
  9
$DWGCODEPAGE
  3
ANSI_1252
  9
$INSBASE
 10
0.0
 20
0.0
 30
0.0
  9
$EXTMIN
 10
-0.000000000000001
 20
-0.0110790000000035
 30
0.0
  9
$EXTMAX
 10
100.0
 20
31.011079
 30
0.0
  9
$LIMMIN
 10
0.0
 20
0.0
  9
$LIMMAX
 10
12.0
 20
9.0
  9
$ORTHOMODE
 70
     0
  9
$REGENMODE
 70
     1
  9
$FILLMODE
 70
     1
  9
$QTEXTMODE
 70
     0
  9
$MIRRTEXT
 70
     1
  9
$LTSCALE
 40
1.0
  9
$ATTMODE
 70
     1
  9
$TEXTSIZE
 40
0.2
  9
$TRACEWID
 40
0.05
  9
$TEXTSTYLE
  7
Standard
  9
$CLAYER
  8
0
  9
$CELTYPE
  6
Continuous
  9
$CECOLOR
 62
   256
  9
$CELTSCALE
 40
1.0
  9
$DISPSILH
 70
     0
  9
$DIMSCALE
 40
1.0
  9
$DIMASZ
 40
0.18
  9
$DIMEXO
 40
0.0625
  9
$DIMDLI
 40
0.38
  9
$DIMRND
 40
0.0
  9
$DIMDLE
 40
0.0
  9
$DIMEXE
 40
0.18
  9
$DIMTP
 40
0.0
  9
$DIMTM
 40
0.0
  9
$DIMTXT
 40
0.18
  9
$DIMCEN
 40
0.09
  9
$DIMTSZ
 40
0.0
  9
$DIMTOL
 70
     0
  9
$DIMLIM
 70
     0
  9
$DIMTIH
 70
     1
  9
$DIMTOH
 70
     1
  9
$DIMSE1
 70
     0
  9
$DIMSE2
 70
     0
  9
$DIMTAD
 70
     0
  9
$DIMZIN
 70
     0
  9
$DIMBLK
  1

  9
$DIMASO
 70
     1
  9
$DIMSHO
 70
     1
  9
$DIMPOST
  1

  9
$DIMAPOST
  1

  9
$DIMALT
 70
     0
  9
$DIMALTD
 70
     2
  9
$DIMALTF
 40
25.4
  9
$DIMLFAC
 40
1.0
  9
$DIMTOFL
 70
     0
  9
$DIMTVP
 40
0.0
  9
$DIMTIX
 70
     0
  9
$DIMSOXD
 70
     0
  9
$DIMSAH
 70
     0
  9
$DIMBLK1
  1

  9
$DIMBLK2
  1

  9
$DIMSTYLE
  2
Standard
  9
$DIMCLRD
 70
     0
  9
$DIMCLRE
 70
     0
  9
$DIMCLRT
 70
     0
  9
$DIMTFAC
 40
1.0
  9
$DIMGAP
 40
0.09
  9
$DIMJUST
 70
     0
  9
$DIMSD1
 70
     0
  9
$DIMSD2
 70
     0
  9
$DIMTOLJ
 70
     1
  9
$DIMTZIN
 70
     0
  9
$DIMALTZ
 70
     0
  9
$DIMALTTZ
 70
     0
  9
$DIMUPT
 70
     0
  9
$DIMDEC
 70
     4
  9
$DIMTDEC
 70
     4
  9
$DIMALTU
 70
     2
  9
$DIMALTTD
 70
     2
  9
$DIMTXSTY
  7
Standard
  9
$DIMAUNIT
 70
     0
  9
$DIMADEC
 70
     0
  9
$DIMALTRND
 40
0.0
  9
$DIMAZIN
 70
     0
  9
$DIMDSEP
 70
    46
  9
$DIMATFIT
 70
     3
  9
$DIMFRAC
 70
     0
  9
$DIMLDRBLK
  1

  9
$DIMLUNIT
 70
     2
  9
$DIMLWD
 70
    -2
  9
$DIMLWE
 70
    -2
  9
$DIMTMOVE
 70
     0
  9
$LUNITS
 70
     2
  9
$LUPREC
 70
     4
  9
$SKETCHINC
 40
0.1
  9
$FILLETRAD
 40
0.0
  9
$AUNITS
 70
     0
  9
$AUPREC
 70
     0
  9
$MENU
  1
.
  9
$ELEVATION
 40
0.0
  9
$PELEVATION
 40
0.0
  9
$THICKNESS
 40
0.0
  9
$LIMCHECK
 70
     0
  9
$CHAMFERA
 40
0.0
  9
$CHAMFERB
 40
0.0
  9
$CHAMFERC
 40
0.0
  9
$CHAMFERD
 40
0.0
  9
$SKPOLY
 70
     0
  9
$TDCREATE
 40
2454737.952592048
  9
$TDUCREATE
 40
2454737.869258715
  9
$TDUPDATE
 40
2454737.956104050
  9
$TDUUPDATE
 40
2454737.872770717
  9
$TDINDWG
 40
0.0035120023
  9
$TDUSRTIMER
 40
0.0035120023
  9
$USRTIMER
 70
     1
  9
$ANGBASE
 50
0.0
  9
$ANGDIR
 70
     0
  9
$PDMODE
 70
     0
  9
$PDSIZE
 40
0.0
  9
$PLINEWID
 40
0.0
  9
$SPLFRAME
 70
     0
  9
$SPLINETYPE
 70
     6
  9
$SPLINESEGS
 70
     8
  9
$HANDSEED
  5
1F3
  9
$SURFTAB1
 70
     6
  9
$SURFTAB2
 70
     6
  9
$SURFTYPE
 70
     6
  9
$SURFU
 70
     6
  9
$SURFV
 70
     6
  9
$UCSBASE
  2

  9
$UCSNAME
  2

  9
$UCSORG
 10
0.0
 20
0.0
 30
0.0
  9
$UCSXDIR
 10
1.0
 20
0.0
 30
0.0
  9
$UCSYDIR
 10
0.0
 20
1.0
 30
0.0
  9
$UCSORTHOREF
  2

  9
$UCSORTHOVIEW
 70
     1
  9
$UCSORGTOP
 10
0.0
 20
0.0
 30
0.0
  9
$UCSORGBOTTOM
 10
0.0
 20
0.0
 30
0.0
  9
$UCSORGLEFT
 10
0.0
 20
0.0
 30
0.0
  9
$UCSORGRIGHT
 10
0.0
 20
0.0
 30
0.0
  9
$UCSORGFRONT
 10
0.0
 20
0.0
 30
0.0
  9
$UCSORGBACK
 10
0.0
 20
0.0
 30
0.0
  9
$PUCSBASE
  2

  9
$PUCSNAME
  2

  9
$PUCSORG
 10
0.0
 20
0.0
 30
0.0
  9
$PUCSXDIR
 10
1.0
 20
0.0
 30
0.0
  9
$PUCSYDIR
 10
0.0
 20
1.0
 30
0.0
  9
$PUCSORTHOREF
  2

  9
$PUCSORTHOVIEW
 70
     0
  9
$PUCSORGTOP
 10
0.0
 20
0.0
 30
0.0
  9
$PUCSORGBOTTOM
 10
0.0
 20
0.0
 30
0.0
  9
$PUCSORGLEFT
 10
0.0
 20
0.0
 30
0.0
  9
$PUCSORGRIGHT
 10
0.0
 20
0.0
 30
0.0
  9
$PUCSORGFRONT
 10
0.0
 20
0.0
 30
0.0
  9
$PUCSORGBACK
 10
0.0
 20
0.0
 30
0.0
  9
$USERI1
 70
     0
  9
$USERI2
 70
     0
  9
$USERI3
 70
     0
  9
$USERI4
 70
     0
  9
$USERI5
 70
     0
  9
$USERR1
 40
0.0
  9
$USERR2
 40
0.0
  9
$USERR3
 40
0.0
  9
$USERR4
 40
0.0
  9
$USERR5
 40
0.0
  9
$WORLDVIEW
 70
     1
  9
$SHADEDGE
 70
     3
  9
$SHADEDIF
 70
    70
  9
$TILEMODE
 70
     1
  9
$MAXACTVP
 70
    64
  9
$PINSBASE
 10
0.0
 20
0.0
 30
0.0
  9
$PLIMCHECK
 70
     0
  9
$PEXTMIN
 10
1.000000000000000E+20
 20
1.000000000000000E+20
 30
1.000000000000000E+20
  9
$PEXTMAX
 10
-1.000000000000000E+20
 20
-1.000000000000000E+20
 30
-1.000000000000000E+20
  9
$PLIMMIN
 10
0.0
 20
0.0
  9
$PLIMMAX
 10
12.0
 20
9.0
  9
$UNITMODE
 70
     0
  9
$VISRETAIN
 70
     1
  9
$PLINEGEN
 70
     0
  9
$PSLTSCALE
 70
     1
  9
$TREEDEPTH
 70
  3020
  9
$CMLSTYLE
  2
Standard
  9
$CMLJUST
 70
     0
  9
$CMLSCALE
 40
1.0
  9
$PROXYGRAPHICS
 70
     1
  9
$MEASUREMENT
 70
     0
  9
$CELWEIGHT
370
    -1
  9
$ENDCAPS
280
     0
  9
$JOINSTYLE
280
     0
  9
$LWDISPLAY
290
     0
  9
$INSUNITS
 70
     0
  9
$HYPERLINKBASE
  1

  9
$STYLESHEET
  1

  9
$XEDIT
290
     1
  9
$CEPSNTYPE
380
     0
  9
$PSTYLEMODE
290
     1
  9
$FINGERPRINTGUID
  2
{8B685C12-86F7-4055-A3B5-CFFC3393342F}
  9
$VERSIONGUID
  2
{3A1A6116-E75B-4FB3-9F4F-416B6CB134A9}
  9
$EXTNAMES
290
     1
  9
$PSVPSCALE
 40
0.0
  9
$OLESTARTUP
290
     0
  0
ENDSEC
  0
SECTION
  2
CLASSES
  0
CLASS
  1
ACDBDICTIONARYWDFLT
  2
AcDbDictionaryWithDefault
  3
AutoCAD 2000
 90
        0
280
     0
281
     0
  0
CLASS
  1
ACDBPLACEHOLDER
  2
AcDbPlaceHolder
  3
AutoCAD 2000
 90
        0
280
     0
281
     0
  0
CLASS
  1
LAYOUT
  2
AcDbLayout
  3
AutoCAD 2000
 90
        0
280
     0
281
     0
  0
CLASS
  1
DICTIONARYVAR
  2
AcDbDictionaryVar
  3
AutoCAD 2000
 90
        0
280
     0
281
     0
  0
ENDSEC
  0
SECTION
  2
TABLES
  0
TABLE
  2
VPORT
  5
8
330
0
100
AcDbSymbolTable
 70
     2
  0
VPORT
  5
1F2
330
8
100
AcDbSymbolTableRecord
100
AcDbViewportTableRecord
  2
*Active
 70
     0
 10
0.0
 20
0.0
 11
1.0
 21
1.0
 12
50.0
 22
15.49999999999999
 13
0.0
 23
0.0
 14
1.0
 24
1.0
 15
0.0
 25
0.0
 16
0.0
 26
0.0
 36
1.0
 17
0.0
 27
0.0
 37
0.0
 40
48.29855009120737
 41
2.078104993597951
 42
50.0
 43
0.0
 44
0.0
 50
0.0
 51
0.0
 71
     0
 72
   100
 73
     1
 74
     3
 75
     0
 76
     0
 77
     0
 78
     0
281
     0
 65
     1
110
0.0
120
0.0
130
0.0
111
1.0
121
0.0
131
0.0
112
0.0
122
1.0
132
0.0
 79
     1
146
0.0
  0
ENDTAB
  0
TABLE
  2
LTYPE
  5
5
330
0
100
AcDbSymbolTable
 70
     1
  0
LTYPE
  5
13
330
5
100
AcDbSymbolTableRecord
100
AcDbLinetypeTableRecord
  2
ByBlock
 70
     0
  3

 72
    65
 73
     0
 40
0.0
  0
LTYPE
  5
14
330
5
100
AcDbSymbolTableRecord
100
AcDbLinetypeTableRecord
  2
ByLayer
 70
     0
  3

 72
    65
 73
     0
 40
0.0
  0
LTYPE
  5
15
330
5
100
AcDbSymbolTableRecord
100
AcDbLinetypeTableRecord
  2
Continuous
 70
     0
  3
Solid line
 72
    65
 73
     0
 40
0.0
  0
ENDTAB
  0
TABLE
  2
LAYER
  5
2
330
0
100
AcDbSymbolTable
 70
     1
  0
LAYER
  5
10
330
2
100
AcDbSymbolTableRecord
100
AcDbLayerTableRecord
  2
0
 70
     0
 62
     7
  6
Continuous
370
    -3
390
F
  0
ENDTAB
  0
TABLE
  2
STYLE
  5
3
330
0
100
AcDbSymbolTable
 70
     1
  0
STYLE
  5
11
330
3
100
AcDbSymbolTableRecord
100
AcDbTextStyleTableRecord
  2
Standard
 70
     0
 40
0.0
 41
1.0
 50
0.0
 71
     0
 42
0.2
  3
txt
  4

  0
ENDTAB
  0
TABLE
  2
VIEW
  5
6
330
0
100
AcDbSymbolTable
 70
     0
  0
ENDTAB
  0
TABLE
  2
UCS
  5
7
330
0
100
AcDbSymbolTable
 70
     0
  0
ENDTAB
  0
TABLE
  2
APPID
  5
9
330
0
100
AcDbSymbolTable
 70
     1
  0
APPID
  5
12
330
9
100
AcDbSymbolTableRecord
100
AcDbRegAppTableRecord
  2
ACAD
 70
     0
  0
ENDTAB
  0
TABLE
  2
DIMSTYLE
  5
A
330
0
100
AcDbSymbolTable
 70
     1
100
AcDbDimStyleTable
 71
     0
  0
DIMSTYLE
105
1EC
330
A
100
AcDbSymbolTableRecord
100
AcDbDimStyleTableRecord
  2
Standard
 70
     0
340
11
  0
ENDTAB
  0
TABLE
  2
BLOCK_RECORD
  5
1
330
0
100
AcDbSymbolTable
 70
     0
  0
BLOCK_RECORD
  5
1E
330
1
100
AcDbSymbolTableRecord
100
AcDbBlockTableRecord
  2
*Model_Space
340
21
  0
BLOCK_RECORD
  5
1A
330
1
100
AcDbSymbolTableRecord
100
AcDbBlockTableRecord
  2
*Paper_Space
340
1D
  0
ENDTAB
  0
ENDSEC
  0
SECTION
  2
BLOCKS
  0
BLOCK
  5
1F
330
1E
100
AcDbEntity
  8
0
100
AcDbBlockBegin
  2
*Model_Space
 70
     0
 10
0.0
 20
0.0
 30
0.0
  3
*Model_Space
  1

  0
ENDBLK
  5
20
330
1E
100
AcDbEntity
  8
0
100
AcDbBlockEnd
  0
BLOCK
  5
1B
330
1A
100
AcDbEntity
 67
     1
  8
0
100
AcDbBlockBegin
  2
*Paper_Space
 70
     0
 10
0.0
 20
0.0
 30
0.0
  3
*Paper_Space
  1

  0
ENDBLK
  5
1C
330
1A
100
AcDbEntity
 67
     1
  8
0
100
AcDbBlockEnd
  0
ENDSEC
  0
SECTION
  2
ENTITIES
  0
LINE
  5
22
330
1E
100
AcDbEntity
  8
0
100
AcDbLine
 10
-0.000000000000001
 20
21.011079
 30
0.0
 11
1.8
 21
21.011079
 31
0.0
  0
LINE
  5
23
330
1E
100
AcDbEntity
  8
0
100
AcDbLine
 10
-0.000000000000001
 20
21.011079
 30
0.0
 11
-0.000000000000001
 21
7.511078999999999
 31
0.0
  0
LINE
  5
24
330
1E
100
AcDbEntity
  8
0
100
AcDbLine
 10
2.299999999999999
 20
7.011078999999999
 30
0.0
 11
3.500000000000009
 21
7.011078999999999
 31
0.0
  0
LINE
  5
25
330
1E
100
AcDbEntity
  8
0
100
AcDbLine
 10
0.499999999999999
 20
7.011078999999999
 30
0.0
 11
2.299999999999999
 21
7.011078999999999
 31
0.0
  0
LINE
  5
26
330
1E
100
AcDbEntity
  8
0
100
AcDbLine
 10
0.499999999999999
 20
7.011078999999999
 30
0.0
 11
2.299999999999999
 21
7.011078999999999
 31
0.0
  0
LINE
  5
27
330
1E
100
AcDbEntity
  8
0
100
AcDbLine
 10
3.0
 20
7.011078999999999
 30
0.0
 11
3.5
 21
7.011078999999999
 31
0.0
  0
LINE
  5
28
330
1E
100
AcDbEntity
  8
0
100
AcDbLine
 10
3.0
 20
7.011078999999999
 30
0.0
 11
4.7
 21
7.011078999999999
 31
0.0
  0
LINE
  5
29
330
1E
100
AcDbEntity
  8
0
100
AcDbLine
 10
2.299999999999999
 20
7.011078999999999
 30
0.0
 11
3.500000000000009
 21
7.011078999999999
 31
0.0
  0
LINE
  5
2A
330
1E
100
AcDbEntity
  8
0
100
AcDbLine
 10
1.8
 20
7.511078999999999
 30
0.0
 11
6.7
 21
7.511078999999999
 31
0.0
  0
LINE
  5
2B
330
1E
100
AcDbEntity
  8
0
100
AcDbLine
 10
1.8
 20
21.011079
 30
0.0
 11
6.7
 21
21.011079
 31
0.0
  0
LINE
  5
2C
330
1E
100
AcDbEntity
  8
0
100
AcDbLine
 10
1.8
 20
7.511078999999999
 30
0.0
 11
6.7
 21
7.511078999999999
 31
0.0
  0
LINE
  5
2D
330
1E
100
AcDbEntity
  8
0
100
AcDbLine
 10
2.299999999999999
 20
7.011078999999999
 30
0.0
 11
7.099999999999999
 21
7.011078999999999
 31
0.0
  0
LINE
  5
2E
330
1E
100
AcDbEntity
  8
0
100
AcDbLine
 10
2.299999999999999
 20
7.011078999999999
 30
0.0
 11
7.099999999999999
 21
7.011078999999999
 31
0.0
  0
LINE
  5
2F
330
1E
100
AcDbEntity
  8
0
100
AcDbLine
 10
1.8
 20
21.011079
 30
0.0
 11
6.7
 21
21.011079
 31
0.0
  0
LINE
  5
30
330
1E
100
AcDbEntity
  8
0
100
AcDbLine
 10
0.499999999999999
 20
7.011078999999999
 30
0.0
 11
2.299999999999999
 21
7.011078999999999
 31
0.0
  0
LINE
  5
31
330
1E
100
AcDbEntity
  8
0
100
AcDbLine
 10
0.499999999999999
 20
7.011078999999999
 30
0.0
 11
2.299999999999999
 21
7.011078999999999
 31
0.0
  0
LINE
  5
32
330
1E
100
AcDbEntity
  8
0
100
AcDbLine
 10
-0.000000000000001
 20
7.511078999999999
 30
0.0
 11
-0.000000000000001
 21
21.011079
 31
0.0
  0
LINE
  5
33
330
1E
100
AcDbEntity
  8
0
100
AcDbLine
 10
-0.000000000000001
 20
7.511078999999999
 30
0.0
 11
0.499999999999999
 21
7.011078999999999
 31
0.0
  0
LINE
  5
34
330
1E
100
AcDbEntity
  8
0
100
AcDbLine
 10
-0.000000000000001
 20
7.511078999999999
 30
0.0
 11
1.8
 21
7.511078999999999
 31
0.0
  0
LINE
  5
35
330
1E
100
AcDbEntity
  8
0
100
AcDbLine
 10
2.0
 20
28.01107899999999
 30
0.0
 11
3.7
 21
28.01107899999999
 31
0.0
  0
LINE
  5
36
330
1E
100
AcDbEntity
  8
0
100
AcDbLine
 10
2.0
 20
28.01107899999999
 30
0.0
 11
2.0
 21
21.011079
 31
0.0
  0
LINE
  5
37
330
1E
100
AcDbEntity
  8
0
100
AcDbLine
 10
2.0
 20
21.011079
 30
0.0
 11
2.0
 21
28.01107899999999
 31
0.0
  0
LINE
  5
38
330
1E
100
AcDbEntity
  8
0
100
AcDbLine
 10
5.2
 20
7.011078999999999
 30
0.0
 11
9.699999999999999
 21
7.011078999999999
 31
0.0
  0
LINE
  5
39
330
1E
100
AcDbEntity
  8
0
100
AcDbLine
 10
3.5
 20
7.011078999999999
 30
0.0
 11
7.415835934857299
 21
6.575986118349191
 31
0.0
  0
LINE
  5
3A
330
1E
100
AcDbEntity
  8
0
100
AcDbLine
 10
3.5
 20
7.011078999999999
 30
0.0
 11
5.2
 21
7.011078999999999
 31
0.0
  0
LINE
  5
3B
330
1E
100
AcDbEntity
  8
0
100
AcDbLine
 10
4.7
 20
7.011078999999999
 30
0.0
 11
9.3
 21
7.011078999999999
 31
0.0
  0
LINE
  5
3C
330
1E
100
AcDbEntity
  8
0
100
AcDbLine
 10
9.85203
 20
4.806498999999999
 30
0.0
 11
10.18599999999999
 21
4.747829
 31
0.0
  0
LINE
  5
3E
330
1E
100
AcDbEntity
  8
0
100
AcDbLine
 10
10.18599999999999
 20
4.747829
 30
0.0
 11
10.39528462132969
 21
6.348070863333679
 31
0.0
  0
LINE
  5
3F
330
1E
100
AcDbEntity
  8
0
100
AcDbLine
 10
9.632519999999999
 20
4.806498999999999
 30
0.0
 11
10.18599999999999
 21
4.747829
 31
0.0
  0
LINE
  5
40
330
1E
100
AcDbEntity
  8
0
100
AcDbLine
 10
7.561849999999999
 20
5.080308999999999
 30
0.0
 11
8.55015
 21
4.943408999999999
 31
0.0
  0
LINE
  5
41
330
1E
100
AcDbEntity
  8
0
100
AcDbLine
 10
7.227889999999999
 20
5.138978999999999
 30
0.0
 11
7.78136
 21
5.080308999999999
 31
0.0
  0
LINE
  5
42
330
1E
100
AcDbEntity
  8
0
100
AcDbLine
 10
7.227889999999999
 20
5.138978999999999
 30
0.0
 11
7.4234011813882
 21
6.63382888640498
 31
0.0
  0
LINE
  5
43
330
1E
100
AcDbEntity
  8
0
100
AcDbLine
 10
7.227889999999999
 20
5.138978999999999
 30
0.0
 11
7.561849999999999
 21
5.080308999999999
 31
0.0
  0
LINE
  5
44
330
1E
100
AcDbEntity
  8
0
100
AcDbLine
 10
7.227889999999999
 20
5.138978999999999
 30
0.0
 11
7.4234011813882
 21
6.63382888640498
 31
0.0
  0
LINE
  5
45
330
1E
100
AcDbEntity
  8
0
100
AcDbLine
 10
8.55015
 20
4.943408999999999
 30
0.0
 11
9.632519999999999
 21
4.806498999999999
 31
0.0
  0
LINE
  5
47
330
1E
100
AcDbEntity
  8
0
100
AcDbLine
 10
8.86373
 20
4.943408999999999
 30
0.0
 11
9.85203
 21
4.806498999999999
 31
0.0
  0
LINE
  5
48
330
1E
100
AcDbEntity
  8
0
100
AcDbLine
 10
7.78136
 20
5.080308999999999
 30
0.0
 11
8.86373
 21
4.943408999999999
 31
0.0
  0
LINE
  5
4A
330
1E
100
AcDbEntity
  8
0
100
AcDbLine
 10
10.2077183799846
 20
4.91389309316828
 30
0.0
 11
11.0934
 21
4.806498999999999
 31
0.0
  0
LINE
  5
4B
330
1E
100
AcDbEntity
  8
0
100
AcDbLine
 10
12.4945
 20
5.080308999999999
 30
0.0
 11
13.1711
 21
4.943408999999999
 31
0.0
  0
LINE
  5
4C
330
1E
100
AcDbEntity
  8
0
100
AcDbLine
 10
12.4945
 20
5.080308999999999
 30
0.0
 11
12.6709874089158
 21
6.630183178344119
 31
0.0
  0
LINE
  5
4D
330
1E
100
AcDbEntity
  8
0
100
AcDbLine
 10
12.4945
 20
5.080308999999999
 30
0.0
 11
12.6331
 21
5.138978999999999
 31
0.0
  0
LINE
  5
4E
330
1E
100
AcDbEntity
  8
0
100
AcDbLine
 10
11.0934
 20
4.806498999999999
 30
0.0
 11
11.8422
 21
4.747829
 31
0.0
  0
LINE
  5
50
330
1E
100
AcDbEntity
  8
0
100
AcDbLine
 10
11.8422
 20
4.747829
 30
0.0
 11
12.0070420666352
 21
6.0658521037072
 31
0.0
  0
LINE
  5
51
330
1E
100
AcDbEntity
  8
0
100
AcDbLine
 10
13.1711
 20
4.943408999999999
 30
0.0
 11
14.29759999999999
 21
4.806498999999999
 31
0.0
  0
LINE
  5
52
330
1E
100
AcDbEntity
  8
0
100
AcDbLine
 10
14.29759999999999
 20
4.806498999999999
 30
0.0
 11
15.209
 21
4.747829
 31
0.0
  0
LINE
  5
54
330
1E
100
AcDbEntity
  8
0
100
AcDbLine
 10
14.67109999999999
 20
4.943408999999999
 30
0.0
 11
15.3476
 21
4.806498999999999
 31
0.0
  0
LINE
  5
56
330
1E
100
AcDbEntity
  8
0
100
AcDbLine
 10
13.54449999999999
 20
5.080308999999999
 30
0.0
 11
14.67109999999999
 21
4.943408999999999
 31
0.0
  0
LINE
  5
58
330
1E
100
AcDbEntity
  8
0
100
AcDbLine
 10
12.6331
 20
5.138978999999999
 30
0.0
 11
13.54449999999999
 21
5.080308999999999
 31
0.0
  0
LINE
  5
59
330
1E
100
AcDbEntity
  8
0
100
AcDbLine
 10
12.5
 20
6.011079
 30
0.0
 11
12.5997057097907
 21
6.004202744152359
 31
0.0
  0
LINE
  5
5A
330
1E
100
AcDbEntity
  8
0
100
AcDbLine
 10
12.5
 20
6.011079
 30
0.0
 11
12.5997057097907
 21
6.004202744152359
 31
0.0
  0
LINE
  5
5B
330
1E
100
AcDbEntity
  8
0
100
AcDbLine
 10
10.3819895535506
 20
6.246413494049929
 30
0.0
 11
12.5
 21
6.011079
 31
0.0
  0
LINE
  5
5C
330
1E
100
AcDbEntity
  8
0
100
AcDbLine
 10
7.099999999999999
 20
7.011078999999999
 30
0.0
 11
15.09999999999999
 21
7.011078999999999
 31
0.0
  0
LINE
  5
5D
330
1E
100
AcDbEntity
  8
0
100
AcDbLine
 10
6.7
 20
7.511078999999999
 30
0.0
 11
14.69999999999999
 21
7.511078999999999
 31
0.0
  0
LINE
  5
5E
330
1E
100
AcDbEntity
  8
0
100
AcDbLine
 10
6.7
 20
21.011079
 30
0.0
 11
14.69999999999999
 21
21.011079
 31
0.0
  0
LINE
  5
5F
330
1E
100
AcDbEntity
  8
0
100
AcDbLine
 10
14.69999999999999
 20
7.511078999999999
 30
0.0
 11
25.1
 21
7.511078999999999
 31
0.0
  0
LINE
  5
60
330
1E
100
AcDbEntity
  8
0
100
AcDbLine
 10
8.4
 20
28.01107899999999
 30
0.0
 11
16.1
 21
28.01107899999999
 31
0.0
  0
LINE
  5
61
330
1E
100
AcDbEntity
  8
0
100
AcDbLine
 10
3.7
 20
28.01107899999999
 30
0.0
 11
8.4
 21
28.01107899999999
 31
0.0
  0
LINE
  5
62
330
1E
100
AcDbEntity
  8
0
100
AcDbLine
 10
14.69999999999999
 20
21.011079
 30
0.0
 11
25.1
 21
21.011079
 31
0.0
  0
LINE
  5
63
330
1E
100
AcDbEntity
  8
0
100
AcDbLine
 10
15.209
 20
4.747829
 30
0.0
 11
15.3476
 21
4.806498999999999
 31
0.0
  0
LINE
  5
64
330
1E
100
AcDbEntity
  8
0
100
AcDbLine
 10
15.3476
 20
4.806498999999999
 30
0.0
 11
15.513813408821
 21
6.26571830656141
 31
0.0
  0
LINE
  5
65
330
1E
100
AcDbEntity
  8
0
100
AcDbLine
 10
22.8288
 20
3.864858999999999
 30
0.0
 11
23.9619
 21
3.764408999999999
 31
0.0
  0
LINE
  5
66
330
1E
100
AcDbEntity
  8
0
100
AcDbLine
 10
23.9619
 20
3.764408999999999
 30
0.0
 11
24.71239999999999
 21
3.721358999999999
 31
0.0
  0
LINE
  5
68
330
1E
100
AcDbEntity
  8
0
100
AcDbLine
 10
23.7559
 20
3.864858999999999
 30
0.0
 11
24.6109
 21
3.764408999999999
 31
0.0
  0
LINE
  5
69
330
1E
100
AcDbEntity
  8
0
100
AcDbLine
 10
23.9619
 20
3.764408999999999
 30
0.0
 11
24.71239999999999
 21
3.721358999999999
 31
0.0
  0
LINE
  5
6A
330
1E
100
AcDbEntity
  8
0
100
AcDbLine
 10
22.8288
 20
3.864858999999999
 30
0.0
 11
23.9619
 21
3.764408999999999
 31
0.0
  0
LINE
  5
6B
330
1E
100
AcDbEntity
  8
0
100
AcDbLine
 10
21.8723
 20
4.008348999999999
 30
0.0
 11
21.97389999999999
 21
3.965298999999999
 31
0.0
  0
LINE
  5
6C
330
1E
100
AcDbEntity
  8
0
100
AcDbLine
 10
21.8723
 20
4.008348999999999
 30
0.0
 11
22.0096242284372
 21
5.510484911824869
 31
0.0
  0
LINE
  5
6D
330
1E
100
AcDbEntity
  8
0
100
AcDbLine
 10
21.8723
 20
4.008348999999999
 30
0.0
 11
22.6228
 21
3.965298999999999
 31
0.0
  0
LINE
  5
6E
330
1E
100
AcDbEntity
  8
0
100
AcDbLine
 10
20.7416
 20
4.806498999999999
 30
0.0
 11
20.80336167902539
 21
5.438433366963769
 31
0.0
  0
LINE
  5
70
330
1E
100
AcDbEntity
  8
0
100
AcDbLine
 10
20.37059999999999
 20
4.747829
 30
0.0
 11
20.7416
 21
4.806498999999999
 31
0.0
  0
LINE
  5
72
330
1E
100
AcDbEntity
  8
0
100
AcDbLine
 10
19.3364
 20
4.806498999999999
 30
0.0
 11
20.37059999999999
 21
4.747829
 31
0.0
  0
LINE
  5
74
330
1E
100
AcDbEntity
  8
0
100
AcDbLine
 10
18.2617
 20
4.943408999999999
 30
0.0
 11
19.3364
 21
4.806498999999999
 31
0.0
  0
LINE
  5
75
330
1E
100
AcDbEntity
  8
0
100
AcDbLine
 10
17.7891
 20
5.080308999999999
 30
0.0
 11
17.8440477023668
 21
5.64252398604367
 31
0.0
  0
LINE
  5
76
330
1E
100
AcDbEntity
  8
0
100
AcDbLine
 10
17.7891
 20
5.080308999999999
 30
0.0
 11
18.2617
 21
4.943408999999999
 31
0.0
  0
LINE
  5
78
330
1E
100
AcDbEntity
  8
0
100
AcDbLine
 10
22.6228
 20
3.965298999999999
 30
0.0
 11
23.7559
 21
3.864858999999999
 31
0.0
  0
LINE
  5
79
330
1E
100
AcDbEntity
  8
0
100
AcDbLine
 10
21.97389999999999
 20
3.965298999999999
 30
0.0
 11
22.8288
 21
3.864858999999999
 31
0.0
  0
LINE
  5
7A
330
1E
100
AcDbEntity
  8
0
100
AcDbLine
 10
21.8723
 20
4.008348999999999
 30
0.0
 11
21.97389999999999
 21
3.965298999999999
 31
0.0
  0
LINE
  5
7B
330
1E
100
AcDbEntity
  8
0
100
AcDbLine
 10
21.97389999999999
 20
3.965298999999999
 30
0.0
 11
22.8288
 21
3.864858999999999
 31
0.0
  0
LINE
  5
7C
330
1E
100
AcDbEntity
  8
0
100
AcDbLine
 10
24.71239999999999
 20
3.721358999999999
 30
0.0
 11
24.8204511938063
 21
4.903292617231249
 31
0.0
  0
LINE
  5
7E
330
1E
100
AcDbEntity
  8
0
100
AcDbLine
 10
24.6109
 20
3.764408999999999
 30
0.0
 11
24.71239999999999
 21
3.721358999999999
 31
0.0
  0
LINE
  5
7F
330
1E
100
AcDbEntity
  8
0
100
AcDbLine
 10
24.71239999999999
 20
3.721358999999999
 30
0.0
 11
24.8204511938063
 21
4.903292617231249
 31
0.0
  0
LINE
  5
80
330
1E
100
AcDbEntity
  8
0
100
AcDbLine
 10
24.5345
 20
4.943408999999999
 30
0.0
 11
25.5104
 21
4.806498999999999
 31
0.0
  0
LINE
  5
81
330
1E
100
AcDbEntity
  8
0
100
AcDbLine
 10
24.2866
 20
5.080308999999999
 30
0.0
 11
24.87379999999999
 21
5.138978999999999
 31
0.0
  0
LINE
  5
82
330
1E
100
AcDbEntity
  8
0
100
AcDbLine
 10
24.2866
 20
5.080308999999999
 30
0.0
 11
24.3966625816349
 21
6.50427177594121
 31
0.0
  0
LINE
  5
83
330
1E
100
AcDbEntity
  8
0
100
AcDbLine
 10
24.2866
 20
5.080308999999999
 30
0.0
 11
24.5345
 21
4.943408999999999
 31
0.0
  0
LINE
  5
84
330
1E
100
AcDbEntity
  8
0
100
AcDbLine
 10
24.87379999999999
 20
5.138978999999999
 30
0.0
 11
25.9856
 21
5.080308999999999
 31
0.0
  0
LINE
  5
86
330
1E
100
AcDbEntity
  8
0
100
AcDbLine
 10
17.19999999999999
 20
7.011078999999999
 30
0.0
 11
26.89999999999999
 21
7.011078999999999
 31
0.0
  0
LINE
  5
87
330
1E
100
AcDbEntity
  8
0
100
AcDbLine
 10
15.46154393409969
 20
5.80683459075175
 30
0.0
 11
21.9955210235446
 21
5.356215481134849
 31
0.0
  0
LINE
  5
88
330
1E
100
AcDbEntity
  8
0
100
AcDbLine
 10
15.46154393409969
 20
5.80683459075175
 30
0.0
 11
21.9955210235446
 21
5.356215481134849
 31
0.0
  0
LINE
  5
89
330
1E
100
AcDbEntity
  8
0
100
AcDbLine
 10
16.89999999999999
 20
7.011078999999999
 30
0.0
 11
26.6
 21
7.011078999999999
 31
0.0
  0
LINE
  5
8A
330
1E
100
AcDbEntity
  8
0
100
AcDbLine
 10
15.09999999999999
 20
7.011078999999999
 30
0.0
 11
25.4
 21
7.011078999999999
 31
0.0
  0
LINE
  5
8B
330
1E
100
AcDbEntity
  8
0
100
AcDbLine
 10
25.1
 20
7.511078999999999
 30
0.0
 11
37.2
 21
7.511078999999999
 31
0.0
  0
LINE
  5
8C
330
1E
100
AcDbEntity
  8
0
100
AcDbLine
 10
25.5104
 20
4.806498999999999
 30
0.0
 11
26.62209999999999
 21
4.747829
 31
0.0
  0
LINE
  5
8D
330
1E
100
AcDbEntity
  8
0
100
AcDbLine
 10
25.9856
 20
5.080308999999999
 30
0.0
 11
26.9615
 21
4.943408999999999
 31
0.0
  0
LINE
  5
8F
330
1E
100
AcDbEntity
  8
0
100
AcDbLine
 10
33.2127
 20
3.764408999999999
 30
0.0
 11
34.3254
 21
3.721358999999999
 31
0.0
  0
LINE
  5
90
330
1E
100
AcDbEntity
  8
0
100
AcDbLine
 10
32.2343
 20
3.864858999999999
 30
0.0
 11
33.2127
 21
3.764408999999999
 31
0.0
  0
LINE
  5
91
330
1E
100
AcDbEntity
  8
0
100
AcDbLine
 10
31.984
 20
3.965298999999999
 30
0.0
 11
32.5702
 21
4.008348999999999
 31
0.0
  0
LINE
  5
92
330
1E
100
AcDbEntity
  8
0
100
AcDbLine
 10
31.984
 20
3.965298999999999
 30
0.0
 11
32.0675181314151
 21
5.44369369328377
 31
0.0
  0
LINE
  5
93
330
1E
100
AcDbEntity
  8
0
100
AcDbLine
 10
31.984
 20
3.965298999999999
 30
0.0
 11
32.2343
 21
3.864858999999999
 31
0.0
  0
LINE
  5
94
330
1E
100
AcDbEntity
  8
0
100
AcDbLine
 10
32.5702
 20
4.008348999999999
 30
0.0
 11
33.6829
 21
3.965298999999999
 31
0.0
  0
LINE
  5
96
330
1E
100
AcDbEntity
  8
0
100
AcDbLine
 10
34.3998
 20
3.721358999999999
 30
0.0
 11
34.98599999999999
 21
3.764408999999999
 31
0.0
  0
LINE
  5
97
330
1E
100
AcDbEntity
  8
0
100
AcDbLine
 10
34.98599999999999
 20
3.764408999999999
 30
0.0
 11
35.0382633906317
 21
4.68954846437473
 31
0.0
  0
LINE
  5
98
330
1E
100
AcDbEntity
  8
0
100
AcDbLine
 10
35.0086
 20
3.089779
 30
0.0
 11
35.1116
 21
3.066378999999999
 31
0.0
  0
LINE
  5
99
330
1E
100
AcDbEntity
  8
0
100
AcDbLine
 10
35.0086
 20
3.089779
 30
0.0
 11
35.0877444651278
 21
4.687569221394888
 31
0.0
  0
LINE
  5
9A
330
1E
100
AcDbEntity
  8
0
100
AcDbLine
 10
37.10609999999999
 20
2.957218999999999
 30
0.0
 11
37.8579
 21
2.933818999999999
 31
0.0
  0
LINE
  5
9D
330
1E
100
AcDbEntity
  8
0
100
AcDbLine
 10
35.9698
 20
3.011799
 30
0.0
 11
37.10609999999999
 21
2.957218999999999
 31
0.0
  0
LINE
  5
9E
330
1E
100
AcDbEntity
  8
0
100
AcDbLine
 10
35.1116
 20
3.066378999999999
 30
0.0
 11
35.9698
 21
3.011799
 31
0.0
  0
LINE
  5
A0
330
1E
100
AcDbEntity
  8
0
100
AcDbLine
 10
34.9116
 20
3.764408999999999
 30
0.0
 11
34.9955126226831
 21
5.24978677333225
 31
0.0
  0
LINE
  5
A1
330
1E
100
AcDbEntity
  8
0
100
AcDbLine
 10
34.3254
 20
3.721358999999999
 30
0.0
 11
34.9116
 21
3.764408999999999
 31
0.0
  0
LINE
  5
A3
330
1E
100
AcDbEntity
  8
0
100
AcDbLine
 10
34.66129999999999
 20
3.864858999999999
 30
0.0
 11
34.9116
 21
3.764408999999999
 31
0.0
  0
LINE
  5
A4
330
1E
100
AcDbEntity
  8
0
100
AcDbLine
 10
33.6829
 20
3.965298999999999
 30
0.0
 11
34.66129999999999
 21
3.864858999999999
 31
0.0
  0
LINE
  5
A6
330
1E
100
AcDbEntity
  8
0
100
AcDbLine
 10
26.62209999999999
 20
4.747829
 30
0.0
 11
27.2094
 21
4.806498999999999
 31
0.0
  0
LINE
  5
A7
330
1E
100
AcDbEntity
  8
0
100
AcDbLine
 10
27.2094
 20
4.806498999999999
 30
0.0
 11
27.3246884490592
 21
6.298072771193009
 31
0.0
  0
LINE
  5
A9
330
1E
100
AcDbEntity
  8
0
100
AcDbLine
 10
26.9615
 20
4.943408999999999
 30
0.0
 11
27.2094
 21
4.806498999999999
 31
0.0
  0
LINE
  5
AA
330
1E
100
AcDbEntity
  8
0
100
AcDbLine
 10
26.89999999999999
 20
7.011078999999999
 30
0.0
 11
38.1
 21
7.011078999999999
 31
0.0
  0
LINE
  5
AB
330
1E
100
AcDbEntity
  8
0
100
AcDbLine
 10
27.2245184848032
 20
5.00209826060787
 30
0.0
 11
32.0317085287345
 21
4.809810658850619
 31
0.0
  0
LINE
  5
AC
330
1E
100
AcDbEntity
  8
0
100
AcDbLine
 10
34.96403113310179
 20
4.692517754675929
 30
0.0
 11
39.5
 21
4.511079
 31
0.0
  0
LINE
  5
AD
330
1E
100
AcDbEntity
  8
0
100
AcDbLine
 10
26.6
 20
7.011078999999999
 30
0.0
 11
37.9
 21
7.011078999999999
 31
0.0
  0
LINE
  5
AE
330
1E
100
AcDbEntity
  8
0
100
AcDbLine
 10
25.4
 20
7.011078999999999
 30
0.0
 11
37.29999999999999
 21
7.011078999999999
 31
0.0
  0
LINE
  5
AF
330
1E
100
AcDbEntity
  8
0
100
AcDbLine
 10
37.8579
 20
2.933818999999999
 30
0.0
 11
37.9391201735182
 21
4.57351419305927
 31
0.0
  0
LINE
  5
B0
330
1E
100
AcDbEntity
  8
0
100
AcDbLine
 10
41.33619999999999
 20
2.957218999999999
 30
0.0
 11
42.4498
 21
2.933818999999999
 31
0.0
  0
LINE
  5
B1
330
1E
100
AcDbEntity
  8
0
100
AcDbLine
 10
40.3558
 20
3.011799
 30
0.0
 11
41.33619999999999
 21
2.957218999999999
 31
0.0
  0
LINE
  5
B2
330
1E
100
AcDbEntity
  8
0
100
AcDbLine
 10
40.10349999999999
 20
3.066378999999999
 30
0.0
 11
40.6888
 21
3.089779
 31
0.0
  0
LINE
  5
B3
330
1E
100
AcDbEntity
  8
0
100
AcDbLine
 10
40.10349999999999
 20
3.066378999999999
 30
0.0
 11
40.15418295536839
 21
4.72225250202871
 31
0.0
  0
LINE
  5
B4
330
1E
100
AcDbEntity
  8
0
100
AcDbLine
 10
40.10349999999999
 20
3.066378999999999
 30
0.0
 11
40.3558
 21
3.011799
 31
0.0
  0
LINE
  5
B5
330
1E
100
AcDbEntity
  8
0
100
AcDbLine
 10
40.6888
 20
3.089779
 30
0.0
 11
41.8025
 21
3.066378999999999
 31
0.0
  0
LINE
  5
B7
330
1E
100
AcDbEntity
  8
0
100
AcDbLine
 10
43.0351
 20
2.957218999999999
 30
0.0
 11
43.08688931880999
 21
4.64923308719274
 31
0.0
  0
LINE
  5
B8
330
1E
100
AcDbEntity
  8
0
100
AcDbLine
 10
43.0351
 20
2.957218999999999
 30
0.0
 11
43.08688931880999
 21
4.64923308719274
 31
0.0
  0
LINE
  5
B9
330
1E
100
AcDbEntity
  8
0
100
AcDbLine
 10
42.4498
 20
2.933818999999999
 30
0.0
 11
43.0351
 21
2.957218999999999
 31
0.0
  0
LINE
  5
BB
330
1E
100
AcDbEntity
  8
0
100
AcDbLine
 10
42.7829
 20
3.011799
 30
0.0
 11
43.0351
 21
2.957218999999999
 31
0.0
  0
LINE
  5
BC
330
1E
100
AcDbEntity
  8
0
100
AcDbLine
 10
41.8025
 20
3.066378999999999
 30
0.0
 11
42.7829
 21
3.011799
 31
0.0
  0
LINE
  5
BE
330
1E
100
AcDbEntity
  8
0
100
AcDbLine
 10
40.0962
 20
4.943408999999999
 30
0.0
 11
40.31989999999999
 21
5.080308999999999
 31
0.0
  0
LINE
  5
BF
330
1E
100
AcDbEntity
  8
0
100
AcDbLine
 10
40.0962
 20
4.943408999999999
 30
0.0
 11
40.12860821832379
 21
6.129075426815739
 31
0.0
  0
LINE
  5
C0
330
1E
100
AcDbEntity
  8
0
100
AcDbLine
 10
40.0962
 20
4.943408999999999
 30
0.0
 11
40.7528
 21
4.806498999999999
 31
0.0
  0
LINE
  5
C1
330
1E
100
AcDbEntity
  8
0
100
AcDbLine
 10
42.80689999999999
 20
4.806498999999999
 30
0.0
 11
43.0306
 21
4.943408999999999
 31
0.0
  0
LINE
  5
C2
330
1E
100
AcDbEntity
  8
0
100
AcDbLine
 10
41.8726
 20
4.747829
 30
0.0
 11
42.80689999999999
 21
4.806498999999999
 31
0.0
  0
LINE
  5
C3
330
1E
100
AcDbEntity
  8
0
100
AcDbLine
 10
40.7528
 20
4.806498999999999
 30
0.0
 11
41.8726
 21
4.747829
 31
0.0
  0
LINE
  5
C4
330
1E
100
AcDbEntity
  8
0
100
AcDbLine
 10
40.31989999999999
 20
5.080308999999999
 30
0.0
 11
41.2542
 21
5.138978999999999
 31
0.0
  0
LINE
  5
C6
330
1E
100
AcDbEntity
  8
0
100
AcDbLine
 10
41.2542
 20
5.138978999999999
 30
0.0
 11
42.374
 21
5.080308999999999
 31
0.0
  0
LINE
  5
C8
330
1E
100
AcDbEntity
  8
0
100
AcDbLine
 10
42.374
 20
5.080308999999999
 30
0.0
 11
43.0306
 21
4.943408999999999
 31
0.0
  0
LINE
  5
CB
330
1E
100
AcDbEntity
  8
0
100
AcDbLine
 10
43.0306
 20
4.943408999999999
 30
0.0
 11
43.0756875668769
 21
6.592953994380089
 31
0.0
  0
LINE
  5
CC
330
1E
100
AcDbEntity
  8
0
100
AcDbLine
 10
39.5
 20
4.511079
 30
0.0
 11
40.1467766674629
 21
4.48028011107319
 31
0.0
  0
LINE
  5
CD
330
1E
100
AcDbEntity
  8
0
100
AcDbLine
 10
47.52
 20
3.511079
 30
0.0
 11
48.71999999999999
 21
3.511079
 31
0.0
  0
LINE
  5
CE
330
1E
100
AcDbEntity
  8
0
100
AcDbLine
 10
46.45999999999999
 20
3.511079
 30
0.0
 11
47.52
 21
3.511079
 31
0.0
  0
LINE
  5
CF
330
1E
100
AcDbEntity
  8
0
100
AcDbLine
 10
45.65999999999999
 20
3.511079
 30
0.0
 11
46.45999999999999
 21
3.511079
 31
0.0
  0
LINE
  5
D0
330
1E
100
AcDbEntity
  8
0
100
AcDbLine
 10
45.17999999999999
 20
3.511079
 30
0.0
 11
45.65999999999999
 21
3.511079
 31
0.0
  0
LINE
  5
D1
330
1E
100
AcDbEntity
  8
0
100
AcDbLine
 10
45.0
 20
3.511079
 30
0.0
 11
45.17999999999999
 21
3.511079
 31
0.0
  0
LINE
  5
D2
330
1E
100
AcDbEntity
  8
0
100
AcDbLine
 10
45.0
 20
3.511079
 30
0.0
 11
45.0
 21
4.24917423809524
 31
0.0
  0
LINE
  5
D3
330
1E
100
AcDbEntity
  8
0
100
AcDbLine
 10
45.0
 20
3.511079
 30
0.0
 11
45.17999999999999
 21
3.511079
 31
0.0
  0
LINE
  5
D4
330
1E
100
AcDbEntity
  8
0
100
AcDbLine
 10
48.0
 20
3.027179
 30
0.0
 11
48.0
 21
3.511079
 31
0.0
  0
LINE
  5
D5
330
1E
100
AcDbEntity
  8
0
100
AcDbLine
 10
47.52
 20
3.511079
 30
0.0
 11
48.71999999999999
 21
3.511079
 31
0.0
  0
LINE
  5
D6
330
1E
100
AcDbEntity
  8
0
100
AcDbLine
 10
46.45999999999999
 20
3.511079
 30
0.0
 11
47.52
 21
3.511079
 31
0.0
  0
LINE
  5
D7
330
1E
100
AcDbEntity
  8
0
100
AcDbLine
 10
45.65999999999999
 20
3.511079
 30
0.0
 11
46.45999999999999
 21
3.511079
 31
0.0
  0
LINE
  5
D8
330
1E
100
AcDbEntity
  8
0
100
AcDbLine
 10
45.17999999999999
 20
3.511079
 30
0.0
 11
45.65999999999999
 21
3.511079
 31
0.0
  0
LINE
  5
D9
330
1E
100
AcDbEntity
  8
0
100
AcDbLine
 10
45.0
 20
4.24917423809524
 30
0.0
 11
45.0
 21
3.511079
 31
0.0
  0
LINE
  5
DA
330
1E
100
AcDbEntity
  8
0
100
AcDbLine
 10
48.0
 20
3.511079
 30
0.0
 11
48.0
 21
3.027179
 31
0.0
  0
LINE
  5
DB
330
1E
100
AcDbEntity
  8
0
100
AcDbLine
 10
48.0
 20
3.511079
 30
0.0
 11
48.0
 21
1.981308999999999
 31
0.0
  0
LINE
  5
DC
330
1E
100
AcDbEntity
  8
0
100
AcDbLine
 10
50.0
 20
-0.0110790000000035
 30
0.0
 11
50.512
 21
0.0606469999999966
 31
0.0
  0
LINE
  5
DD
330
1E
100
AcDbEntity
  8
0
100
AcDbLine
 10
50.512
 20
0.0606469999999966
 30
0.0
 11
50.99199999999999
 21
0.251915999999997
 31
0.0
  0
LINE
  5
DE
330
1E
100
AcDbEntity
  8
0
100
AcDbLine
 10
50.0
 20
-0.0110790000000035
 30
0.0
 11
50.512
 21
0.0606469999999966
 31
0.0
  0
LINE
  5
DF
330
1E
100
AcDbEntity
  8
0
100
AcDbLine
 10
50.512
 20
0.0606469999999965
 30
0.0
 11
50.99199999999999
 21
0.251915999999997
 31
0.0
  0
LINE
  5
E0
330
1E
100
AcDbEntity
  8
0
100
AcDbLine
 10
50.99199999999999
 20
0.251915999999997
 30
0.0
 11
51.416
 21
0.5706989999999971
 31
0.0
  0
LINE
  5
E1
330
1E
100
AcDbEntity
  8
0
100
AcDbLine
 10
51.416
 20
0.5706989999999971
 30
0.0
 11
51.736
 21
0.993084999999996
 31
0.0
  0
LINE
  5
E2
330
1E
100
AcDbEntity
  8
0
100
AcDbLine
 10
49.488
 20
0.0606469999999966
 30
0.0
 11
50.0
 21
-0.0110790000000035
 31
0.0
  0
LINE
  5
E3
330
1E
100
AcDbEntity
  8
0
100
AcDbLine
 10
49.488
 20
0.0606469999999966
 30
0.0
 11
50.0
 21
-0.0110790000000035
 31
0.0
  0
LINE
  5
E4
330
1E
100
AcDbEntity
  8
0
100
AcDbLine
 10
49.008
 20
0.251915999999997
 30
0.0
 11
49.488
 21
0.0606469999999966
 31
0.0
  0
LINE
  5
E5
330
1E
100
AcDbEntity
  8
0
100
AcDbLine
 10
49.008
 20
0.251915999999997
 30
0.0
 11
49.488
 21
0.0606469999999965
 31
0.0
  0
LINE
  5
E6
330
1E
100
AcDbEntity
  8
0
100
AcDbLine
 10
51.736
 20
0.993084999999996
 30
0.0
 11
51.928
 21
1.471259
 31
0.0
  0
LINE
  5
E7
330
1E
100
AcDbEntity
  8
0
100
AcDbLine
 10
51.928
 20
1.471259
 30
0.0
 11
52.0
 21
1.981308999999999
 31
0.0
  0
LINE
  5
E8
330
1E
100
AcDbEntity
  8
0
100
AcDbLine
 10
48.58399999999999
 20
0.5706989999999971
 30
0.0
 11
49.008
 21
0.251915999999997
 31
0.0
  0
LINE
  5
E9
330
1E
100
AcDbEntity
  8
0
100
AcDbLine
 10
48.26399999999999
 20
0.993084999999996
 30
0.0
 11
48.58399999999999
 21
0.5706989999999971
 31
0.0
  0
LINE
  5
EA
330
1E
100
AcDbEntity
  8
0
100
AcDbLine
 10
48.54600000000001
 20
3.511079
 30
0.0
 11
48.54600000000001
 21
3.011799
 31
0.0
  0
LINE
  5
EB
330
1E
100
AcDbEntity
  8
0
100
AcDbLine
 10
48.54600000000001
 20
3.011799
 30
0.0
 11
48.54600000000001
 21
3.511079
 31
0.0
  0
LINE
  5
EC
330
1E
100
AcDbEntity
  8
0
100
AcDbLine
 10
48.54600000000001
 20
3.011799
 30
0.0
 11
48.996
 21
2.957218999999999
 31
0.0
  0
LINE
  5
EE
330
1E
100
AcDbEntity
  8
0
100
AcDbLine
 10
48.996
 20
2.957218999999999
 30
0.0
 11
50.046
 21
2.933818999999999
 31
0.0
  0
LINE
  5
F1
330
1E
100
AcDbEntity
  8
0
100
AcDbLine
 10
50.046
 20
2.933818999999999
 30
0.0
 11
51.096
 21
2.957218999999999
 31
0.0
  0
LINE
  5
F4
330
1E
100
AcDbEntity
  8
0
100
AcDbLine
 10
51.54600000000001
 20
3.011799
 30
0.0
 11
51.54600000000001
 21
3.511079
 31
0.0
  0
LINE
  5
F5
330
1E
100
AcDbEntity
  8
0
100
AcDbLine
 10
51.096
 20
2.957218999999999
 30
0.0
 11
51.54600000000001
 21
3.011799
 31
0.0
  0
LINE
  5
F7
330
1E
100
AcDbEntity
  8
0
100
AcDbLine
 10
51.54600000000001
 20
3.511079
 30
0.0
 11
51.54600000000001
 21
3.011799
 31
0.0
  0
LINE
  5
F8
330
1E
100
AcDbEntity
  8
0
100
AcDbLine
 10
50.0
 20
3.511079
 30
0.0
 11
51.28
 21
3.511079
 31
0.0
  0
LINE
  5
F9
330
1E
100
AcDbEntity
  8
0
100
AcDbLine
 10
51.28
 20
3.511079
 30
0.0
 11
52.48
 21
3.511079
 31
0.0
  0
LINE
  5
FA
330
1E
100
AcDbEntity
  8
0
100
AcDbLine
 10
48.71999999999999
 20
3.511079
 30
0.0
 11
50.0
 21
3.511079
 31
0.0
  0
LINE
  5
FB
330
1E
100
AcDbEntity
  8
0
100
AcDbLine
 10
48.71999999999999
 20
3.511079
 30
0.0
 11
50.0
 21
3.511079
 31
0.0
  0
LINE
  5
FC
330
1E
100
AcDbEntity
  8
0
100
AcDbLine
 10
48.996
 20
3.764408999999999
 30
0.0
 11
50.046
 21
3.721358999999999
 31
0.0
  0
LINE
  5
FD
330
1E
100
AcDbEntity
  8
0
100
AcDbLine
 10
50.046
 20
3.721358999999999
 30
0.0
 11
51.096
 21
3.764408999999999
 31
0.0
  0
LINE
  5
FE
330
1E
100
AcDbEntity
  8
0
100
AcDbLine
 10
51.096
 20
3.764408999999999
 30
0.0
 11
51.54600000000001
 21
3.864858999999999
 31
0.0
  0
LINE
  5
FF
330
1E
100
AcDbEntity
  8
0
100
AcDbLine
 10
51.096
 20
3.965298999999999
 30
0.0
 11
51.54600000000001
 21
3.864858999999999
 31
0.0
  0
LINE
  5
102
330
1E
100
AcDbEntity
  8
0
100
AcDbLine
 10
50.046
 20
4.008348999999999
 30
0.0
 11
51.096
 21
3.965298999999999
 31
0.0
  0
LINE
  5
104
330
1E
100
AcDbEntity
  8
0
100
AcDbLine
 10
48.996
 20
3.965298999999999
 30
0.0
 11
50.046
 21
4.008348999999999
 31
0.0
  0
LINE
  5
105
330
1E
100
AcDbEntity
  8
0
100
AcDbLine
 10
48.54600000000001
 20
3.864858999999999
 30
0.0
 11
48.54600000000001
 21
5.16253733333333
 31
0.0
  0
LINE
  5
106
330
1E
100
AcDbEntity
  8
0
100
AcDbLine
 10
48.54600000000001
 20
3.864858999999999
 30
0.0
 11
48.996
 21
3.965298999999999
 31
0.0
  0
LINE
  5
107
330
1E
100
AcDbEntity
  8
0
100
AcDbLine
 10
48.54600000000001
 20
3.864858999999999
 30
0.0
 11
48.996
 21
3.764408999999999
 31
0.0
  0
LINE
  5
108
330
1E
100
AcDbEntity
  8
0
100
AcDbLine
 10
50.0
 20
3.511079
 30
0.0
 11
51.28
 21
3.511079
 31
0.0
  0
LINE
  5
109
330
1E
100
AcDbEntity
  8
0
100
AcDbLine
 10
51.54600000000001
 20
3.864858999999999
 30
0.0
 11
51.54600000000001
 21
5.172120666666669
 31
0.0
  0
LINE
  5
10A
330
1E
100
AcDbEntity
  8
0
100
AcDbLine
 10
51.28
 20
3.511079
 30
0.0
 11
52.48
 21
3.511079
 31
0.0
  0
LINE
  5
10B
330
1E
100
AcDbEntity
  8
0
100
AcDbLine
 10
52.0
 20
3.511079
 30
0.0
 11
52.0
 21
1.981308999999999
 31
0.0
  0
LINE
  5
10C
330
1E
100
AcDbEntity
  8
0
100
AcDbLine
 10
52.48
 20
3.511079
 30
0.0
 11
53.54
 21
3.511079
 31
0.0
  0
LINE
  5
10D
330
1E
100
AcDbEntity
  8
0
100
AcDbLine
 10
53.54
 20
3.511079
 30
0.0
 11
54.34000000000001
 21
3.511079
 31
0.0
  0
LINE
  5
10E
330
1E
100
AcDbEntity
  8
0
100
AcDbLine
 10
54.34000000000001
 20
3.511079
 30
0.0
 11
54.82
 21
3.511079
 31
0.0
  0
LINE
  5
10F
330
1E
100
AcDbEntity
  8
0
100
AcDbLine
 10
58.5894
 20
2.957218999999999
 30
0.0
 11
59.5698
 21
3.011799
 31
0.0
  0
LINE
  5
110
330
1E
100
AcDbEntity
  8
0
100
AcDbLine
 10
57.4758
 20
2.933818999999999
 30
0.0
 11
58.5894
 21
2.957218999999999
 31
0.0
  0
LINE
  5
111
330
1E
100
AcDbEntity
  8
0
100
AcDbLine
 10
56.8905
 20
2.957218999999999
 30
0.0
 11
57.14269999999999
 21
3.011799
 31
0.0
  0
LINE
  5
112
330
1E
100
AcDbEntity
  8
0
100
AcDbLine
 10
56.8905
 20
2.957218999999999
 30
0.0
 11
57.4758
 21
2.933818999999999
 31
0.0
  0
LINE
  5
113
330
1E
100
AcDbEntity
  8
0
100
AcDbLine
 10
57.14269999999999
 20
3.011799
 30
0.0
 11
58.1231
 21
3.066378999999999
 31
0.0
  0
LINE
  5
114
330
1E
100
AcDbEntity
  8
0
100
AcDbLine
 10
58.1231
 20
3.066378999999999
 30
0.0
 11
59.2368
 21
3.089779
 31
0.0
  0
LINE
  5
115
330
1E
100
AcDbEntity
  8
0
100
AcDbLine
 10
59.2368
 20
3.089779
 30
0.0
 11
59.8221
 21
3.066378999999999
 31
0.0
  0
LINE
  5
116
330
1E
100
AcDbEntity
  8
0
100
AcDbLine
 10
59.5698
 20
3.011799
 30
0.0
 11
59.8221
 21
3.066378999999999
 31
0.0
  0
LINE
  5
117
330
1E
100
AcDbEntity
  8
0
100
AcDbLine
 10
54.82
 20
3.511079
 30
0.0
 11
55.0
 21
3.511079
 31
0.0
  0
LINE
  5
118
330
1E
100
AcDbEntity
  8
0
100
AcDbLine
 10
52.48
 20
3.511079
 30
0.0
 11
53.54
 21
3.511079
 31
0.0
  0
LINE
  5
119
330
1E
100
AcDbEntity
  8
0
100
AcDbLine
 10
53.54
 20
3.511079
 30
0.0
 11
54.34000000000001
 21
3.511079
 31
0.0
  0
LINE
  5
11A
330
1E
100
AcDbEntity
  8
0
100
AcDbLine
 10
54.34000000000001
 20
3.511079
 30
0.0
 11
54.82
 21
3.511079
 31
0.0
  0
LINE
  5
11B
330
1E
100
AcDbEntity
  8
0
100
AcDbLine
 10
54.82
 20
3.511079
 30
0.0
 11
55.0
 21
3.511079
 31
0.0
  0
LINE
  5
11C
330
1E
100
AcDbEntity
  8
0
100
AcDbLine
 10
55.0
 20
3.511079
 30
0.0
 11
55.0
 21
4.24917423809524
 31
0.0
  0
LINE
  5
11D
330
1E
100
AcDbEntity
  8
0
100
AcDbLine
 10
52.0
 20
1.981308999999999
 30
0.0
 11
52.0
 21
3.511079
 31
0.0
  0
LINE
  5
11E
330
1E
100
AcDbEntity
  8
0
100
AcDbLine
 10
48.07199999999999
 20
1.471259
 30
0.0
 11
48.26399999999999
 21
0.993084999999996
 31
0.0
  0
LINE
  5
11F
330
1E
100
AcDbEntity
  8
0
100
AcDbLine
 10
48.0
 20
1.981308999999999
 30
0.0
 11
48.07199999999999
 21
1.471259
 31
0.0
  0
LINE
  5
120
330
1E
100
AcDbEntity
  8
0
100
AcDbLine
 10
48.0
 20
1.981308999999999
 30
0.0
 11
48.0
 21
3.511079
 31
0.0
  0
LINE
  5
121
330
1E
100
AcDbEntity
  8
0
100
AcDbLine
 10
56.8388938775269
 20
4.64324786109088
 30
0.0
 11
56.8905
 21
2.957218999999999
 31
0.0
  0
LINE
  5
122
330
1E
100
AcDbEntity
  8
0
100
AcDbLine
 10
56.8388938775269
 20
4.64324786109088
 30
0.0
 11
56.8905
 21
2.957218999999999
 31
0.0
  0
LINE
  5
125
330
1E
100
AcDbEntity
  8
0
100
AcDbLine
 10
57.1931
 20
4.806498999999999
 30
0.0
 11
58.1274
 21
4.747829
 31
0.0
  0
LINE
  5
126
330
1E
100
AcDbEntity
  8
0
100
AcDbLine
 10
56.9694
 20
4.943408999999999
 30
0.0
 11
57.626
 21
5.080308999999999
 31
0.0
  0
LINE
  5
127
330
1E
100
AcDbEntity
  8
0
100
AcDbLine
 10
56.9694
 20
4.943408999999999
 30
0.0
 11
57.1931
 21
4.806498999999999
 31
0.0
  0
LINE
  5
128
330
1E
100
AcDbEntity
  8
0
100
AcDbLine
 10
58.1274
 20
4.747829
 30
0.0
 11
59.2472
 21
4.806498999999999
 31
0.0
  0
LINE
  5
129
330
1E
100
AcDbEntity
  8
0
100
AcDbLine
 10
59.2472
 20
4.806498999999999
 30
0.0
 11
59.9038
 21
4.943408999999999
 31
0.0
  0
LINE
  5
12B
330
1E
100
AcDbEntity
  8
0
100
AcDbLine
 10
59.77152041146871
 20
4.71887538233948
 30
0.0
 11
59.8221
 21
3.066378999999999
 31
0.0
  0
LINE
  5
12C
330
1E
100
AcDbEntity
  8
0
100
AcDbLine
 10
59.7789316144407
 20
4.47674241021146
 30
0.0
 11
60.5
 21
4.511079
 31
0.0
  0
LINE
  5
12D
330
1E
100
AcDbEntity
  8
0
100
AcDbLine
 10
55.0
 20
4.24917423809524
 30
0.0
 11
56.8482618247912
 21
4.337186705942439
 31
0.0
  0
LINE
  5
12E
330
1E
100
AcDbEntity
  8
0
100
AcDbLine
 10
55.0
 20
4.24917423809524
 30
0.0
 11
55.0
 21
3.511079
 31
0.0
  0
LINE
  5
12F
330
1E
100
AcDbEntity
  8
0
100
AcDbLine
 10
62.1705
 20
2.933818999999999
 30
0.0
 11
62.92229999999999
 21
2.957218999999999
 31
0.0
  0
LINE
  5
130
330
1E
100
AcDbEntity
  8
0
100
AcDbLine
 10
62.92229999999999
 20
2.957218999999999
 30
0.0
 11
64.0587
 21
3.011799
 31
0.0
  0
LINE
  5
131
330
1E
100
AcDbEntity
  8
0
100
AcDbLine
 10
64.0587
 20
3.011799
 30
0.0
 11
64.9169
 21
3.066378999999999
 31
0.0
  0
LINE
  5
132
330
1E
100
AcDbEntity
  8
0
100
AcDbLine
 10
64.9169
 20
3.066378999999999
 30
0.0
 11
65.0198
 21
3.089779
 31
0.0
  0
LINE
  5
133
330
1E
100
AcDbEntity
  8
0
100
AcDbLine
 10
65.014
 20
3.764408999999999
 30
0.0
 11
65.26430000000001
 21
3.864858999999999
 31
0.0
  0
LINE
  5
134
330
1E
100
AcDbEntity
  8
0
100
AcDbLine
 10
65.014
 20
3.764408999999999
 30
0.0
 11
65.6002
 21
3.721358999999999
 31
0.0
  0
LINE
  5
135
330
1E
100
AcDbEntity
  8
0
100
AcDbLine
 10
65.6746
 20
3.721358999999999
 30
0.0
 11
66.7873
 21
3.764408999999999
 31
0.0
  0
LINE
  5
136
330
1E
100
AcDbEntity
  8
0
100
AcDbLine
 10
66.7873
 20
3.764408999999999
 30
0.0
 11
67.76569999999999
 21
3.864858999999999
 31
0.0
  0
LINE
  5
137
330
1E
100
AcDbEntity
  8
0
100
AcDbLine
 10
67.76569999999999
 20
3.864858999999999
 30
0.0
 11
68.016
 21
3.965298999999999
 31
0.0
  0
LINE
  5
138
330
1E
100
AcDbEntity
  8
0
100
AcDbLine
 10
66.7129
 20
3.764408999999999
 30
0.0
 11
67.6913
 21
3.864858999999999
 31
0.0
  0
LINE
  5
139
330
1E
100
AcDbEntity
  8
0
100
AcDbLine
 10
65.6002
 20
3.721358999999999
 30
0.0
 11
66.7129
 21
3.764408999999999
 31
0.0
  0
LINE
  5
13A
330
1E
100
AcDbEntity
  8
0
100
AcDbLine
 10
65.26430000000001
 20
3.864858999999999
 30
0.0
 11
66.2427
 21
3.965298999999999
 31
0.0
  0
LINE
  5
13B
330
1E
100
AcDbEntity
  8
0
100
AcDbLine
 10
62.0892783276569
 20
4.574650133106269
 30
0.0
 11
62.1705
 21
2.933818999999999
 31
0.0
  0
LINE
  5
13F
330
1E
100
AcDbEntity
  8
0
100
AcDbLine
 10
64.9406526400859
 20
4.68870510560344
 30
0.0
 11
65.0198
 21
3.089779
 31
0.0
  0
LINE
  5
140
330
1E
100
AcDbEntity
  8
0
100
AcDbLine
 10
66.2427
 20
3.965298999999999
 30
0.0
 11
67.3554
 21
4.008348999999999
 31
0.0
  0
LINE
  5
141
330
1E
100
AcDbEntity
  8
0
100
AcDbLine
 10
67.3554
 20
4.008348999999999
 30
0.0
 11
67.94159999999999
 21
3.965298999999999
 31
0.0
  0
LINE
  5
142
330
1E
100
AcDbEntity
  8
0
100
AcDbLine
 10
67.6913
 20
3.864858999999999
 30
0.0
 11
67.94159999999999
 21
3.965298999999999
 31
0.0
  0
LINE
  5
143
330
1E
100
AcDbEntity
  8
0
100
AcDbLine
 10
75.316
 20
3.721358999999999
 30
0.0
 11
76.06650000000001
 21
3.764408999999999
 31
0.0
  0
LINE
  5
144
330
1E
100
AcDbEntity
  8
0
100
AcDbLine
 10
75.2876
 20
3.721358999999999
 30
0.0
 11
75.3891
 21
3.764408999999999
 31
0.0
  0
LINE
  5
145
330
1E
100
AcDbEntity
  8
0
100
AcDbLine
 10
75.2876
 20
3.721358999999999
 30
0.0
 11
76.0381
 21
3.764408999999999
 31
0.0
  0
LINE
  5
146
330
1E
100
AcDbEntity
  8
0
100
AcDbLine
 10
76.06650000000001
 20
3.764408999999999
 30
0.0
 11
77.1996
 21
3.864858999999999
 31
0.0
  0
LINE
  5
147
330
1E
100
AcDbEntity
  8
0
100
AcDbLine
 10
76.0381
 20
3.764408999999999
 30
0.0
 11
77.1712
 21
3.864858999999999
 31
0.0
  0
LINE
  5
148
330
1E
100
AcDbEntity
  8
0
100
AcDbLine
 10
75.3891
 20
3.764408999999999
 30
0.0
 11
76.24410000000001
 21
3.864858999999999
 31
0.0
  0
LINE
  5
149
330
1E
100
AcDbEntity
  8
0
100
AcDbLine
 10
76.24410000000001
 20
3.864858999999999
 30
0.0
 11
77.3772
 21
3.965298999999999
 31
0.0
  0
LINE
  5
14A
330
1E
100
AcDbEntity
  8
0
100
AcDbLine
 10
77.1996
 20
3.864858999999999
 30
0.0
 11
78.0545
 21
3.965298999999999
 31
0.0
  0
LINE
  5
14B
330
1E
100
AcDbEntity
  8
0
100
AcDbLine
 10
78.0545
 20
3.965298999999999
 30
0.0
 11
78.15609999999999
 21
4.008348999999999
 31
0.0
  0
LINE
  5
14C
330
1E
100
AcDbEntity
  8
0
100
AcDbLine
 10
77.3772
 20
3.965298999999999
 30
0.0
 11
78.1277
 21
4.008348999999999
 31
0.0
  0
LINE
  5
14D
330
1E
100
AcDbEntity
  8
0
100
AcDbLine
 10
79.6294
 20
4.747829
 30
0.0
 11
80.66360000000001
 21
4.806498999999999
 31
0.0
  0
LINE
  5
14E
330
1E
100
AcDbEntity
  8
0
100
AcDbLine
 10
84.791
 20
4.747829
 30
0.0
 11
85.7024
 21
4.806498999999999
 31
0.0
  0
LINE
  5
14F
330
1E
100
AcDbEntity
  8
0
100
AcDbLine
 10
78.0261
 20
3.965298999999999
 30
0.0
 11
78.1277
 21
4.008348999999999
 31
0.0
  0
LINE
  5
150
330
1E
100
AcDbEntity
  8
0
100
AcDbLine
 10
77.1712
 20
3.864858999999999
 30
0.0
 11
78.0261
 21
3.965298999999999
 31
0.0
  0
LINE
  5
151
330
1E
100
AcDbEntity
  8
0
100
AcDbLine
 10
79.25839999999999
 20
4.806498999999999
 30
0.0
 11
79.6294
 21
4.747829
 31
0.0
  0
LINE
  5
152
330
1E
100
AcDbEntity
  8
0
100
AcDbLine
 10
80.66360000000001
 20
4.806498999999999
 30
0.0
 11
81.7383
 21
4.943408999999999
 31
0.0
  0
LINE
  5
153
330
1E
100
AcDbEntity
  8
0
100
AcDbLine
 10
85.7024
 20
4.806498999999999
 30
0.0
 11
86.8289
 21
4.943408999999999
 31
0.0
  0
LINE
  5
154
330
1E
100
AcDbEntity
  8
0
100
AcDbLine
 10
84.65239999999999
 20
4.806498999999999
 30
0.0
 11
85.3289
 21
4.943408999999999
 31
0.0
  0
LINE
  5
155
330
1E
100
AcDbEntity
  8
0
100
AcDbLine
 10
84.65239999999999
 20
4.806498999999999
 30
0.0
 11
84.791
 21
4.747829
 31
0.0
  0
LINE
  5
156
330
1E
100
AcDbEntity
  8
0
100
AcDbLine
 10
74.8212
 20
4.806498999999999
 30
0.0
 11
75.7971
 21
4.943408999999999
 31
0.0
  0
LINE
  5
157
330
1E
100
AcDbEntity
  8
0
100
AcDbLine
 10
73.7095
 20
4.747829
 30
0.0
 11
74.8212
 21
4.806498999999999
 31
0.0
  0
LINE
  5
158
330
1E
100
AcDbEntity
  8
0
100
AcDbLine
 10
73.1222
 20
4.806498999999999
 30
0.0
 11
73.37009999999999
 21
4.943408999999999
 31
0.0
  0
LINE
  5
159
330
1E
100
AcDbEntity
  8
0
100
AcDbLine
 10
73.1222
 20
4.806498999999999
 30
0.0
 11
73.7095
 21
4.747829
 31
0.0
  0
LINE
  5
15A
330
1E
100
AcDbEntity
  8
0
100
AcDbLine
 10
67.9682914712655
 20
4.809810658850619
 30
0.0
 11
68.016
 21
3.965298999999999
 31
0.0
  0
LINE
  5
15B
330
1E
100
AcDbEntity
  8
0
100
AcDbLine
 10
75.1837478106199
 20
4.857361199766339
 30
0.0
 11
75.2876
 21
3.721358999999999
 31
0.0
  0
LINE
  5
15D
330
1E
100
AcDbEntity
  8
0
100
AcDbLine
 10
73.37009999999999
 20
4.943408999999999
 30
0.0
 11
74.346
 21
5.080308999999999
 31
0.0
  0
LINE
  5
15E
330
1E
100
AcDbEntity
  8
0
100
AcDbLine
 10
81.7383
 20
4.943408999999999
 30
0.0
 11
82.2109
 21
5.080308999999999
 31
0.0
  0
LINE
  5
15F
330
1E
100
AcDbEntity
  8
0
100
AcDbLine
 10
85.3289
 20
4.943408999999999
 30
0.0
 11
86.4555
 21
5.080308999999999
 31
0.0
  0
LINE
  5
160
330
1E
100
AcDbEntity
  8
0
100
AcDbLine
 10
86.8289
 20
4.943408999999999
 30
0.0
 11
87.5055
 21
5.080308999999999
 31
0.0
  0
LINE
  5
161
330
1E
100
AcDbEntity
  8
0
100
AcDbLine
 10
75.7971
 20
4.943408999999999
 30
0.0
 11
76.045
 21
5.080308999999999
 31
0.0
  0
LINE
  5
162
330
1E
100
AcDbEntity
  8
0
100
AcDbLine
 10
67.8940592137356
 20
4.806841368549419
 30
0.0
 11
73.0
 21
5.011079
 31
0.0
  0
LINE
  5
163
330
1E
100
AcDbEntity
  8
0
100
AcDbLine
 10
60.5
 20
4.511079
 30
0.0
 11
64.9617366093683
 21
4.68954846437473
 31
0.0
  0
LINE
  5
164
330
1E
100
AcDbEntity
  8
0
100
AcDbLine
 10
48.54600000000001
 20
5.16253733333333
 30
0.0
 11
48.54600000000001
 21
3.864858999999999
 31
0.0
  0
LINE
  5
165
330
1E
100
AcDbEntity
  8
0
100
AcDbLine
 10
59.6801
 20
5.080308999999999
 30
0.0
 11
59.9038
 21
4.943408999999999
 31
0.0
  0
LINE
  5
166
330
1E
100
AcDbEntity
  8
0
100
AcDbLine
 10
58.7458
 20
5.138978999999999
 30
0.0
 11
59.6801
 21
5.080308999999999
 31
0.0
  0
LINE
  5
167
330
1E
100
AcDbEntity
  8
0
100
AcDbLine
 10
57.626
 20
5.080308999999999
 30
0.0
 11
58.7458
 21
5.138978999999999
 31
0.0
  0
LINE
  5
168
330
1E
100
AcDbEntity
  8
0
100
AcDbLine
 10
51.54600000000001
 20
5.172120666666669
 30
0.0
 11
51.54600000000001
 21
3.864858999999999
 31
0.0
  0
LINE
  5
16C
330
1E
100
AcDbEntity
  8
0
100
AcDbLine
 10
64.930364686724
 20
5.244877985875759
 30
0.0
 11
65.014
 21
3.764408999999999
 31
0.0
  0
LINE
  5
16E
330
1E
100
AcDbEntity
  8
0
100
AcDbLine
 10
64.930364686724
 20
5.244877985875759
 30
0.0
 11
65.014
 21
3.764408999999999
 31
0.0
  0
LINE
  5
172
330
1E
100
AcDbEntity
  8
0
100
AcDbLine
 10
59.87139178167621
 20
6.129075426815739
 30
0.0
 11
59.9038
 21
4.943408999999999
 31
0.0
  0
LINE
  5
174
330
1E
100
AcDbEntity
  8
0
100
AcDbLine
 10
73.005116363903
 20
6.321298462246691
 30
0.0
 11
73.1222
 21
4.806498999999999
 31
0.0
  0
LINE
  5
176
330
1E
100
AcDbEntity
  8
0
100
AcDbLine
 10
74.346
 20
5.080308999999999
 30
0.0
 11
75.4578
 21
5.138978999999999
 31
0.0
  0
LINE
  5
17B
330
1E
100
AcDbEntity
  8
0
100
AcDbLine
 10
77.9903757715628
 20
5.510484911824869
 30
0.0
 11
78.1277
 21
4.008348999999999
 31
0.0
  0
LINE
  5
17C
330
1E
100
AcDbEntity
  8
0
100
AcDbLine
 10
75.4578
 20
5.138978999999999
 30
0.0
 11
76.045
 21
5.080308999999999
 31
0.0
  0
LINE
  5
180
330
1E
100
AcDbEntity
  8
0
100
AcDbLine
 10
56.92431243312309
 20
6.592953994380089
 30
0.0
 11
56.9694
 21
4.943408999999999
 31
0.0
  0
LINE
  5
181
330
1E
100
AcDbEntity
  8
0
100
AcDbLine
 10
75.93314223132741
 20
6.52749746699489
 30
0.0
 11
76.045
 21
5.080308999999999
 31
0.0
  0
LINE
  5
182
330
1E
100
AcDbEntity
  8
0
100
AcDbLine
 10
86.4555
 20
5.080308999999999
 30
0.0
 11
87.36690000000001
 21
5.138978999999999
 31
0.0
  0
LINE
  5
183
330
1E
100
AcDbEntity
  8
0
100
AcDbLine
 10
79.1966383209746
 20
5.438433366963759
 30
0.0
 11
79.25839999999999
 21
4.806498999999999
 31
0.0
  0
LINE
  5
187
330
1E
100
AcDbEntity
  8
0
100
AcDbLine
 10
82.15595229763321
 20
5.64252398604367
 30
0.0
 11
82.2109
 21
5.080308999999999
 31
0.0
  0
LINE
  5
188
330
1E
100
AcDbEntity
  8
0
100
AcDbLine
 10
87.36690000000001
 20
5.138978999999999
 30
0.0
 11
87.5055
 21
5.080308999999999
 31
0.0
  0
LINE
  5
189
330
1E
100
AcDbEntity
  8
0
100
AcDbLine
 10
78.0327010425378
 20
5.358161830519849
 30
0.0
 11
78.15609999999999
 21
4.008348999999999
 31
0.0
  0
LINE
  5
18A
330
1E
100
AcDbEntity
  8
0
100
AcDbLine
 10
84.48618659117899
 20
6.26571830656141
 30
0.0
 11
84.65239999999999
 21
4.806498999999999
 31
0.0
  0
LINE
  5
18B
330
1E
100
AcDbEntity
  8
0
100
AcDbLine
 10
84.48618659117899
 20
6.26571830656141
 30
0.0
 11
84.65239999999999
 21
4.806498999999999
 31
0.0
  0
LINE
  5
18F
330
1E
100
AcDbEntity
  8
0
100
AcDbLine
 10
87.3290125910842
 20
6.630183178344119
 30
0.0
 11
87.5055
 21
5.080308999999999
 31
0.0
  0
LINE
  5
190
330
1E
100
AcDbEntity
  8
0
100
AcDbLine
 10
87.40029429020928
 20
6.004202744152359
 30
0.0
 11
87.5
 21
6.011079
 31
0.0
  0
LINE
  5
191
330
1E
100
AcDbEntity
  8
0
100
AcDbLine
 10
78.0044789764554
 20
5.356215481134849
 30
0.0
 11
84.53845606590029
 21
5.80683459075175
 31
0.0
  0
LINE
  5
192
330
1E
100
AcDbEntity
  8
0
100
AcDbLine
 10
73.0
 20
5.011079
 30
0.0
 11
73.10582326791099
 21
5.01837715640766
 31
0.0
  0
LINE
  5
193
330
1E
100
AcDbEntity
  8
0
100
AcDbLine
 10
87.86799447639429
 20
6.051967275154919
 30
0.0
 11
88.0311
 21
4.747829
 31
0.0
  0
LINE
  5
194
330
1E
100
AcDbEntity
  8
0
100
AcDbLine
 10
88.0311
 20
4.747829
 30
0.0
 11
88.7799
 21
4.806498999999999
 31
0.0
  0
LINE
  5
195
330
1E
100
AcDbEntity
  8
0
100
AcDbLine
 10
89.81399999999998
 20
4.747829
 30
0.0
 11
90.36750000000001
 21
4.806498999999999
 31
0.0
  0
LINE
  5
196
330
1E
100
AcDbEntity
  8
0
100
AcDbLine
 10
89.81399999999998
 20
4.747829
 30
0.0
 11
90.14799999999999
 21
4.806498999999999
 31
0.0
  0
LINE
  5
197
330
1E
100
AcDbEntity
  8
0
100
AcDbLine
 10
90.14799999999999
 20
4.806498999999999
 30
0.0
 11
91.1363
 21
4.943408999999999
 31
0.0
  0
LINE
  5
199
330
1E
100
AcDbEntity
  8
0
100
AcDbLine
 10
89.60471537867029
 20
6.348070863333679
 30
0.0
 11
89.81399999999998
 21
4.747829
 31
0.0
  0
LINE
  5
19A
330
1E
100
AcDbEntity
  8
0
100
AcDbLine
 10
90.36750000000001
 20
4.806498999999999
 30
0.0
 11
91.44989999999999
 21
4.943408999999999
 31
0.0
  0
LINE
  5
19B
330
1E
100
AcDbEntity
  8
0
100
AcDbLine
 10
91.44989999999999
 20
4.943408999999999
 30
0.0
 11
92.43810000000001
 21
5.080308999999999
 31
0.0
  0
LINE
  5
19C
330
1E
100
AcDbEntity
  8
0
100
AcDbLine
 10
92.43810000000001
 20
5.080308999999999
 30
0.0
 11
92.7721
 21
5.138978999999999
 31
0.0
  0
LINE
  5
19D
330
1E
100
AcDbEntity
  8
0
100
AcDbLine
 10
92.21859999999999
 20
5.080308999999999
 30
0.0
 11
92.7721
 21
5.138978999999999
 31
0.0
  0
LINE
  5
19E
330
1E
100
AcDbEntity
  8
0
100
AcDbLine
 10
91.1363
 20
4.943408999999999
 30
0.0
 11
92.21859999999999
 21
5.080308999999999
 31
0.0
  0
LINE
  5
1A0
330
1E
100
AcDbEntity
  8
0
100
AcDbLine
 10
88.7799
 20
4.806498999999999
 30
0.0
 11
89.79030374899339
 21
4.929016383114589
 31
0.0
  0
LINE
  5
1A2
330
1E
100
AcDbEntity
  8
0
100
AcDbLine
 10
92.5765988694445
 20
6.63382889129274
 30
0.0
 11
92.7721
 21
5.138978999999999
 31
0.0
  0
LINE
  5
1A3
330
1E
100
AcDbEntity
  8
0
100
AcDbLine
 10
92.5765988694445
 20
6.63382889129274
 30
0.0
 11
92.7721
 21
5.138978999999999
 31
0.0
  0
LINE
  5
1A5
330
1E
100
AcDbEntity
  8
0
100
AcDbLine
 10
92.58416373250959
 20
6.575986081389959
 30
0.0
 11
96.5
 21
7.011078999999999
 31
0.0
  0
LINE
  5
1A6
330
1E
100
AcDbEntity
  8
0
100
AcDbLine
 10
87.5
 20
6.011079
 30
0.0
 11
89.61801044644941
 21
6.246413494049929
 31
0.0
  0
LINE
  5
1A7
330
1E
100
AcDbEntity
  8
0
100
AcDbLine
 10
87.5
 20
6.011079
 30
0.0
 11
89.61801044644941
 21
6.246413494049929
 31
0.0
  0
LINE
  5
1A8
330
1E
100
AcDbEntity
  8
0
100
AcDbLine
 10
90.29999999999999
 20
7.011078999999999
 30
0.0
 11
94.8
 21
7.011078999999999
 31
0.0
  0
LINE
  5
1A9
330
1E
100
AcDbEntity
  8
0
100
AcDbLine
 10
43.0774464574732
 20
4.34072440678699
 30
0.0
 11
45.0
 21
4.24917423809524
 31
0.0
  0
LINE
  5
1AA
330
1E
100
AcDbEntity
  8
0
100
AcDbLine
 10
90.7
 20
7.011078999999999
 30
0.0
 11
95.29999999999999
 21
7.011078999999999
 31
0.0
  0
LINE
  5
1AB
330
1E
100
AcDbEntity
  8
0
100
AcDbLine
 10
94.8
 20
7.011078999999999
 30
0.0
 11
96.5
 21
7.011078999999999
 31
0.0
  0
LINE
  5
1AC
330
1E
100
AcDbEntity
  8
0
100
AcDbLine
 10
96.5
 20
7.011078999999999
 30
0.0
 11
97.0
 21
7.011078999999999
 31
0.0
  0
LINE
  5
1AD
330
1E
100
AcDbEntity
  8
0
100
AcDbLine
 10
96.5
 20
7.011078999999999
 30
0.0
 11
97.70000000000001
 21
7.011078999999999
 31
0.0
  0
LINE
  5
1AE
330
1E
100
AcDbEntity
  8
0
100
AcDbLine
 10
97.70000000000001
 20
7.011078999999999
 30
0.0
 11
99.50000000000001
 21
7.011078999999999
 31
0.0
  0
LINE
  5
1AF
330
1E
100
AcDbEntity
  8
0
100
AcDbLine
 10
95.29999999999999
 20
7.011078999999999
 30
0.0
 11
97.0
 21
7.011078999999999
 31
0.0
  0
LINE
  5
1B0
330
1E
100
AcDbEntity
  8
0
100
AcDbLine
 10
92.9
 20
7.011078999999999
 30
0.0
 11
97.70000000000001
 21
7.011078999999999
 31
0.0
  0
LINE
  5
1B1
330
1E
100
AcDbEntity
  8
0
100
AcDbLine
 10
61.9
 20
7.011078999999999
 30
0.0
 11
73.09999999999999
 21
7.011078999999999
 31
0.0
  0
LINE
  5
1B2
330
1E
100
AcDbEntity
  8
0
100
AcDbLine
 10
38.1
 20
7.011078999999999
 30
0.0
 11
50.0
 21
7.011078999999999
 31
0.0
  0
LINE
  5
1B3
330
1E
100
AcDbEntity
  8
0
100
AcDbLine
 10
62.1
 20
7.011078999999999
 30
0.0
 11
73.4
 21
7.011078999999999
 31
0.0
  0
LINE
  5
1B4
330
1E
100
AcDbEntity
  8
0
100
AcDbLine
 10
73.09999999999999
 20
7.011078999999999
 30
0.0
 11
82.79999999999999
 21
7.011078999999999
 31
0.0
  0
LINE
  5
1B5
330
1E
100
AcDbEntity
  8
0
100
AcDbLine
 10
73.4
 20
7.011078999999999
 30
0.0
 11
83.1
 21
7.011078999999999
 31
0.0
  0
LINE
  5
1B6
330
1E
100
AcDbEntity
  8
0
100
AcDbLine
 10
74.59999999999999
 20
7.011078999999999
 30
0.0
 11
84.9
 21
7.011078999999999
 31
0.0
  0
LINE
  5
1B7
330
1E
100
AcDbEntity
  8
0
100
AcDbLine
 10
62.7
 20
7.011078999999999
 30
0.0
 11
74.59999999999999
 21
7.011078999999999
 31
0.0
  0
LINE
  5
1B8
330
1E
100
AcDbEntity
  8
0
100
AcDbLine
 10
50.0
 20
7.011078999999999
 30
0.0
 11
62.7
 21
7.011078999999999
 31
0.0
  0
LINE
  5
1B9
330
1E
100
AcDbEntity
  8
0
100
AcDbLine
 10
50.0
 20
7.011078999999999
 30
0.0
 11
62.1
 21
7.011078999999999
 31
0.0
  0
LINE
  5
1BA
330
1E
100
AcDbEntity
  8
0
100
AcDbLine
 10
50.0
 20
7.011078999999999
 30
0.0
 11
61.9
 21
7.011078999999999
 31
0.0
  0
LINE
  5
1BB
330
1E
100
AcDbEntity
  8
0
100
AcDbLine
 10
84.9
 20
7.011078999999999
 30
0.0
 11
92.9
 21
7.011078999999999
 31
0.0
  0
LINE
  5
1BC
330
1E
100
AcDbEntity
  8
0
100
AcDbLine
 10
97.70000000000001
 20
7.011078999999999
 30
0.0
 11
99.50000000000001
 21
7.011078999999999
 31
0.0
  0
LINE
  5
1BD
330
1E
100
AcDbEntity
  8
0
100
AcDbLine
 10
99.50000000000001
 20
7.011078999999999
 30
0.0
 11
100.0
 21
7.511078999999999
 31
0.0
  0
LINE
  5
1BE
330
1E
100
AcDbEntity
  8
0
100
AcDbLine
 10
74.90000000000001
 20
7.511078999999999
 30
0.0
 11
85.29999999999999
 21
7.511078999999999
 31
0.0
  0
LINE
  5
1BF
330
1E
100
AcDbEntity
  8
0
100
AcDbLine
 10
62.8
 20
7.511078999999999
 30
0.0
 11
74.90000000000001
 21
7.511078999999999
 31
0.0
  0
LINE
  5
1C0
330
1E
100
AcDbEntity
  8
0
100
AcDbLine
 10
50.0
 20
7.511078999999999
 30
0.0
 11
62.8
 21
7.511078999999999
 31
0.0
  0
LINE
  5
1C1
330
1E
100
AcDbEntity
  8
0
100
AcDbLine
 10
85.29999999999999
 20
7.511078999999999
 30
0.0
 11
93.3
 21
7.511078999999999
 31
0.0
  0
LINE
  5
1C2
330
1E
100
AcDbEntity
  8
0
100
AcDbLine
 10
93.3
 20
7.511078999999999
 30
0.0
 11
98.2
 21
7.511078999999999
 31
0.0
  0
LINE
  5
1C3
330
1E
100
AcDbEntity
  8
0
100
AcDbLine
 10
98.2
 20
7.511078999999999
 30
0.0
 11
100.0
 21
7.511078999999999
 31
0.0
  0
LINE
  5
1C4
330
1E
100
AcDbEntity
  8
0
100
AcDbLine
 10
100.0
 20
7.511078999999999
 30
0.0
 11
100.0
 21
21.011079
 31
0.0
  0
LINE
  5
1C5
330
1E
100
AcDbEntity
  8
0
100
AcDbLine
 10
37.9
 20
7.011078999999999
 30
0.0
 11
50.0
 21
7.011078999999999
 31
0.0
  0
LINE
  5
1C6
330
1E
100
AcDbEntity
  8
0
100
AcDbLine
 10
37.29999999999999
 20
7.011078999999999
 30
0.0
 11
50.0
 21
7.011078999999999
 31
0.0
  0
LINE
  5
1C7
330
1E
100
AcDbEntity
  8
0
100
AcDbLine
 10
100.0
 20
21.011079
 30
0.0
 11
100.0
 21
7.511078999999999
 31
0.0
  0
LINE
  5
1C8
330
1E
100
AcDbEntity
  8
0
100
AcDbLine
 10
37.2
 20
7.511078999999999
 30
0.0
 11
50.0
 21
7.511078999999999
 31
0.0
  0
LINE
  5
1C9
330
1E
100
AcDbEntity
  8
0
100
AcDbLine
 10
25.1
 20
21.011079
 30
0.0
 11
37.2
 21
21.011079
 31
0.0
  0
LINE
  5
1CA
330
1E
100
AcDbEntity
  8
0
100
AcDbLine
 10
37.2
 20
21.011079
 30
0.0
 11
50.0
 21
21.011079
 31
0.0
  0
LINE
  5
1CB
330
1E
100
AcDbEntity
  8
0
100
AcDbLine
 10
16.1
 20
28.01107899999999
 30
0.0
 11
26.1
 21
28.01107899999999
 31
0.0
  0
LINE
  5
1CC
330
1E
100
AcDbEntity
  8
0
100
AcDbLine
 10
26.1
 20
28.01107899999999
 30
0.0
 11
37.7
 21
28.01107899999999
 31
0.0
  0
LINE
  5
1CD
330
1E
100
AcDbEntity
  8
0
100
AcDbLine
 10
74.90000000000001
 20
21.011079
 30
0.0
 11
85.29999999999999
 21
21.011079
 31
0.0
  0
LINE
  5
1CE
330
1E
100
AcDbEntity
  8
0
100
AcDbLine
 10
62.8
 20
21.011079
 30
0.0
 11
74.90000000000001
 21
21.011079
 31
0.0
  0
LINE
  5
1CF
330
1E
100
AcDbEntity
  8
0
100
AcDbLine
 10
50.0
 20
21.011079
 30
0.0
 11
62.8
 21
21.011079
 31
0.0
  0
LINE
  5
1D0
330
1E
100
AcDbEntity
  8
0
100
AcDbLine
 10
85.29999999999999
 20
21.011079
 30
0.0
 11
93.3
 21
21.011079
 31
0.0
  0
LINE
  5
1D1
330
1E
100
AcDbEntity
  8
0
100
AcDbLine
 10
96.0
 20
28.01107899999999
 30
0.0
 11
96.5
 21
29.01107899999999
 31
0.0
  0
LINE
  5
1D2
330
1E
100
AcDbEntity
  8
0
100
AcDbLine
 10
98.0
 20
28.01107899999999
 30
0.0
 11
98.0
 21
21.011079
 31
0.0
  0
LINE
  5
1D3
330
1E
100
AcDbEntity
  8
0
100
AcDbLine
 10
93.3
 20
21.011079
 30
0.0
 11
98.2
 21
21.011079
 31
0.0
  0
LINE
  5
1D4
330
1E
100
AcDbEntity
  8
0
100
AcDbLine
 10
98.2
 20
21.011079
 30
0.0
 11
100.0
 21
21.011079
 31
0.0
  0
LINE
  5
1D5
330
1E
100
AcDbEntity
  8
0
100
AcDbLine
 10
98.0
 20
21.011079
 30
0.0
 11
98.0
 21
28.01107899999999
 31
0.0
  0
LINE
  5
1D6
330
1E
100
AcDbEntity
  8
0
100
AcDbLine
 10
73.9
 20
28.01107899999999
 30
0.0
 11
83.9
 21
28.01107899999999
 31
0.0
  0
LINE
  5
1D7
330
1E
100
AcDbEntity
  8
0
100
AcDbLine
 10
62.3
 20
28.01107899999999
 30
0.0
 11
73.9
 21
28.01107899999999
 31
0.0
  0
LINE
  5
1D8
330
1E
100
AcDbEntity
  8
0
100
AcDbLine
 10
50.0
 20
28.01107899999999
 30
0.0
 11
62.3
 21
28.01107899999999
 31
0.0
  0
LINE
  5
1D9
330
1E
100
AcDbEntity
  8
0
100
AcDbLine
 10
83.9
 20
28.01107899999999
 30
0.0
 11
91.6
 21
28.01107899999999
 31
0.0
  0
LINE
  5
1DA
330
1E
100
AcDbEntity
  8
0
100
AcDbLine
 10
96.5
 20
29.01107899999999
 30
0.0
 11
97.0
 21
31.011079
 31
0.0
  0
LINE
  5
1DB
330
1E
100
AcDbEntity
  8
0
100
AcDbLine
 10
91.6
 20
28.01107899999999
 30
0.0
 11
96.3
 21
28.01107899999999
 31
0.0
  0
LINE
  5
1DC
330
1E
100
AcDbEntity
  8
0
100
AcDbLine
 10
96.3
 20
28.01107899999999
 30
0.0
 11
98.0
 21
28.01107899999999
 31
0.0
  0
LINE
  5
1DD
330
1E
100
AcDbEntity
  8
0
100
AcDbLine
 10
37.7
 20
28.01107899999999
 30
0.0
 11
50.0
 21
28.01107899999999
 31
0.0
  0
LINE
  5
1DE
330
1E
100
AcDbEntity
  8
0
100
AcDbLine
 10
16.89999999999999
 20
31.011079
 30
0.0
 11
26.6
 21
31.011079
 31
0.0
  0
LINE
  5
1DF
330
1E
100
AcDbEntity
  8
0
100
AcDbLine
 10
26.6
 20
31.011079
 30
0.0
 11
37.9
 21
31.011079
 31
0.0
  0
LINE
  5
1E0
330
1E
100
AcDbEntity
  8
0
100
AcDbLine
 10
83.1
 20
31.011079
 30
0.0
 11
90.7
 21
31.011079
 31
0.0
  0
LINE
  5
1E1
330
1E
100
AcDbEntity
  8
0
100
AcDbLine
 10
90.7
 20
31.011079
 30
0.0
 11
95.29999999999999
 21
31.011079
 31
0.0
  0
LINE
  5
1E2
330
1E
100
AcDbEntity
  8
0
100
AcDbLine
 10
95.29999999999999
 20
31.011079
 30
0.0
 11
97.0
 21
31.011079
 31
0.0
  0
LINE
  5
1E3
330
1E
100
AcDbEntity
  8
0
100
AcDbLine
 10
73.4
 20
31.011079
 30
0.0
 11
83.1
 21
31.011079
 31
0.0
  0
LINE
  5
1E4
330
1E
100
AcDbEntity
  8
0
100
AcDbLine
 10
62.1
 20
31.011079
 30
0.0
 11
73.4
 21
31.011079
 31
0.0
  0
LINE
  5
1E5
330
1E
100
AcDbEntity
  8
0
100
AcDbLine
 10
50.0
 20
31.011079
 30
0.0
 11
62.1
 21
31.011079
 31
0.0
  0
LINE
  5
1E6
330
1E
100
AcDbEntity
  8
0
100
AcDbLine
 10
37.9
 20
31.011079
 30
0.0
 11
50.0
 21
31.011079
 31
0.0
  0
LINE
  5
1E7
330
1E
100
AcDbEntity
  8
0
100
AcDbLine
 10
9.3
 20
31.011079
 30
0.0
 11
16.89999999999999
 21
31.011079
 31
0.0
  0
LINE
  5
1E8
330
1E
100
AcDbEntity
  8
0
100
AcDbLine
 10
4.7
 20
31.011079
 30
0.0
 11
9.3
 21
31.011079
 31
0.0
  0
LINE
  5
1E9
330
1E
100
AcDbEntity
  8
0
100
AcDbLine
 10
3.5
 20
29.01107899999999
 30
0.0
 11
4.0
 21
28.01107899999999
 31
0.0
  0
LINE
  5
1EA
330
1E
100
AcDbEntity
  8
0
100
AcDbLine
 10
3.0
 20
31.011079
 30
0.0
 11
3.5
 21
29.01107899999999
 31
0.0
  0
LINE
  5
1EB
330
1E
100
AcDbEntity
  8
0
100
AcDbLine
 10
3.0
 20
31.011079
 30
0.0
 11
4.7
 21
31.011079
 31
0.0
  0
ENDSEC
  0
SECTION
  2
OBJECTS
  0
DICTIONARY
  5
C
330
0
100
AcDbDictionary
281
     1
  3
ACAD_GROUP
350
D
  3
ACAD_LAYOUT
350
19
  3
ACAD_MLINESTYLE
350
16
  3
ACAD_PLOTSETTINGS
350
18
  3
ACAD_PLOTSTYLENAME
350
E
  3
AcDbVariableDictionary
350
1F0
  0
DICTIONARY
  5
D
102
{ACAD_REACTORS
330
C
102
}
330
C
100
AcDbDictionary
281
     1
  0
DICTIONARY
  5
19
102
{ACAD_REACTORS
330
C
102
}
330
C
100
AcDbDictionary
281
     1
  3
Layout1
350
1D
  3
Model
350
21
  0
DICTIONARY
  5
16
102
{ACAD_REACTORS
330
C
102
}
330
C
100
AcDbDictionary
281
     1
  3
Standard
350
17
  0
DICTIONARY
  5
18
102
{ACAD_REACTORS
330
C
102
}
330
C
100
AcDbDictionary
281
     1
  0
ACDBDICTIONARYWDFLT
  5
E
102
{ACAD_REACTORS
330
C
102
}
330
C
100
AcDbDictionary
281
     1
  3
Normal
350
F
100
AcDbDictionaryWithDefault
340
F
  0
DICTIONARY
  5
1F0
102
{ACAD_REACTORS
330
C
102
}
330
C
100
AcDbDictionary
281
     1
  3
DIMASSOC
350
1F1
  0
LAYOUT
  5
1D
102
{ACAD_REACTORS
330
19
102
}
330
19
100
AcDbPlotSettings
  1

  2
hp deskjet 980c series
  4

  6

 40
0.0
 41
0.0
 42
0.0
 43
0.0
 44
0.0
 45
0.0
 46
0.0
 47
0.0
 48
0.0
 49
0.0
140
0.0
141
0.0
142
1.0
143
1.0
 70
   688
 72
     0
 73
     0
 74
     5
  7

 75
    16
147
1.0
148
0.0
149
0.0
100
AcDbLayout
  1
Layout1
 70
     1
 71
     1
 10
0.0
 20
0.0
 11
12.0
 21
9.0
 12
0.0
 22
0.0
 32
0.0
 14
1.000000000000000E+20
 24
1.000000000000000E+20
 34
1.000000000000000E+20
 15
-1.000000000000000E+20
 25
-1.000000000000000E+20
 35
-1.000000000000000E+20
146
0.0
 13
0.0
 23
0.0
 33
0.0
 16
1.0
 26
0.0
 36
0.0
 17
0.0
 27
1.0
 37
0.0
 76
     0
330
1A
  0
LAYOUT
  5
21
102
{ACAD_REACTORS
330
19
102
}
330
19
100
AcDbPlotSettings
  1

  2
hp deskjet 980c series
  4

  6

 40
0.0
 41
0.0
 42
0.0
 43
0.0
 44
0.0
 45
0.0
 46
0.0
 47
0.0
 48
0.0
 49
0.0
140
0.0
141
0.0
142
1.0
143
1.0
 70
  1712
 72
     0
 73
     0
 74
     0
  7

 75
     0
147
1.0
148
0.0
149
0.0
100
AcDbLayout
  1
Model
 70
     1
 71
     0
 10
0.0
 20
0.0
 11
12.0
 21
9.0
 12
0.0
 22
0.0
 32
0.0
 14
0.0
 24
0.0
 34
0.0
 15
0.0
 25
0.0
 35
0.0
146
0.0
 13
0.0
 23
0.0
 33
0.0
 16
1.0
 26
0.0
 36
0.0
 17
0.0
 27
1.0
 37
0.0
 76
     0
330
1E
  0
MLINESTYLE
  5
17
102
{ACAD_REACTORS
330
16
102
}
330
16
100
AcDbMlineStyle
  2
STANDARD
 70
     0
  3

 62
   256
 51
90.0
 52
90.0
 71
     2
 49
0.5
 62
   256
  6
BYLAYER
 49
-0.5
 62
   256
  6
BYLAYER
  0
ACDBPLACEHOLDER
  5
F
102
{ACAD_REACTORS
330
E
102
}
330
E
  0
DICTIONARYVAR
  5
1F1
102
{ACAD_REACTORS
330
1F0
102
}
330
1F0
100
DictionaryVariables
280
     0
  1
1
  0
ENDSEC
  0
EOF
