  0
SECTION
  2
HEADER
  9
$ACADVER
  1
AC1015
  9
$ACADMAINTVER
 70
    13
  9
$DWGCODEPAGE
  3
ANSI_1252
  9
$INSBASE
 10
0.0
 20
0.0
 30
0.0
  9
$EXTMIN
 10
0.0000000000000003
 20
-0.0000000000000078
 30
0.0
  9
$EXTMAX
 10
350.0
 20
71.0
 30
0.0
  9
$LIMMIN
 10
0.0
 20
0.0
  9
$LIMMAX
 10
12.0
 20
9.0
  9
$ORTHOMODE
 70
     0
  9
$REGENMODE
 70
     1
  9
$FILLMODE
 70
     1
  9
$QTEXTMODE
 70
     0
  9
$MIRRTEXT
 70
     1
  9
$LTSCALE
 40
1.0
  9
$ATTMODE
 70
     1
  9
$TEXTSIZE
 40
0.2
  9
$TRACEWID
 40
0.05
  9
$TEXTSTYLE
  7
Standard
  9
$CLAYER
  8
0
  9
$CELTYPE
  6
Continuous
  9
$CECOLOR
 62
   256
  9
$CELTSCALE
 40
1.0
  9
$DISPSILH
 70
     0
  9
$DIMSCALE
 40
1.0
  9
$DIMASZ
 40
0.18
  9
$DIMEXO
 40
0.0625
  9
$DIMDLI
 40
0.38
  9
$DIMRND
 40
0.0
  9
$DIMDLE
 40
0.0
  9
$DIMEXE
 40
0.18
  9
$DIMTP
 40
0.0
  9
$DIMTM
 40
0.0
  9
$DIMTXT
 40
0.18
  9
$DIMCEN
 40
0.09
  9
$DIMTSZ
 40
0.0
  9
$DIMTOL
 70
     0
  9
$DIMLIM
 70
     0
  9
$DIMTIH
 70
     1
  9
$DIMTOH
 70
     1
  9
$DIMSE1
 70
     0
  9
$DIMSE2
 70
     0
  9
$DIMTAD
 70
     0
  9
$DIMZIN
 70
     0
  9
$DIMBLK
  1

  9
$DIMASO
 70
     1
  9
$DIMSHO
 70
     1
  9
$DIMPOST
  1

  9
$DIMAPOST
  1

  9
$DIMALT
 70
     0
  9
$DIMALTD
 70
     2
  9
$DIMALTF
 40
25.4
  9
$DIMLFAC
 40
1.0
  9
$DIMTOFL
 70
     0
  9
$DIMTVP
 40
0.0
  9
$DIMTIX
 70
     0
  9
$DIMSOXD
 70
     0
  9
$DIMSAH
 70
     0
  9
$DIMBLK1
  1

  9
$DIMBLK2
  1

  9
$DIMSTYLE
  2
Standard
  9
$DIMCLRD
 70
     0
  9
$DIMCLRE
 70
     0
  9
$DIMCLRT
 70
     0
  9
$DIMTFAC
 40
1.0
  9
$DIMGAP
 40
0.09
  9
$DIMJUST
 70
     0
  9
$DIMSD1
 70
     0
  9
$DIMSD2
 70
     0
  9
$DIMTOLJ
 70
     1
  9
$DIMTZIN
 70
     0
  9
$DIMALTZ
 70
     0
  9
$DIMALTTZ
 70
     0
  9
$DIMUPT
 70
     0
  9
$DIMDEC
 70
     4
  9
$DIMTDEC
 70
     4
  9
$DIMALTU
 70
     2
  9
$DIMALTTD
 70
     2
  9
$DIMTXSTY
  7
Standard
  9
$DIMAUNIT
 70
     0
  9
$DIMADEC
 70
     0
  9
$DIMALTRND
 40
0.0
  9
$DIMAZIN
 70
     0
  9
$DIMDSEP
 70
    46
  9
$DIMATFIT
 70
     3
  9
$DIMFRAC
 70
     0
  9
$DIMLDRBLK
  1

  9
$DIMLUNIT
 70
     2
  9
$DIMLWD
 70
    -2
  9
$DIMLWE
 70
    -2
  9
$DIMTMOVE
 70
     0
  9
$LUNITS
 70
     2
  9
$LUPREC
 70
     4
  9
$SKETCHINC
 40
0.1
  9
$FILLETRAD
 40
0.0
  9
$AUNITS
 70
     0
  9
$AUPREC
 70
     0
  9
$MENU
  1
.
  9
$ELEVATION
 40
0.0
  9
$PELEVATION
 40
0.0
  9
$THICKNESS
 40
0.0
  9
$LIMCHECK
 70
     0
  9
$CHAMFERA
 40
0.0
  9
$CHAMFERB
 40
0.0
  9
$CHAMFERC
 40
0.0
  9
$CHAMFERD
 40
0.0
  9
$SKPOLY
 70
     0
  9
$TDCREATE
 40
2454737.968888889
  9
$TDUCREATE
 40
2454737.885555555
  9
$TDUPDATE
 40
2454737.969108970
  9
$TDUUPDATE
 40
2454737.885775636
  9
$TDINDWG
 40
0.0002200810
  9
$TDUSRTIMER
 40
0.0002200810
  9
$USRTIMER
 70
     1
  9
$ANGBASE
 50
0.0
  9
$ANGDIR
 70
     0
  9
$PDMODE
 70
     0
  9
$PDSIZE
 40
0.0
  9
$PLINEWID
 40
0.0
  9
$SPLFRAME
 70
     0
  9
$SPLINETYPE
 70
     6
  9
$SPLINESEGS
 70
     8
  9
$HANDSEED
  5
185
  9
$SURFTAB1
 70
     6
  9
$SURFTAB2
 70
     6
  9
$SURFTYPE
 70
     6
  9
$SURFU
 70
     6
  9
$SURFV
 70
     6
  9
$UCSBASE
  2

  9
$UCSNAME
  2

  9
$UCSORG
 10
0.0
 20
0.0
 30
0.0
  9
$UCSXDIR
 10
1.0
 20
0.0
 30
0.0
  9
$UCSYDIR
 10
0.0
 20
1.0
 30
0.0
  9
$UCSORTHOREF
  2

  9
$UCSORTHOVIEW
 70
     1
  9
$UCSORGTOP
 10
0.0
 20
0.0
 30
0.0
  9
$UCSORGBOTTOM
 10
0.0
 20
0.0
 30
0.0
  9
$UCSORGLEFT
 10
0.0
 20
0.0
 30
0.0
  9
$UCSORGRIGHT
 10
0.0
 20
0.0
 30
0.0
  9
$UCSORGFRONT
 10
0.0
 20
0.0
 30
0.0
  9
$UCSORGBACK
 10
0.0
 20
0.0
 30
0.0
  9
$PUCSBASE
  2

  9
$PUCSNAME
  2

  9
$PUCSORG
 10
0.0
 20
0.0
 30
0.0
  9
$PUCSXDIR
 10
1.0
 20
0.0
 30
0.0
  9
$PUCSYDIR
 10
0.0
 20
1.0
 30
0.0
  9
$PUCSORTHOREF
  2

  9
$PUCSORTHOVIEW
 70
     0
  9
$PUCSORGTOP
 10
0.0
 20
0.0
 30
0.0
  9
$PUCSORGBOTTOM
 10
0.0
 20
0.0
 30
0.0
  9
$PUCSORGLEFT
 10
0.0
 20
0.0
 30
0.0
  9
$PUCSORGRIGHT
 10
0.0
 20
0.0
 30
0.0
  9
$PUCSORGFRONT
 10
0.0
 20
0.0
 30
0.0
  9
$PUCSORGBACK
 10
0.0
 20
0.0
 30
0.0
  9
$USERI1
 70
     0
  9
$USERI2
 70
     0
  9
$USERI3
 70
     0
  9
$USERI4
 70
     0
  9
$USERI5
 70
     0
  9
$USERR1
 40
0.0
  9
$USERR2
 40
0.0
  9
$USERR3
 40
0.0
  9
$USERR4
 40
0.0
  9
$USERR5
 40
0.0
  9
$WORLDVIEW
 70
     1
  9
$SHADEDGE
 70
     3
  9
$SHADEDIF
 70
    70
  9
$TILEMODE
 70
     1
  9
$MAXACTVP
 70
    64
  9
$PINSBASE
 10
0.0
 20
0.0
 30
0.0
  9
$PLIMCHECK
 70
     0
  9
$PEXTMIN
 10
1.000000000000000E+20
 20
1.000000000000000E+20
 30
1.000000000000000E+20
  9
$PEXTMAX
 10
-1.000000000000000E+20
 20
-1.000000000000000E+20
 30
-1.000000000000000E+20
  9
$PLIMMIN
 10
0.0
 20
0.0
  9
$PLIMMAX
 10
12.0
 20
9.0
  9
$UNITMODE
 70
     0
  9
$VISRETAIN
 70
     1
  9
$PLINEGEN
 70
     0
  9
$PSLTSCALE
 70
     1
  9
$TREEDEPTH
 70
  3020
  9
$CMLSTYLE
  2
Standard
  9
$CMLJUST
 70
     0
  9
$CMLSCALE
 40
1.0
  9
$PROXYGRAPHICS
 70
     1
  9
$MEASUREMENT
 70
     0
  9
$CELWEIGHT
370
    -1
  9
$ENDCAPS
280
     0
  9
$JOINSTYLE
280
     0
  9
$LWDISPLAY
290
     0
  9
$INSUNITS
 70
     0
  9
$HYPERLINKBASE
  1

  9
$STYLESHEET
  1

  9
$XEDIT
290
     1
  9
$CEPSNTYPE
380
     0
  9
$PSTYLEMODE
290
     1
  9
$FINGERPRINTGUID
  2
{3195116E-9D0B-48BD-96C3-DCCD4F0A99CE}
  9
$VERSIONGUID
  2
{DB78ABAC-C8E6-4D39-9549-694BF178180D}
  9
$EXTNAMES
290
     1
  9
$PSVPSCALE
 40
0.0
  9
$OLESTARTUP
290
     0
  0
ENDSEC
  0
SECTION
  2
CLASSES
  0
CLASS
  1
ACDBDICTIONARYWDFLT
  2
AcDbDictionaryWithDefault
  3
AutoCAD 2000
 90
        0
280
     0
281
     0
  0
CLASS
  1
ACDBPLACEHOLDER
  2
AcDbPlaceHolder
  3
AutoCAD 2000
 90
        0
280
     0
281
     0
  0
CLASS
  1
LAYOUT
  2
AcDbLayout
  3
AutoCAD 2000
 90
        0
280
     0
281
     0
  0
CLASS
  1
DICTIONARYVAR
  2
AcDbDictionaryVar
  3
AutoCAD 2000
 90
        0
280
     0
281
     0
  0
ENDSEC
  0
SECTION
  2
TABLES
  0
TABLE
  2
VPORT
  5
8
330
0
100
AcDbSymbolTable
 70
     2
  0
VPORT
  5
184
330
8
100
AcDbSymbolTableRecord
100
AcDbViewportTableRecord
  2
*Active
 70
     0
 10
0.0
 20
0.0
 11
1.0
 21
1.0
 12
175.0
 22
35.5
 13
0.0
 23
0.0
 14
1.0
 24
1.0
 15
0.0
 25
0.0
 16
0.0
 26
0.0
 36
1.0
 17
0.0
 27
0.0
 37
0.0
 40
169.0449253192257
 41
2.078104993597951
 42
50.0
 43
0.0
 44
0.0
 50
0.0
 51
0.0
 71
     0
 72
   100
 73
     1
 74
     3
 75
     0
 76
     0
 77
     0
 78
     0
281
     0
 65
     1
110
0.0
120
0.0
130
0.0
111
1.0
121
0.0
131
0.0
112
0.0
122
1.0
132
0.0
 79
     1
146
0.0
  0
ENDTAB
  0
TABLE
  2
LTYPE
  5
5
330
0
100
AcDbSymbolTable
 70
     1
  0
LTYPE
  5
13
330
5
100
AcDbSymbolTableRecord
100
AcDbLinetypeTableRecord
  2
ByBlock
 70
     0
  3

 72
    65
 73
     0
 40
0.0
  0
LTYPE
  5
14
330
5
100
AcDbSymbolTableRecord
100
AcDbLinetypeTableRecord
  2
ByLayer
 70
     0
  3

 72
    65
 73
     0
 40
0.0
  0
LTYPE
  5
15
330
5
100
AcDbSymbolTableRecord
100
AcDbLinetypeTableRecord
  2
Continuous
 70
     0
  3
Solid line
 72
    65
 73
     0
 40
0.0
  0
ENDTAB
  0
TABLE
  2
LAYER
  5
2
330
0
100
AcDbSymbolTable
 70
     1
  0
LAYER
  5
10
330
2
100
AcDbSymbolTableRecord
100
AcDbLayerTableRecord
  2
0
 70
     0
 62
     7
  6
Continuous
370
    -3
390
F
  0
ENDTAB
  0
TABLE
  2
STYLE
  5
3
330
0
100
AcDbSymbolTable
 70
     1
  0
STYLE
  5
11
330
3
100
AcDbSymbolTableRecord
100
AcDbTextStyleTableRecord
  2
Standard
 70
     0
 40
0.0
 41
1.0
 50
0.0
 71
     0
 42
0.2
  3
txt
  4

  0
ENDTAB
  0
TABLE
  2
VIEW
  5
6
330
0
100
AcDbSymbolTable
 70
     0
  0
ENDTAB
  0
TABLE
  2
UCS
  5
7
330
0
100
AcDbSymbolTable
 70
     0
  0
ENDTAB
  0
TABLE
  2
APPID
  5
9
330
0
100
AcDbSymbolTable
 70
     1
  0
APPID
  5
12
330
9
100
AcDbSymbolTableRecord
100
AcDbRegAppTableRecord
  2
ACAD
 70
     0
  0
ENDTAB
  0
TABLE
  2
DIMSTYLE
  5
A
330
0
100
AcDbSymbolTable
 70
     1
100
AcDbDimStyleTable
 71
     0
  0
DIMSTYLE
105
17E
330
A
100
AcDbSymbolTableRecord
100
AcDbDimStyleTableRecord
  2
Standard
 70
     0
340
11
  0
ENDTAB
  0
TABLE
  2
BLOCK_RECORD
  5
1
330
0
100
AcDbSymbolTable
 70
     0
  0
BLOCK_RECORD
  5
1E
330
1
100
AcDbSymbolTableRecord
100
AcDbBlockTableRecord
  2
*Model_Space
340
21
  0
BLOCK_RECORD
  5
1A
330
1
100
AcDbSymbolTableRecord
100
AcDbBlockTableRecord
  2
*Paper_Space
340
1D
  0
ENDTAB
  0
ENDSEC
  0
SECTION
  2
BLOCKS
  0
BLOCK
  5
1F
330
1E
100
AcDbEntity
  8
0
100
AcDbBlockBegin
  2
*Model_Space
 70
     0
 10
0.0
 20
0.0
 30
0.0
  3
*Model_Space
  1

  0
ENDBLK
  5
20
330
1E
100
AcDbEntity
  8
0
100
AcDbBlockEnd
  0
BLOCK
  5
1B
330
1A
100
AcDbEntity
 67
     1
  8
0
100
AcDbBlockBegin
  2
*Paper_Space
 70
     0
 10
0.0
 20
0.0
 30
0.0
  3
*Paper_Space
  1

  0
ENDBLK
  5
1C
330
1A
100
AcDbEntity
 67
     1
  8
0
100
AcDbBlockEnd
  0
ENDSEC
  0
SECTION
  2
ENTITIES
  0
LINE
  5
22
330
1E
100
AcDbEntity
  8
0
100
AcDbLine
 10
63.3337
 20
0.0000000000000095
 30
0.0
 11
63.3337
 21
1.000000000000009
 31
0.0
  0
LINE
  5
23
330
1E
100
AcDbEntity
  8
0
100
AcDbLine
 10
63.1498
 20
0.0000000000000095
 30
0.0
 11
63.3337
 21
0.0000000000000095
 31
0.0
  0
LINE
  5
24
330
1E
100
AcDbEntity
  8
0
100
AcDbLine
 10
62.6407
 20
0.0000000000000096
 30
0.0
 11
63.1498
 21
0.0000000000000095
 31
0.0
  0
LINE
  5
25
330
1E
100
AcDbEntity
  8
0
100
AcDbLine
 10
61.8629
 20
0.0000000000000096
 30
0.0
 11
62.6407
 21
0.0000000000000096
 31
0.0
  0
LINE
  5
26
330
1E
100
AcDbEntity
  8
0
100
AcDbLine
 10
54.7918
 20
0.0000000000000101
 30
0.0
 11
55.82419999999999
 21
0.00000000000001
 31
0.0
  0
LINE
  5
27
330
1E
100
AcDbEntity
  8
0
100
AcDbLine
 10
55.82419999999999
 20
0.00000000000001
 30
0.0
 11
57.0122
 21
0.0000000000000099
 31
0.0
  0
LINE
  5
28
330
1E
100
AcDbEntity
  8
0
100
AcDbLine
 10
57.0122
 20
0.0000000000000099
 30
0.0
 11
58.3274
 21
0.0000000000000098
 31
0.0
  0
LINE
  5
29
330
1E
100
AcDbEntity
  8
0
100
AcDbLine
 10
58.3274
 20
0.0000000000000098
 30
0.0
 11
59.6426
 21
0.0000000000000098
 31
0.0
  0
LINE
  5
2A
330
1E
100
AcDbEntity
  8
0
100
AcDbLine
 10
59.6426
 20
0.0000000000000098
 30
0.0
 11
60.8305
 21
0.0000000000000097
 31
0.0
  0
LINE
  5
2B
330
1E
100
AcDbEntity
  8
0
100
AcDbLine
 10
60.8305
 20
0.0000000000000097
 30
0.0
 11
61.8629
 21
0.0000000000000096
 31
0.0
  0
LINE
  5
2C
330
1E
100
AcDbEntity
  8
0
100
AcDbLine
 10
54.01399999999999
 20
0.0000000000000101
 30
0.0
 11
54.7918
 21
0.0000000000000101
 31
0.0
  0
LINE
  5
2D
330
1E
100
AcDbEntity
  8
0
100
AcDbLine
 10
15.0
 20
0.0000000000000125
 30
0.0
 11
15.0
 21
1.000000000000009
 31
0.0
  0
LINE
  5
2E
330
1E
100
AcDbEntity
  8
0
100
AcDbLine
 10
14.82
 20
0.0000000000000125
 30
0.0
 11
15.0
 21
0.0000000000000125
 31
0.0
  0
LINE
  5
2F
330
1E
100
AcDbEntity
  8
0
100
AcDbLine
 10
14.34
 20
0.0000000000000125
 30
0.0
 11
14.82
 21
0.0000000000000125
 31
0.0
  0
LINE
  5
30
330
1E
100
AcDbEntity
  8
0
100
AcDbLine
 10
13.54
 20
0.0000000000000126
 30
0.0
 11
14.34
 21
0.0000000000000125
 31
0.0
  0
LINE
  5
31
330
1E
100
AcDbEntity
  8
0
100
AcDbLine
 10
12.48
 20
0.0000000000000126
 30
0.0
 11
13.54
 21
0.0000000000000126
 31
0.0
  0
LINE
  5
32
330
1E
100
AcDbEntity
  8
0
100
AcDbLine
 10
11.27999999999999
 20
0.0000000000000127
 30
0.0
 11
12.48
 21
0.0000000000000126
 31
0.0
  0
LINE
  5
33
330
1E
100
AcDbEntity
  8
0
100
AcDbLine
 10
10.0
 20
0.0000000000000128
 30
0.0
 11
11.27999999999999
 21
0.0000000000000127
 31
0.0
  0
LINE
  5
34
330
1E
100
AcDbEntity
  8
0
100
AcDbLine
 10
5.0
 20
0.0000000000000131
 30
0.0
 11
5.179999999999999
 21
0.0000000000000131
 31
0.0
  0
LINE
  5
35
330
1E
100
AcDbEntity
  8
0
100
AcDbLine
 10
5.0
 20
0.0000000000000131
 30
0.0
 11
5.0
 21
1.000000000000009
 31
0.0
  0
LINE
  5
36
330
1E
100
AcDbEntity
  8
0
100
AcDbLine
 10
5.179999999999999
 20
0.0000000000000131
 30
0.0
 11
5.66
 21
0.0000000000000131
 31
0.0
  0
LINE
  5
37
330
1E
100
AcDbEntity
  8
0
100
AcDbLine
 10
5.66
 20
0.0000000000000131
 30
0.0
 11
6.459999999999999
 21
0.000000000000013
 31
0.0
  0
LINE
  5
38
330
1E
100
AcDbEntity
  8
0
100
AcDbLine
 10
7.519999999999999
 20
0.0000000000000129
 30
0.0
 11
8.72
 21
0.0000000000000129
 31
0.0
  0
LINE
  5
39
330
1E
100
AcDbEntity
  8
0
100
AcDbLine
 10
6.459999999999999
 20
0.000000000000013
 30
0.0
 11
7.519999999999999
 21
0.0000000000000129
 31
0.0
  0
LINE
  5
3A
330
1E
100
AcDbEntity
  8
0
100
AcDbLine
 10
8.72
 20
0.0000000000000129
 30
0.0
 11
10.0
 21
0.0000000000000128
 31
0.0
  0
LINE
  5
3B
330
1E
100
AcDbEntity
  8
0
100
AcDbLine
 10
53.3211
 20
0.0000000000000101
 30
0.0
 11
53.5049
 21
0.0000000000000101
 31
0.0
  0
LINE
  5
3C
330
1E
100
AcDbEntity
  8
0
100
AcDbLine
 10
53.3211
 20
0.0000000000000101
 30
0.0
 11
53.3211
 21
1.000000000000009
 31
0.0
  0
LINE
  5
3D
330
1E
100
AcDbEntity
  8
0
100
AcDbLine
 10
53.5049
 20
0.0000000000000101
 30
0.0
 11
54.01399999999999
 21
0.0000000000000101
 31
0.0
  0
LINE
  5
3E
330
1E
100
AcDbEntity
  8
0
100
AcDbLine
 10
88.40000000000001
 20
1.000000000000009
 30
0.0
 11
97.80000000000001
 21
1.000000000000009
 31
0.0
  0
LINE
  5
3F
330
1E
100
AcDbEntity
  8
0
100
AcDbLine
 10
88.40000000000001
 20
1.000000000000009
 30
0.0
 11
108.4999999999999
 21
1.000000000000009
 31
0.0
  0
LINE
  5
40
330
1E
100
AcDbEntity
  8
0
100
AcDbLine
 10
52.1
 20
1.000000000000009
 30
0.0
 11
69.2
 21
1.000000000000009
 31
0.0
  0
LINE
  5
41
330
1E
100
AcDbEntity
  8
0
100
AcDbLine
 10
37.2
 20
1.000000000000009
 30
0.0
 11
52.1
 21
1.000000000000009
 31
0.0
  0
LINE
  5
42
330
1E
100
AcDbEntity
  8
0
100
AcDbLine
 10
24.3
 20
1.000000000000009
 30
0.0
 11
37.2
 21
1.000000000000009
 31
0.0
  0
LINE
  5
43
330
1E
100
AcDbEntity
  8
0
100
AcDbLine
 10
32.1
 20
1.000000000000009
 30
0.0
 11
37.2
 21
1.000000000000009
 31
0.0
  0
LINE
  5
44
330
1E
100
AcDbEntity
  8
0
100
AcDbLine
 10
63.1498
 20
1.000000000000009
 30
0.0
 11
63.3337
 21
1.000000000000009
 31
0.0
  0
LINE
  5
45
330
1E
100
AcDbEntity
  8
0
100
AcDbLine
 10
54.7918
 20
1.000000000000009
 30
0.0
 11
55.82419999999999
 21
1.000000000000009
 31
0.0
  0
LINE
  5
46
330
1E
100
AcDbEntity
  8
0
100
AcDbLine
 10
62.6407
 20
1.000000000000009
 30
0.0
 11
63.1498
 21
1.000000000000009
 31
0.0
  0
LINE
  5
47
330
1E
100
AcDbEntity
  8
0
100
AcDbLine
 10
58.3274
 20
1.000000000000009
 30
0.0
 11
59.6426
 21
1.000000000000009
 31
0.0
  0
LINE
  5
48
330
1E
100
AcDbEntity
  8
0
100
AcDbLine
 10
53.5049
 20
1.000000000000009
 30
0.0
 11
54.01399999999999
 21
1.000000000000009
 31
0.0
  0
LINE
  5
49
330
1E
100
AcDbEntity
  8
0
100
AcDbLine
 10
53.3211
 20
1.000000000000009
 30
0.0
 11
53.3211
 21
0.0000000000000101
 31
0.0
  0
LINE
  5
4A
330
1E
100
AcDbEntity
  8
0
100
AcDbLine
 10
53.3211
 20
1.000000000000009
 30
0.0
 11
53.5049
 21
1.000000000000009
 31
0.0
  0
LINE
  5
4B
330
1E
100
AcDbEntity
  8
0
100
AcDbLine
 10
63.3337
 20
1.000000000000009
 30
0.0
 11
65.59999999999999
 21
1.000000000000009
 31
0.0
  0
LINE
  5
4C
330
1E
100
AcDbEntity
  8
0
100
AcDbLine
 10
63.3337
 20
1.000000000000009
 30
0.0
 11
63.3337
 21
0.0000000000000095
 31
0.0
  0
LINE
  5
4D
330
1E
100
AcDbEntity
  8
0
100
AcDbLine
 10
52.2
 20
1.000000000000009
 30
0.0
 11
53.3211
 21
1.000000000000009
 31
0.0
  0
LINE
  5
4E
330
1E
100
AcDbEntity
  8
0
100
AcDbLine
 10
0.0000000000000003
 20
2.00000000000001
 30
0.0
 11
0.0000000000000008
 21
10.0
 31
0.0
  0
LINE
  5
4F
330
1E
100
AcDbEntity
  8
0
100
AcDbLine
 10
0.0000000000000003
 20
2.00000000000001
 30
0.0
 11
0.0000000000000008
 21
10.0
 31
0.0
  0
LINE
  5
50
330
1E
100
AcDbEntity
  8
0
100
AcDbLine
 10
0.0000000000000003
 20
2.00000000000001
 30
0.0
 11
1.0
 21
1.000000000000009
 31
0.0
  0
LINE
  5
51
330
1E
100
AcDbEntity
  8
0
100
AcDbLine
 10
0.0000000000000003
 20
2.00000000000001
 30
0.0
 11
1.8
 21
2.00000000000001
 31
0.0
  0
LINE
  5
52
330
1E
100
AcDbEntity
  8
0
100
AcDbLine
 10
0.0000000000000008
 20
10.0
 30
0.0
 11
1.0
 21
11.0
 31
0.0
  0
LINE
  5
53
330
1E
100
AcDbEntity
  8
0
100
AcDbLine
 10
0.0000000000000009
 20
10.0
 30
0.0
 11
1.8
 21
10.0
 31
0.0
  0
LINE
  5
54
330
1E
100
AcDbEntity
  8
0
100
AcDbLine
 10
0.0000000000000008
 20
10.0
 30
0.0
 11
1.0
 21
11.0
 31
0.0
  0
LINE
  5
55
330
1E
100
AcDbEntity
  8
0
100
AcDbLine
 10
0.0000000000000008
 20
10.0
 30
0.0
 11
1.8
 21
10.0
 31
0.0
  0
LINE
  5
56
330
1E
100
AcDbEntity
  8
0
100
AcDbLine
 10
0.0000000000000003
 20
2.00000000000001
 30
0.0
 11
1.0
 21
1.000000000000009
 31
0.0
  0
LINE
  5
57
330
1E
100
AcDbEntity
  8
0
100
AcDbLine
 10
0.0000000000000003
 20
2.00000000000001
 30
0.0
 11
1.8
 21
2.00000000000001
 31
0.0
  0
LINE
  5
58
330
1E
100
AcDbEntity
  8
0
100
AcDbLine
 10
11.27999999999999
 20
1.000000000000009
 30
0.0
 11
12.48
 21
1.000000000000009
 31
0.0
  0
LINE
  5
59
330
1E
100
AcDbEntity
  8
0
100
AcDbLine
 10
14.34
 20
1.000000000000009
 30
0.0
 11
14.59999999999999
 21
1.000000000000009
 31
0.0
  0
LINE
  5
5A
330
1E
100
AcDbEntity
  8
0
100
AcDbLine
 10
13.54
 20
1.000000000000009
 30
0.0
 11
14.34
 21
1.000000000000009
 31
0.0
  0
LINE
  5
5B
330
1E
100
AcDbEntity
  8
0
100
AcDbLine
 10
15.0
 20
1.000000000000009
 30
0.0
 11
15.0
 21
0.0000000000000124
 31
0.0
  0
LINE
  5
5C
330
1E
100
AcDbEntity
  8
0
100
AcDbLine
 10
14.59999999999999
 20
1.000000000000009
 30
0.0
 11
24.3
 21
1.000000000000009
 31
0.0
  0
LINE
  5
5D
330
1E
100
AcDbEntity
  8
0
100
AcDbLine
 10
14.82
 20
1.000000000000009
 30
0.0
 11
20.0
 21
1.000000000000009
 31
0.0
  0
LINE
  5
5E
330
1E
100
AcDbEntity
  8
0
100
AcDbLine
 10
14.82
 20
1.000000000000009
 30
0.0
 11
15.0
 21
1.000000000000009
 31
0.0
  0
LINE
  5
5F
330
1E
100
AcDbEntity
  8
0
100
AcDbLine
 10
12.48
 20
1.000000000000009
 30
0.0
 11
13.54
 21
1.000000000000009
 31
0.0
  0
LINE
  5
60
330
1E
100
AcDbEntity
  8
0
100
AcDbLine
 10
5.179999999999999
 20
1.000000000000009
 30
0.0
 11
5.66
 21
1.000000000000009
 31
0.0
  0
LINE
  5
61
330
1E
100
AcDbEntity
  8
0
100
AcDbLine
 10
5.0
 20
1.000000000000009
 30
0.0
 11
5.0
 21
0.0000000000000131
 31
0.0
  0
LINE
  5
62
330
1E
100
AcDbEntity
  8
0
100
AcDbLine
 10
5.0
 20
1.000000000000009
 30
0.0
 11
5.179999999999999
 21
1.000000000000009
 31
0.0
  0
LINE
  5
63
330
1E
100
AcDbEntity
  8
0
100
AcDbLine
 10
7.299999999999999
 20
1.000000000000009
 30
0.0
 11
14.59999999999999
 21
1.000000000000009
 31
0.0
  0
LINE
  5
64
330
1E
100
AcDbEntity
  8
0
100
AcDbLine
 10
1.0
 20
11.0
 30
0.0
 11
2.7
 21
11.0
 31
0.0
  0
LINE
  5
65
330
1E
100
AcDbEntity
  8
0
100
AcDbLine
 10
23.39999999999999
 20
2.00000000000001
 30
0.0
 11
36.4
 21
2.00000000000001
 31
0.0
  0
LINE
  5
66
330
1E
100
AcDbEntity
  8
0
100
AcDbLine
 10
13.7
 20
2.00000000000001
 30
0.0
 11
23.39999999999999
 21
2.00000000000001
 31
0.0
  0
LINE
  5
67
330
1E
100
AcDbEntity
  8
0
100
AcDbLine
 10
23.39999999999999
 20
10.0
 30
0.0
 11
36.4
 21
10.0
 31
0.0
  0
LINE
  5
68
330
1E
100
AcDbEntity
  8
0
100
AcDbLine
 10
13.7
 20
10.0
 30
0.0
 11
23.39999999999999
 21
10.0
 31
0.0
  0
LINE
  5
69
330
1E
100
AcDbEntity
  8
0
100
AcDbLine
 10
14.59999999999999
 20
11.0
 30
0.0
 11
24.3
 21
11.0
 31
0.0
  0
LINE
  5
6A
330
1E
100
AcDbEntity
  8
0
100
AcDbLine
 10
7.299999999999999
 20
11.0
 30
0.0
 11
14.59999999999999
 21
11.0
 31
0.0
  0
LINE
  5
6B
330
1E
100
AcDbEntity
  8
0
100
AcDbLine
 10
2.7
 20
11.0
 30
0.0
 11
7.299999999999999
 21
11.0
 31
0.0
  0
LINE
  5
6C
330
1E
100
AcDbEntity
  8
0
100
AcDbLine
 10
6.299999999999999
 20
10.0
 30
0.0
 11
13.7
 21
10.0
 31
0.0
  0
LINE
  5
6D
330
1E
100
AcDbEntity
  8
0
100
AcDbLine
 10
1.8
 20
10.0
 30
0.0
 11
6.299999999999999
 21
10.0
 31
0.0
  0
LINE
  5
6E
330
1E
100
AcDbEntity
  8
0
100
AcDbLine
 10
6.299999999999999
 20
2.00000000000001
 30
0.0
 11
13.7
 21
2.00000000000001
 31
0.0
  0
LINE
  5
6F
330
1E
100
AcDbEntity
  8
0
100
AcDbLine
 10
1.8
 20
2.00000000000001
 30
0.0
 11
6.299999999999999
 21
2.00000000000001
 31
0.0
  0
LINE
  5
70
330
1E
100
AcDbEntity
  8
0
100
AcDbLine
 10
2.7
 20
1.000000000000009
 30
0.0
 11
7.299999999999999
 21
1.000000000000009
 31
0.0
  0
LINE
  5
71
330
1E
100
AcDbEntity
  8
0
100
AcDbLine
 10
51.4
 20
2.00000000000001
 30
0.0
 11
68.59999999999999
 21
2.00000000000001
 31
0.0
  0
LINE
  5
72
330
1E
100
AcDbEntity
  8
0
100
AcDbLine
 10
68.59999999999999
 20
2.00000000000001
 30
0.0
 11
87.9
 21
2.00000000000001
 31
0.0
  0
LINE
  5
73
330
1E
100
AcDbEntity
  8
0
100
AcDbLine
 10
87.9
 20
2.00000000000001
 30
0.0
 11
108.2
 21
2.00000000000001
 31
0.0
  0
LINE
  5
74
330
1E
100
AcDbEntity
  8
0
100
AcDbLine
 10
51.4
 20
10.0
 30
0.0
 11
68.59999999999999
 21
10.0
 31
0.0
  0
LINE
  5
75
330
1E
100
AcDbEntity
  8
0
100
AcDbLine
 10
52.1
 20
11.0
 30
0.0
 11
69.2
 21
11.0
 31
0.0
  0
LINE
  5
76
330
1E
100
AcDbEntity
  8
0
100
AcDbLine
 10
69.2
 20
11.0
 30
0.0
 11
88.40000000000001
 21
11.0
 31
0.0
  0
LINE
  5
77
330
1E
100
AcDbEntity
  8
0
100
AcDbLine
 10
68.59999999999999
 20
10.0
 30
0.0
 11
87.9
 21
10.0
 31
0.0
  0
LINE
  5
78
330
1E
100
AcDbEntity
  8
0
100
AcDbLine
 10
87.9
 20
10.0
 30
0.0
 11
108.2
 21
10.0
 31
0.0
  0
LINE
  5
79
330
1E
100
AcDbEntity
  8
0
100
AcDbLine
 10
37.2
 20
11.0
 30
0.0
 11
52.1
 21
11.0
 31
0.0
  0
LINE
  5
7A
330
1E
100
AcDbEntity
  8
0
100
AcDbLine
 10
36.4
 20
10.0
 30
0.0
 11
51.4
 21
10.0
 31
0.0
  0
LINE
  5
7B
330
1E
100
AcDbEntity
  8
0
100
AcDbLine
 10
36.4
 20
2.00000000000001
 30
0.0
 11
51.4
 21
2.00000000000001
 31
0.0
  0
LINE
  5
7C
330
1E
100
AcDbEntity
  8
0
100
AcDbLine
 10
24.3
 20
11.0
 30
0.0
 11
37.2
 21
11.0
 31
0.0
  0
LINE
  5
7D
330
1E
100
AcDbEntity
  8
0
100
AcDbLine
 10
10.0
 20
1.000000000000009
 30
0.0
 11
11.27999999999999
 21
1.000000000000009
 31
0.0
  0
LINE
  5
7E
330
1E
100
AcDbEntity
  8
0
100
AcDbLine
 10
1.0
 20
1.000000000000009
 30
0.0
 11
2.7
 21
1.000000000000009
 31
0.0
  0
LINE
  5
7F
330
1E
100
AcDbEntity
  8
0
100
AcDbLine
 10
21.6
 20
1.000000000000009
 30
0.0
 11
25.6
 21
1.000000000000009
 31
0.0
  0
LINE
  5
80
330
1E
100
AcDbEntity
  8
0
100
AcDbLine
 10
88.40000000000001
 20
11.0
 30
0.0
 11
108.4999999999999
 21
11.0
 31
0.0
  0
LINE
  5
81
330
1E
100
AcDbEntity
  8
0
100
AcDbLine
 10
69.2
 20
1.000000000000009
 30
0.0
 11
80.8
 21
1.000000000000009
 31
0.0
  0
LINE
  5
82
330
1E
100
AcDbEntity
  8
0
100
AcDbLine
 10
69.2
 20
1.000000000000009
 30
0.0
 11
88.40000000000001
 21
1.000000000000009
 31
0.0
  0
LINE
  5
83
330
1E
100
AcDbEntity
  8
0
100
AcDbLine
 10
170.18
 20
0.000000000000003
 30
0.0
 11
170.6599999999999
 21
0.000000000000003
 31
0.0
  0
LINE
  5
84
330
1E
100
AcDbEntity
  8
0
100
AcDbLine
 10
170.0
 20
0.000000000000003
 30
0.0
 11
170.0
 21
1.0
 31
0.0
  0
LINE
  5
85
330
1E
100
AcDbEntity
  8
0
100
AcDbLine
 10
170.0
 20
0.000000000000003
 30
0.0
 11
170.18
 21
0.000000000000003
 31
0.0
  0
LINE
  5
86
330
1E
100
AcDbEntity
  8
0
100
AcDbLine
 10
177.4799999999999
 20
0.0000000000000025
 30
0.0
 11
178.5399999999999
 21
0.0000000000000025
 31
0.0
  0
LINE
  5
87
330
1E
100
AcDbEntity
  8
0
100
AcDbLine
 10
175.0
 20
0.0000000000000027
 30
0.0
 11
176.28
 21
0.0000000000000026
 31
0.0
  0
LINE
  5
88
330
1E
100
AcDbEntity
  8
0
100
AcDbLine
 10
173.72
 20
0.0000000000000028
 30
0.0
 11
175.0
 21
0.0000000000000027
 31
0.0
  0
LINE
  5
89
330
1E
100
AcDbEntity
  8
0
100
AcDbLine
 10
176.28
 20
0.0000000000000026
 30
0.0
 11
177.4799999999999
 21
0.0000000000000025
 31
0.0
  0
LINE
  5
8A
330
1E
100
AcDbEntity
  8
0
100
AcDbLine
 10
179.34
 20
0.0000000000000024
 30
0.0
 11
179.82
 21
0.0000000000000024
 31
0.0
  0
LINE
  5
8B
330
1E
100
AcDbEntity
  8
0
100
AcDbLine
 10
178.5399999999999
 20
0.0000000000000025
 30
0.0
 11
179.34
 21
0.0000000000000024
 31
0.0
  0
LINE
  5
8C
330
1E
100
AcDbEntity
  8
0
100
AcDbLine
 10
176.28
 20
1.0
 30
0.0
 11
177.4799999999999
 21
1.0
 31
0.0
  0
LINE
  5
8D
330
1E
100
AcDbEntity
  8
0
100
AcDbLine
 10
178.5399999999999
 20
1.0
 30
0.0
 11
179.34
 21
1.0
 31
0.0
  0
LINE
  5
8E
330
1E
100
AcDbEntity
  8
0
100
AcDbLine
 10
171.46
 20
0.0000000000000029
 30
0.0
 11
172.52
 21
0.0000000000000028
 31
0.0
  0
LINE
  5
8F
330
1E
100
AcDbEntity
  8
0
100
AcDbLine
 10
172.52
 20
0.0000000000000028
 30
0.0
 11
173.72
 21
0.0000000000000028
 31
0.0
  0
LINE
  5
90
330
1E
100
AcDbEntity
  8
0
100
AcDbLine
 10
170.6599999999999
 20
0.000000000000003
 30
0.0
 11
171.46
 21
0.0000000000000029
 31
0.0
  0
LINE
  5
91
330
1E
100
AcDbEntity
  8
0
100
AcDbLine
 10
171.46
 20
1.0
 30
0.0
 11
172.52
 21
1.0
 31
0.0
  0
LINE
  5
92
330
1E
100
AcDbEntity
  8
0
100
AcDbLine
 10
170.18
 20
1.0
 30
0.0
 11
170.6599999999999
 21
1.0
 31
0.0
  0
LINE
  5
93
330
1E
100
AcDbEntity
  8
0
100
AcDbLine
 10
170.0
 20
1.0
 30
0.0
 11
170.0
 21
0.000000000000003
 31
0.0
  0
LINE
  5
94
330
1E
100
AcDbEntity
  8
0
100
AcDbLine
 10
170.0
 20
1.0
 30
0.0
 11
170.18
 21
1.0
 31
0.0
  0
LINE
  5
95
330
1E
100
AcDbEntity
  8
0
100
AcDbLine
 10
175.0
 20
1.0
 30
0.0
 11
176.28
 21
1.0
 31
0.0
  0
LINE
  5
96
330
1E
100
AcDbEntity
  8
0
100
AcDbLine
 10
175.0
 20
1.0
 30
0.0
 11
197.5
 21
1.0
 31
0.0
  0
LINE
  5
97
330
1E
100
AcDbEntity
  8
0
100
AcDbLine
 10
177.4799999999999
 20
1.0
 30
0.0
 11
178.5399999999999
 21
1.0
 31
0.0
  0
LINE
  5
98
330
1E
100
AcDbEntity
  8
0
100
AcDbLine
 10
180.0
 20
0.0000000000000024
 30
0.0
 11
180.0
 21
1.0
 31
0.0
  0
LINE
  5
99
330
1E
100
AcDbEntity
  8
0
100
AcDbLine
 10
179.82
 20
0.0000000000000024
 30
0.0
 11
180.0
 21
0.0000000000000024
 31
0.0
  0
LINE
  5
9A
330
1E
100
AcDbEntity
  8
0
100
AcDbLine
 10
197.5
 20
1.0
 30
0.0
 11
219.9
 21
1.0
 31
0.0
  0
LINE
  5
9B
330
1E
100
AcDbEntity
  8
0
100
AcDbLine
 10
241.5
 20
0.9999999999999989
 30
0.0
 11
261.6
 21
0.9999999999999969
 31
0.0
  0
LINE
  5
9C
330
1E
100
AcDbEntity
  8
0
100
AcDbLine
 10
343.54
 20
-0.0000000000000076
 30
0.0
 11
344.34
 21
-0.0000000000000077
 31
0.0
  0
LINE
  5
9D
330
1E
100
AcDbEntity
  8
0
100
AcDbLine
 10
344.34
 20
-0.0000000000000077
 30
0.0
 11
344.8199999999999
 21
-0.0000000000000077
 31
0.0
  0
LINE
  5
9E
330
1E
100
AcDbEntity
  8
0
100
AcDbLine
 10
342.48
 20
-0.0000000000000076
 30
0.0
 11
343.54
 21
-0.0000000000000076
 31
0.0
  0
LINE
  5
9F
330
1E
100
AcDbEntity
  8
0
100
AcDbLine
 10
341.2799999999999
 20
-0.0000000000000075
 30
0.0
 11
342.48
 21
-0.0000000000000076
 31
0.0
  0
LINE
  5
A0
330
1E
100
AcDbEntity
  8
0
100
AcDbLine
 10
335.0
 20
-0.0000000000000071
 30
0.0
 11
335.18
 21
-0.0000000000000071
 31
0.0
  0
LINE
  5
A1
330
1E
100
AcDbEntity
  8
0
100
AcDbLine
 10
335.0
 20
-0.0000000000000071
 30
0.0
 11
335.0
 21
0.9999999999999928
 31
0.0
  0
LINE
  5
A2
330
1E
100
AcDbEntity
  8
0
100
AcDbLine
 10
335.18
 20
-0.0000000000000071
 30
0.0
 11
335.66
 21
-0.0000000000000071
 31
0.0
  0
LINE
  5
A3
330
1E
100
AcDbEntity
  8
0
100
AcDbLine
 10
335.66
 20
-0.0000000000000071
 30
0.0
 11
336.4599999999999
 21
-0.0000000000000072
 31
0.0
  0
LINE
  5
A4
330
1E
100
AcDbEntity
  8
0
100
AcDbLine
 10
336.4599999999999
 20
-0.0000000000000072
 30
0.0
 11
337.5199999999999
 21
-0.0000000000000073
 31
0.0
  0
LINE
  5
A5
330
1E
100
AcDbEntity
  8
0
100
AcDbLine
 10
337.5199999999999
 20
-0.0000000000000073
 30
0.0
 11
338.72
 21
-0.0000000000000073
 31
0.0
  0
LINE
  5
A6
330
1E
100
AcDbEntity
  8
0
100
AcDbLine
 10
338.72
 20
-0.0000000000000073
 30
0.0
 11
340.0
 21
-0.0000000000000074
 31
0.0
  0
LINE
  5
A7
330
1E
100
AcDbEntity
  8
0
100
AcDbLine
 10
340.0
 20
-0.0000000000000074
 30
0.0
 11
341.2799999999999
 21
-0.0000000000000075
 31
0.0
  0
LINE
  5
A8
330
1E
100
AcDbEntity
  8
0
100
AcDbLine
 10
296.679
 20
-0.0000000000000048
 30
0.0
 11
296.679
 21
0.9999999999999948
 31
0.0
  0
LINE
  5
A9
330
1E
100
AcDbEntity
  8
0
100
AcDbLine
 10
296.4949999999999
 20
-0.0000000000000047
 30
0.0
 11
296.679
 21
-0.0000000000000048
 31
0.0
  0
LINE
  5
AA
330
1E
100
AcDbEntity
  8
0
100
AcDbLine
 10
295.9859999999999
 20
-0.0000000000000047
 30
0.0
 11
296.4949999999999
 21
-0.0000000000000047
 31
0.0
  0
LINE
  5
AB
330
1E
100
AcDbEntity
  8
0
100
AcDbLine
 10
286.6659999999999
 20
-0.0000000000000041
 30
0.0
 11
286.85
 21
-0.0000000000000042
 31
0.0
  0
LINE
  5
AC
330
1E
100
AcDbEntity
  8
0
100
AcDbLine
 10
286.6659999999999
 20
-0.0000000000000041
 30
0.0
 11
286.6659999999999
 21
0.999999999999996
 31
0.0
  0
LINE
  5
AD
330
1E
100
AcDbEntity
  8
0
100
AcDbLine
 10
286.85
 20
-0.0000000000000042
 30
0.0
 11
287.359
 21
-0.0000000000000042
 31
0.0
  0
LINE
  5
AE
330
1E
100
AcDbEntity
  8
0
100
AcDbLine
 10
287.359
 20
-0.0000000000000042
 30
0.0
 11
288.137
 21
-0.0000000000000042
 31
0.0
  0
LINE
  5
AF
330
1E
100
AcDbEntity
  8
0
100
AcDbLine
 10
294.176
 20
-0.0000000000000046
 30
0.0
 11
295.2079999999999
 21
-0.0000000000000047
 31
0.0
  0
LINE
  5
B0
330
1E
100
AcDbEntity
  8
0
100
AcDbLine
 10
292.988
 20
-0.0000000000000045
 30
0.0
 11
294.176
 21
-0.0000000000000046
 31
0.0
  0
LINE
  5
B1
330
1E
100
AcDbEntity
  8
0
100
AcDbLine
 10
291.673
 20
-0.0000000000000044
 30
0.0
 11
292.988
 21
-0.0000000000000045
 31
0.0
  0
LINE
  5
B2
330
1E
100
AcDbEntity
  8
0
100
AcDbLine
 10
290.357
 20
-0.0000000000000044
 30
0.0
 11
291.673
 21
-0.0000000000000044
 31
0.0
  0
LINE
  5
B3
330
1E
100
AcDbEntity
  8
0
100
AcDbLine
 10
341.2799999999999
 20
0.9999999999999928
 30
0.0
 11
342.48
 21
0.9999999999999928
 31
0.0
  0
LINE
  5
B4
330
1E
100
AcDbEntity
  8
0
100
AcDbLine
 10
343.54
 20
0.9999999999999921
 30
0.0
 11
344.34
 21
0.9999999999999921
 31
0.0
  0
LINE
  5
B5
330
1E
100
AcDbEntity
  8
0
100
AcDbLine
 10
342.48
 20
0.9999999999999928
 30
0.0
 11
343.54
 21
0.9999999999999921
 31
0.0
  0
LINE
  5
B6
330
1E
100
AcDbEntity
  8
0
100
AcDbLine
 10
289.169
 20
-0.0000000000000043
 30
0.0
 11
290.357
 21
-0.0000000000000044
 31
0.0
  0
LINE
  5
B7
330
1E
100
AcDbEntity
  8
0
100
AcDbLine
 10
288.137
 20
-0.0000000000000042
 30
0.0
 11
289.169
 21
-0.0000000000000043
 31
0.0
  0
LINE
  5
B8
330
1E
100
AcDbEntity
  8
0
100
AcDbLine
 10
295.2079999999999
 20
-0.0000000000000047
 30
0.0
 11
295.9859999999999
 21
-0.0000000000000047
 31
0.0
  0
LINE
  5
B9
330
1E
100
AcDbEntity
  8
0
100
AcDbLine
 10
345.0
 20
-0.0000000000000077
 30
0.0
 11
345.0
 21
0.9999999999999921
 31
0.0
  0
LINE
  5
BA
330
1E
100
AcDbEntity
  8
0
100
AcDbLine
 10
344.8199999999999
 20
0.9999999999999921
 30
0.0
 11
345.0
 21
0.9999999999999921
 31
0.0
  0
LINE
  5
BB
330
1E
100
AcDbEntity
  8
0
100
AcDbLine
 10
345.0
 20
0.9999999999999921
 30
0.0
 11
345.0
 21
-0.0000000000000078
 31
0.0
  0
LINE
  5
BC
330
1E
100
AcDbEntity
  8
0
100
AcDbLine
 10
344.8199999999999
 20
-0.0000000000000077
 30
0.0
 11
345.0
 21
-0.0000000000000077
 31
0.0
  0
LINE
  5
BD
330
1E
100
AcDbEntity
  8
0
100
AcDbLine
 10
344.34
 20
0.9999999999999921
 30
0.0
 11
347.3
 21
0.9999999999999921
 31
0.0
  0
LINE
  5
BE
330
1E
100
AcDbEntity
  8
0
100
AcDbLine
 10
344.34
 20
0.9999999999999921
 30
0.0
 11
344.8199999999999
 21
0.9999999999999921
 31
0.0
  0
LINE
  5
BF
330
1E
100
AcDbEntity
  8
0
100
AcDbLine
 10
335.0
 20
0.9999999999999928
 30
0.0
 11
335.0
 21
-0.0000000000000071
 31
0.0
  0
LINE
  5
C0
330
1E
100
AcDbEntity
  8
0
100
AcDbLine
 10
335.0
 20
0.9999999999999928
 30
0.0
 11
335.18
 21
0.9999999999999928
 31
0.0
  0
LINE
  5
C1
330
1E
100
AcDbEntity
  8
0
100
AcDbLine
 10
335.18
 20
0.9999999999999928
 30
0.0
 11
335.3999999999999
 21
0.9999999999999928
 31
0.0
  0
LINE
  5
C2
330
1E
100
AcDbEntity
  8
0
100
AcDbLine
 10
338.72
 20
0.9999999999999928
 30
0.0
 11
340.0
 21
0.9999999999999928
 31
0.0
  0
LINE
  5
C3
330
1E
100
AcDbEntity
  8
0
100
AcDbLine
 10
336.4599999999999
 20
0.9999999999999928
 30
0.0
 11
337.5199999999999
 21
0.9999999999999928
 31
0.0
  0
LINE
  5
C4
330
1E
100
AcDbEntity
  8
0
100
AcDbLine
 10
340.0
 20
0.9999999999999928
 30
0.0
 11
341.2799999999999
 21
0.9999999999999928
 31
0.0
  0
LINE
  5
C5
330
1E
100
AcDbEntity
  8
0
100
AcDbLine
 10
335.3999999999999
 20
0.9999999999999928
 30
0.0
 11
342.7
 21
0.9999999999999928
 31
0.0
  0
LINE
  5
C6
330
1E
100
AcDbEntity
  8
0
100
AcDbLine
 10
342.7
 20
0.9999999999999928
 30
0.0
 11
347.3
 21
0.9999999999999921
 31
0.0
  0
LINE
  5
C7
330
1E
100
AcDbEntity
  8
0
100
AcDbLine
 10
342.7
 20
0.9999999999999928
 30
0.0
 11
343.54
 21
0.9999999999999921
 31
0.0
  0
LINE
  5
C8
330
1E
100
AcDbEntity
  8
0
100
AcDbLine
 10
349.0
 20
0.9999999999999921
 30
0.0
 11
350.0
 21
1.999999999999989
 31
0.0
  0
LINE
  5
C9
330
1E
100
AcDbEntity
  8
0
100
AcDbLine
 10
347.3
 20
0.9999999999999921
 30
0.0
 11
349.0
 21
0.9999999999999921
 31
0.0
  0
LINE
  5
CA
330
1E
100
AcDbEntity
  8
0
100
AcDbLine
 10
296.4949999999999
 20
0.9999999999999948
 30
0.0
 11
296.679
 21
0.9999999999999948
 31
0.0
  0
LINE
  5
CB
330
1E
100
AcDbEntity
  8
0
100
AcDbLine
 10
296.679
 20
0.9999999999999948
 30
0.0
 11
296.679
 21
-0.0000000000000048
 31
0.0
  0
LINE
  5
CC
330
1E
100
AcDbEntity
  8
0
100
AcDbLine
 10
309.2
 20
0.9999999999999939
 30
0.0
 11
312.8
 21
0.9999999999999939
 31
0.0
  0
LINE
  5
CD
330
1E
100
AcDbEntity
  8
0
100
AcDbLine
 10
297.8999999999999
 20
0.9999999999999948
 30
0.0
 11
312.8
 21
0.9999999999999939
 31
0.0
  0
LINE
  5
CE
330
1E
100
AcDbEntity
  8
0
100
AcDbLine
 10
312.8
 20
0.9999999999999939
 30
0.0
 11
325.7
 21
0.9999999999999928
 31
0.0
  0
LINE
  5
CF
330
1E
100
AcDbEntity
  8
0
100
AcDbLine
 10
286.6659999999999
 20
0.999999999999996
 30
0.0
 11
286.6659999999999
 21
-0.0000000000000042
 31
0.0
  0
LINE
  5
D0
330
1E
100
AcDbEntity
  8
0
100
AcDbLine
 10
286.6659999999999
 20
0.999999999999996
 30
0.0
 11
286.85
 21
0.999999999999996
 31
0.0
  0
LINE
  5
D1
330
1E
100
AcDbEntity
  8
0
100
AcDbLine
 10
286.85
 20
0.999999999999996
 30
0.0
 11
287.359
 21
0.999999999999996
 31
0.0
  0
LINE
  5
D2
330
1E
100
AcDbEntity
  8
0
100
AcDbLine
 10
292.988
 20
0.9999999999999948
 30
0.0
 11
294.176
 21
0.9999999999999948
 31
0.0
  0
LINE
  5
D3
330
1E
100
AcDbEntity
  8
0
100
AcDbLine
 10
291.673
 20
0.999999999999996
 30
0.0
 11
292.988
 21
0.9999999999999948
 31
0.0
  0
LINE
  5
D4
330
1E
100
AcDbEntity
  8
0
100
AcDbLine
 10
288.137
 20
0.999999999999996
 30
0.0
 11
289.169
 21
0.999999999999996
 31
0.0
  0
LINE
  5
D5
330
1E
100
AcDbEntity
  8
0
100
AcDbLine
 10
295.2079999999999
 20
0.9999999999999948
 30
0.0
 11
295.9859999999999
 21
0.9999999999999948
 31
0.0
  0
LINE
  5
D6
330
1E
100
AcDbEntity
  8
0
100
AcDbLine
 10
284.3999999999999
 20
0.999999999999996
 30
0.0
 11
286.6659999999999
 21
0.999999999999996
 31
0.0
  0
LINE
  5
D7
330
1E
100
AcDbEntity
  8
0
100
AcDbLine
 10
295.9859999999999
 20
0.9999999999999948
 30
0.0
 11
297.8
 21
0.9999999999999948
 31
0.0
  0
LINE
  5
D8
330
1E
100
AcDbEntity
  8
0
100
AcDbLine
 10
295.9859999999999
 20
0.9999999999999948
 30
0.0
 11
296.4949999999999
 21
0.9999999999999948
 31
0.0
  0
LINE
  5
D9
330
1E
100
AcDbEntity
  8
0
100
AcDbLine
 10
297.8
 20
0.9999999999999948
 30
0.0
 11
297.8999999999999
 21
0.9999999999999948
 31
0.0
  0
LINE
  5
DA
330
1E
100
AcDbEntity
  8
0
100
AcDbLine
 10
325.7
 20
0.9999999999999928
 30
0.0
 11
335.3999999999999
 21
0.9999999999999928
 31
0.0
  0
LINE
  5
DB
330
1E
100
AcDbEntity
  8
0
100
AcDbLine
 10
317.8999999999999
 20
0.9999999999999939
 30
0.0
 11
324.3999999999999
 21
0.9999999999999939
 31
0.0
  0
LINE
  5
DC
330
1E
100
AcDbEntity
  8
0
100
AcDbLine
 10
328.3999999999999
 20
0.9999999999999928
 30
0.0
 11
330.0
 21
0.9999999999999928
 31
0.0
  0
LINE
  5
DD
330
1E
100
AcDbEntity
  8
0
100
AcDbLine
 10
280.8
 20
0.999999999999996
 30
0.0
 11
297.8999999999999
 21
0.9999999999999948
 31
0.0
  0
LINE
  5
DE
330
1E
100
AcDbEntity
  8
0
100
AcDbLine
 10
261.6
 20
0.9999999999999969
 30
0.0
 11
280.8
 21
0.999999999999996
 31
0.0
  0
LINE
  5
DF
330
1E
100
AcDbEntity
  8
0
100
AcDbLine
 10
269.1999999999999
 20
0.9999999999999969
 30
0.0
 11
284.3999999999999
 21
0.999999999999996
 31
0.0
  0
LINE
  5
E0
330
1E
100
AcDbEntity
  8
0
100
AcDbLine
 10
252.1999999999999
 20
0.9999999999999978
 30
0.0
 11
269.1999999999999
 21
0.9999999999999969
 31
0.0
  0
LINE
  5
E1
330
1E
100
AcDbEntity
  8
0
100
AcDbLine
 10
219.9
 20
1.0
 30
0.0
 11
241.5
 21
0.9999999999999989
 31
0.0
  0
LINE
  5
E2
330
1E
100
AcDbEntity
  8
0
100
AcDbLine
 10
234.2
 20
0.9999999999999989
 30
0.0
 11
252.1999999999999
 21
0.9999999999999978
 31
0.0
  0
LINE
  5
E3
330
1E
100
AcDbEntity
  8
0
100
AcDbLine
 10
215.0
 20
1.0
 30
0.0
 11
234.2
 21
0.9999999999999989
 31
0.0
  0
LINE
  5
E4
330
1E
100
AcDbEntity
  8
0
100
AcDbLine
 10
179.82
 20
1.0
 30
0.0
 11
180.0
 21
1.0
 31
0.0
  0
LINE
  5
E5
330
1E
100
AcDbEntity
  8
0
100
AcDbLine
 10
180.0
 20
1.0
 30
0.0
 11
180.0
 21
0.0000000000000023
 31
0.0
  0
LINE
  5
E6
330
1E
100
AcDbEntity
  8
0
100
AcDbLine
 10
195.1999999999999
 20
1.0
 30
0.0
 11
215.0
 21
1.0
 31
0.0
  0
LINE
  5
E7
330
1E
100
AcDbEntity
  8
0
100
AcDbLine
 10
179.34
 20
1.0
 30
0.0
 11
195.1999999999999
 21
1.0
 31
0.0
  0
LINE
  5
E8
330
1E
100
AcDbEntity
  8
0
100
AcDbLine
 10
179.34
 20
1.0
 30
0.0
 11
179.82
 21
1.0
 31
0.0
  0
LINE
  5
E9
330
1E
100
AcDbEntity
  8
0
100
AcDbLine
 10
108.4999999999999
 20
11.0
 30
0.0
 11
130.0999999999999
 21
11.0
 31
0.0
  0
LINE
  5
EA
330
1E
100
AcDbEntity
  8
0
100
AcDbLine
 10
108.2
 20
10.0
 30
0.0
 11
129.9
 21
10.0
 31
0.0
  0
LINE
  5
EB
330
1E
100
AcDbEntity
  8
0
100
AcDbLine
 10
108.2
 20
2.00000000000001
 30
0.0
 11
129.9
 21
2.00000000000001
 31
0.0
  0
LINE
  5
EC
330
1E
100
AcDbEntity
  8
0
100
AcDbLine
 10
129.9
 20
10.0
 30
0.0
 11
152.2
 21
10.0
 31
0.0
  0
LINE
  5
ED
330
1E
100
AcDbEntity
  8
0
100
AcDbLine
 10
149.0
 20
11.0
 30
0.0
 11
149.0
 21
45.0
 31
0.0
  0
LINE
  5
EE
330
1E
100
AcDbEntity
  8
0
100
AcDbLine
 10
149.9
 20
45.0
 30
0.0
 11
152.5
 21
45.0
 31
0.0
  0
LINE
  5
EF
330
1E
100
AcDbEntity
  8
0
100
AcDbLine
 10
151.0
 20
47.0
 30
0.0
 11
151.9
 21
47.0
 31
0.0
  0
LINE
  5
F0
330
1E
100
AcDbEntity
  8
0
100
AcDbLine
 10
151.9
 20
47.0
 30
0.0
 11
154.1999999999999
 21
47.0
 31
0.0
  0
LINE
  5
F1
330
1E
100
AcDbEntity
  8
0
100
AcDbLine
 10
152.5
 20
45.0
 30
0.0
 11
156.6999999999999
 21
45.0
 31
0.0
  0
LINE
  5
F2
330
1E
100
AcDbEntity
  8
0
100
AcDbLine
 10
149.0
 20
45.0
 30
0.0
 11
151.0
 21
47.0
 31
0.0
  0
LINE
  5
F3
330
1E
100
AcDbEntity
  8
0
100
AcDbLine
 10
149.0
 20
45.0
 30
0.0
 11
149.0
 21
11.0
 31
0.0
  0
LINE
  5
F4
330
1E
100
AcDbEntity
  8
0
100
AcDbLine
 10
149.0
 20
45.0
 30
0.0
 11
149.9
 21
45.0
 31
0.0
  0
LINE
  5
F5
330
1E
100
AcDbEntity
  8
0
100
AcDbLine
 10
130.0999999999999
 20
11.0
 30
0.0
 11
152.5
 21
11.0
 31
0.0
  0
LINE
  5
F6
330
1E
100
AcDbEntity
  8
0
100
AcDbLine
 10
154.1999999999999
 20
47.0
 30
0.0
 11
158.0999999999999
 21
47.0
 31
0.0
  0
LINE
  5
F7
330
1E
100
AcDbEntity
  8
0
100
AcDbLine
 10
158.0999999999999
 20
47.0
 30
0.0
 11
163.1
 21
47.0
 31
0.0
  0
LINE
  5
F8
330
1E
100
AcDbEntity
  8
0
100
AcDbLine
 10
156.6999999999999
 20
45.0
 30
0.0
 11
162.0999999999999
 21
45.0
 31
0.0
  0
LINE
  5
F9
330
1E
100
AcDbEntity
  8
0
100
AcDbLine
 10
162.0999999999999
 20
45.0
 30
0.0
 11
168.3
 21
45.0
 31
0.0
  0
LINE
  5
FA
330
1E
100
AcDbEntity
  8
0
100
AcDbLine
 10
160.0
 20
71.0
 30
0.0
 11
160.0
 21
56.0
 31
0.0
  0
LINE
  5
FB
330
1E
100
AcDbEntity
  8
0
100
AcDbLine
 10
160.0
 20
71.0
 30
0.0
 11
160.4999999999999
 21
71.0
 31
0.0
  0
LINE
  5
FC
330
1E
100
AcDbEntity
  8
0
100
AcDbLine
 10
160.4999999999999
 20
71.0
 30
0.0
 11
162.0
 21
71.0
 31
0.0
  0
LINE
  5
FD
330
1E
100
AcDbEntity
  8
0
100
AcDbLine
 10
162.0
 20
71.0
 30
0.0
 11
164.4
 21
71.0
 31
0.0
  0
LINE
  5
FE
330
1E
100
AcDbEntity
  8
0
100
AcDbLine
 10
160.4999999999999
 20
56.0
 30
0.0
 11
162.0
 21
56.0
 31
0.0
  0
LINE
  5
FF
330
1E
100
AcDbEntity
  8
0
100
AcDbLine
 10
162.0
 20
56.0
 30
0.0
 11
164.4
 21
56.0
 31
0.0
  0
LINE
  5
100
330
1E
100
AcDbEntity
  8
0
100
AcDbLine
 10
162.0
 20
49.0
 30
0.0
 11
162.5
 21
49.0
 31
0.0
  0
LINE
  5
101
330
1E
100
AcDbEntity
  8
0
100
AcDbLine
 10
160.0
 20
56.0
 30
0.0
 11
163.0
 21
55.0
 31
0.0
  0
LINE
  5
102
330
1E
100
AcDbEntity
  8
0
100
AcDbLine
 10
160.0
 20
56.0
 30
0.0
 11
160.0
 21
71.0
 31
0.0
  0
LINE
  5
103
330
1E
100
AcDbEntity
  8
0
100
AcDbLine
 10
160.0
 20
56.0
 30
0.0
 11
160.4999999999999
 21
56.0
 31
0.0
  0
LINE
  5
104
330
1E
100
AcDbEntity
  8
0
100
AcDbLine
 10
160.0
 20
47.0
 30
0.0
 11
162.0
 21
49.0
 31
0.0
  0
LINE
  5
105
330
1E
100
AcDbEntity
  8
0
100
AcDbLine
 10
152.5
 20
11.0
 30
0.0
 11
175.0
 21
11.0
 31
0.0
  0
LINE
  5
106
330
1E
100
AcDbEntity
  8
0
100
AcDbLine
 10
152.5
 20
11.0
 30
0.0
 11
156.6999999999999
 21
11.0
 31
0.0
  0
LINE
  5
107
330
1E
100
AcDbEntity
  8
0
100
AcDbLine
 10
152.2
 20
10.0
 30
0.0
 11
175.0
 21
10.0
 31
0.0
  0
LINE
  5
108
330
1E
100
AcDbEntity
  8
0
100
AcDbLine
 10
129.9
 20
2.00000000000001
 30
0.0
 11
152.2
 21
2.0
 31
0.0
  0
LINE
  5
109
330
1E
100
AcDbEntity
  8
0
100
AcDbLine
 10
152.2
 20
2.0
 30
0.0
 11
175.0
 21
2.0
 31
0.0
  0
LINE
  5
10A
330
1E
100
AcDbEntity
  8
0
100
AcDbLine
 10
108.4999999999999
 20
1.000000000000009
 30
0.0
 11
130.0999999999999
 21
1.000000000000009
 31
0.0
  0
LINE
  5
10B
330
1E
100
AcDbEntity
  8
0
100
AcDbLine
 10
130.0999999999999
 20
1.000000000000009
 30
0.0
 11
152.5
 21
1.0
 31
0.0
  0
LINE
  5
10C
330
1E
100
AcDbEntity
  8
0
100
AcDbLine
 10
350.0
 20
1.999999999999989
 30
0.0
 11
350.0
 21
9.999999999999991
 31
0.0
  0
LINE
  5
10D
330
1E
100
AcDbEntity
  8
0
100
AcDbLine
 10
298.6
 20
2.0
 30
0.0
 11
313.6
 21
1.999999999999989
 31
0.0
  0
LINE
  5
10E
330
1E
100
AcDbEntity
  8
0
100
AcDbLine
 10
313.6
 20
1.999999999999989
 30
0.0
 11
326.6
 21
1.999999999999989
 31
0.0
  0
LINE
  5
10F
330
1E
100
AcDbEntity
  8
0
100
AcDbLine
 10
326.6
 20
1.999999999999989
 30
0.0
 11
336.2999999999999
 21
1.999999999999989
 31
0.0
  0
LINE
  5
110
330
1E
100
AcDbEntity
  8
0
100
AcDbLine
 10
336.2999999999999
 20
1.999999999999989
 30
0.0
 11
343.6999999999999
 21
1.999999999999989
 31
0.0
  0
LINE
  5
111
330
1E
100
AcDbEntity
  8
0
100
AcDbLine
 10
343.6999999999999
 20
1.999999999999989
 30
0.0
 11
348.1999999999999
 21
1.999999999999989
 31
0.0
  0
LINE
  5
112
330
1E
100
AcDbEntity
  8
0
100
AcDbLine
 10
348.1999999999999
 20
1.999999999999989
 30
0.0
 11
350.0
 21
1.999999999999989
 31
0.0
  0
LINE
  5
113
330
1E
100
AcDbEntity
  8
0
100
AcDbLine
 10
281.3999999999999
 20
2.0
 30
0.0
 11
298.6
 21
2.0
 31
0.0
  0
LINE
  5
114
330
1E
100
AcDbEntity
  8
0
100
AcDbLine
 10
262.1
 20
2.0
 30
0.0
 11
281.3999999999999
 21
2.0
 31
0.0
  0
LINE
  5
115
330
1E
100
AcDbEntity
  8
0
100
AcDbLine
 10
241.8
 20
2.0
 30
0.0
 11
262.1
 21
2.0
 31
0.0
  0
LINE
  5
116
330
1E
100
AcDbEntity
  8
0
100
AcDbLine
 10
220.1
 20
2.0
 30
0.0
 11
241.8
 21
2.0
 31
0.0
  0
LINE
  5
117
330
1E
100
AcDbEntity
  8
0
100
AcDbLine
 10
197.8
 20
2.0
 30
0.0
 11
220.1
 21
2.0
 31
0.0
  0
LINE
  5
118
330
1E
100
AcDbEntity
  8
0
100
AcDbLine
 10
162.5
 20
49.0
 30
0.0
 11
163.7
 21
49.0
 31
0.0
  0
LINE
  5
119
330
1E
100
AcDbEntity
  8
0
100
AcDbLine
 10
163.0
 20
55.0
 30
0.0
 11
163.0
 21
49.0
 31
0.0
  0
LINE
  5
11A
330
1E
100
AcDbEntity
  8
0
100
AcDbLine
 10
163.0
 20
55.0
 30
0.0
 11
163.4
 21
55.0
 31
0.0
  0
LINE
  5
11B
330
1E
100
AcDbEntity
  8
0
100
AcDbLine
 10
163.0
 20
49.0
 30
0.0
 11
163.0
 21
55.0
 31
0.0
  0
LINE
  5
11C
330
1E
100
AcDbEntity
  8
0
100
AcDbLine
 10
175.0
 20
45.0
 30
0.0
 11
181.6999999999999
 21
45.0
 31
0.0
  0
LINE
  5
11D
330
1E
100
AcDbEntity
  8
0
100
AcDbLine
 10
163.7
 20
49.0
 30
0.0
 11
165.8
 21
49.0
 31
0.0
  0
LINE
  5
11E
330
1E
100
AcDbEntity
  8
0
100
AcDbLine
 10
165.8
 20
49.0
 30
0.0
 11
168.5
 21
49.0
 31
0.0
  0
LINE
  5
11F
330
1E
100
AcDbEntity
  8
0
100
AcDbLine
 10
163.4
 20
55.0
 30
0.0
 11
164.5999999999999
 21
55.0
 31
0.0
  0
LINE
  5
120
330
1E
100
AcDbEntity
  8
0
100
AcDbLine
 10
164.4
 20
71.0
 30
0.0
 11
167.5
 21
71.0
 31
0.0
  0
LINE
  5
121
330
1E
100
AcDbEntity
  8
0
100
AcDbLine
 10
164.4
 20
56.0
 30
0.0
 11
167.5
 21
56.0
 31
0.0
  0
LINE
  5
122
330
1E
100
AcDbEntity
  8
0
100
AcDbLine
 10
164.5999999999999
 20
55.0
 30
0.0
 11
166.5
 21
55.0
 31
0.0
  0
LINE
  5
123
330
1E
100
AcDbEntity
  8
0
100
AcDbLine
 10
167.5
 20
71.0
 30
0.0
 11
171.1
 21
71.0
 31
0.0
  0
LINE
  5
124
330
1E
100
AcDbEntity
  8
0
100
AcDbLine
 10
167.5
 20
56.0
 30
0.0
 11
171.1
 21
56.0
 31
0.0
  0
LINE
  5
125
330
1E
100
AcDbEntity
  8
0
100
AcDbLine
 10
166.5
 20
55.0
 30
0.0
 11
169.0
 21
55.0
 31
0.0
  0
LINE
  5
126
330
1E
100
AcDbEntity
  8
0
100
AcDbLine
 10
168.5
 20
49.0
 30
0.0
 11
171.6999999999999
 21
49.0
 31
0.0
  0
LINE
  5
127
330
1E
100
AcDbEntity
  8
0
100
AcDbLine
 10
175.0
 20
49.0
 30
0.0
 11
178.3
 21
49.0
 31
0.0
  0
LINE
  5
128
330
1E
100
AcDbEntity
  8
0
100
AcDbLine
 10
175.0
 20
47.0
 30
0.0
 11
181.1999999999999
 21
47.0
 31
0.0
  0
LINE
  5
129
330
1E
100
AcDbEntity
  8
0
100
AcDbLine
 10
171.1
 20
71.0
 30
0.0
 11
175.0
 21
71.0
 31
0.0
  0
LINE
  5
12A
330
1E
100
AcDbEntity
  8
0
100
AcDbLine
 10
171.1
 20
56.0
 30
0.0
 11
175.0
 21
56.0
 31
0.0
  0
LINE
  5
12B
330
1E
100
AcDbEntity
  8
0
100
AcDbLine
 10
169.0
 20
55.0
 30
0.0
 11
171.9
 21
55.0
 31
0.0
  0
LINE
  5
12C
330
1E
100
AcDbEntity
  8
0
100
AcDbLine
 10
175.0
 20
71.0
 30
0.0
 11
178.9
 21
71.0
 31
0.0
  0
LINE
  5
12D
330
1E
100
AcDbEntity
  8
0
100
AcDbLine
 10
175.0
 20
56.0
 30
0.0
 11
178.9
 21
56.0
 31
0.0
  0
LINE
  5
12E
330
1E
100
AcDbEntity
  8
0
100
AcDbLine
 10
175.0
 20
55.0
 30
0.0
 11
178.0999999999999
 21
55.0
 31
0.0
  0
LINE
  5
12F
330
1E
100
AcDbEntity
  8
0
100
AcDbLine
 10
171.9
 20
55.0
 30
0.0
 11
175.0
 21
55.0
 31
0.0
  0
LINE
  5
130
330
1E
100
AcDbEntity
  8
0
100
AcDbLine
 10
171.6999999999999
 20
49.0
 30
0.0
 11
175.0
 21
49.0
 31
0.0
  0
LINE
  5
131
330
1E
100
AcDbEntity
  8
0
100
AcDbLine
 10
168.8
 20
47.0
 30
0.0
 11
175.0
 21
47.0
 31
0.0
  0
LINE
  5
132
330
1E
100
AcDbEntity
  8
0
100
AcDbLine
 10
168.3
 20
45.0
 30
0.0
 11
175.0
 21
45.0
 31
0.0
  0
LINE
  5
133
330
1E
100
AcDbEntity
  8
0
100
AcDbLine
 10
163.1
 20
47.0
 30
0.0
 11
164.4
 21
47.0
 31
0.0
  0
LINE
  5
134
330
1E
100
AcDbEntity
  8
0
100
AcDbLine
 10
163.1
 20
47.0
 30
0.0
 11
168.8
 21
47.0
 31
0.0
  0
LINE
  5
135
330
1E
100
AcDbEntity
  8
0
100
AcDbLine
 10
175.0
 20
11.0
 30
0.0
 11
197.5
 21
11.0
 31
0.0
  0
LINE
  5
136
330
1E
100
AcDbEntity
  8
0
100
AcDbLine
 10
175.0
 20
11.0
 30
0.0
 11
181.6999999999999
 21
11.0
 31
0.0
  0
LINE
  5
137
330
1E
100
AcDbEntity
  8
0
100
AcDbLine
 10
336.2999999999999
 20
9.999999999999991
 30
0.0
 11
343.6999999999999
 21
9.999999999999991
 31
0.0
  0
LINE
  5
138
330
1E
100
AcDbEntity
  8
0
100
AcDbLine
 10
298.6
 20
9.999999999999991
 30
0.0
 11
313.6
 21
9.999999999999991
 31
0.0
  0
LINE
  5
139
330
1E
100
AcDbEntity
  8
0
100
AcDbLine
 10
313.6
 20
9.999999999999991
 30
0.0
 11
326.6
 21
9.999999999999991
 31
0.0
  0
LINE
  5
13A
330
1E
100
AcDbEntity
  8
0
100
AcDbLine
 10
326.6
 20
9.999999999999991
 30
0.0
 11
336.2999999999999
 21
9.999999999999991
 31
0.0
  0
LINE
  5
13B
330
1E
100
AcDbEntity
  8
0
100
AcDbLine
 10
343.6999999999999
 20
9.999999999999991
 30
0.0
 11
348.1999999999999
 21
9.999999999999991
 31
0.0
  0
LINE
  5
13C
330
1E
100
AcDbEntity
  8
0
100
AcDbLine
 10
350.0
 20
9.999999999999991
 30
0.0
 11
350.0
 21
1.999999999999989
 31
0.0
  0
LINE
  5
13D
330
1E
100
AcDbEntity
  8
0
100
AcDbLine
 10
348.1999999999999
 20
9.999999999999991
 30
0.0
 11
350.0
 21
9.999999999999991
 31
0.0
  0
LINE
  5
13E
330
1E
100
AcDbEntity
  8
0
100
AcDbLine
 10
281.3999999999999
 20
10.0
 30
0.0
 11
298.6
 21
9.999999999999991
 31
0.0
  0
LINE
  5
13F
330
1E
100
AcDbEntity
  8
0
100
AcDbLine
 10
262.1
 20
10.0
 30
0.0
 11
281.3999999999999
 21
10.0
 31
0.0
  0
LINE
  5
140
330
1E
100
AcDbEntity
  8
0
100
AcDbLine
 10
241.8
 20
10.0
 30
0.0
 11
262.1
 21
10.0
 31
0.0
  0
LINE
  5
141
330
1E
100
AcDbEntity
  8
0
100
AcDbLine
 10
220.1
 20
10.0
 30
0.0
 11
241.8
 21
10.0
 31
0.0
  0
LINE
  5
142
330
1E
100
AcDbEntity
  8
0
100
AcDbLine
 10
178.0999999999999
 20
55.0
 30
0.0
 11
181.0
 21
55.0
 31
0.0
  0
LINE
  5
143
330
1E
100
AcDbEntity
  8
0
100
AcDbLine
 10
178.9
 20
71.0
 30
0.0
 11
182.5
 21
71.0
 31
0.0
  0
LINE
  5
144
330
1E
100
AcDbEntity
  8
0
100
AcDbLine
 10
178.9
 20
56.0
 30
0.0
 11
182.5
 21
56.0
 31
0.0
  0
LINE
  5
145
330
1E
100
AcDbEntity
  8
0
100
AcDbLine
 10
181.0
 20
55.0
 30
0.0
 11
183.4999999999999
 21
55.0
 31
0.0
  0
LINE
  5
146
330
1E
100
AcDbEntity
  8
0
100
AcDbLine
 10
181.4999999999999
 20
49.0
 30
0.0
 11
184.1999999999999
 21
49.0
 31
0.0
  0
LINE
  5
147
330
1E
100
AcDbEntity
  8
0
100
AcDbLine
 10
178.3
 20
49.0
 30
0.0
 11
181.4999999999999
 21
49.0
 31
0.0
  0
LINE
  5
148
330
1E
100
AcDbEntity
  8
0
100
AcDbLine
 10
181.1999999999999
 20
47.0
 30
0.0
 11
186.8999999999999
 21
47.0
 31
0.0
  0
LINE
  5
149
330
1E
100
AcDbEntity
  8
0
100
AcDbLine
 10
197.5
 20
45.0
 30
0.0
 11
200.0999999999999
 21
45.0
 31
0.0
  0
LINE
  5
14A
330
1E
100
AcDbEntity
  8
0
100
AcDbLine
 10
193.3
 20
45.0
 30
0.0
 11
197.5
 21
45.0
 31
0.0
  0
LINE
  5
14B
330
1E
100
AcDbEntity
  8
0
100
AcDbLine
 10
186.3
 20
49.0
 30
0.0
 11
187.5
 21
49.0
 31
0.0
  0
LINE
  5
14C
330
1E
100
AcDbEntity
  8
0
100
AcDbLine
 10
182.5
 20
71.0
 30
0.0
 11
185.5999999999999
 21
71.0
 31
0.0
  0
LINE
  5
14D
330
1E
100
AcDbEntity
  8
0
100
AcDbLine
 10
182.5
 20
56.0
 30
0.0
 11
185.5999999999999
 21
56.0
 31
0.0
  0
LINE
  5
14E
330
1E
100
AcDbEntity
  8
0
100
AcDbLine
 10
186.5999999999999
 20
55.0
 30
0.0
 11
187.0
 21
55.0
 31
0.0
  0
LINE
  5
14F
330
1E
100
AcDbEntity
  8
0
100
AcDbLine
 10
185.5999999999999
 20
71.0
 30
0.0
 11
188.0
 21
71.0
 31
0.0
  0
LINE
  5
150
330
1E
100
AcDbEntity
  8
0
100
AcDbLine
 10
185.5999999999999
 20
56.0
 30
0.0
 11
188.0
 21
56.0
 31
0.0
  0
LINE
  5
151
330
1E
100
AcDbEntity
  8
0
100
AcDbLine
 10
185.4
 20
55.0
 30
0.0
 11
186.5999999999999
 21
55.0
 31
0.0
  0
LINE
  5
152
330
1E
100
AcDbEntity
  8
0
100
AcDbLine
 10
183.4999999999999
 20
55.0
 30
0.0
 11
185.4
 21
55.0
 31
0.0
  0
LINE
  5
153
330
1E
100
AcDbEntity
  8
0
100
AcDbLine
 10
184.1999999999999
 20
49.0
 30
0.0
 11
186.3
 21
49.0
 31
0.0
  0
LINE
  5
154
330
1E
100
AcDbEntity
  8
0
100
AcDbLine
 10
195.8
 20
47.0
 30
0.0
 11
198.1
 21
47.0
 31
0.0
  0
LINE
  5
155
330
1E
100
AcDbEntity
  8
0
100
AcDbLine
 10
187.0
 20
49.0
 30
0.0
 11
187.0
 21
55.0
 31
0.0
  0
LINE
  5
156
330
1E
100
AcDbEntity
  8
0
100
AcDbLine
 10
188.0
 20
71.0
 30
0.0
 11
189.4999999999999
 21
71.0
 31
0.0
  0
LINE
  5
157
330
1E
100
AcDbEntity
  8
0
100
AcDbLine
 10
187.0
 20
55.0
 30
0.0
 11
190.0
 21
56.0
 31
0.0
  0
LINE
  5
158
330
1E
100
AcDbEntity
  8
0
100
AcDbLine
 10
187.0
 20
55.0
 30
0.0
 11
187.0
 21
49.0
 31
0.0
  0
LINE
  5
159
330
1E
100
AcDbEntity
  8
0
100
AcDbLine
 10
188.0
 20
56.0
 30
0.0
 11
189.4999999999999
 21
56.0
 31
0.0
  0
LINE
  5
15A
330
1E
100
AcDbEntity
  8
0
100
AcDbLine
 10
187.5
 20
49.0
 30
0.0
 11
188.0
 21
49.0
 31
0.0
  0
LINE
  5
15B
330
1E
100
AcDbEntity
  8
0
100
AcDbLine
 10
190.0
 20
56.0
 30
0.0
 11
190.0
 21
71.0
 31
0.0
  0
LINE
  5
15C
330
1E
100
AcDbEntity
  8
0
100
AcDbLine
 10
190.0
 20
71.0
 30
0.0
 11
190.0
 21
56.0
 31
0.0
  0
LINE
  5
15D
330
1E
100
AcDbEntity
  8
0
100
AcDbLine
 10
189.4999999999999
 20
71.0
 30
0.0
 11
190.0
 21
71.0
 31
0.0
  0
LINE
  5
15E
330
1E
100
AcDbEntity
  8
0
100
AcDbLine
 10
189.4999999999999
 20
56.0
 30
0.0
 11
190.0
 21
56.0
 31
0.0
  0
LINE
  5
15F
330
1E
100
AcDbEntity
  8
0
100
AcDbLine
 10
188.0
 20
49.0
 30
0.0
 11
190.0
 21
47.0
 31
0.0
  0
LINE
  5
160
330
1E
100
AcDbEntity
  8
0
100
AcDbLine
 10
191.9
 20
47.0
 30
0.0
 11
195.8
 21
47.0
 31
0.0
  0
LINE
  5
161
330
1E
100
AcDbEntity
  8
0
100
AcDbLine
 10
186.8999999999999
 20
47.0
 30
0.0
 11
191.9
 21
47.0
 31
0.0
  0
LINE
  5
162
330
1E
100
AcDbEntity
  8
0
100
AcDbLine
 10
187.8999999999999
 20
45.0
 30
0.0
 11
193.3
 21
45.0
 31
0.0
  0
LINE
  5
163
330
1E
100
AcDbEntity
  8
0
100
AcDbLine
 10
181.6999999999999
 20
45.0
 30
0.0
 11
187.8999999999999
 21
45.0
 31
0.0
  0
LINE
  5
164
330
1E
100
AcDbEntity
  8
0
100
AcDbLine
 10
181.6999999999999
 20
11.0
 30
0.0
 11
187.8999999999999
 21
11.0
 31
0.0
  0
LINE
  5
165
330
1E
100
AcDbEntity
  8
0
100
AcDbLine
 10
201.0
 20
11.0
 30
0.0
 11
201.0
 21
45.0
 31
0.0
  0
LINE
  5
166
330
1E
100
AcDbEntity
  8
0
100
AcDbLine
 10
325.7
 20
11.0
 30
0.0
 11
335.3999999999999
 21
11.0
 31
0.0
  0
LINE
  5
167
330
1E
100
AcDbEntity
  8
0
100
AcDbLine
 10
335.3999999999999
 20
11.0
 30
0.0
 11
342.7
 21
11.0
 31
0.0
  0
LINE
  5
168
330
1E
100
AcDbEntity
  8
0
100
AcDbLine
 10
342.7
 20
11.0
 30
0.0
 11
347.3
 21
11.0
 31
0.0
  0
LINE
  5
169
330
1E
100
AcDbEntity
  8
0
100
AcDbLine
 10
347.3
 20
11.0
 30
0.0
 11
349.0
 21
11.0
 31
0.0
  0
LINE
  5
16A
330
1E
100
AcDbEntity
  8
0
100
AcDbLine
 10
297.8999999999999
 20
11.0
 30
0.0
 11
312.8
 21
11.0
 31
0.0
  0
LINE
  5
16B
330
1E
100
AcDbEntity
  8
0
100
AcDbLine
 10
312.8
 20
11.0
 30
0.0
 11
325.7
 21
11.0
 31
0.0
  0
LINE
  5
16C
330
1E
100
AcDbEntity
  8
0
100
AcDbLine
 10
349.0
 20
11.0
 30
0.0
 11
350.0
 21
9.999999999999991
 31
0.0
  0
LINE
  5
16D
330
1E
100
AcDbEntity
  8
0
100
AcDbLine
 10
280.8
 20
11.0
 30
0.0
 11
297.8999999999999
 21
11.0
 31
0.0
  0
LINE
  5
16E
330
1E
100
AcDbEntity
  8
0
100
AcDbLine
 10
261.6
 20
11.0
 30
0.0
 11
280.8
 21
11.0
 31
0.0
  0
LINE
  5
16F
330
1E
100
AcDbEntity
  8
0
100
AcDbLine
 10
241.5
 20
11.0
 30
0.0
 11
261.6
 21
11.0
 31
0.0
  0
LINE
  5
170
330
1E
100
AcDbEntity
  8
0
100
AcDbLine
 10
198.1
 20
47.0
 30
0.0
 11
199.0
 21
47.0
 31
0.0
  0
LINE
  5
171
330
1E
100
AcDbEntity
  8
0
100
AcDbLine
 10
199.0
 20
47.0
 30
0.0
 11
201.0
 21
45.0
 31
0.0
  0
LINE
  5
172
330
1E
100
AcDbEntity
  8
0
100
AcDbLine
 10
201.0
 20
45.0
 30
0.0
 11
201.0
 21
11.0
 31
0.0
  0
LINE
  5
173
330
1E
100
AcDbEntity
  8
0
100
AcDbLine
 10
200.0999999999999
 20
45.0
 30
0.0
 11
201.0
 21
45.0
 31
0.0
  0
LINE
  5
174
330
1E
100
AcDbEntity
  8
0
100
AcDbLine
 10
219.9
 20
11.0
 30
0.0
 11
241.5
 21
11.0
 31
0.0
  0
LINE
  5
175
330
1E
100
AcDbEntity
  8
0
100
AcDbLine
 10
197.5
 20
11.0
 30
0.0
 11
219.9
 21
11.0
 31
0.0
  0
LINE
  5
176
330
1E
100
AcDbEntity
  8
0
100
AcDbLine
 10
197.8
 20
10.0
 30
0.0
 11
220.1
 21
10.0
 31
0.0
  0
LINE
  5
177
330
1E
100
AcDbEntity
  8
0
100
AcDbLine
 10
175.0
 20
10.0
 30
0.0
 11
197.8
 21
10.0
 31
0.0
  0
LINE
  5
178
330
1E
100
AcDbEntity
  8
0
100
AcDbLine
 10
175.0
 20
2.0
 30
0.0
 11
197.8
 21
2.0
 31
0.0
  0
LINE
  5
179
330
1E
100
AcDbEntity
  8
0
100
AcDbLine
 10
162.0999999999999
 20
11.0
 30
0.0
 11
175.0
 21
11.0
 31
0.0
  0
LINE
  5
17A
330
1E
100
AcDbEntity
  8
0
100
AcDbLine
 10
152.5
 20
1.0
 30
0.0
 11
170.0
 21
1.0
 31
0.0
  0
LINE
  5
17B
330
1E
100
AcDbEntity
  8
0
100
AcDbLine
 10
152.5
 20
1.0
 30
0.0
 11
154.8
 21
1.0
 31
0.0
  0
LINE
  5
17C
330
1E
100
AcDbEntity
  8
0
100
AcDbLine
 10
152.5
 20
1.0
 30
0.0
 11
175.0
 21
1.0
 31
0.0
  0
LINE
  5
17D
330
1E
100
AcDbEntity
  8
0
100
AcDbLine
 10
97.80000000000001
 20
1.000000000000009
 30
0.0
 11
115.7999999999999
 21
1.000000000000009
 31
0.0
  0
ENDSEC
  0
SECTION
  2
OBJECTS
  0
DICTIONARY
  5
C
330
0
100
AcDbDictionary
281
     1
  3
ACAD_GROUP
350
D
  3
ACAD_LAYOUT
350
19
  3
ACAD_MLINESTYLE
350
16
  3
ACAD_PLOTSETTINGS
350
18
  3
ACAD_PLOTSTYLENAME
350
E
  3
AcDbVariableDictionary
350
182
  0
DICTIONARY
  5
D
102
{ACAD_REACTORS
330
C
102
}
330
C
100
AcDbDictionary
281
     1
  0
DICTIONARY
  5
19
102
{ACAD_REACTORS
330
C
102
}
330
C
100
AcDbDictionary
281
     1
  3
Layout1
350
1D
  3
Model
350
21
  0
DICTIONARY
  5
16
102
{ACAD_REACTORS
330
C
102
}
330
C
100
AcDbDictionary
281
     1
  3
Standard
350
17
  0
DICTIONARY
  5
18
102
{ACAD_REACTORS
330
C
102
}
330
C
100
AcDbDictionary
281
     1
  0
ACDBDICTIONARYWDFLT
  5
E
102
{ACAD_REACTORS
330
C
102
}
330
C
100
AcDbDictionary
281
     1
  3
Normal
350
F
100
AcDbDictionaryWithDefault
340
F
  0
DICTIONARY
  5
182
102
{ACAD_REACTORS
330
C
102
}
330
C
100
AcDbDictionary
281
     1
  3
DIMASSOC
350
183
  0
LAYOUT
  5
1D
102
{ACAD_REACTORS
330
19
102
}
330
19
100
AcDbPlotSettings
  1

  2
hp deskjet 980c series
  4

  6

 40
0.0
 41
0.0
 42
0.0
 43
0.0
 44
0.0
 45
0.0
 46
0.0
 47
0.0
 48
0.0
 49
0.0
140
0.0
141
0.0
142
1.0
143
1.0
 70
   688
 72
     0
 73
     0
 74
     5
  7

 75
    16
147
1.0
148
0.0
149
0.0
100
AcDbLayout
  1
Layout1
 70
     1
 71
     1
 10
0.0
 20
0.0
 11
12.0
 21
9.0
 12
0.0
 22
0.0
 32
0.0
 14
1.000000000000000E+20
 24
1.000000000000000E+20
 34
1.000000000000000E+20
 15
-1.000000000000000E+20
 25
-1.000000000000000E+20
 35
-1.000000000000000E+20
146
0.0
 13
0.0
 23
0.0
 33
0.0
 16
1.0
 26
0.0
 36
0.0
 17
0.0
 27
1.0
 37
0.0
 76
     0
330
1A
  0
LAYOUT
  5
21
102
{ACAD_REACTORS
330
19
102
}
330
19
100
AcDbPlotSettings
  1

  2
hp deskjet 980c series
  4

  6

 40
0.0
 41
0.0
 42
0.0
 43
0.0
 44
0.0
 45
0.0
 46
0.0
 47
0.0
 48
0.0
 49
0.0
140
0.0
141
0.0
142
1.0
143
1.0
 70
  1712
 72
     0
 73
     0
 74
     0
  7

 75
     0
147
1.0
148
0.0
149
0.0
100
AcDbLayout
  1
Model
 70
     1
 71
     0
 10
0.0
 20
0.0
 11
12.0
 21
9.0
 12
0.0
 22
0.0
 32
0.0
 14
0.0
 24
0.0
 34
0.0
 15
0.0
 25
0.0
 35
0.0
146
0.0
 13
0.0
 23
0.0
 33
0.0
 16
1.0
 26
0.0
 36
0.0
 17
0.0
 27
1.0
 37
0.0
 76
     0
330
1E
  0
MLINESTYLE
  5
17
102
{ACAD_REACTORS
330
16
102
}
330
16
100
AcDbMlineStyle
  2
STANDARD
 70
     0
  3

 62
   256
 51
90.0
 52
90.0
 71
     2
 49
0.5
 62
   256
  6
BYLAYER
 49
-0.5
 62
   256
  6
BYLAYER
  0
ACDBPLACEHOLDER
  5
F
102
{ACAD_REACTORS
330
E
102
}
330
E
  0
DICTIONARYVAR
  5
183
102
{ACAD_REACTORS
330
182
102
}
330
182
100
DictionaryVariables
280
     0
  1
1
  0
ENDSEC
  0
EOF
