  0
SECTION
  2
HEADER
  9
$ACADVER
  1
AC1015
  9
$ACADMAINTVER
 70
    13
  9
$DWGCODEPAGE
  3
ANSI_1252
  9
$INSBASE
 10
0.0
 20
0.0
 30
0.0
  9
$EXTMIN
 10
0.0000000000000047
 20
1000.5
 30
0.0
  9
$EXTMAX
 10
680.0
 20
1010.0
 30
0.0
  9
$LIMMIN
 10
0.0
 20
0.0
  9
$LIMMAX
 10
12.0
 20
9.0
  9
$ORTHOMODE
 70
     0
  9
$REGENMODE
 70
     1
  9
$FILLMODE
 70
     1
  9
$QTEXTMODE
 70
     0
  9
$MIRRTEXT
 70
     1
  9
$LTSCALE
 40
1.0
  9
$ATTMODE
 70
     1
  9
$TEXTSIZE
 40
0.2
  9
$TRACEWID
 40
0.05
  9
$TEXTSTYLE
  7
Standard
  9
$CLAYER
  8
0
  9
$CELTYPE
  6
Continuous
  9
$CECOLOR
 62
   256
  9
$CELTSCALE
 40
1.0
  9
$DISPSILH
 70
     0
  9
$DIMSCALE
 40
1.0
  9
$DIMASZ
 40
0.18
  9
$DIMEXO
 40
0.0625
  9
$DIMDLI
 40
0.38
  9
$DIMRND
 40
0.0
  9
$DIMDLE
 40
0.0
  9
$DIMEXE
 40
0.18
  9
$DIMTP
 40
0.0
  9
$DIMTM
 40
0.0
  9
$DIMTXT
 40
0.18
  9
$DIMCEN
 40
0.09
  9
$DIMTSZ
 40
0.0
  9
$DIMTOL
 70
     0
  9
$DIMLIM
 70
     0
  9
$DIMTIH
 70
     1
  9
$DIMTOH
 70
     1
  9
$DIMSE1
 70
     0
  9
$DIMSE2
 70
     0
  9
$DIMTAD
 70
     0
  9
$DIMZIN
 70
     0
  9
$DIMBLK
  1

  9
$DIMASO
 70
     1
  9
$DIMSHO
 70
     1
  9
$DIMPOST
  1

  9
$DIMAPOST
  1

  9
$DIMALT
 70
     0
  9
$DIMALTD
 70
     2
  9
$DIMALTF
 40
25.4
  9
$DIMLFAC
 40
1.0
  9
$DIMTOFL
 70
     0
  9
$DIMTVP
 40
0.0
  9
$DIMTIX
 70
     0
  9
$DIMSOXD
 70
     0
  9
$DIMSAH
 70
     0
  9
$DIMBLK1
  1

  9
$DIMBLK2
  1

  9
$DIMSTYLE
  2
Standard
  9
$DIMCLRD
 70
     0
  9
$DIMCLRE
 70
     0
  9
$DIMCLRT
 70
     0
  9
$DIMTFAC
 40
1.0
  9
$DIMGAP
 40
0.09
  9
$DIMJUST
 70
     0
  9
$DIMSD1
 70
     0
  9
$DIMSD2
 70
     0
  9
$DIMTOLJ
 70
     1
  9
$DIMTZIN
 70
     0
  9
$DIMALTZ
 70
     0
  9
$DIMALTTZ
 70
     0
  9
$DIMUPT
 70
     0
  9
$DIMDEC
 70
     4
  9
$DIMTDEC
 70
     4
  9
$DIMALTU
 70
     2
  9
$DIMALTTD
 70
     2
  9
$DIMTXSTY
  7
Standard
  9
$DIMAUNIT
 70
     0
  9
$DIMADEC
 70
     0
  9
$DIMALTRND
 40
0.0
  9
$DIMAZIN
 70
     0
  9
$DIMDSEP
 70
    46
  9
$DIMATFIT
 70
     3
  9
$DIMFRAC
 70
     0
  9
$DIMLDRBLK
  1

  9
$DIMLUNIT
 70
     2
  9
$DIMLWD
 70
    -2
  9
$DIMLWE
 70
    -2
  9
$DIMTMOVE
 70
     0
  9
$LUNITS
 70
     2
  9
$LUPREC
 70
     4
  9
$SKETCHINC
 40
0.1
  9
$FILLETRAD
 40
0.0
  9
$AUNITS
 70
     0
  9
$AUPREC
 70
     0
  9
$MENU
  1
.
  9
$ELEVATION
 40
0.0
  9
$PELEVATION
 40
0.0
  9
$THICKNESS
 40
0.0
  9
$LIMCHECK
 70
     0
  9
$CHAMFERA
 40
0.0
  9
$CHAMFERB
 40
0.0
  9
$CHAMFERC
 40
0.0
  9
$CHAMFERD
 40
0.0
  9
$SKPOLY
 70
     0
  9
$TDCREATE
 40
2454737.943456840
  9
$TDUCREATE
 40
2454737.860123507
  9
$TDUPDATE
 40
2454737.948737697
  9
$TDUUPDATE
 40
2454737.865404363
  9
$TDINDWG
 40
0.0052810417
  9
$TDUSRTIMER
 40
0.0052810417
  9
$USRTIMER
 70
     1
  9
$ANGBASE
 50
0.0
  9
$ANGDIR
 70
     0
  9
$PDMODE
 70
     0
  9
$PDSIZE
 40
0.0
  9
$PLINEWID
 40
0.0
  9
$SPLFRAME
 70
     0
  9
$SPLINETYPE
 70
     6
  9
$SPLINESEGS
 70
     8
  9
$HANDSEED
  5
A35
  9
$SURFTAB1
 70
     6
  9
$SURFTAB2
 70
     6
  9
$SURFTYPE
 70
     6
  9
$SURFU
 70
     6
  9
$SURFV
 70
     6
  9
$UCSBASE
  2

  9
$UCSNAME
  2

  9
$UCSORG
 10
0.0
 20
0.0
 30
0.0
  9
$UCSXDIR
 10
1.0
 20
0.0
 30
0.0
  9
$UCSYDIR
 10
0.0
 20
1.0
 30
0.0
  9
$UCSORTHOREF
  2

  9
$UCSORTHOVIEW
 70
     1
  9
$UCSORGTOP
 10
0.0
 20
0.0
 30
0.0
  9
$UCSORGBOTTOM
 10
0.0
 20
0.0
 30
0.0
  9
$UCSORGLEFT
 10
0.0
 20
0.0
 30
0.0
  9
$UCSORGRIGHT
 10
0.0
 20
0.0
 30
0.0
  9
$UCSORGFRONT
 10
0.0
 20
0.0
 30
0.0
  9
$UCSORGBACK
 10
0.0
 20
0.0
 30
0.0
  9
$PUCSBASE
  2

  9
$PUCSNAME
  2

  9
$PUCSORG
 10
0.0
 20
0.0
 30
0.0
  9
$PUCSXDIR
 10
1.0
 20
0.0
 30
0.0
  9
$PUCSYDIR
 10
0.0
 20
1.0
 30
0.0
  9
$PUCSORTHOREF
  2

  9
$PUCSORTHOVIEW
 70
     0
  9
$PUCSORGTOP
 10
0.0
 20
0.0
 30
0.0
  9
$PUCSORGBOTTOM
 10
0.0
 20
0.0
 30
0.0
  9
$PUCSORGLEFT
 10
0.0
 20
0.0
 30
0.0
  9
$PUCSORGRIGHT
 10
0.0
 20
0.0
 30
0.0
  9
$PUCSORGFRONT
 10
0.0
 20
0.0
 30
0.0
  9
$PUCSORGBACK
 10
0.0
 20
0.0
 30
0.0
  9
$USERI1
 70
     0
  9
$USERI2
 70
     0
  9
$USERI3
 70
     0
  9
$USERI4
 70
     0
  9
$USERI5
 70
     0
  9
$USERR1
 40
0.0
  9
$USERR2
 40
0.0
  9
$USERR3
 40
0.0
  9
$USERR4
 40
0.0
  9
$USERR5
 40
0.0
  9
$WORLDVIEW
 70
     1
  9
$SHADEDGE
 70
     3
  9
$SHADEDIF
 70
    70
  9
$TILEMODE
 70
     1
  9
$MAXACTVP
 70
    64
  9
$PINSBASE
 10
0.0
 20
0.0
 30
0.0
  9
$PLIMCHECK
 70
     0
  9
$PEXTMIN
 10
1.000000000000000E+20
 20
1.000000000000000E+20
 30
1.000000000000000E+20
  9
$PEXTMAX
 10
-1.000000000000000E+20
 20
-1.000000000000000E+20
 30
-1.000000000000000E+20
  9
$PLIMMIN
 10
0.0
 20
0.0
  9
$PLIMMAX
 10
12.0
 20
9.0
  9
$UNITMODE
 70
     0
  9
$VISRETAIN
 70
     1
  9
$PLINEGEN
 70
     0
  9
$PSLTSCALE
 70
     1
  9
$TREEDEPTH
 70
  3020
  9
$CMLSTYLE
  2
Standard
  9
$CMLJUST
 70
     0
  9
$CMLSCALE
 40
1.0
  9
$PROXYGRAPHICS
 70
     1
  9
$MEASUREMENT
 70
     0
  9
$CELWEIGHT
370
    -1
  9
$ENDCAPS
280
     0
  9
$JOINSTYLE
280
     0
  9
$LWDISPLAY
290
     0
  9
$INSUNITS
 70
     0
  9
$HYPERLINKBASE
  1

  9
$STYLESHEET
  1

  9
$XEDIT
290
     1
  9
$CEPSNTYPE
380
     0
  9
$PSTYLEMODE
290
     1
  9
$FINGERPRINTGUID
  2
{F7DC2DD2-1017-47FB-B572-036D544BE1D4}
  9
$VERSIONGUID
  2
{01B3B970-3CD7-4FF8-8F23-8FF6A1504919}
  9
$EXTNAMES
290
     1
  9
$PSVPSCALE
 40
0.0
  9
$OLESTARTUP
290
     0
  0
ENDSEC
  0
SECTION
  2
CLASSES
  0
CLASS
  1
ACDBDICTIONARYWDFLT
  2
AcDbDictionaryWithDefault
  3
AutoCAD 2000
 90
        0
280
     0
281
     0
  0
CLASS
  1
ACDBPLACEHOLDER
  2
AcDbPlaceHolder
  3
AutoCAD 2000
 90
        0
280
     0
281
     0
  0
CLASS
  1
LAYOUT
  2
AcDbLayout
  3
AutoCAD 2000
 90
        0
280
     0
281
     0
  0
CLASS
  1
DICTIONARYVAR
  2
AcDbDictionaryVar
  3
AutoCAD 2000
 90
        0
280
     0
281
     0
  0
ENDSEC
  0
SECTION
  2
TABLES
  0
TABLE
  2
VPORT
  5
8
330
0
100
AcDbSymbolTable
 70
     4
  0
VPORT
  5
A34
330
8
100
AcDbSymbolTableRecord
100
AcDbViewportTableRecord
  2
*Active
 70
     0
 10
0.0
 20
0.0
 11
1.0
 21
1.0
 12
340.0
 22
1005.249999999999
 13
0.0
 23
0.0
 14
1.0
 24
1.0
 15
0.0
 25
0.0
 16
0.0
 26
0.0
 36
1.0
 17
0.0
 27
0.0
 37
0.0
 40
328.4301406202101
 41
2.078104993597951
 42
50.0
 43
0.0
 44
0.0
 50
0.0
 51
0.0
 71
     0
 72
   100
 73
     1
 74
     3
 75
     0
 76
     0
 77
     0
 78
     0
281
     0
 65
     1
110
0.0
120
0.0
130
0.0
111
1.0
121
0.0
131
0.0
112
0.0
122
1.0
132
0.0
 79
     1
146
0.0
  0
ENDTAB
  0
TABLE
  2
LTYPE
  5
5
330
0
100
AcDbSymbolTable
 70
     1
  0
LTYPE
  5
13
330
5
100
AcDbSymbolTableRecord
100
AcDbLinetypeTableRecord
  2
ByBlock
 70
     0
  3

 72
    65
 73
     0
 40
0.0
  0
LTYPE
  5
14
330
5
100
AcDbSymbolTableRecord
100
AcDbLinetypeTableRecord
  2
ByLayer
 70
     0
  3

 72
    65
 73
     0
 40
0.0
  0
LTYPE
  5
15
330
5
100
AcDbSymbolTableRecord
100
AcDbLinetypeTableRecord
  2
Continuous
 70
     0
  3
Solid line
 72
    65
 73
     0
 40
0.0
  0
ENDTAB
  0
TABLE
  2
LAYER
  5
2
330
0
100
AcDbSymbolTable
 70
     1
  0
LAYER
  5
10
330
2
100
AcDbSymbolTableRecord
100
AcDbLayerTableRecord
  2
0
 70
     0
 62
     7
  6
Continuous
370
    -3
390
F
  0
ENDTAB
  0
TABLE
  2
STYLE
  5
3
330
0
100
AcDbSymbolTable
 70
     1
  0
STYLE
  5
11
330
3
100
AcDbSymbolTableRecord
100
AcDbTextStyleTableRecord
  2
Standard
 70
     0
 40
0.0
 41
1.0
 50
0.0
 71
     0
 42
0.2
  3
txt
  4

  0
ENDTAB
  0
TABLE
  2
VIEW
  5
6
330
0
100
AcDbSymbolTable
 70
     0
  0
ENDTAB
  0
TABLE
  2
UCS
  5
7
330
0
100
AcDbSymbolTable
 70
     0
  0
ENDTAB
  0
TABLE
  2
APPID
  5
9
330
0
100
AcDbSymbolTable
 70
     1
  0
APPID
  5
12
330
9
100
AcDbSymbolTableRecord
100
AcDbRegAppTableRecord
  2
ACAD
 70
     0
  0
ENDTAB
  0
TABLE
  2
DIMSTYLE
  5
A
330
0
100
AcDbSymbolTable
 70
     1
100
AcDbDimStyleTable
 71
     0
  0
DIMSTYLE
105
A21
330
A
100
AcDbSymbolTableRecord
100
AcDbDimStyleTableRecord
  2
Standard
 70
     0
340
11
  0
ENDTAB
  0
TABLE
  2
BLOCK_RECORD
  5
1
330
0
100
AcDbSymbolTable
 70
     0
  0
BLOCK_RECORD
  5
1E
330
1
100
AcDbSymbolTableRecord
100
AcDbBlockTableRecord
  2
*Model_Space
340
21
  0
BLOCK_RECORD
  5
1A
330
1
100
AcDbSymbolTableRecord
100
AcDbBlockTableRecord
  2
*Paper_Space
340
1D
  0
ENDTAB
  0
ENDSEC
  0
SECTION
  2
BLOCKS
  0
BLOCK
  5
1F
330
1E
100
AcDbEntity
  8
0
100
AcDbBlockBegin
  2
*Model_Space
 70
     0
 10
0.0
 20
0.0
 30
0.0
  3
*Model_Space
  1

  0
ENDBLK
  5
20
330
1E
100
AcDbEntity
  8
0
100
AcDbBlockEnd
  0
BLOCK
  5
1B
330
1A
100
AcDbEntity
 67
     1
  8
0
100
AcDbBlockBegin
  2
*Paper_Space
 70
     0
 10
0.0
 20
0.0
 30
0.0
  3
*Paper_Space
  1

  0
ENDBLK
  5
1C
330
1A
100
AcDbEntity
 67
     1
  8
0
100
AcDbBlockEnd
  0
ENDSEC
  0
SECTION
  2
ENTITIES
  0
LINE
  5
22
330
1E
100
AcDbEntity
  8
0
100
AcDbLine
 10
28.1
 20
1003.5
 30
0.0
 11
29.3
 21
1003.5
 31
0.0
  0
LINE
  5
23
330
1E
100
AcDbEntity
  8
0
100
AcDbLine
 10
29.3
 20
1003.5
 30
0.0
 11
30.6
 21
1003.5
 31
0.0
  0
LINE
  5
24
330
1E
100
AcDbEntity
  8
0
100
AcDbLine
 10
30.2
 20
1003.5
 30
0.0
 11
30.8
 21
1003.5
 31
0.0
  0
LINE
  5
25
330
1E
100
AcDbEntity
  8
0
100
AcDbLine
 10
30.8
 20
1003.5
 30
0.0
 11
31.4
 21
1003.5
 31
0.0
  0
LINE
  5
26
330
1E
100
AcDbEntity
  8
0
100
AcDbLine
 10
33.2
 20
1003.5
 30
0.0
 11
33.79999999999999
 21
1003.5
 31
0.0
  0
LINE
  5
27
330
1E
100
AcDbEntity
  8
0
100
AcDbLine
 10
32.6
 20
1003.5
 30
0.0
 11
33.2
 21
1003.5
 31
0.0
  0
LINE
  5
28
330
1E
100
AcDbEntity
  8
0
100
AcDbLine
 10
33.79999999999999
 20
1003.5
 30
0.0
 11
34.2
 21
1003.5
 31
0.0
  0
LINE
  5
29
330
1E
100
AcDbEntity
  8
0
100
AcDbLine
 10
34.2
 20
1003.5
 30
0.0
 11
34.39999999999999
 21
1003.5
 31
0.0
  0
LINE
  5
2A
330
1E
100
AcDbEntity
  8
0
100
AcDbLine
 10
34.39999999999999
 20
1003.5
 30
0.0
 11
34.5
 21
1003.5
 31
0.0
  0
LINE
  5
2B
330
1E
100
AcDbEntity
  8
0
100
AcDbLine
 10
35.89999999999999
 20
1003.5
 30
0.0
 11
36.79999999999999
 21
1003.5
 31
0.0
  0
LINE
  5
2C
330
1E
100
AcDbEntity
  8
0
100
AcDbLine
 10
36.79999999999999
 20
1003.5
 30
0.0
 11
37.29999999999999
 21
1003.5
 31
0.0
  0
LINE
  5
2D
330
1E
100
AcDbEntity
  8
0
100
AcDbLine
 10
121.7
 20
1003.5
 30
0.0
 11
123.65
 21
1003.5
 31
0.0
  0
LINE
  5
2E
330
1E
100
AcDbEntity
  8
0
100
AcDbLine
 10
120.6169999999999
 20
1003.5
 30
0.0
 11
121.7
 21
1003.5
 31
0.0
  0
LINE
  5
2F
330
1E
100
AcDbEntity
  8
0
100
AcDbLine
 10
120.1829999999999
 20
1003.5
 30
0.0
 11
120.6169999999999
 21
1003.5
 31
0.0
  0
LINE
  5
30
330
1E
100
AcDbEntity
  8
0
100
AcDbLine
 10
123.65
 20
1003.5
 30
0.0
 11
126.2499999999999
 21
1003.5
 31
0.0
  0
LINE
  5
31
330
1E
100
AcDbEntity
  8
0
100
AcDbLine
 10
126.2499999999999
 20
1003.5
 30
0.0
 11
129.067
 21
1003.5
 31
0.0
  0
LINE
  5
32
330
1E
100
AcDbEntity
  8
0
100
AcDbLine
 10
129.067
 20
1003.5
 30
0.0
 11
132.0999999999999
 21
1003.5
 31
0.0
  0
LINE
  5
33
330
1E
100
AcDbEntity
  8
0
100
AcDbLine
 10
128.1999999999999
 20
1003.5
 30
0.0
 11
129.4999999999999
 21
1003.5
 31
0.0
  0
LINE
  5
34
330
1E
100
AcDbEntity
  8
0
100
AcDbLine
 10
135.1329999999999
 20
1003.5
 30
0.0
 11
137.9499999999999
 21
1003.5
 31
0.0
  0
LINE
  5
35
330
1E
100
AcDbEntity
  8
0
100
AcDbLine
 10
136.0
 20
1003.5
 30
0.0
 11
136.867
 21
1003.5
 31
0.0
  0
LINE
  5
36
330
1E
100
AcDbEntity
  8
0
100
AcDbLine
 10
137.9499999999999
 20
1003.5
 30
0.0
 11
140.55
 21
1003.5
 31
0.0
  0
LINE
  5
37
330
1E
100
AcDbEntity
  8
0
100
AcDbLine
 10
140.55
 20
1003.5
 30
0.0
 11
142.5
 21
1003.5
 31
0.0
  0
LINE
  5
38
330
1E
100
AcDbEntity
  8
0
100
AcDbLine
 10
142.5
 20
1003.5
 30
0.0
 11
143.5829999999999
 21
1003.5
 31
0.0
  0
LINE
  5
39
330
1E
100
AcDbEntity
  8
0
100
AcDbLine
 10
143.5829999999999
 20
1003.5
 30
0.0
 11
144.0169999999999
 21
1003.5
 31
0.0
  0
LINE
  5
3A
330
1E
100
AcDbEntity
  8
0
100
AcDbLine
 10
136.867
 20
1003.5
 30
0.0
 11
137.3
 21
1003.5
 31
0.0
  0
LINE
  5
3B
330
1E
100
AcDbEntity
  8
0
100
AcDbLine
 10
137.3
 20
1003.5
 30
0.0
 11
137.517
 21
1003.5
 31
0.0
  0
LINE
  5
3C
330
1E
100
AcDbEntity
  8
0
100
AcDbLine
 10
144.0169999999999
 20
1003.5
 30
0.0
 11
145.1
 21
1004.0
 31
0.0
  0
LINE
  5
3D
330
1E
100
AcDbEntity
  8
0
100
AcDbLine
 10
134.6999999999999
 20
1003.5
 30
0.0
 11
136.0
 21
1003.5
 31
0.0
  0
LINE
  5
3E
330
1E
100
AcDbEntity
  8
0
100
AcDbLine
 10
133.4
 20
1003.5
 30
0.0
 11
134.6999999999999
 21
1003.5
 31
0.0
  0
LINE
  5
3F
330
1E
100
AcDbEntity
  8
0
100
AcDbLine
 10
132.0999999999999
 20
1003.5
 30
0.0
 11
133.4
 21
1003.5
 31
0.0
  0
LINE
  5
40
330
1E
100
AcDbEntity
  8
0
100
AcDbLine
 10
132.0999999999999
 20
1003.5
 30
0.0
 11
135.1329999999999
 21
1003.5
 31
0.0
  0
LINE
  5
41
330
1E
100
AcDbEntity
  8
0
100
AcDbLine
 10
129.4999999999999
 20
1003.5
 30
0.0
 11
130.8
 21
1003.5
 31
0.0
  0
LINE
  5
42
330
1E
100
AcDbEntity
  8
0
100
AcDbLine
 10
130.8
 20
1003.5
 30
0.0
 11
132.0999999999999
 21
1003.5
 31
0.0
  0
LINE
  5
43
330
1E
100
AcDbEntity
  8
0
100
AcDbLine
 10
127.333
 20
1003.5
 30
0.0
 11
128.1999999999999
 21
1003.5
 31
0.0
  0
LINE
  5
44
330
1E
100
AcDbEntity
  8
0
100
AcDbLine
 10
126.9
 20
1003.5
 30
0.0
 11
127.333
 21
1003.5
 31
0.0
  0
LINE
  5
45
330
1E
100
AcDbEntity
  8
0
100
AcDbLine
 10
126.6829999999999
 20
1003.5
 30
0.0
 11
126.9
 21
1003.5
 31
0.0
  0
LINE
  5
46
330
1E
100
AcDbEntity
  8
0
100
AcDbLine
 10
37.5
 20
1003.5
 30
0.0
 11
38.0
 21
1004.0
 31
0.0
  0
LINE
  5
47
330
1E
100
AcDbEntity
  8
0
100
AcDbLine
 10
37.29999999999999
 20
1003.5
 30
0.0
 11
37.5
 21
1003.5
 31
0.0
  0
LINE
  5
48
330
1E
100
AcDbEntity
  8
0
100
AcDbLine
 10
34.7
 20
1003.5
 30
0.0
 11
35.89999999999999
 21
1003.5
 31
0.0
  0
LINE
  5
49
330
1E
100
AcDbEntity
  8
0
100
AcDbLine
 10
33.39999999999999
 20
1003.5
 30
0.0
 11
34.7
 21
1003.5
 31
0.0
  0
LINE
  5
4A
330
1E
100
AcDbEntity
  8
0
100
AcDbLine
 10
32.0
 20
1003.5
 30
0.0
 11
33.39999999999999
 21
1003.5
 31
0.0
  0
LINE
  5
4B
330
1E
100
AcDbEntity
  8
0
100
AcDbLine
 10
32.0
 20
1003.5
 30
0.0
 11
32.6
 21
1003.5
 31
0.0
  0
LINE
  5
4C
330
1E
100
AcDbEntity
  8
0
100
AcDbLine
 10
31.4
 20
1003.5
 30
0.0
 11
32.0
 21
1003.5
 31
0.0
  0
LINE
  5
4D
330
1E
100
AcDbEntity
  8
0
100
AcDbLine
 10
30.6
 20
1003.5
 30
0.0
 11
32.0
 21
1003.5
 31
0.0
  0
LINE
  5
4E
330
1E
100
AcDbEntity
  8
0
100
AcDbLine
 10
29.8
 20
1003.5
 30
0.0
 11
30.2
 21
1003.5
 31
0.0
  0
LINE
  5
4F
330
1E
100
AcDbEntity
  8
0
100
AcDbLine
 10
29.6
 20
1003.5
 30
0.0
 11
29.8
 21
1003.5
 31
0.0
  0
LINE
  5
50
330
1E
100
AcDbEntity
  8
0
100
AcDbLine
 10
29.5
 20
1003.5
 30
0.0
 11
29.6
 21
1003.5
 31
0.0
  0
LINE
  5
51
330
1E
100
AcDbEntity
  8
0
100
AcDbLine
 10
27.2
 20
1003.5
 30
0.0
 11
28.1
 21
1003.5
 31
0.0
  0
LINE
  5
52
330
1E
100
AcDbEntity
  8
0
100
AcDbLine
 10
26.69999999999999
 20
1003.5
 30
0.0
 11
27.2
 21
1003.5
 31
0.0
  0
LINE
  5
53
330
1E
100
AcDbEntity
  8
0
100
AcDbLine
 10
26.5
 20
1003.5
 30
0.0
 11
26.69999999999999
 21
1003.5
 31
0.0
  0
LINE
  5
54
330
1E
100
AcDbEntity
  8
0
100
AcDbLine
 10
189.859
 20
1003.5
 30
0.0
 11
191.335
 21
1002.5
 31
0.0
  0
LINE
  5
55
330
1E
100
AcDbEntity
  8
0
100
AcDbLine
 10
189.859
 20
1003.5
 30
0.0
 11
190.0029999999999
 21
1003.5
 31
0.0
  0
LINE
  5
56
330
1E
100
AcDbEntity
  8
0
100
AcDbLine
 10
189.859
 20
1003.5
 30
0.0
 11
190.0249999999999
 21
1003.5
 31
0.0
  0
LINE
  5
57
330
1E
100
AcDbEntity
  8
0
100
AcDbLine
 10
190.0249999999999
 20
1003.5
 30
0.0
 11
190.737
 21
1003.5
 31
0.0
  0
LINE
  5
58
330
1E
100
AcDbEntity
  8
0
100
AcDbLine
 10
192.8109999999999
 20
1000.5
 30
0.0
 11
192.914
 21
1000.5
 31
0.0
  0
LINE
  5
59
330
1E
100
AcDbEntity
  8
0
100
AcDbLine
 10
192.8109999999999
 20
1000.5
 30
0.0
 11
192.894
 21
1000.5
 31
0.0
  0
LINE
  5
5A
330
1E
100
AcDbEntity
  8
0
100
AcDbLine
 10
192.914
 20
1000.5
 30
0.0
 11
193.2779999999999
 21
1000.5
 31
0.0
  0
LINE
  5
5B
330
1E
100
AcDbEntity
  8
0
100
AcDbLine
 10
192.894
 20
1000.5
 30
0.0
 11
193.25
 21
1000.5
 31
0.0
  0
LINE
  5
5C
330
1E
100
AcDbEntity
  8
0
100
AcDbLine
 10
193.814
 20
1000.5
 30
0.0
 11
194.611
 21
1000.5
 31
0.0
  0
LINE
  5
5D
330
1E
100
AcDbEntity
  8
0
100
AcDbLine
 10
193.2779999999999
 20
1000.5
 30
0.0
 11
193.814
 21
1000.5
 31
0.0
  0
LINE
  5
5E
330
1E
100
AcDbEntity
  8
0
100
AcDbLine
 10
193.8029999999999
 20
1000.5
 30
0.0
 11
193.93
 21
1000.5
 31
0.0
  0
LINE
  5
5F
330
1E
100
AcDbEntity
  8
0
100
AcDbLine
 10
194.144
 20
1000.5
 30
0.0
 11
194.5299999999999
 21
1000.5
 31
0.0
  0
LINE
  5
60
330
1E
100
AcDbEntity
  8
0
100
AcDbLine
 10
193.93
 20
1000.5
 30
0.0
 11
194.144
 21
1000.5
 31
0.0
  0
LINE
  5
61
330
1E
100
AcDbEntity
  8
0
100
AcDbLine
 10
193.8499999999999
 20
1000.5
 30
0.0
 11
194.169
 21
1000.5
 31
0.0
  0
LINE
  5
62
330
1E
100
AcDbEntity
  8
0
100
AcDbLine
 10
195.059
 20
1000.5
 30
0.0
 11
195.6279999999999
 21
1000.5
 31
0.0
  0
LINE
  5
63
330
1E
100
AcDbEntity
  8
0
100
AcDbLine
 10
195.6279999999999
 20
1000.5
 30
0.0
 11
196.248
 21
1000.5
 31
0.0
  0
LINE
  5
64
330
1E
100
AcDbEntity
  8
0
100
AcDbLine
 10
195.388
 20
1000.5
 30
0.0
 11
196.367
 21
1000.5
 31
0.0
  0
LINE
  5
65
330
1E
100
AcDbEntity
  8
0
100
AcDbLine
 10
194.559
 20
1000.5
 30
0.0
 11
195.388
 21
1000.5
 31
0.0
  0
LINE
  5
66
330
1E
100
AcDbEntity
  8
0
100
AcDbLine
 10
196.248
 20
1000.5
 30
0.0
 11
196.967
 21
1000.5
 31
0.0
  0
LINE
  5
67
330
1E
100
AcDbEntity
  8
0
100
AcDbLine
 10
195.65
 20
1000.5
 30
0.0
 11
196.369
 21
1000.5
 31
0.0
  0
LINE
  5
68
330
1E
100
AcDbEntity
  8
0
100
AcDbLine
 10
195.394
 20
1000.5
 30
0.0
 11
196.25
 21
1000.5
 31
0.0
  0
LINE
  5
69
330
1E
100
AcDbEntity
  8
0
100
AcDbLine
 10
196.367
 20
1000.5
 30
0.0
 11
197.224
 21
1000.5
 31
0.0
  0
LINE
  5
6A
330
1E
100
AcDbEntity
  8
0
100
AcDbLine
 10
196.967
 20
1000.5
 30
0.0
 11
197.614
 21
1000.5
 31
0.0
  0
LINE
  5
6B
330
1E
100
AcDbEntity
  8
0
100
AcDbLine
 10
196.369
 20
1000.5
 30
0.0
 11
196.989
 21
1000.5
 31
0.0
  0
LINE
  5
6C
330
1E
100
AcDbEntity
  8
0
100
AcDbLine
 10
196.989
 20
1000.5
 30
0.0
 11
197.559
 21
1000.5
 31
0.0
  0
LINE
  5
6D
330
1E
100
AcDbEntity
  8
0
100
AcDbLine
 10
196.25
 20
1000.5
 30
0.0
 11
197.229
 21
1000.5
 31
0.0
  0
LINE
  5
6E
330
1E
100
AcDbEntity
  8
0
100
AcDbLine
 10
195.0029999999999
 20
1000.5
 30
0.0
 11
195.65
 21
1000.5
 31
0.0
  0
LINE
  5
6F
330
1E
100
AcDbEntity
  8
0
100
AcDbLine
 10
194.5299999999999
 20
1000.5
 30
0.0
 11
195.0029999999999
 21
1000.5
 31
0.0
  0
LINE
  5
70
330
1E
100
AcDbEntity
  8
0
100
AcDbLine
 10
194.611
 20
1000.5
 30
0.0
 11
195.394
 21
1000.5
 31
0.0
  0
LINE
  5
71
330
1E
100
AcDbEntity
  8
0
100
AcDbLine
 10
194.169
 20
1000.5
 30
0.0
 11
194.589
 21
1000.5
 31
0.0
  0
LINE
  5
72
330
1E
100
AcDbEntity
  8
0
100
AcDbLine
 10
194.589
 20
1000.5
 30
0.0
 11
195.059
 21
1000.5
 31
0.0
  0
LINE
  5
73
330
1E
100
AcDbEntity
  8
0
100
AcDbLine
 10
193.25
 20
1000.5
 30
0.0
 11
193.829
 21
1000.5
 31
0.0
  0
LINE
  5
74
330
1E
100
AcDbEntity
  8
0
100
AcDbLine
 10
196.28
 20
1003.5
 30
0.0
 11
197.992
 21
1003.5
 31
0.0
  0
LINE
  5
75
330
1E
100
AcDbEntity
  8
0
100
AcDbLine
 10
194.6309999999999
 20
1003.5
 30
0.0
 11
196.28
 21
1003.5
 31
0.0
  0
LINE
  5
76
330
1E
100
AcDbEntity
  8
0
100
AcDbLine
 10
193.059
 20
1003.5
 30
0.0
 11
194.6309999999999
 21
1003.5
 31
0.0
  0
LINE
  5
77
330
1E
100
AcDbEntity
  8
0
100
AcDbLine
 10
192.2779999999999
 20
1001.5
 30
0.0
 11
192.8109999999999
 21
1000.5
 31
0.0
  0
LINE
  5
78
330
1E
100
AcDbEntity
  8
0
100
AcDbLine
 10
191.335
 20
1002.5
 30
0.0
 11
192.2779999999999
 21
1001.5
 31
0.0
  0
LINE
  5
79
330
1E
100
AcDbEntity
  8
0
100
AcDbLine
 10
193.829
 20
1000.5
 30
0.0
 11
194.559
 21
1000.5
 31
0.0
  0
LINE
  5
7A
330
1E
100
AcDbEntity
  8
0
100
AcDbLine
 10
190.737
 20
1003.5
 30
0.0
 11
191.6859999999999
 21
1003.5
 31
0.0
  0
LINE
  5
7B
330
1E
100
AcDbEntity
  8
0
100
AcDbLine
 10
191.6859999999999
 20
1003.5
 30
0.0
 11
193.059
 21
1003.5
 31
0.0
  0
LINE
  5
7C
330
1E
100
AcDbEntity
  8
0
100
AcDbLine
 10
188.9
 20
1003.5
 30
0.0
 11
192.5
 21
1003.5
 31
0.0
  0
LINE
  5
7D
330
1E
100
AcDbEntity
  8
0
100
AcDbLine
 10
188.9
 20
1003.5
 30
0.0
 11
189.859
 21
1003.5
 31
0.0
  0
LINE
  5
7E
330
1E
100
AcDbEntity
  8
0
100
AcDbLine
 10
186.8
 20
1003.5
 30
0.0
 11
188.9
 21
1003.5
 31
0.0
  0
LINE
  5
7F
330
1E
100
AcDbEntity
  8
0
100
AcDbLine
 10
186.0
 20
1003.5
 30
0.0
 11
186.0
 21
1005.0
 31
0.0
  0
LINE
  5
80
330
1E
100
AcDbEntity
  8
0
100
AcDbLine
 10
186.0
 20
1003.5
 30
0.0
 11
186.8
 21
1003.5
 31
0.0
  0
LINE
  5
81
330
1E
100
AcDbEntity
  8
0
100
AcDbLine
 10
192.5
 20
1003.5
 30
0.0
 11
197.1
 21
1003.5
 31
0.0
  0
LINE
  5
82
330
1E
100
AcDbEntity
  8
0
100
AcDbLine
 10
197.559
 20
1000.5
 30
0.0
 11
198.028
 21
1000.5
 31
0.0
  0
LINE
  5
83
330
1E
100
AcDbEntity
  8
0
100
AcDbLine
 10
198.4479999999999
 20
1000.5
 30
0.0
 11
198.768
 21
1000.5
 31
0.0
  0
LINE
  5
84
330
1E
100
AcDbEntity
  8
0
100
AcDbLine
 10
198.028
 20
1000.5
 30
0.0
 11
198.4479999999999
 21
1000.5
 31
0.0
  0
LINE
  5
85
330
1E
100
AcDbEntity
  8
0
100
AcDbLine
 10
198.059
 20
1000.5
 30
0.0
 11
198.7879999999999
 21
1000.5
 31
0.0
  0
LINE
  5
86
330
1E
100
AcDbEntity
  8
0
100
AcDbLine
 10
198.7879999999999
 20
1000.5
 30
0.0
 11
199.367
 21
1000.5
 31
0.0
  0
LINE
  5
87
330
1E
100
AcDbEntity
  8
0
100
AcDbLine
 10
198.687
 20
1000.5
 30
0.0
 11
198.814
 21
1000.5
 31
0.0
  0
LINE
  5
88
330
1E
100
AcDbEntity
  8
0
100
AcDbLine
 10
198.474
 20
1000.5
 30
0.0
 11
198.687
 21
1000.5
 31
0.0
  0
LINE
  5
89
330
1E
100
AcDbEntity
  8
0
100
AcDbLine
 10
197.614
 20
1000.5
 30
0.0
 11
198.087
 21
1000.5
 31
0.0
  0
LINE
  5
8A
330
1E
100
AcDbEntity
  8
0
100
AcDbLine
 10
198.087
 20
1000.5
 30
0.0
 11
198.474
 21
1000.5
 31
0.0
  0
LINE
  5
8B
330
1E
100
AcDbEntity
  8
0
100
AcDbLine
 10
197.224
 20
1000.5
 30
0.0
 11
198.0069999999999
 21
1000.5
 31
0.0
  0
LINE
  5
8C
330
1E
100
AcDbEntity
  8
0
100
AcDbLine
 10
198.0069999999999
 20
1000.5
 30
0.0
 11
198.803
 21
1000.5
 31
0.0
  0
LINE
  5
8D
330
1E
100
AcDbEntity
  8
0
100
AcDbLine
 10
199.367
 20
1000.5
 30
0.0
 11
199.724
 21
1000.5
 31
0.0
  0
LINE
  5
8E
330
1E
100
AcDbEntity
  8
0
100
AcDbLine
 10
205.8
 20
1000.5
 30
0.0
 11
206.1999999999999
 21
1000.5
 31
0.0
  0
LINE
  5
8F
330
1E
100
AcDbEntity
  8
0
100
AcDbLine
 10
205.6
 20
1000.5
 30
0.0
 11
205.8
 21
1000.5
 31
0.0
  0
LINE
  5
90
330
1E
100
AcDbEntity
  8
0
100
AcDbLine
 10
205.0
 20
1000.5
 30
0.0
 11
205.5
 21
1000.5
 31
0.0
  0
LINE
  5
91
330
1E
100
AcDbEntity
  8
0
100
AcDbLine
 10
204.5999999999999
 20
1000.5
 30
0.0
 11
205.0
 21
1000.5
 31
0.0
  0
LINE
  5
92
330
1E
100
AcDbEntity
  8
0
100
AcDbLine
 10
204.4999999999999
 20
1000.5
 30
0.0
 11
204.5999999999999
 21
1000.5
 31
0.0
  0
LINE
  5
93
330
1E
100
AcDbEntity
  8
0
100
AcDbLine
 10
205.5
 20
1000.5
 30
0.0
 11
206.1999999999999
 21
1000.5
 31
0.0
  0
LINE
  5
94
330
1E
100
AcDbEntity
  8
0
100
AcDbLine
 10
205.5
 20
1000.5
 30
0.0
 11
205.6
 21
1000.5
 31
0.0
  0
LINE
  5
95
330
1E
100
AcDbEntity
  8
0
100
AcDbLine
 10
208.5999999999999
 20
1000.5
 30
0.0
 11
209.2
 21
1000.5
 31
0.0
  0
LINE
  5
96
330
1E
100
AcDbEntity
  8
0
100
AcDbLine
 10
210.1999999999999
 20
1000.5
 30
0.0
 11
210.4
 21
1000.5
 31
0.0
  0
LINE
  5
97
330
1E
100
AcDbEntity
  8
0
100
AcDbLine
 10
210.4
 20
1000.5
 30
0.0
 11
210.4999999999999
 21
1000.5
 31
0.0
  0
LINE
  5
98
330
1E
100
AcDbEntity
  8
0
100
AcDbLine
 10
210.4999999999999
 20
1000.5
 30
0.0
 11
211.0
 21
1000.5
 31
0.0
  0
LINE
  5
99
330
1E
100
AcDbEntity
  8
0
100
AcDbLine
 10
211.0
 20
1000.5
 30
0.0
 11
211.3999999999999
 21
1000.5
 31
0.0
  0
LINE
  5
9A
330
1E
100
AcDbEntity
  8
0
100
AcDbLine
 10
211.3999999999999
 20
1000.5
 30
0.0
 11
211.5
 21
1000.5
 31
0.0
  0
LINE
  5
9B
330
1E
100
AcDbEntity
  8
0
100
AcDbLine
 10
211.5
 20
1000.5
 30
0.0
 11
212.0
 21
1001.5
 31
0.0
  0
LINE
  5
9C
330
1E
100
AcDbEntity
  8
0
100
AcDbLine
 10
209.2
 20
1000.5
 30
0.0
 11
209.8
 21
1000.5
 31
0.0
  0
LINE
  5
9D
330
1E
100
AcDbEntity
  8
0
100
AcDbLine
 10
209.8
 20
1000.5
 30
0.0
 11
210.4999999999999
 21
1000.5
 31
0.0
  0
LINE
  5
9E
330
1E
100
AcDbEntity
  8
0
100
AcDbLine
 10
209.8
 20
1000.5
 30
0.0
 11
210.1999999999999
 21
1000.5
 31
0.0
  0
LINE
  5
9F
330
1E
100
AcDbEntity
  8
0
100
AcDbLine
 10
208.8999999999999
 20
1000.5
 30
0.0
 11
209.8
 21
1000.5
 31
0.0
  0
LINE
  5
A0
330
1E
100
AcDbEntity
  8
0
100
AcDbLine
 10
208.0
 20
1000.5
 30
0.0
 11
208.8999999999999
 21
1000.5
 31
0.0
  0
LINE
  5
A1
330
1E
100
AcDbEntity
  8
0
100
AcDbLine
 10
208.0
 20
1000.5
 30
0.0
 11
208.5999999999999
 21
1000.5
 31
0.0
  0
LINE
  5
A2
330
1E
100
AcDbEntity
  8
0
100
AcDbLine
 10
206.8
 20
1000.5
 30
0.0
 11
207.4
 21
1000.5
 31
0.0
  0
LINE
  5
A3
330
1E
100
AcDbEntity
  8
0
100
AcDbLine
 10
207.4
 20
1000.5
 30
0.0
 11
208.0
 21
1000.5
 31
0.0
  0
LINE
  5
A4
330
1E
100
AcDbEntity
  8
0
100
AcDbLine
 10
206.1999999999999
 20
1000.5
 30
0.0
 11
207.1
 21
1000.5
 31
0.0
  0
LINE
  5
A5
330
1E
100
AcDbEntity
  8
0
100
AcDbLine
 10
206.1999999999999
 20
1000.5
 30
0.0
 11
206.8
 21
1000.5
 31
0.0
  0
LINE
  5
A6
330
1E
100
AcDbEntity
  8
0
100
AcDbLine
 10
207.1
 20
1000.5
 30
0.0
 11
208.0
 21
1000.5
 31
0.0
  0
LINE
  5
A7
330
1E
100
AcDbEntity
  8
0
100
AcDbLine
 10
199.724
 20
1000.5
 30
0.0
 11
199.807
 21
1000.5
 31
0.0
  0
LINE
  5
A8
330
1E
100
AcDbEntity
  8
0
100
AcDbLine
 10
199.807
 20
1000.5
 30
0.0
 11
200.34
 21
1001.5
 31
0.0
  0
LINE
  5
A9
330
1E
100
AcDbEntity
  8
0
100
AcDbLine
 10
199.703
 20
1000.5
 30
0.0
 11
199.807
 21
1000.5
 31
0.0
  0
LINE
  5
AA
330
1E
100
AcDbEntity
  8
0
100
AcDbLine
 10
199.34
 20
1000.5
 30
0.0
 11
199.703
 21
1000.5
 31
0.0
  0
LINE
  5
AB
330
1E
100
AcDbEntity
  8
0
100
AcDbLine
 10
198.803
 20
1000.5
 30
0.0
 11
199.34
 21
1000.5
 31
0.0
  0
LINE
  5
AC
330
1E
100
AcDbEntity
  8
0
100
AcDbLine
 10
200.34
 20
1001.5
 30
0.0
 11
201.283
 21
1002.5
 31
0.0
  0
LINE
  5
AD
330
1E
100
AcDbEntity
  8
0
100
AcDbLine
 10
197.992
 20
1003.5
 30
0.0
 11
199.5579999999999
 21
1003.5
 31
0.0
  0
LINE
  5
AE
330
1E
100
AcDbEntity
  8
0
100
AcDbLine
 10
199.5579999999999
 20
1003.5
 30
0.0
 11
200.9149999999999
 21
1003.5
 31
0.0
  0
LINE
  5
AF
330
1E
100
AcDbEntity
  8
0
100
AcDbLine
 10
212.0
 20
1001.5
 30
0.0
 11
213.0
 21
1002.5
 31
0.0
  0
LINE
  5
B0
330
1E
100
AcDbEntity
  8
0
100
AcDbLine
 10
213.0
 20
1002.5
 30
0.0
 11
214.5
 21
1003.5
 31
0.0
  0
LINE
  5
B1
330
1E
100
AcDbEntity
  8
0
100
AcDbLine
 10
204.0
 20
1001.5
 30
0.0
 11
204.4999999999999
 21
1000.5
 31
0.0
  0
LINE
  5
B2
330
1E
100
AcDbEntity
  8
0
100
AcDbLine
 10
203.0
 20
1002.5
 30
0.0
 11
204.0
 21
1001.5
 31
0.0
  0
LINE
  5
B3
330
1E
100
AcDbEntity
  8
0
100
AcDbLine
 10
202.4
 20
1003.5
 30
0.0
 11
203.4
 21
1003.5
 31
0.0
  0
LINE
  5
B4
330
1E
100
AcDbEntity
  8
0
100
AcDbLine
 10
201.6999999999999
 20
1003.5
 30
0.0
 11
202.4
 21
1003.5
 31
0.0
  0
LINE
  5
B5
330
1E
100
AcDbEntity
  8
0
100
AcDbLine
 10
201.5
 20
1003.5
 30
0.0
 11
201.6999999999999
 21
1003.5
 31
0.0
  0
LINE
  5
B6
330
1E
100
AcDbEntity
  8
0
100
AcDbLine
 10
201.5
 20
1003.5
 30
0.0
 11
203.0
 21
1002.5
 31
0.0
  0
LINE
  5
B7
330
1E
100
AcDbEntity
  8
0
100
AcDbLine
 10
203.4
 20
1003.5
 30
0.0
 11
204.8
 21
1003.5
 31
0.0
  0
LINE
  5
B8
330
1E
100
AcDbEntity
  8
0
100
AcDbLine
 10
204.8
 20
1003.5
 30
0.0
 11
206.3
 21
1003.5
 31
0.0
  0
LINE
  5
B9
330
1E
100
AcDbEntity
  8
0
100
AcDbLine
 10
212.5999999999999
 20
1003.5
 30
0.0
 11
213.6
 21
1003.5
 31
0.0
  0
LINE
  5
BA
330
1E
100
AcDbEntity
  8
0
100
AcDbLine
 10
213.6
 20
1003.5
 30
0.0
 11
214.3
 21
1003.5
 31
0.0
  0
LINE
  5
BB
330
1E
100
AcDbEntity
  8
0
100
AcDbLine
 10
211.2
 20
1003.5
 30
0.0
 11
212.5999999999999
 21
1003.5
 31
0.0
  0
LINE
  5
BC
330
1E
100
AcDbEntity
  8
0
100
AcDbLine
 10
209.6999999999999
 20
1003.5
 30
0.0
 11
211.2
 21
1003.5
 31
0.0
  0
LINE
  5
BD
330
1E
100
AcDbEntity
  8
0
100
AcDbLine
 10
206.3
 20
1003.5
 30
0.0
 11
208.0
 21
1003.5
 31
0.0
  0
LINE
  5
BE
330
1E
100
AcDbEntity
  8
0
100
AcDbLine
 10
201.283
 20
1002.5
 30
0.0
 11
202.1342857142859
 21
1003.07714285714
 31
0.0
  0
LINE
  5
BF
330
1E
100
AcDbEntity
  8
0
100
AcDbLine
 10
200.9149999999999
 20
1003.5
 30
0.0
 11
201.5
 21
1003.5
 31
0.0
  0
LINE
  5
C0
330
1E
100
AcDbEntity
  8
0
100
AcDbLine
 10
197.229
 20
1000.5
 30
0.0
 11
198.059
 21
1000.5
 31
0.0
  0
LINE
  5
C1
330
1E
100
AcDbEntity
  8
0
100
AcDbLine
 10
197.1
 20
1003.5
 30
0.0
 11
202.3
 21
1003.5
 31
0.0
  0
LINE
  5
C2
330
1E
100
AcDbEntity
  8
0
100
AcDbLine
 10
202.3
 20
1003.5
 30
0.0
 11
208.0
 21
1003.5
 31
0.0
  0
LINE
  5
C3
330
1E
100
AcDbEntity
  8
0
100
AcDbLine
 10
213.865714285714
 20
1003.07714285714
 30
0.0
 11
214.717
 21
1002.5
 31
0.0
  0
LINE
  5
C4
330
1E
100
AcDbEntity
  8
0
100
AcDbLine
 10
216.276
 20
1000.5
 30
0.0
 11
216.6329999999999
 21
1000.5
 31
0.0
  0
LINE
  5
C5
330
1E
100
AcDbEntity
  8
0
100
AcDbLine
 10
216.6329999999999
 20
1000.5
 30
0.0
 11
217.212
 21
1000.5
 31
0.0
  0
LINE
  5
C6
330
1E
100
AcDbEntity
  8
0
100
AcDbLine
 10
217.1859999999999
 20
1000.5
 30
0.0
 11
217.313
 21
1000.5
 31
0.0
  0
LINE
  5
C7
330
1E
100
AcDbEntity
  8
0
100
AcDbLine
 10
216.1929999999999
 20
1000.5
 30
0.0
 11
216.297
 21
1000.5
 31
0.0
  0
LINE
  5
C8
330
1E
100
AcDbEntity
  8
0
100
AcDbLine
 10
216.1929999999999
 20
1000.5
 30
0.0
 11
216.276
 21
1000.5
 31
0.0
  0
LINE
  5
C9
330
1E
100
AcDbEntity
  8
0
100
AcDbLine
 10
216.297
 20
1000.5
 30
0.0
 11
216.6599999999999
 21
1000.5
 31
0.0
  0
LINE
  5
CA
330
1E
100
AcDbEntity
  8
0
100
AcDbLine
 10
217.232
 20
1000.5
 30
0.0
 11
217.552
 21
1000.5
 31
0.0
  0
LINE
  5
CB
330
1E
100
AcDbEntity
  8
0
100
AcDbLine
 10
217.212
 20
1000.5
 30
0.0
 11
217.9409999999999
 21
1000.5
 31
0.0
  0
LINE
  5
CC
330
1E
100
AcDbEntity
  8
0
100
AcDbLine
 10
217.313
 20
1000.5
 30
0.0
 11
217.5259999999999
 21
1000.5
 31
0.0
  0
LINE
  5
CD
330
1E
100
AcDbEntity
  8
0
100
AcDbLine
 10
217.552
 20
1000.5
 30
0.0
 11
217.972
 21
1000.5
 31
0.0
  0
LINE
  5
CE
330
1E
100
AcDbEntity
  8
0
100
AcDbLine
 10
217.972
 20
1000.5
 30
0.0
 11
218.4409999999999
 21
1000.5
 31
0.0
  0
LINE
  5
CF
330
1E
100
AcDbEntity
  8
0
100
AcDbLine
 10
217.9409999999999
 20
1000.5
 30
0.0
 11
218.771
 21
1000.5
 31
0.0
  0
LINE
  5
D0
330
1E
100
AcDbEntity
  8
0
100
AcDbLine
 10
219.011
 20
1000.5
 30
0.0
 11
219.6309999999999
 21
1000.5
 31
0.0
  0
LINE
  5
D1
330
1E
100
AcDbEntity
  8
0
100
AcDbLine
 10
218.4409999999999
 20
1000.5
 30
0.0
 11
219.011
 21
1000.5
 31
0.0
  0
LINE
  5
D2
330
1E
100
AcDbEntity
  8
0
100
AcDbLine
 10
218.771
 20
1000.5
 30
0.0
 11
219.75
 21
1000.5
 31
0.0
  0
LINE
  5
D3
330
1E
100
AcDbEntity
  8
0
100
AcDbLine
 10
218.386
 20
1000.5
 30
0.0
 11
219.0329999999999
 21
1000.5
 31
0.0
  0
LINE
  5
D4
330
1E
100
AcDbEntity
  8
0
100
AcDbLine
 10
217.9129999999999
 20
1000.5
 30
0.0
 11
218.386
 21
1000.5
 31
0.0
  0
LINE
  5
D5
330
1E
100
AcDbEntity
  8
0
100
AcDbLine
 10
217.5259999999999
 20
1000.5
 30
0.0
 11
217.9129999999999
 21
1000.5
 31
0.0
  0
LINE
  5
D6
330
1E
100
AcDbEntity
  8
0
100
AcDbLine
 10
217.993
 20
1000.5
 30
0.0
 11
218.7759999999999
 21
1000.5
 31
0.0
  0
LINE
  5
D7
330
1E
100
AcDbEntity
  8
0
100
AcDbLine
 10
217.1969999999999
 20
1000.5
 30
0.0
 11
217.993
 21
1000.5
 31
0.0
  0
LINE
  5
D8
330
1E
100
AcDbEntity
  8
0
100
AcDbLine
 10
216.6599999999999
 20
1000.5
 30
0.0
 11
217.1969999999999
 21
1000.5
 31
0.0
  0
LINE
  5
D9
330
1E
100
AcDbEntity
  8
0
100
AcDbLine
 10
219.6309999999999
 20
1000.5
 30
0.0
 11
220.35
 21
1000.5
 31
0.0
  0
LINE
  5
DA
330
1E
100
AcDbEntity
  8
0
100
AcDbLine
 10
219.0329999999999
 20
1000.5
 30
0.0
 11
219.752
 21
1000.5
 31
0.0
  0
LINE
  5
DB
330
1E
100
AcDbEntity
  8
0
100
AcDbLine
 10
218.7759999999999
 20
1000.5
 30
0.0
 11
219.6329999999999
 21
1000.5
 31
0.0
  0
LINE
  5
DC
330
1E
100
AcDbEntity
  8
0
100
AcDbLine
 10
219.75
 20
1000.5
 30
0.0
 11
220.6059999999999
 21
1000.5
 31
0.0
  0
LINE
  5
DD
330
1E
100
AcDbEntity
  8
0
100
AcDbLine
 10
220.35
 20
1000.5
 30
0.0
 11
220.997
 21
1000.5
 31
0.0
  0
LINE
  5
DE
330
1E
100
AcDbEntity
  8
0
100
AcDbLine
 10
220.997
 20
1000.5
 30
0.0
 11
221.47
 21
1000.5
 31
0.0
  0
LINE
  5
DF
330
1E
100
AcDbEntity
  8
0
100
AcDbLine
 10
220.6059999999999
 20
1000.5
 30
0.0
 11
221.389
 21
1000.5
 31
0.0
  0
LINE
  5
E0
330
1E
100
AcDbEntity
  8
0
100
AcDbLine
 10
221.389
 20
1000.5
 30
0.0
 11
222.1859999999999
 21
1000.5
 31
0.0
  0
LINE
  5
E1
330
1E
100
AcDbEntity
  8
0
100
AcDbLine
 10
219.752
 20
1000.5
 30
0.0
 11
220.372
 21
1000.5
 31
0.0
  0
LINE
  5
E2
330
1E
100
AcDbEntity
  8
0
100
AcDbLine
 10
220.372
 20
1000.5
 30
0.0
 11
220.9409999999999
 21
1000.5
 31
0.0
  0
LINE
  5
E3
330
1E
100
AcDbEntity
  8
0
100
AcDbLine
 10
219.6329999999999
 20
1000.5
 30
0.0
 11
220.6119999999999
 21
1000.5
 31
0.0
  0
LINE
  5
E4
330
1E
100
AcDbEntity
  8
0
100
AcDbLine
 10
220.6119999999999
 20
1000.5
 30
0.0
 11
221.4409999999999
 21
1000.5
 31
0.0
  0
LINE
  5
E5
330
1E
100
AcDbEntity
  8
0
100
AcDbLine
 10
221.4109999999999
 20
1000.5
 30
0.0
 11
221.8309999999999
 21
1000.5
 31
0.0
  0
LINE
  5
E6
330
1E
100
AcDbEntity
  8
0
100
AcDbLine
 10
214.717
 20
1002.5
 30
0.0
 11
215.66
 21
1001.5
 31
0.0
  0
LINE
  5
E7
330
1E
100
AcDbEntity
  8
0
100
AcDbLine
 10
215.66
 20
1001.5
 30
0.0
 11
216.1929999999999
 21
1000.5
 31
0.0
  0
LINE
  5
E8
330
1E
100
AcDbEntity
  8
0
100
AcDbLine
 10
216.442
 20
1003.5
 30
0.0
 11
218.0079999999999
 21
1003.5
 31
0.0
  0
LINE
  5
E9
330
1E
100
AcDbEntity
  8
0
100
AcDbLine
 10
215.085
 20
1003.5
 30
0.0
 11
216.442
 21
1003.5
 31
0.0
  0
LINE
  5
EA
330
1E
100
AcDbEntity
  8
0
100
AcDbLine
 10
214.5
 20
1003.5
 30
0.0
 11
215.085
 21
1003.5
 31
0.0
  0
LINE
  5
EB
330
1E
100
AcDbEntity
  8
0
100
AcDbLine
 10
221.0999999999999
 20
1003.5
 30
0.0
 11
222.3
 21
1003.5
 31
0.0
  0
LINE
  5
EC
330
1E
100
AcDbEntity
  8
0
100
AcDbLine
 10
220.1999999999999
 20
1003.5
 30
0.0
 11
221.0999999999999
 21
1003.5
 31
0.0
  0
LINE
  5
ED
330
1E
100
AcDbEntity
  8
0
100
AcDbLine
 10
219.7
 20
1003.5
 30
0.0
 11
220.1999999999999
 21
1003.5
 31
0.0
  0
LINE
  5
EE
330
1E
100
AcDbEntity
  8
0
100
AcDbLine
 10
219.4999999999999
 20
1003.5
 30
0.0
 11
219.7
 21
1003.5
 31
0.0
  0
LINE
  5
EF
330
1E
100
AcDbEntity
  8
0
100
AcDbLine
 10
218.0079999999999
 20
1003.5
 30
0.0
 11
219.72
 21
1003.5
 31
0.0
  0
LINE
  5
F0
330
1E
100
AcDbEntity
  8
0
100
AcDbLine
 10
219.72
 20
1003.5
 30
0.0
 11
221.369
 21
1003.5
 31
0.0
  0
LINE
  5
F1
330
1E
100
AcDbEntity
  8
0
100
AcDbLine
 10
221.369
 20
1003.5
 30
0.0
 11
222.9409999999999
 21
1003.5
 31
0.0
  0
LINE
  5
F2
330
1E
100
AcDbEntity
  8
0
100
AcDbLine
 10
220.9409999999999
 20
1000.5
 30
0.0
 11
221.4109999999999
 21
1000.5
 31
0.0
  0
LINE
  5
F3
330
1E
100
AcDbEntity
  8
0
100
AcDbLine
 10
221.47
 20
1000.5
 30
0.0
 11
221.856
 21
1000.5
 31
0.0
  0
LINE
  5
F4
330
1E
100
AcDbEntity
  8
0
100
AcDbLine
 10
222.1859999999999
 20
1000.5
 30
0.0
 11
222.7219999999999
 21
1000.5
 31
0.0
  0
LINE
  5
F5
330
1E
100
AcDbEntity
  8
0
100
AcDbLine
 10
222.0699999999999
 20
1000.5
 30
0.0
 11
222.197
 21
1000.5
 31
0.0
  0
LINE
  5
F6
330
1E
100
AcDbEntity
  8
0
100
AcDbLine
 10
221.856
 20
1000.5
 30
0.0
 11
222.0699999999999
 21
1000.5
 31
0.0
  0
LINE
  5
F7
330
1E
100
AcDbEntity
  8
0
100
AcDbLine
 10
222.7219999999999
 20
1000.5
 30
0.0
 11
223.0859999999999
 21
1000.5
 31
0.0
  0
LINE
  5
F8
330
1E
100
AcDbEntity
  8
0
100
AcDbLine
 10
221.8309999999999
 20
1000.5
 30
0.0
 11
222.15
 21
1000.5
 31
0.0
  0
LINE
  5
F9
330
1E
100
AcDbEntity
  8
0
100
AcDbLine
 10
223.1059999999999
 20
1000.5
 30
0.0
 11
223.189
 21
1000.5
 31
0.0
  0
LINE
  5
FA
330
1E
100
AcDbEntity
  8
0
100
AcDbLine
 10
223.189
 20
1000.5
 30
0.0
 11
223.722
 21
1001.5
 31
0.0
  0
LINE
  5
FB
330
1E
100
AcDbEntity
  8
0
100
AcDbLine
 10
223.0859999999999
 20
1000.5
 30
0.0
 11
223.189
 21
1000.5
 31
0.0
  0
LINE
  5
FC
330
1E
100
AcDbEntity
  8
0
100
AcDbLine
 10
222.75
 20
1000.5
 30
0.0
 11
223.1059999999999
 21
1000.5
 31
0.0
  0
LINE
  5
FD
330
1E
100
AcDbEntity
  8
0
100
AcDbLine
 10
222.3
 20
1003.5
 30
0.0
 11
223.6
 21
1003.5
 31
0.0
  0
LINE
  5
FE
330
1E
100
AcDbEntity
  8
0
100
AcDbLine
 10
223.1999999999999
 20
1003.5
 30
0.0
 11
223.7999999999999
 21
1003.5
 31
0.0
  0
LINE
  5
FF
330
1E
100
AcDbEntity
  8
0
100
AcDbLine
 10
222.8
 20
1003.5
 30
0.0
 11
223.1999999999999
 21
1003.5
 31
0.0
  0
LINE
  5
100
330
1E
100
AcDbEntity
  8
0
100
AcDbLine
 10
222.5999999999999
 20
1003.5
 30
0.0
 11
222.8
 21
1003.5
 31
0.0
  0
LINE
  5
101
330
1E
100
AcDbEntity
  8
0
100
AcDbLine
 10
222.5
 20
1003.5
 30
0.0
 11
222.5999999999999
 21
1003.5
 31
0.0
  0
LINE
  5
102
330
1E
100
AcDbEntity
  8
0
100
AcDbLine
 10
222.1709999999999
 20
1000.5
 30
0.0
 11
222.75
 21
1000.5
 31
0.0
  0
LINE
  5
103
330
1E
100
AcDbEntity
  8
0
100
AcDbLine
 10
221.4409999999999
 20
1000.5
 30
0.0
 11
222.1709999999999
 21
1000.5
 31
0.0
  0
LINE
  5
104
330
1E
100
AcDbEntity
  8
0
100
AcDbLine
 10
222.9409999999999
 20
1003.5
 30
0.0
 11
224.314
 21
1003.5
 31
0.0
  0
LINE
  5
105
330
1E
100
AcDbEntity
  8
0
100
AcDbLine
 10
214.3
 20
1003.5
 30
0.0
 11
214.5
 21
1003.5
 31
0.0
  0
LINE
  5
106
330
1E
100
AcDbEntity
  8
0
100
AcDbLine
 10
218.9
 20
1003.5
 30
0.0
 11
223.4999999999999
 21
1003.5
 31
0.0
  0
LINE
  5
107
330
1E
100
AcDbEntity
  8
0
100
AcDbLine
 10
213.7
 20
1003.5
 30
0.0
 11
218.9
 21
1003.5
 31
0.0
  0
LINE
  5
108
330
1E
100
AcDbEntity
  8
0
100
AcDbLine
 10
208.0
 20
1003.5
 30
0.0
 11
213.7
 21
1003.5
 31
0.0
  0
LINE
  5
109
330
1E
100
AcDbEntity
  8
0
100
AcDbLine
 10
208.0
 20
1003.5
 30
0.0
 11
209.6999999999999
 21
1003.5
 31
0.0
  0
LINE
  5
10A
330
1E
100
AcDbEntity
  8
0
100
AcDbLine
 10
223.7999999999999
 20
1003.5
 30
0.0
 11
224.4
 21
1003.5
 31
0.0
  0
LINE
  5
10B
330
1E
100
AcDbEntity
  8
0
100
AcDbLine
 10
223.6
 20
1003.5
 30
0.0
 11
225.0
 21
1003.5
 31
0.0
  0
LINE
  5
10C
330
1E
100
AcDbEntity
  8
0
100
AcDbLine
 10
223.722
 20
1001.5
 30
0.0
 11
224.6649999999999
 21
1002.5
 31
0.0
  0
LINE
  5
10D
330
1E
100
AcDbEntity
  8
0
100
AcDbLine
 10
224.4
 20
1003.5
 30
0.0
 11
225.0
 21
1003.5
 31
0.0
  0
LINE
  5
10E
330
1E
100
AcDbEntity
  8
0
100
AcDbLine
 10
225.5999999999999
 20
1003.5
 30
0.0
 11
226.2
 21
1003.5
 31
0.0
  0
LINE
  5
10F
330
1E
100
AcDbEntity
  8
0
100
AcDbLine
 10
225.0
 20
1003.5
 30
0.0
 11
226.4
 21
1003.5
 31
0.0
  0
LINE
  5
110
330
1E
100
AcDbEntity
  8
0
100
AcDbLine
 10
225.0
 20
1003.5
 30
0.0
 11
225.5999999999999
 21
1003.5
 31
0.0
  0
LINE
  5
111
330
1E
100
AcDbEntity
  8
0
100
AcDbLine
 10
226.8
 20
1003.5
 30
0.0
 11
227.1999999999999
 21
1003.5
 31
0.0
  0
LINE
  5
112
330
1E
100
AcDbEntity
  8
0
100
AcDbLine
 10
227.1999999999999
 20
1003.5
 30
0.0
 11
227.4
 21
1003.5
 31
0.0
  0
LINE
  5
113
330
1E
100
AcDbEntity
  8
0
100
AcDbLine
 10
227.4
 20
1003.5
 30
0.0
 11
227.4999999999999
 21
1003.5
 31
0.0
  0
LINE
  5
114
330
1E
100
AcDbEntity
  8
0
100
AcDbLine
 10
226.2
 20
1003.5
 30
0.0
 11
226.8
 21
1003.5
 31
0.0
  0
LINE
  5
115
330
1E
100
AcDbEntity
  8
0
100
AcDbLine
 10
228.9
 20
1003.5
 30
0.0
 11
229.8
 21
1003.5
 31
0.0
  0
LINE
  5
116
330
1E
100
AcDbEntity
  8
0
100
AcDbLine
 10
227.7
 20
1003.5
 30
0.0
 11
228.9
 21
1003.5
 31
0.0
  0
LINE
  5
117
330
1E
100
AcDbEntity
  8
0
100
AcDbLine
 10
226.4
 20
1003.5
 30
0.0
 11
227.7
 21
1003.5
 31
0.0
  0
LINE
  5
118
330
1E
100
AcDbEntity
  8
0
100
AcDbLine
 10
225.9749999999999
 20
1003.5
 30
0.0
 11
226.141
 21
1003.5
 31
0.0
  0
LINE
  5
119
330
1E
100
AcDbEntity
  8
0
100
AcDbLine
 10
225.997
 20
1003.5
 30
0.0
 11
226.141
 21
1003.5
 31
0.0
  0
LINE
  5
11A
330
1E
100
AcDbEntity
  8
0
100
AcDbLine
 10
224.6649999999999
 20
1002.5
 30
0.0
 11
226.141
 21
1003.5
 31
0.0
  0
LINE
  5
11B
330
1E
100
AcDbEntity
  8
0
100
AcDbLine
 10
225.2629999999999
 20
1003.5
 30
0.0
 11
225.9749999999999
 21
1003.5
 31
0.0
  0
LINE
  5
11C
330
1E
100
AcDbEntity
  8
0
100
AcDbLine
 10
224.314
 20
1003.5
 30
0.0
 11
225.2629999999999
 21
1003.5
 31
0.0
  0
LINE
  5
11D
330
1E
100
AcDbEntity
  8
0
100
AcDbLine
 10
226.141
 20
1003.5
 30
0.0
 11
227.0999999999999
 21
1003.5
 31
0.0
  0
LINE
  5
11E
330
1E
100
AcDbEntity
  8
0
100
AcDbLine
 10
226.141
 20
1003.5
 30
0.0
 11
226.4
 21
1003.5
 31
0.0
  0
LINE
  5
11F
330
1E
100
AcDbEntity
  8
0
100
AcDbLine
 10
226.141
 20
1003.5
 30
0.0
 11
226.2
 21
1003.5
 31
0.0
  0
LINE
  5
120
330
1E
100
AcDbEntity
  8
0
100
AcDbLine
 10
223.4999999999999
 20
1003.5
 30
0.0
 11
227.0999999999999
 21
1003.5
 31
0.0
  0
LINE
  5
121
330
1E
100
AcDbEntity
  8
0
100
AcDbLine
 10
27.8
 20
1004.0
 30
0.0
 11
29.0
 21
1004.0
 31
0.0
  0
LINE
  5
122
330
1E
100
AcDbEntity
  8
0
100
AcDbLine
 10
29.0
 20
1004.0
 30
0.0
 11
30.5
 21
1004.0
 31
0.0
  0
LINE
  5
123
330
1E
100
AcDbEntity
  8
0
100
AcDbLine
 10
36.2
 20
1004.0
 30
0.0
 11
37.2
 21
1004.0
 31
0.0
  0
LINE
  5
124
330
1E
100
AcDbEntity
  8
0
100
AcDbLine
 10
37.2
 20
1004.0
 30
0.0
 11
37.79999999999999
 21
1004.0
 31
0.0
  0
LINE
  5
1A0
330
1E
100
AcDbEntity
  8
0
100
AcDbLine
 10
119.087
 20
1004.0
 30
0.0
 11
119.3869999999999
 21
1004.0
 31
0.0
  0
LINE
  5
1B6
330
1E
100
AcDbEntity
  8
0
100
AcDbLine
 10
121.116
 20
1004.0
 30
0.0
 11
121.4159999999999
 21
1004.0
 31
0.0
  0
LINE
  5
1BA
330
1E
100
AcDbEntity
  8
0
100
AcDbLine
 10
122.816
 20
1004.0
 30
0.0
 11
123.116
 21
1004.0
 31
0.0
  0
LINE
  5
1BC
330
1E
100
AcDbEntity
  8
0
100
AcDbLine
 10
122.116
 20
1004.0
 30
0.0
 11
122.816
 21
1004.0
 31
0.0
  0
LINE
  5
1BE
330
1E
100
AcDbEntity
  8
0
100
AcDbLine
 10
121.4159999999999
 20
1004.0
 30
0.0
 11
122.116
 21
1004.0
 31
0.0
  0
LINE
  5
1BF
330
1E
100
AcDbEntity
  8
0
100
AcDbLine
 10
125.12
 20
1004.0
 30
0.0
 11
125.4199999999999
 21
1004.0
 31
0.0
  0
LINE
  5
1C2
330
1E
100
AcDbEntity
  8
0
100
AcDbLine
 10
125.4199999999999
 20
1004.0
 30
0.0
 11
126.12
 21
1004.0
 31
0.0
  0
LINE
  5
1C3
330
1E
100
AcDbEntity
  8
0
100
AcDbLine
 10
123.0
 20
1004.0
 30
0.0
 11
125.6
 21
1004.0
 31
0.0
  0
LINE
  5
1C4
330
1E
100
AcDbEntity
  8
0
100
AcDbLine
 10
131.5939999999999
 20
1004.0
 30
0.0
 11
131.894
 21
1004.0
 31
0.0
  0
LINE
  5
1C7
330
1E
100
AcDbEntity
  8
0
100
AcDbLine
 10
132.5939999999999
 20
1004.0
 30
0.0
 11
133.2939999999999
 21
1004.0
 31
0.0
  0
LINE
  5
1C9
330
1E
100
AcDbEntity
  8
0
100
AcDbLine
 10
131.894
 20
1004.0
 30
0.0
 11
132.5939999999999
 21
1004.0
 31
0.0
  0
LINE
  5
1CA
330
1E
100
AcDbEntity
  8
0
100
AcDbLine
 10
132.827
 20
1004.0
 30
0.0
 11
133.127
 21
1004.0
 31
0.0
  0
LINE
  5
1CC
330
1E
100
AcDbEntity
  8
0
100
AcDbLine
 10
133.2939999999999
 20
1004.0
 30
0.0
 11
133.5939999999999
 21
1004.0
 31
0.0
  0
LINE
  5
1CE
330
1E
100
AcDbEntity
  8
0
100
AcDbLine
 10
133.827
 20
1004.0
 30
0.0
 11
134.527
 21
1004.0
 31
0.0
  0
LINE
  5
1D0
330
1E
100
AcDbEntity
  8
0
100
AcDbLine
 10
133.127
 20
1004.0
 30
0.0
 11
133.827
 21
1004.0
 31
0.0
  0
LINE
  5
1D1
330
1E
100
AcDbEntity
  8
0
100
AcDbLine
 10
134.226
 20
1004.0
 30
0.0
 11
134.526
 21
1004.0
 31
0.0
  0
LINE
  5
1D3
330
1E
100
AcDbEntity
  8
0
100
AcDbLine
 10
134.527
 20
1004.0
 30
0.0
 11
134.827
 21
1004.0
 31
0.0
  0
LINE
  5
1D5
330
1E
100
AcDbEntity
  8
0
100
AcDbLine
 10
135.226
 20
1004.0
 30
0.0
 11
135.926
 21
1004.0
 31
0.0
  0
LINE
  5
1D7
330
1E
100
AcDbEntity
  8
0
100
AcDbLine
 10
134.526
 20
1004.0
 30
0.0
 11
135.226
 21
1004.0
 31
0.0
  0
LINE
  5
1DA
330
1E
100
AcDbEntity
  8
0
100
AcDbLine
 10
126.8199999999999
 20
1004.0
 30
0.0
 11
127.12
 21
1004.0
 31
0.0
  0
LINE
  5
1DC
330
1E
100
AcDbEntity
  8
0
100
AcDbLine
 10
126.12
 20
1004.0
 30
0.0
 11
126.8199999999999
 21
1004.0
 31
0.0
  0
LINE
  5
1DE
330
1E
100
AcDbEntity
  8
0
100
AcDbLine
 10
135.926
 20
1004.0
 30
0.0
 11
136.226
 21
1004.0
 31
0.0
  0
LINE
  5
1E1
330
1E
100
AcDbEntity
  8
0
100
AcDbLine
 10
137.9
 20
1004.0
 30
0.0
 11
138.1999999999999
 21
1004.0
 31
0.0
  0
LINE
  5
1E3
330
1E
100
AcDbEntity
  8
0
100
AcDbLine
 10
137.1999999999999
 20
1004.0
 30
0.0
 11
137.9
 21
1004.0
 31
0.0
  0
LINE
  5
1E4
330
1E
100
AcDbEntity
  8
0
100
AcDbLine
 10
136.1999999999999
 20
1004.0
 30
0.0
 11
136.4999999999999
 21
1004.0
 31
0.0
  0
LINE
  5
1E7
330
1E
100
AcDbEntity
  8
0
100
AcDbLine
 10
136.4999999999999
 20
1004.0
 30
0.0
 11
137.1999999999999
 21
1004.0
 31
0.0
  0
LINE
  5
1EA
330
1E
100
AcDbEntity
  8
0
100
AcDbLine
 10
140.121
 20
1004.0
 30
0.0
 11
140.4209999999999
 21
1004.0
 31
0.0
  0
LINE
  5
1EC
330
1E
100
AcDbEntity
  8
0
100
AcDbLine
 10
139.4209999999999
 20
1004.0
 30
0.0
 11
140.121
 21
1004.0
 31
0.0
  0
LINE
  5
1ED
330
1E
100
AcDbEntity
  8
0
100
AcDbLine
 10
138.4209999999999
 20
1004.0
 30
0.0
 11
138.721
 21
1004.0
 31
0.0
  0
LINE
  5
1F0
330
1E
100
AcDbEntity
  8
0
100
AcDbLine
 10
138.721
 20
1004.0
 30
0.0
 11
139.4209999999999
 21
1004.0
 31
0.0
  0
LINE
  5
1F2
330
1E
100
AcDbEntity
  8
0
100
AcDbLine
 10
144.4809999999999
 20
1004.0
 30
0.0
 11
144.781
 21
1004.0
 31
0.0
  0
LINE
  5
1F4
330
1E
100
AcDbEntity
  8
0
100
AcDbLine
 10
143.7809999999999
 20
1004.0
 30
0.0
 11
144.4809999999999
 21
1004.0
 31
0.0
  0
LINE
  5
1F5
330
1E
100
AcDbEntity
  8
0
100
AcDbLine
 10
142.781
 20
1004.0
 30
0.0
 11
143.081
 21
1004.0
 31
0.0
  0
LINE
  5
1F8
330
1E
100
AcDbEntity
  8
0
100
AcDbLine
 10
143.081
 20
1004.0
 30
0.0
 11
143.7809999999999
 21
1004.0
 31
0.0
  0
LINE
  5
1F9
330
1E
100
AcDbEntity
  8
0
100
AcDbLine
 10
141.1999999999999
 20
1004.0
 30
0.0
 11
143.367
 21
1004.0
 31
0.0
  0
LINE
  5
1FA
330
1E
100
AcDbEntity
  8
0
100
AcDbLine
 10
143.367
 20
1004.0
 30
0.0
 11
144.667
 21
1004.0
 31
0.0
  0
LINE
  5
265
330
1E
100
AcDbEntity
  8
0
100
AcDbLine
 10
144.667
 20
1004.0
 30
0.0
 11
145.1
 21
1004.0
 31
0.0
  0
LINE
  5
266
330
1E
100
AcDbEntity
  8
0
100
AcDbLine
 10
138.5999999999999
 20
1004.0
 30
0.0
 11
141.1999999999999
 21
1004.0
 31
0.0
  0
LINE
  5
267
330
1E
100
AcDbEntity
  8
0
100
AcDbLine
 10
135.3499999999999
 20
1004.0
 30
0.0
 11
138.5999999999999
 21
1004.0
 31
0.0
  0
LINE
  5
268
330
1E
100
AcDbEntity
  8
0
100
AcDbLine
 10
132.0999999999999
 20
1004.0
 30
0.0
 11
135.3499999999999
 21
1004.0
 31
0.0
  0
LINE
  5
269
330
1E
100
AcDbEntity
  8
0
100
AcDbLine
 10
125.6
 20
1004.0
 30
0.0
 11
128.8499999999999
 21
1004.0
 31
0.0
  0
LINE
  5
26A
330
1E
100
AcDbEntity
  8
0
100
AcDbLine
 10
128.8499999999999
 20
1004.0
 30
0.0
 11
132.0999999999999
 21
1004.0
 31
0.0
  0
LINE
  5
26B
330
1E
100
AcDbEntity
  8
0
100
AcDbLine
 10
120.8329999999999
 20
1004.0
 30
0.0
 11
123.0
 21
1004.0
 31
0.0
  0
LINE
  5
26C
330
1E
100
AcDbEntity
  8
0
100
AcDbLine
 10
119.533
 20
1004.0
 30
0.0
 11
120.8329999999999
 21
1004.0
 31
0.0
  0
LINE
  5
26D
330
1E
100
AcDbEntity
  8
0
100
AcDbLine
 10
119.1
 20
1004.0
 30
0.0
 11
119.533
 21
1004.0
 31
0.0
  0
LINE
  5
26E
330
1E
100
AcDbEntity
  8
0
100
AcDbLine
 10
119.1
 20
1004.0
 30
0.0
 11
120.1829999999999
 21
1003.5
 31
0.0
  0
LINE
  5
26F
330
1E
100
AcDbEntity
  8
0
100
AcDbLine
 10
38.0
 20
1004.0
 30
0.0
 11
38.0
 21
1005.0
 31
0.0
  0
LINE
  5
270
330
1E
100
AcDbEntity
  8
0
100
AcDbLine
 10
37.79999999999999
 20
1004.0
 30
0.0
 11
38.0
 21
1004.0
 31
0.0
  0
LINE
  5
271
330
1E
100
AcDbEntity
  8
0
100
AcDbLine
 10
35.0
 20
1004.0
 30
0.0
 11
36.2
 21
1004.0
 31
0.0
  0
LINE
  5
272
330
1E
100
AcDbEntity
  8
0
100
AcDbLine
 10
33.5
 20
1004.0
 30
0.0
 11
35.0
 21
1004.0
 31
0.0
  0
LINE
  5
273
330
1E
100
AcDbEntity
  8
0
100
AcDbLine
 10
32.0
 20
1004.0
 30
0.0
 11
33.5
 21
1004.0
 31
0.0
  0
LINE
  5
274
330
1E
100
AcDbEntity
  8
0
100
AcDbLine
 10
30.5
 20
1004.0
 30
0.0
 11
32.0
 21
1004.0
 31
0.0
  0
LINE
  5
275
330
1E
100
AcDbEntity
  8
0
100
AcDbLine
 10
26.8
 20
1004.0
 30
0.0
 11
27.8
 21
1004.0
 31
0.0
  0
LINE
  5
276
330
1E
100
AcDbEntity
  8
0
100
AcDbLine
 10
26.2
 20
1004.0
 30
0.0
 11
26.8
 21
1004.0
 31
0.0
  0
LINE
  5
277
330
1E
100
AcDbEntity
  8
0
100
AcDbLine
 10
5.000000000000019
 20
1005.0
 30
0.0
 11
340.0
 21
1005.0
 31
0.0
  0
LINE
  5
278
330
1E
100
AcDbEntity
  8
0
100
AcDbLine
 10
5.000000000000019
 20
1005.0
 30
0.0
 11
26.0
 21
1005.0
 31
0.0
  0
LINE
  5
279
330
1E
100
AcDbEntity
  8
0
100
AcDbLine
 10
5.0
 20
1005.0
 30
0.0
 11
340.0
 21
1005.0
 31
0.0
  0
LINE
  5
27A
330
1E
100
AcDbEntity
  8
0
100
AcDbLine
 10
5.0
 20
1005.0
 30
0.0
 11
26.0
 21
1005.0
 31
0.0
  0
LINE
  5
27B
330
1E
100
AcDbEntity
  8
0
100
AcDbLine
 10
2.600000000000009
 20
1005.0
 30
0.0
 11
5.0
 21
1005.0
 31
0.0
  0
LINE
  5
27C
330
1E
100
AcDbEntity
  8
0
100
AcDbLine
 10
0.7000000000000051
 20
1005.0
 30
0.0
 11
2.600000000000009
 21
1005.0
 31
0.0
  0
LINE
  5
27D
330
1E
100
AcDbEntity
  8
0
100
AcDbLine
 10
0.0000000000000047
 20
1005.0
 30
0.0
 11
0.0000000000000047
 21
1010.0
 31
0.0
  0
LINE
  5
27E
330
1E
100
AcDbEntity
  8
0
100
AcDbLine
 10
0.0000000000000047
 20
1005.0
 30
0.0
 11
0.7000000000000051
 21
1005.0
 31
0.0
  0
LINE
  5
27F
330
1E
100
AcDbEntity
  8
0
100
AcDbLine
 10
26.0
 20
1005.0
 30
0.0
 11
26.0
 21
1004.0
 31
0.0
  0
LINE
  5
280
330
1E
100
AcDbEntity
  8
0
100
AcDbLine
 10
38.0
 20
1005.0
 30
0.0
 11
73.9067
 21
1005.0
 31
0.0
  0
LINE
  5
28E
330
1E
100
AcDbEntity
  8
0
100
AcDbLine
 10
81.3695
 20
1005.0
 30
0.0
 11
83.0183
 21
1005.0
 31
0.0
  0
LINE
  5
28F
330
1E
100
AcDbEntity
  8
0
100
AcDbLine
 10
81.3695
 20
1005.0
 30
0.0
 11
83.0183
 21
1005.0
 31
0.0
  0
LINE
  5
294
330
1E
100
AcDbEntity
  8
0
100
AcDbLine
 10
85.01829999999999
 20
1005.0
 30
0.0
 11
88.73650000000001
 21
1005.0
 31
0.0
  0
LINE
  5
29F
330
1E
100
AcDbEntity
  8
0
100
AcDbLine
 10
99.6793
 20
1005.0
 30
0.0
 11
100.98
 21
1005.0
 31
0.0
  0
LINE
  5
2A1
330
1E
100
AcDbEntity
  8
0
100
AcDbLine
 10
99.6793
 20
1005.0
 30
0.0
 11
100.98
 21
1005.0
 31
0.0
  0
LINE
  5
2A7
330
1E
100
AcDbEntity
  8
0
100
AcDbLine
 10
90.7365
 20
1005.0
 30
0.0
 11
92.8579
 21
1005.0
 31
0.0
  0
LINE
  5
2AC
330
1E
100
AcDbEntity
  8
0
100
AcDbLine
 10
102.98
 20
1005.0
 30
0.0
 11
105.387
 21
1005.0
 31
0.0
  0
LINE
  5
2AE
330
1E
100
AcDbEntity
  8
0
100
AcDbLine
 10
102.98
 20
1005.0
 30
0.0
 11
105.387
 21
1005.0
 31
0.0
  0
LINE
  5
2E3
330
1E
100
AcDbEntity
  8
0
100
AcDbLine
 10
107.387
 20
1005.0
 30
0.0
 11
112.2
 21
1005.0
 31
0.0
  0
LINE
  5
2E9
330
1E
100
AcDbEntity
  8
0
100
AcDbLine
 10
85.01829999999999
 20
1005.0
 30
0.0
 11
88.73650000000001
 21
1005.0
 31
0.0
  0
LINE
  5
2FE
330
1E
100
AcDbEntity
  8
0
100
AcDbLine
 10
158.087
 20
1005.0
 30
0.0
 11
159.6239999999999
 21
1005.0
 31
0.0
  0
LINE
  5
308
330
1E
100
AcDbEntity
  8
0
100
AcDbLine
 10
161.6239999999999
 20
1005.0
 30
0.0
 11
168.9
 21
1005.0
 31
0.0
  0
LINE
  5
317
330
1E
100
AcDbEntity
  8
0
100
AcDbLine
 10
175.8359999999999
 20
1005.0
 30
0.0
 11
176.9609999999999
 21
1005.0
 31
0.0
  0
LINE
  5
31D
330
1E
100
AcDbEntity
  8
0
100
AcDbLine
 10
161.6239999999999
 20
1005.0
 30
0.0
 11
168.9
 21
1005.0
 31
0.0
  0
LINE
  5
323
330
1E
100
AcDbEntity
  8
0
100
AcDbLine
 10
178.9609999999999
 20
1005.0
 30
0.0
 11
186.0
 21
1005.0
 31
0.0
  0
LINE
  5
329
330
1E
100
AcDbEntity
  8
0
100
AcDbLine
 10
145.1
 20
1005.0
 30
0.0
 11
150.0
 21
1005.0
 31
0.0
  0
LINE
  5
32A
330
1E
100
AcDbEntity
  8
0
100
AcDbLine
 10
145.1
 20
1005.0
 30
0.0
 11
150.0
 21
1005.0
 31
0.0
  0
LINE
  5
32B
330
1E
100
AcDbEntity
  8
0
100
AcDbLine
 10
38.0
 20
1005.0
 30
0.0
 11
38.0
 21
1004.0
 31
0.0
  0
LINE
  5
32C
330
1E
100
AcDbEntity
  8
0
100
AcDbLine
 10
38.0
 20
1005.0
 30
0.0
 11
73.9067
 21
1005.0
 31
0.0
  0
LINE
  5
32D
330
1E
100
AcDbEntity
  8
0
100
AcDbLine
 10
26.0
 20
1004.0
 30
0.0
 11
26.0
 21
1005.0
 31
0.0
  0
LINE
  5
32E
330
1E
100
AcDbEntity
  8
0
100
AcDbLine
 10
26.0
 20
1004.0
 30
0.0
 11
26.2
 21
1004.0
 31
0.0
  0
LINE
  5
32F
330
1E
100
AcDbEntity
  8
0
100
AcDbLine
 10
26.0
 20
1004.0
 30
0.0
 11
26.5
 21
1003.5
 31
0.0
  0
LINE
  5
376
330
1E
100
AcDbEntity
  8
0
100
AcDbLine
 10
220.8
 20
1004.0
 30
0.0
 11
222.0
 21
1004.0
 31
0.0
  0
LINE
  5
377
330
1E
100
AcDbEntity
  8
0
100
AcDbLine
 10
222.0
 20
1004.0
 30
0.0
 11
223.4999999999999
 21
1004.0
 31
0.0
  0
LINE
  5
378
330
1E
100
AcDbEntity
  8
0
100
AcDbLine
 10
229.1999999999999
 20
1004.0
 30
0.0
 11
230.2
 21
1004.0
 31
0.0
  0
LINE
  5
379
330
1E
100
AcDbEntity
  8
0
100
AcDbLine
 10
228.0
 20
1004.0
 30
0.0
 11
229.1999999999999
 21
1004.0
 31
0.0
  0
LINE
  5
37A
330
1E
100
AcDbEntity
  8
0
100
AcDbLine
 10
226.5
 20
1004.0
 30
0.0
 11
228.0
 21
1004.0
 31
0.0
  0
LINE
  5
37B
330
1E
100
AcDbEntity
  8
0
100
AcDbLine
 10
225.0
 20
1004.0
 30
0.0
 11
226.5
 21
1004.0
 31
0.0
  0
LINE
  5
37C
330
1E
100
AcDbEntity
  8
0
100
AcDbLine
 10
223.4999999999999
 20
1004.0
 30
0.0
 11
225.0
 21
1004.0
 31
0.0
  0
LINE
  5
37D
330
1E
100
AcDbEntity
  8
0
100
AcDbLine
 10
219.7999999999999
 20
1004.0
 30
0.0
 11
220.8
 21
1004.0
 31
0.0
  0
LINE
  5
37E
330
1E
100
AcDbEntity
  8
0
100
AcDbLine
 10
219.1999999999999
 20
1004.0
 30
0.0
 11
219.7999999999999
 21
1004.0
 31
0.0
  0
LINE
  5
399
330
1E
100
AcDbEntity
  8
0
100
AcDbLine
 10
219.0
 20
1005.0
 30
0.0
 11
219.0
 21
1004.0
 31
0.0
  0
LINE
  5
39A
330
1E
100
AcDbEntity
  8
0
100
AcDbLine
 10
219.0
 20
1004.0
 30
0.0
 11
219.0
 21
1005.0
 31
0.0
  0
LINE
  5
39B
330
1E
100
AcDbEntity
  8
0
100
AcDbLine
 10
219.0
 20
1004.0
 30
0.0
 11
219.1999999999999
 21
1004.0
 31
0.0
  0
LINE
  5
39C
330
1E
100
AcDbEntity
  8
0
100
AcDbLine
 10
219.0
 20
1004.0
 30
0.0
 11
219.4999999999999
 21
1003.5
 31
0.0
  0
LINE
  5
39D
330
1E
100
AcDbEntity
  8
0
100
AcDbLine
 10
186.0
 20
1005.0
 30
0.0
 11
186.0
 21
1003.5
 31
0.0
  0
LINE
  5
39E
330
1E
100
AcDbEntity
  8
0
100
AcDbLine
 10
227.0999999999999
 20
1003.5
 30
0.0
 11
229.1999999999999
 21
1003.5
 31
0.0
  0
LINE
  5
39F
330
1E
100
AcDbEntity
  8
0
100
AcDbLine
 10
229.8
 20
1003.5
 30
0.0
 11
230.3
 21
1003.5
 31
0.0
  0
LINE
  5
3AD
330
1E
100
AcDbEntity
  8
0
100
AcDbLine
 10
230.5
 20
1003.5
 30
0.0
 11
231.0
 21
1004.0
 31
0.0
  0
LINE
  5
418
330
1E
100
AcDbEntity
  8
0
100
AcDbLine
 10
231.0
 20
1004.0
 30
0.0
 11
231.0
 21
1005.0
 31
0.0
  0
LINE
  5
419
330
1E
100
AcDbEntity
  8
0
100
AcDbLine
 10
230.3
 20
1003.5
 30
0.0
 11
230.5
 21
1003.5
 31
0.0
  0
LINE
  5
41A
330
1E
100
AcDbEntity
  8
0
100
AcDbLine
 10
230.2
 20
1004.0
 30
0.0
 11
230.8
 21
1004.0
 31
0.0
  0
LINE
  5
428
330
1E
100
AcDbEntity
  8
0
100
AcDbLine
 10
265.479
 20
1005.0
 30
0.0
 11
282.1419999999999
 21
1005.0
 31
0.0
  0
LINE
  5
42C
330
1E
100
AcDbEntity
  8
0
100
AcDbLine
 10
284.379
 20
1005.0
 30
0.0
 11
301.109
 21
1005.0
 31
0.0
  0
LINE
  5
438
330
1E
100
AcDbEntity
  8
0
100
AcDbLine
 10
248.479
 20
1005.0
 30
0.0
 11
263.3209999999999
 21
1005.0
 31
0.0
  0
LINE
  5
43E
330
1E
100
AcDbEntity
  8
0
100
AcDbLine
 10
303.2
 20
1005.0
 30
0.0
 11
318.0
 21
1005.0
 31
0.0
  0
LINE
  5
445
330
1E
100
AcDbEntity
  8
0
100
AcDbLine
 10
231.0
 20
1005.0
 30
0.0
 11
231.0
 21
1004.0
 31
0.0
  0
LINE
  5
446
330
1E
100
AcDbEntity
  8
0
100
AcDbLine
 10
231.0
 20
1005.0
 30
0.0
 11
244.4999999999999
 21
1005.0
 31
0.0
  0
LINE
  5
447
330
1E
100
AcDbEntity
  8
0
100
AcDbLine
 10
230.8
 20
1004.0
 30
0.0
 11
231.0
 21
1004.0
 31
0.0
  0
LINE
  5
448
330
1E
100
AcDbEntity
  8
0
100
AcDbLine
 10
229.1999999999999
 20
1003.5
 30
0.0
 11
230.0
 21
1003.5
 31
0.0
  0
LINE
  5
449
330
1E
100
AcDbEntity
  8
0
100
AcDbLine
 10
5.000000000000019
 20
1010.0
 30
0.0
 11
340.0
 21
1010.0
 31
0.0
  0
LINE
  5
44A
330
1E
100
AcDbEntity
  8
0
100
AcDbLine
 10
5.0
 20
1010.0
 30
0.0
 11
340.0
 21
1010.0
 31
0.0
  0
LINE
  5
44B
330
1E
100
AcDbEntity
  8
0
100
AcDbLine
 10
2.600000000000009
 20
1010.0
 30
0.0
 11
5.0
 21
1010.0
 31
0.0
  0
LINE
  5
44C
330
1E
100
AcDbEntity
  8
0
100
AcDbLine
 10
0.7000000000000051
 20
1010.0
 30
0.0
 11
2.600000000000009
 21
1010.0
 31
0.0
  0
LINE
  5
44D
330
1E
100
AcDbEntity
  8
0
100
AcDbLine
 10
0.0000000000000047
 20
1010.0
 30
0.0
 11
0.7000000000000051
 21
1010.0
 31
0.0
  0
LINE
  5
44E
330
1E
100
AcDbEntity
  8
0
100
AcDbLine
 10
0.0000000000000047
 20
1010.0
 30
0.0
 11
0.0000000000000047
 21
1005.0
 31
0.0
  0
LINE
  5
44F
330
1E
100
AcDbEntity
  8
0
100
AcDbLine
 10
318.0
 20
1005.0
 30
0.0
 11
318.0
 21
1003.5
 31
0.0
  0
LINE
  5
452
330
1E
100
AcDbEntity
  8
0
100
AcDbLine
 10
321.859
 20
1003.5
 30
0.0
 11
323.3349999999999
 21
1002.5
 31
0.0
  0
LINE
  5
453
330
1E
100
AcDbEntity
  8
0
100
AcDbLine
 10
321.859
 20
1003.5
 30
0.0
 11
322.0029999999999
 21
1003.5
 31
0.0
  0
LINE
  5
454
330
1E
100
AcDbEntity
  8
0
100
AcDbLine
 10
321.859
 20
1003.5
 30
0.0
 11
322.025
 21
1003.5
 31
0.0
  0
LINE
  5
455
330
1E
100
AcDbEntity
  8
0
100
AcDbLine
 10
323.3349999999999
 20
1002.5
 30
0.0
 11
324.278
 21
1001.5
 31
0.0
  0
LINE
  5
456
330
1E
100
AcDbEntity
  8
0
100
AcDbLine
 10
322.025
 20
1003.5
 30
0.0
 11
322.737
 21
1003.5
 31
0.0
  0
LINE
  5
457
330
1E
100
AcDbEntity
  8
0
100
AcDbLine
 10
322.737
 20
1003.5
 30
0.0
 11
323.686
 21
1003.5
 31
0.0
  0
LINE
  5
458
330
1E
100
AcDbEntity
  8
0
100
AcDbLine
 10
324.811
 20
1000.5
 30
0.0
 11
324.914
 21
1000.5
 31
0.0
  0
LINE
  5
459
330
1E
100
AcDbEntity
  8
0
100
AcDbLine
 10
324.811
 20
1000.5
 30
0.0
 11
324.894
 21
1000.5
 31
0.0
  0
LINE
  5
45A
330
1E
100
AcDbEntity
  8
0
100
AcDbLine
 10
324.914
 20
1000.5
 30
0.0
 11
325.278
 21
1000.5
 31
0.0
  0
LINE
  5
45B
330
1E
100
AcDbEntity
  8
0
100
AcDbLine
 10
324.894
 20
1000.5
 30
0.0
 11
325.2499999999999
 21
1000.5
 31
0.0
  0
LINE
  5
45C
330
1E
100
AcDbEntity
  8
0
100
AcDbLine
 10
325.814
 20
1000.5
 30
0.0
 11
326.6109999999999
 21
1000.5
 31
0.0
  0
LINE
  5
45D
330
1E
100
AcDbEntity
  8
0
100
AcDbLine
 10
325.278
 20
1000.5
 30
0.0
 11
325.814
 21
1000.5
 31
0.0
  0
LINE
  5
45E
330
1E
100
AcDbEntity
  8
0
100
AcDbLine
 10
325.803
 20
1000.5
 30
0.0
 11
325.93
 21
1000.5
 31
0.0
  0
LINE
  5
45F
330
1E
100
AcDbEntity
  8
0
100
AcDbLine
 10
326.144
 20
1000.5
 30
0.0
 11
326.5299999999999
 21
1000.5
 31
0.0
  0
LINE
  5
460
330
1E
100
AcDbEntity
  8
0
100
AcDbLine
 10
325.93
 20
1000.5
 30
0.0
 11
326.144
 21
1000.5
 31
0.0
  0
LINE
  5
461
330
1E
100
AcDbEntity
  8
0
100
AcDbLine
 10
325.85
 20
1000.5
 30
0.0
 11
326.169
 21
1000.5
 31
0.0
  0
LINE
  5
462
330
1E
100
AcDbEntity
  8
0
100
AcDbLine
 10
326.5299999999999
 20
1000.5
 30
0.0
 11
327.0029999999999
 21
1000.5
 31
0.0
  0
LINE
  5
463
330
1E
100
AcDbEntity
  8
0
100
AcDbLine
 10
327.0029999999999
 20
1000.5
 30
0.0
 11
327.6499999999999
 21
1000.5
 31
0.0
  0
LINE
  5
464
330
1E
100
AcDbEntity
  8
0
100
AcDbLine
 10
326.6109999999999
 20
1000.5
 30
0.0
 11
327.394
 21
1000.5
 31
0.0
  0
LINE
  5
465
330
1E
100
AcDbEntity
  8
0
100
AcDbLine
 10
327.059
 20
1000.5
 30
0.0
 11
327.6279999999999
 21
1000.5
 31
0.0
  0
LINE
  5
466
330
1E
100
AcDbEntity
  8
0
100
AcDbLine
 10
327.394
 20
1000.5
 30
0.0
 11
328.25
 21
1000.5
 31
0.0
  0
LINE
  5
469
330
1E
100
AcDbEntity
  8
0
100
AcDbLine
 10
327.6499999999999
 20
1000.5
 30
0.0
 11
328.369
 21
1000.5
 31
0.0
  0
LINE
  5
46A
330
1E
100
AcDbEntity
  8
0
100
AcDbLine
 10
328.369
 20
1000.5
 30
0.0
 11
328.989
 21
1000.5
 31
0.0
  0
LINE
  5
46B
330
1E
100
AcDbEntity
  8
0
100
AcDbLine
 10
328.25
 20
1000.5
 30
0.0
 11
329.229
 21
1000.5
 31
0.0
  0
LINE
  5
46C
330
1E
100
AcDbEntity
  8
0
100
AcDbLine
 10
328.989
 20
1000.5
 30
0.0
 11
329.559
 21
1000.5
 31
0.0
  0
LINE
  5
46D
330
1E
100
AcDbEntity
  8
0
100
AcDbLine
 10
328.967
 20
1000.5
 30
0.0
 11
329.614
 21
1000.5
 31
0.0
  0
LINE
  5
46E
330
1E
100
AcDbEntity
  8
0
100
AcDbLine
 10
328.248
 20
1000.5
 30
0.0
 11
328.967
 21
1000.5
 31
0.0
  0
LINE
  5
46F
330
1E
100
AcDbEntity
  8
0
100
AcDbLine
 10
327.6279999999999
 20
1000.5
 30
0.0
 11
328.248
 21
1000.5
 31
0.0
  0
LINE
  5
470
330
1E
100
AcDbEntity
  8
0
100
AcDbLine
 10
328.3669999999999
 20
1000.5
 30
0.0
 11
329.224
 21
1000.5
 31
0.0
  0
LINE
  5
471
330
1E
100
AcDbEntity
  8
0
100
AcDbLine
 10
327.3879999999999
 20
1000.5
 30
0.0
 11
328.3669999999999
 21
1000.5
 31
0.0
  0
LINE
  5
472
330
1E
100
AcDbEntity
  8
0
100
AcDbLine
 10
326.559
 20
1000.5
 30
0.0
 11
327.3879999999999
 21
1000.5
 31
0.0
  0
LINE
  5
473
330
1E
100
AcDbEntity
  8
0
100
AcDbLine
 10
326.169
 20
1000.5
 30
0.0
 11
326.589
 21
1000.5
 31
0.0
  0
LINE
  5
474
330
1E
100
AcDbEntity
  8
0
100
AcDbLine
 10
326.589
 20
1000.5
 30
0.0
 11
327.059
 21
1000.5
 31
0.0
  0
LINE
  5
475
330
1E
100
AcDbEntity
  8
0
100
AcDbLine
 10
325.2499999999999
 20
1000.5
 30
0.0
 11
325.829
 21
1000.5
 31
0.0
  0
LINE
  5
476
330
1E
100
AcDbEntity
  8
0
100
AcDbLine
 10
324.278
 20
1001.5
 30
0.0
 11
324.811
 21
1000.5
 31
0.0
  0
LINE
  5
477
330
1E
100
AcDbEntity
  8
0
100
AcDbLine
 10
328.083
 20
1003.5
 30
0.0
 11
328.5169999999999
 21
1003.5
 31
0.0
  0
LINE
  5
478
330
1E
100
AcDbEntity
  8
0
100
AcDbLine
 10
328.5169999999999
 20
1003.5
 30
0.0
 11
329.6
 21
1003.5
 31
0.0
  0
LINE
  5
479
330
1E
100
AcDbEntity
  8
0
100
AcDbLine
 10
328.2799999999999
 20
1003.5
 30
0.0
 11
329.9919999999999
 21
1003.5
 31
0.0
  0
LINE
  5
47A
330
1E
100
AcDbEntity
  8
0
100
AcDbLine
 10
326.6309999999999
 20
1003.5
 30
0.0
 11
328.2799999999999
 21
1003.5
 31
0.0
  0
LINE
  5
47B
330
1E
100
AcDbEntity
  8
0
100
AcDbLine
 10
325.059
 20
1003.5
 30
0.0
 11
326.6309999999999
 21
1003.5
 31
0.0
  0
LINE
  5
47C
330
1E
100
AcDbEntity
  8
0
100
AcDbLine
 10
325.829
 20
1000.5
 30
0.0
 11
326.559
 21
1000.5
 31
0.0
  0
LINE
  5
47D
330
1E
100
AcDbEntity
  8
0
100
AcDbLine
 10
323.686
 20
1003.5
 30
0.0
 11
325.059
 21
1003.5
 31
0.0
  0
LINE
  5
47E
330
1E
100
AcDbEntity
  8
0
100
AcDbLine
 10
324.5
 20
1003.5
 30
0.0
 11
329.1
 21
1003.5
 31
0.0
  0
LINE
  5
47F
330
1E
100
AcDbEntity
  8
0
100
AcDbLine
 10
329.559
 20
1000.5
 30
0.0
 11
330.028
 21
1000.5
 31
0.0
  0
LINE
  5
480
330
1E
100
AcDbEntity
  8
0
100
AcDbLine
 10
329.229
 20
1000.5
 30
0.0
 11
330.059
 21
1000.5
 31
0.0
  0
LINE
  5
481
330
1E
100
AcDbEntity
  8
0
100
AcDbLine
 10
329.614
 20
1000.5
 30
0.0
 11
330.0869999999999
 21
1000.5
 31
0.0
  0
LINE
  5
482
330
1E
100
AcDbEntity
  8
0
100
AcDbLine
 10
329.224
 20
1000.5
 30
0.0
 11
330.0069999999999
 21
1000.5
 31
0.0
  0
LINE
  5
483
330
1E
100
AcDbEntity
  8
0
100
AcDbLine
 10
330.448
 20
1000.5
 30
0.0
 11
330.7669999999999
 21
1000.5
 31
0.0
  0
LINE
  5
484
330
1E
100
AcDbEntity
  8
0
100
AcDbLine
 10
330.028
 20
1000.5
 30
0.0
 11
330.448
 21
1000.5
 31
0.0
  0
LINE
  5
485
330
1E
100
AcDbEntity
  8
0
100
AcDbLine
 10
330.059
 20
1000.5
 30
0.0
 11
330.788
 21
1000.5
 31
0.0
  0
LINE
  5
486
330
1E
100
AcDbEntity
  8
0
100
AcDbLine
 10
330.788
 20
1000.5
 30
0.0
 11
331.3669999999999
 21
1000.5
 31
0.0
  0
LINE
  5
487
330
1E
100
AcDbEntity
  8
0
100
AcDbLine
 10
330.6869999999999
 20
1000.5
 30
0.0
 11
330.814
 21
1000.5
 31
0.0
  0
LINE
  5
488
330
1E
100
AcDbEntity
  8
0
100
AcDbLine
 10
330.4739999999999
 20
1000.5
 30
0.0
 11
330.6869999999999
 21
1000.5
 31
0.0
  0
LINE
  5
489
330
1E
100
AcDbEntity
  8
0
100
AcDbLine
 10
331.3669999999999
 20
1000.5
 30
0.0
 11
331.7239999999999
 21
1000.5
 31
0.0
  0
LINE
  5
48A
330
1E
100
AcDbEntity
  8
0
100
AcDbLine
 10
331.7239999999999
 20
1000.5
 30
0.0
 11
331.8069999999999
 21
1000.5
 31
0.0
  0
LINE
  5
48B
330
1E
100
AcDbEntity
  8
0
100
AcDbLine
 10
331.8069999999999
 20
1000.5
 30
0.0
 11
332.3399999999999
 21
1001.5
 31
0.0
  0
LINE
  5
48C
330
1E
100
AcDbEntity
  8
0
100
AcDbLine
 10
331.703
 20
1000.5
 30
0.0
 11
331.8069999999999
 21
1000.5
 31
0.0
  0
LINE
  5
48D
330
1E
100
AcDbEntity
  8
0
100
AcDbLine
 10
331.3399999999999
 20
1000.5
 30
0.0
 11
331.703
 21
1000.5
 31
0.0
  0
LINE
  5
48E
330
1E
100
AcDbEntity
  8
0
100
AcDbLine
 10
330.0869999999999
 20
1000.5
 30
0.0
 11
330.4739999999999
 21
1000.5
 31
0.0
  0
LINE
  5
48F
330
1E
100
AcDbEntity
  8
0
100
AcDbLine
 10
330.0069999999999
 20
1000.5
 30
0.0
 11
330.803
 21
1000.5
 31
0.0
  0
LINE
  5
490
330
1E
100
AcDbEntity
  8
0
100
AcDbLine
 10
330.803
 20
1000.5
 30
0.0
 11
331.3399999999999
 21
1000.5
 31
0.0
  0
LINE
  5
491
330
1E
100
AcDbEntity
  8
0
100
AcDbLine
 10
337.0
 20
1000.5
 30
0.0
 11
337.5
 21
1000.5
 31
0.0
  0
LINE
  5
492
330
1E
100
AcDbEntity
  8
0
100
AcDbLine
 10
336.6
 20
1000.5
 30
0.0
 11
337.0
 21
1000.5
 31
0.0
  0
LINE
  5
493
330
1E
100
AcDbEntity
  8
0
100
AcDbLine
 10
336.5
 20
1000.5
 30
0.0
 11
336.6
 21
1000.5
 31
0.0
  0
LINE
  5
496
330
1E
100
AcDbEntity
  8
0
100
AcDbLine
 10
337.8
 20
1000.5
 30
0.0
 11
338.2
 21
1000.5
 31
0.0
  0
LINE
  5
497
330
1E
100
AcDbEntity
  8
0
100
AcDbLine
 10
337.6
 20
1000.5
 30
0.0
 11
337.8
 21
1000.5
 31
0.0
  0
LINE
  5
498
330
1E
100
AcDbEntity
  8
0
100
AcDbLine
 10
338.8
 20
1000.5
 30
0.0
 11
339.3999999999999
 21
1000.5
 31
0.0
  0
LINE
  5
499
330
1E
100
AcDbEntity
  8
0
100
AcDbLine
 10
337.5
 20
1000.5
 30
0.0
 11
338.2
 21
1000.5
 31
0.0
  0
LINE
  5
49A
330
1E
100
AcDbEntity
  8
0
100
AcDbLine
 10
337.5
 20
1000.5
 30
0.0
 11
337.6
 21
1000.5
 31
0.0
  0
LINE
  5
49B
330
1E
100
AcDbEntity
  8
0
100
AcDbLine
 10
338.2
 20
1000.5
 30
0.0
 11
339.1
 21
1000.5
 31
0.0
  0
LINE
  5
49C
330
1E
100
AcDbEntity
  8
0
100
AcDbLine
 10
338.2
 20
1000.5
 30
0.0
 11
338.8
 21
1000.5
 31
0.0
  0
LINE
  5
49D
330
1E
100
AcDbEntity
  8
0
100
AcDbLine
 10
339.3999999999999
 20
1000.5
 30
0.0
 11
340.0
 21
1000.5
 31
0.0
  0
LINE
  5
49E
330
1E
100
AcDbEntity
  8
0
100
AcDbLine
 10
339.1
 20
1000.5
 30
0.0
 11
340.0
 21
1000.5
 31
0.0
  0
LINE
  5
49F
330
1E
100
AcDbEntity
  8
0
100
AcDbLine
 10
340.6
 20
1000.5
 30
0.0
 11
341.1999999999999
 21
1000.5
 31
0.0
  0
LINE
  5
4A2
330
1E
100
AcDbEntity
  8
0
100
AcDbLine
 10
342.2
 20
1000.5
 30
0.0
 11
342.3999999999999
 21
1000.5
 31
0.0
  0
LINE
  5
4A3
330
1E
100
AcDbEntity
  8
0
100
AcDbLine
 10
342.3999999999999
 20
1000.5
 30
0.0
 11
342.5
 21
1000.5
 31
0.0
  0
LINE
  5
4A6
330
1E
100
AcDbEntity
  8
0
100
AcDbLine
 10
342.5
 20
1000.5
 30
0.0
 11
343.0
 21
1000.5
 31
0.0
  0
LINE
  5
4A7
330
1E
100
AcDbEntity
  8
0
100
AcDbLine
 10
343.0
 20
1000.5
 30
0.0
 11
343.3999999999999
 21
1000.5
 31
0.0
  0
LINE
  5
4A8
330
1E
100
AcDbEntity
  8
0
100
AcDbLine
 10
341.1999999999999
 20
1000.5
 30
0.0
 11
341.8
 21
1000.5
 31
0.0
  0
LINE
  5
4A9
330
1E
100
AcDbEntity
  8
0
100
AcDbLine
 10
341.8
 20
1000.5
 30
0.0
 11
342.5
 21
1000.5
 31
0.0
  0
LINE
  5
4AA
330
1E
100
AcDbEntity
  8
0
100
AcDbLine
 10
341.8
 20
1000.5
 30
0.0
 11
342.2
 21
1000.5
 31
0.0
  0
LINE
  5
4AB
330
1E
100
AcDbEntity
  8
0
100
AcDbLine
 10
340.8999999999999
 20
1000.5
 30
0.0
 11
341.8
 21
1000.5
 31
0.0
  0
LINE
  5
4AC
330
1E
100
AcDbEntity
  8
0
100
AcDbLine
 10
329.6
 20
1003.5
 30
0.0
 11
331.55
 21
1003.5
 31
0.0
  0
LINE
  5
4AD
330
1E
100
AcDbEntity
  8
0
100
AcDbLine
 10
331.55
 20
1003.5
 30
0.0
 11
334.1499999999999
 21
1003.5
 31
0.0
  0
LINE
  5
4AE
330
1E
100
AcDbEntity
  8
0
100
AcDbLine
 10
329.9919999999999
 20
1003.5
 30
0.0
 11
331.558
 21
1003.5
 31
0.0
  0
LINE
  5
4AF
330
1E
100
AcDbEntity
  8
0
100
AcDbLine
 10
332.3399999999999
 20
1001.5
 30
0.0
 11
333.283
 21
1002.5
 31
0.0
  0
LINE
  5
4B0
330
1E
100
AcDbEntity
  8
0
100
AcDbLine
 10
334.1499999999999
 20
1003.5
 30
0.0
 11
336.9669999999999
 21
1003.5
 31
0.0
  0
LINE
  5
4B1
330
1E
100
AcDbEntity
  8
0
100
AcDbLine
 10
333.283
 20
1002.5
 30
0.0
 11
334.134285714286
 21
1003.07714285714
 31
0.0
  0
LINE
  5
4B2
330
1E
100
AcDbEntity
  8
0
100
AcDbLine
 10
331.558
 20
1003.5
 30
0.0
 11
332.915
 21
1003.5
 31
0.0
  0
LINE
  5
4B3
330
1E
100
AcDbEntity
  8
0
100
AcDbLine
 10
332.915
 20
1003.5
 30
0.0
 11
333.4999999999999
 21
1003.5
 31
0.0
  0
LINE
  5
4B4
330
1E
100
AcDbEntity
  8
0
100
AcDbLine
 10
334.8
 20
1003.5
 30
0.0
 11
335.233
 21
1003.5
 31
0.0
  0
LINE
  5
4B5
330
1E
100
AcDbEntity
  8
0
100
AcDbLine
 10
334.583
 20
1003.5
 30
0.0
 11
334.8
 21
1003.5
 31
0.0
  0
LINE
  5
4B6
330
1E
100
AcDbEntity
  8
0
100
AcDbLine
 10
334.3999999999999
 20
1003.5
 30
0.0
 11
335.3999999999999
 21
1003.5
 31
0.0
  0
LINE
  5
4B7
330
1E
100
AcDbEntity
  8
0
100
AcDbLine
 10
333.6999999999999
 20
1003.5
 30
0.0
 11
334.3999999999999
 21
1003.5
 31
0.0
  0
LINE
  5
4B8
330
1E
100
AcDbEntity
  8
0
100
AcDbLine
 10
335.233
 20
1003.5
 30
0.0
 11
336.1
 21
1003.5
 31
0.0
  0
LINE
  5
4B9
330
1E
100
AcDbEntity
  8
0
100
AcDbLine
 10
335.0
 20
1002.5
 30
0.0
 11
336.0
 21
1001.5
 31
0.0
  0
LINE
  5
4BA
330
1E
100
AcDbEntity
  8
0
100
AcDbLine
 10
333.4999999999999
 20
1003.5
 30
0.0
 11
335.0
 21
1002.5
 31
0.0
  0
LINE
  5
4BB
330
1E
100
AcDbEntity
  8
0
100
AcDbLine
 10
333.4999999999999
 20
1003.5
 30
0.0
 11
333.6999999999999
 21
1003.5
 31
0.0
  0
LINE
  5
4BC
330
1E
100
AcDbEntity
  8
0
100
AcDbLine
 10
336.9669999999999
 20
1003.5
 30
0.0
 11
340.0
 21
1003.5
 31
0.0
  0
LINE
  5
4BD
330
1E
100
AcDbEntity
  8
0
100
AcDbLine
 10
336.1
 20
1003.5
 30
0.0
 11
337.3999999999999
 21
1003.5
 31
0.0
  0
LINE
  5
4BE
330
1E
100
AcDbEntity
  8
0
100
AcDbLine
 10
337.3999999999999
 20
1003.5
 30
0.0
 11
338.7
 21
1003.5
 31
0.0
  0
LINE
  5
4BF
330
1E
100
AcDbEntity
  8
0
100
AcDbLine
 10
336.0
 20
1001.5
 30
0.0
 11
336.5
 21
1000.5
 31
0.0
  0
LINE
  5
4C0
330
1E
100
AcDbEntity
  8
0
100
AcDbLine
 10
335.3999999999999
 20
1003.5
 30
0.0
 11
336.8
 21
1003.5
 31
0.0
  0
LINE
  5
4C1
330
1E
100
AcDbEntity
  8
0
100
AcDbLine
 10
336.8
 20
1003.5
 30
0.0
 11
338.3
 21
1003.5
 31
0.0
  0
LINE
  5
4C2
330
1E
100
AcDbEntity
  8
0
100
AcDbLine
 10
343.033
 20
1003.5
 30
0.0
 11
345.85
 21
1003.5
 31
0.0
  0
LINE
  5
4C3
330
1E
100
AcDbEntity
  8
0
100
AcDbLine
 10
342.6
 20
1003.5
 30
0.0
 11
343.9
 21
1003.5
 31
0.0
  0
LINE
  5
4C4
330
1E
100
AcDbEntity
  8
0
100
AcDbLine
 10
341.3
 20
1003.5
 30
0.0
 11
342.6
 21
1003.5
 31
0.0
  0
LINE
  5
4C5
330
1E
100
AcDbEntity
  8
0
100
AcDbLine
 10
338.7
 20
1003.5
 30
0.0
 11
340.0
 21
1003.5
 31
0.0
  0
LINE
  5
4C6
330
1E
100
AcDbEntity
  8
0
100
AcDbLine
 10
338.3
 20
1003.5
 30
0.0
 11
340.0
 21
1003.5
 31
0.0
  0
LINE
  5
4C7
330
1E
100
AcDbEntity
  8
0
100
AcDbLine
 10
340.0
 20
1000.5
 30
0.0
 11
340.8999999999999
 21
1000.5
 31
0.0
  0
LINE
  5
4C8
330
1E
100
AcDbEntity
  8
0
100
AcDbLine
 10
340.0
 20
1000.5
 30
0.0
 11
340.6
 21
1000.5
 31
0.0
  0
LINE
  5
4D1
330
1E
100
AcDbEntity
  8
0
100
AcDbLine
 10
343.3999999999999
 20
1000.5
 30
0.0
 11
343.5
 21
1000.5
 31
0.0
  0
LINE
  5
4D2
330
1E
100
AcDbEntity
  8
0
100
AcDbLine
 10
343.5
 20
1000.5
 30
0.0
 11
344.0
 21
1001.5
 31
0.0
  0
LINE
  5
4DC
330
1E
100
AcDbEntity
  8
0
100
AcDbLine
 10
344.0
 20
1001.5
 30
0.0
 11
345.0
 21
1002.5
 31
0.0
  0
LINE
  5
4DD
330
1E
100
AcDbEntity
  8
0
100
AcDbLine
 10
343.9
 20
1003.5
 30
0.0
 11
344.767
 21
1003.5
 31
0.0
  0
LINE
  5
4DE
330
1E
100
AcDbEntity
  8
0
100
AcDbLine
 10
344.767
 20
1003.5
 30
0.0
 11
345.1999999999999
 21
1003.5
 31
0.0
  0
LINE
  5
4DF
330
1E
100
AcDbEntity
  8
0
100
AcDbLine
 10
345.1999999999999
 20
1003.5
 30
0.0
 11
345.4169999999999
 21
1003.5
 31
0.0
  0
LINE
  5
4E0
330
1E
100
AcDbEntity
  8
0
100
AcDbLine
 10
344.6
 20
1003.5
 30
0.0
 11
345.6
 21
1003.5
 31
0.0
  0
LINE
  5
4E1
330
1E
100
AcDbEntity
  8
0
100
AcDbLine
 10
345.6
 20
1003.5
 30
0.0
 11
346.3
 21
1003.5
 31
0.0
  0
LINE
  5
4E2
330
1E
100
AcDbEntity
  8
0
100
AcDbLine
 10
345.0
 20
1002.5
 30
0.0
 11
346.4999999999999
 21
1003.5
 31
0.0
  0
LINE
  5
4E3
330
1E
100
AcDbEntity
  8
0
100
AcDbLine
 10
343.1999999999999
 20
1003.5
 30
0.0
 11
344.6
 21
1003.5
 31
0.0
  0
LINE
  5
4E4
330
1E
100
AcDbEntity
  8
0
100
AcDbLine
 10
341.6999999999999
 20
1003.5
 30
0.0
 11
343.1999999999999
 21
1003.5
 31
0.0
  0
LINE
  5
4EF
330
1E
100
AcDbEntity
  8
0
100
AcDbLine
 10
348.276
 20
1000.5
 30
0.0
 11
348.633
 21
1000.5
 31
0.0
  0
LINE
  5
4F2
330
1E
100
AcDbEntity
  8
0
100
AcDbLine
 10
348.633
 20
1000.5
 30
0.0
 11
349.2119999999999
 21
1000.5
 31
0.0
  0
LINE
  5
4F3
330
1E
100
AcDbEntity
  8
0
100
AcDbLine
 10
349.1859999999999
 20
1000.5
 30
0.0
 11
349.313
 21
1000.5
 31
0.0
  0
LINE
  5
4F4
330
1E
100
AcDbEntity
  8
0
100
AcDbLine
 10
348.193
 20
1000.5
 30
0.0
 11
348.2969999999999
 21
1000.5
 31
0.0
  0
LINE
  5
4F5
330
1E
100
AcDbEntity
  8
0
100
AcDbLine
 10
348.193
 20
1000.5
 30
0.0
 11
348.276
 21
1000.5
 31
0.0
  0
LINE
  5
4F6
330
1E
100
AcDbEntity
  8
0
100
AcDbLine
 10
348.2969999999999
 20
1000.5
 30
0.0
 11
348.66
 21
1000.5
 31
0.0
  0
LINE
  5
4F7
330
1E
100
AcDbEntity
  8
0
100
AcDbLine
 10
349.2329999999999
 20
1000.5
 30
0.0
 11
349.5519999999999
 21
1000.5
 31
0.0
  0
LINE
  5
4F8
330
1E
100
AcDbEntity
  8
0
100
AcDbLine
 10
349.5519999999999
 20
1000.5
 30
0.0
 11
349.9719999999999
 21
1000.5
 31
0.0
  0
LINE
  5
4F9
330
1E
100
AcDbEntity
  8
0
100
AcDbLine
 10
349.2119999999999
 20
1000.5
 30
0.0
 11
349.9409999999999
 21
1000.5
 31
0.0
  0
LINE
  5
4FA
330
1E
100
AcDbEntity
  8
0
100
AcDbLine
 10
349.313
 20
1000.5
 30
0.0
 11
349.526
 21
1000.5
 31
0.0
  0
LINE
  5
4FB
330
1E
100
AcDbEntity
  8
0
100
AcDbLine
 10
349.913
 20
1000.5
 30
0.0
 11
350.3859999999999
 21
1000.5
 31
0.0
  0
LINE
  5
4FC
330
1E
100
AcDbEntity
  8
0
100
AcDbLine
 10
349.526
 20
1000.5
 30
0.0
 11
349.913
 21
1000.5
 31
0.0
  0
LINE
  5
4FD
330
1E
100
AcDbEntity
  8
0
100
AcDbLine
 10
349.1969999999999
 20
1000.5
 30
0.0
 11
349.993
 21
1000.5
 31
0.0
  0
LINE
  5
4FE
330
1E
100
AcDbEntity
  8
0
100
AcDbLine
 10
348.66
 20
1000.5
 30
0.0
 11
349.1969999999999
 21
1000.5
 31
0.0
  0
LINE
  5
4FF
330
1E
100
AcDbEntity
  8
0
100
AcDbLine
 10
349.9719999999999
 20
1000.5
 30
0.0
 11
350.441
 21
1000.5
 31
0.0
  0
LINE
  5
502
330
1E
100
AcDbEntity
  8
0
100
AcDbLine
 10
350.776
 20
1000.5
 30
0.0
 11
351.633
 21
1000.5
 31
0.0
  0
LINE
  5
503
330
1E
100
AcDbEntity
  8
0
100
AcDbLine
 10
350.3859999999999
 20
1000.5
 30
0.0
 11
351.033
 21
1000.5
 31
0.0
  0
LINE
  5
504
330
1E
100
AcDbEntity
  8
0
100
AcDbLine
 10
349.993
 20
1000.5
 30
0.0
 11
350.776
 21
1000.5
 31
0.0
  0
LINE
  5
509
330
1E
100
AcDbEntity
  8
0
100
AcDbLine
 10
351.033
 20
1000.5
 30
0.0
 11
351.7519999999999
 21
1000.5
 31
0.0
  0
LINE
  5
50A
330
1E
100
AcDbEntity
  8
0
100
AcDbLine
 10
351.633
 20
1000.5
 30
0.0
 11
352.6119999999999
 21
1000.5
 31
0.0
  0
LINE
  5
50B
330
1E
100
AcDbEntity
  8
0
100
AcDbLine
 10
351.6309999999999
 20
1000.5
 30
0.0
 11
352.35
 21
1000.5
 31
0.0
  0
LINE
  5
50C
330
1E
100
AcDbEntity
  8
0
100
AcDbLine
 10
351.0109999999999
 20
1000.5
 30
0.0
 11
351.6309999999999
 21
1000.5
 31
0.0
  0
LINE
  5
50D
330
1E
100
AcDbEntity
  8
0
100
AcDbLine
 10
350.441
 20
1000.5
 30
0.0
 11
351.0109999999999
 21
1000.5
 31
0.0
  0
LINE
  5
50F
330
1E
100
AcDbEntity
  8
0
100
AcDbLine
 10
351.7519999999999
 20
1000.5
 30
0.0
 11
352.3719999999999
 21
1000.5
 31
0.0
  0
LINE
  5
510
330
1E
100
AcDbEntity
  8
0
100
AcDbLine
 10
352.3719999999999
 20
1000.5
 30
0.0
 11
352.9409999999999
 21
1000.5
 31
0.0
  0
LINE
  5
511
330
1E
100
AcDbEntity
  8
0
100
AcDbLine
 10
351.75
 20
1000.5
 30
0.0
 11
352.606
 21
1000.5
 31
0.0
  0
LINE
  5
512
330
1E
100
AcDbEntity
  8
0
100
AcDbLine
 10
350.7709999999999
 20
1000.5
 30
0.0
 11
351.75
 21
1000.5
 31
0.0
  0
LINE
  5
513
330
1E
100
AcDbEntity
  8
0
100
AcDbLine
 10
349.9409999999999
 20
1000.5
 30
0.0
 11
350.7709999999999
 21
1000.5
 31
0.0
  0
LINE
  5
514
330
1E
100
AcDbEntity
  8
0
100
AcDbLine
 10
352.35
 20
1000.5
 30
0.0
 11
352.9969999999999
 21
1000.5
 31
0.0
  0
LINE
  5
515
330
1E
100
AcDbEntity
  8
0
100
AcDbLine
 10
352.6119999999999
 20
1000.5
 30
0.0
 11
353.4409999999999
 21
1000.5
 31
0.0
  0
LINE
  5
516
330
1E
100
AcDbEntity
  8
0
100
AcDbLine
 10
352.9969999999999
 20
1000.5
 30
0.0
 11
353.47
 21
1000.5
 31
0.0
  0
LINE
  5
517
330
1E
100
AcDbEntity
  8
0
100
AcDbLine
 10
352.606
 20
1000.5
 30
0.0
 11
353.3889999999999
 21
1000.5
 31
0.0
  0
LINE
  5
518
330
1E
100
AcDbEntity
  8
0
100
AcDbLine
 10
353.3889999999999
 20
1000.5
 30
0.0
 11
354.1859999999999
 21
1000.5
 31
0.0
  0
LINE
  5
51B
330
1E
100
AcDbEntity
  8
0
100
AcDbLine
 10
353.47
 20
1000.5
 30
0.0
 11
353.8559999999999
 21
1000.5
 31
0.0
  0
LINE
  5
51E
330
1E
100
AcDbEntity
  8
0
100
AcDbLine
 10
354.07
 20
1000.5
 30
0.0
 11
354.1969999999999
 21
1000.5
 31
0.0
  0
LINE
  5
51F
330
1E
100
AcDbEntity
  8
0
100
AcDbLine
 10
353.8559999999999
 20
1000.5
 30
0.0
 11
354.07
 21
1000.5
 31
0.0
  0
LINE
  5
520
330
1E
100
AcDbEntity
  8
0
100
AcDbLine
 10
353.8309999999999
 20
1000.5
 30
0.0
 11
354.1499999999999
 21
1000.5
 31
0.0
  0
LINE
  5
521
330
1E
100
AcDbEntity
  8
0
100
AcDbLine
 10
353.411
 20
1000.5
 30
0.0
 11
353.8309999999999
 21
1000.5
 31
0.0
  0
LINE
  5
522
330
1E
100
AcDbEntity
  8
0
100
AcDbLine
 10
352.9409999999999
 20
1000.5
 30
0.0
 11
353.411
 21
1000.5
 31
0.0
  0
LINE
  5
523
330
1E
100
AcDbEntity
  8
0
100
AcDbLine
 10
354.1859999999999
 20
1000.5
 30
0.0
 11
354.7219999999999
 21
1000.5
 31
0.0
  0
LINE
  5
524
330
1E
100
AcDbEntity
  8
0
100
AcDbLine
 10
355.106
 20
1000.5
 30
0.0
 11
355.189
 21
1000.5
 31
0.0
  0
LINE
  5
525
330
1E
100
AcDbEntity
  8
0
100
AcDbLine
 10
355.189
 20
1000.5
 30
0.0
 11
355.722
 21
1001.5
 31
0.0
  0
LINE
  5
526
330
1E
100
AcDbEntity
  8
0
100
AcDbLine
 10
355.086
 20
1000.5
 30
0.0
 11
355.189
 21
1000.5
 31
0.0
  0
LINE
  5
527
330
1E
100
AcDbEntity
  8
0
100
AcDbLine
 10
354.7219999999999
 20
1000.5
 30
0.0
 11
355.086
 21
1000.5
 31
0.0
  0
LINE
  5
528
330
1E
100
AcDbEntity
  8
0
100
AcDbLine
 10
354.7499999999999
 20
1000.5
 30
0.0
 11
355.106
 21
1000.5
 31
0.0
  0
LINE
  5
529
330
1E
100
AcDbEntity
  8
0
100
AcDbLine
 10
354.171
 20
1000.5
 30
0.0
 11
354.7499999999999
 21
1000.5
 31
0.0
  0
LINE
  5
52A
330
1E
100
AcDbEntity
  8
0
100
AcDbLine
 10
346.7169999999999
 20
1002.5
 30
0.0
 11
347.66
 21
1001.5
 31
0.0
  0
LINE
  5
52B
330
1E
100
AcDbEntity
  8
0
100
AcDbLine
 10
345.85
 20
1003.5
 30
0.0
 11
348.45
 21
1003.5
 31
0.0
  0
LINE
  5
52C
330
1E
100
AcDbEntity
  8
0
100
AcDbLine
 10
346.3
 20
1003.5
 30
0.0
 11
346.4999999999999
 21
1003.5
 31
0.0
  0
LINE
  5
52D
330
1E
100
AcDbEntity
  8
0
100
AcDbLine
 10
345.865714285714
 20
1003.07714285714
 30
0.0
 11
346.7169999999999
 21
1002.5
 31
0.0
  0
LINE
  5
52E
330
1E
100
AcDbEntity
  8
0
100
AcDbLine
 10
348.45
 20
1003.5
 30
0.0
 11
350.4
 21
1003.5
 31
0.0
  0
LINE
  5
52F
330
1E
100
AcDbEntity
  8
0
100
AcDbLine
 10
350.4
 20
1003.5
 30
0.0
 11
351.4829999999999
 21
1003.5
 31
0.0
  0
LINE
  5
530
330
1E
100
AcDbEntity
  8
0
100
AcDbLine
 10
351.4829999999999
 20
1003.5
 30
0.0
 11
351.9169999999999
 21
1003.5
 31
0.0
  0
LINE
  5
531
330
1E
100
AcDbEntity
  8
0
100
AcDbLine
 10
350.008
 20
1003.5
 30
0.0
 11
351.72
 21
1003.5
 31
0.0
  0
LINE
  5
532
330
1E
100
AcDbEntity
  8
0
100
AcDbLine
 10
351.9169999999999
 20
1003.5
 30
0.0
 11
353.0
 21
1004.0
 31
0.0
  0
LINE
  5
533
330
1E
100
AcDbEntity
  8
0
100
AcDbLine
 10
351.72
 20
1003.5
 30
0.0
 11
353.369
 21
1003.5
 31
0.0
  0
LINE
  5
534
330
1E
100
AcDbEntity
  8
0
100
AcDbLine
 10
353.369
 20
1003.5
 30
0.0
 11
354.9409999999999
 21
1003.5
 31
0.0
  0
LINE
  5
535
330
1E
100
AcDbEntity
  8
0
100
AcDbLine
 10
347.66
 20
1001.5
 30
0.0
 11
348.193
 21
1000.5
 31
0.0
  0
LINE
  5
536
330
1E
100
AcDbEntity
  8
0
100
AcDbLine
 10
348.4419999999999
 20
1003.5
 30
0.0
 11
350.008
 21
1003.5
 31
0.0
  0
LINE
  5
537
330
1E
100
AcDbEntity
  8
0
100
AcDbLine
 10
347.0849999999999
 20
1003.5
 30
0.0
 11
348.4419999999999
 21
1003.5
 31
0.0
  0
LINE
  5
538
330
1E
100
AcDbEntity
  8
0
100
AcDbLine
 10
346.4999999999999
 20
1003.5
 30
0.0
 11
347.0849999999999
 21
1003.5
 31
0.0
  0
LINE
  5
539
330
1E
100
AcDbEntity
  8
0
100
AcDbLine
 10
355.722
 20
1001.5
 30
0.0
 11
356.665
 21
1002.5
 31
0.0
  0
LINE
  5
53A
330
1E
100
AcDbEntity
  8
0
100
AcDbLine
 10
353.4409999999999
 20
1000.5
 30
0.0
 11
354.171
 21
1000.5
 31
0.0
  0
LINE
  5
541
330
1E
100
AcDbEntity
  8
0
100
AcDbLine
 10
357.975
 20
1003.5
 30
0.0
 11
358.1409999999999
 21
1003.5
 31
0.0
  0
LINE
  5
542
330
1E
100
AcDbEntity
  8
0
100
AcDbLine
 10
357.9969999999999
 20
1003.5
 30
0.0
 11
358.1409999999999
 21
1003.5
 31
0.0
  0
LINE
  5
543
330
1E
100
AcDbEntity
  8
0
100
AcDbLine
 10
356.665
 20
1002.5
 30
0.0
 11
358.1409999999999
 21
1003.5
 31
0.0
  0
LINE
  5
544
330
1E
100
AcDbEntity
  8
0
100
AcDbLine
 10
357.263
 20
1003.5
 30
0.0
 11
357.975
 21
1003.5
 31
0.0
  0
LINE
  5
545
330
1E
100
AcDbEntity
  8
0
100
AcDbLine
 10
356.314
 20
1003.5
 30
0.0
 11
357.263
 21
1003.5
 31
0.0
  0
LINE
  5
546
330
1E
100
AcDbEntity
  8
0
100
AcDbLine
 10
354.9409999999999
 20
1003.5
 30
0.0
 11
356.314
 21
1003.5
 31
0.0
  0
LINE
  5
547
330
1E
100
AcDbEntity
  8
0
100
AcDbLine
 10
358.1409999999999
 20
1003.5
 30
0.0
 11
359.1
 21
1003.5
 31
0.0
  0
LINE
  5
548
330
1E
100
AcDbEntity
  8
0
100
AcDbLine
 10
355.5
 20
1003.5
 30
0.0
 11
359.1
 21
1003.5
 31
0.0
  0
LINE
  5
550
330
1E
100
AcDbEntity
  8
0
100
AcDbLine
 10
359.1
 20
1003.5
 30
0.0
 11
361.2
 21
1003.5
 31
0.0
  0
LINE
  5
551
330
1E
100
AcDbEntity
  8
0
100
AcDbLine
 10
361.2
 20
1003.5
 30
0.0
 11
362.0
 21
1003.5
 31
0.0
  0
LINE
  5
5BF
330
1E
100
AcDbEntity
  8
0
100
AcDbLine
 10
450.1999999999999
 20
1003.5
 30
0.0
 11
451.1
 21
1003.5
 31
0.0
  0
LINE
  5
5C0
330
1E
100
AcDbEntity
  8
0
100
AcDbLine
 10
449.6999999999999
 20
1003.5
 30
0.0
 11
450.1999999999999
 21
1003.5
 31
0.0
  0
LINE
  5
5C1
330
1E
100
AcDbEntity
  8
0
100
AcDbLine
 10
449.5
 20
1003.5
 30
0.0
 11
449.6999999999999
 21
1003.5
 31
0.0
  0
LINE
  5
5C2
330
1E
100
AcDbEntity
  8
0
100
AcDbLine
 10
451.1
 20
1003.5
 30
0.0
 11
452.3
 21
1003.5
 31
0.0
  0
LINE
  5
5C5
330
1E
100
AcDbEntity
  8
0
100
AcDbLine
 10
452.8
 20
1003.5
 30
0.0
 11
453.2
 21
1003.5
 31
0.0
  0
LINE
  5
5C6
330
1E
100
AcDbEntity
  8
0
100
AcDbLine
 10
452.6
 20
1003.5
 30
0.0
 11
452.8
 21
1003.5
 31
0.0
  0
LINE
  5
5C7
330
1E
100
AcDbEntity
  8
0
100
AcDbLine
 10
452.5
 20
1003.5
 30
0.0
 11
452.6
 21
1003.5
 31
0.0
  0
LINE
  5
5C8
330
1E
100
AcDbEntity
  8
0
100
AcDbLine
 10
453.2
 20
1003.5
 30
0.0
 11
453.8
 21
1003.5
 31
0.0
  0
LINE
  5
5C9
330
1E
100
AcDbEntity
  8
0
100
AcDbLine
 10
453.8
 20
1003.5
 30
0.0
 11
453.859
 21
1003.5
 31
0.0
  0
LINE
  5
5CA
330
1E
100
AcDbEntity
  8
0
100
AcDbLine
 10
453.8
 20
1003.5
 30
0.0
 11
454.3999999999999
 21
1003.5
 31
0.0
  0
LINE
  5
5CB
330
1E
100
AcDbEntity
  8
0
100
AcDbLine
 10
452.3
 20
1003.5
 30
0.0
 11
453.6
 21
1003.5
 31
0.0
  0
LINE
  5
5CC
330
1E
100
AcDbEntity
  8
0
100
AcDbLine
 10
453.6
 20
1003.5
 30
0.0
 11
453.859
 21
1003.5
 31
0.0
  0
LINE
  5
5CD
330
1E
100
AcDbEntity
  8
0
100
AcDbLine
 10
453.6
 20
1003.5
 30
0.0
 11
455.0
 21
1003.5
 31
0.0
  0
LINE
  5
5CE
330
1E
100
AcDbEntity
  8
0
100
AcDbLine
 10
454.3999999999999
 20
1003.5
 30
0.0
 11
455.0
 21
1003.5
 31
0.0
  0
LINE
  5
5CF
330
1E
100
AcDbEntity
  8
0
100
AcDbLine
 10
453.859
 20
1003.5
 30
0.0
 11
455.335
 21
1002.5
 31
0.0
  0
LINE
  5
5D0
330
1E
100
AcDbEntity
  8
0
100
AcDbLine
 10
453.859
 20
1003.5
 30
0.0
 11
454.003
 21
1003.5
 31
0.0
  0
LINE
  5
5D1
330
1E
100
AcDbEntity
  8
0
100
AcDbLine
 10
453.859
 20
1003.5
 30
0.0
 11
454.0249999999999
 21
1003.5
 31
0.0
  0
LINE
  5
5D2
330
1E
100
AcDbEntity
  8
0
100
AcDbLine
 10
454.0249999999999
 20
1003.5
 30
0.0
 11
454.7369999999999
 21
1003.5
 31
0.0
  0
LINE
  5
5D3
330
1E
100
AcDbEntity
  8
0
100
AcDbLine
 10
456.278
 20
1001.5
 30
0.0
 11
456.8109999999999
 21
1000.5
 31
0.0
  0
LINE
  5
5D4
330
1E
100
AcDbEntity
  8
0
100
AcDbLine
 10
456.2
 20
1003.5
 30
0.0
 11
456.8
 21
1003.5
 31
0.0
  0
LINE
  5
5D5
330
1E
100
AcDbEntity
  8
0
100
AcDbLine
 10
455.6
 20
1003.5
 30
0.0
 11
456.2
 21
1003.5
 31
0.0
  0
LINE
  5
5D6
330
1E
100
AcDbEntity
  8
0
100
AcDbLine
 10
456.4
 20
1003.5
 30
0.0
 11
457.6999999999999
 21
1003.5
 31
0.0
  0
LINE
  5
5D7
330
1E
100
AcDbEntity
  8
0
100
AcDbLine
 10
455.0
 20
1003.5
 30
0.0
 11
456.4
 21
1003.5
 31
0.0
  0
LINE
  5
5D8
330
1E
100
AcDbEntity
  8
0
100
AcDbLine
 10
455.0
 20
1003.5
 30
0.0
 11
455.6
 21
1003.5
 31
0.0
  0
LINE
  5
5D9
330
1E
100
AcDbEntity
  8
0
100
AcDbLine
 10
455.335
 20
1002.5
 30
0.0
 11
456.278
 21
1001.5
 31
0.0
  0
LINE
  5
5DA
330
1E
100
AcDbEntity
  8
0
100
AcDbLine
 10
454.7369999999999
 20
1003.5
 30
0.0
 11
455.6859999999999
 21
1003.5
 31
0.0
  0
LINE
  5
5DB
330
1E
100
AcDbEntity
  8
0
100
AcDbLine
 10
455.6859999999999
 20
1003.5
 30
0.0
 11
457.059
 21
1003.5
 31
0.0
  0
LINE
  5
5DC
330
1E
100
AcDbEntity
  8
0
100
AcDbLine
 10
456.8109999999999
 20
1000.5
 30
0.0
 11
456.9139999999999
 21
1000.5
 31
0.0
  0
LINE
  5
5DD
330
1E
100
AcDbEntity
  8
0
100
AcDbLine
 10
456.8109999999999
 20
1000.5
 30
0.0
 11
456.894
 21
1000.5
 31
0.0
  0
LINE
  5
5DE
330
1E
100
AcDbEntity
  8
0
100
AcDbLine
 10
456.9139999999999
 20
1000.5
 30
0.0
 11
457.278
 21
1000.5
 31
0.0
  0
LINE
  5
5DF
330
1E
100
AcDbEntity
  8
0
100
AcDbLine
 10
456.894
 20
1000.5
 30
0.0
 11
457.2499999999999
 21
1000.5
 31
0.0
  0
LINE
  5
5E0
330
1E
100
AcDbEntity
  8
0
100
AcDbLine
 10
457.814
 20
1000.5
 30
0.0
 11
458.6109999999999
 21
1000.5
 31
0.0
  0
LINE
  5
5E1
330
1E
100
AcDbEntity
  8
0
100
AcDbLine
 10
457.278
 20
1000.5
 30
0.0
 11
457.814
 21
1000.5
 31
0.0
  0
LINE
  5
5E2
330
1E
100
AcDbEntity
  8
0
100
AcDbLine
 10
457.803
 20
1000.5
 30
0.0
 11
457.9299999999999
 21
1000.5
 31
0.0
  0
LINE
  5
5E3
330
1E
100
AcDbEntity
  8
0
100
AcDbLine
 10
458.1439999999999
 20
1000.5
 30
0.0
 11
458.53
 21
1000.5
 31
0.0
  0
LINE
  5
5E4
330
1E
100
AcDbEntity
  8
0
100
AcDbLine
 10
457.9299999999999
 20
1000.5
 30
0.0
 11
458.1439999999999
 21
1000.5
 31
0.0
  0
LINE
  5
5E5
330
1E
100
AcDbEntity
  8
0
100
AcDbLine
 10
457.85
 20
1000.5
 30
0.0
 11
458.169
 21
1000.5
 31
0.0
  0
LINE
  5
5E6
330
1E
100
AcDbEntity
  8
0
100
AcDbLine
 10
458.53
 20
1000.5
 30
0.0
 11
459.003
 21
1000.5
 31
0.0
  0
LINE
  5
5E7
330
1E
100
AcDbEntity
  8
0
100
AcDbLine
 10
459.003
 20
1000.5
 30
0.0
 11
459.6499999999999
 21
1000.5
 31
0.0
  0
LINE
  5
5E8
330
1E
100
AcDbEntity
  8
0
100
AcDbLine
 10
458.6109999999999
 20
1000.5
 30
0.0
 11
459.3939999999999
 21
1000.5
 31
0.0
  0
LINE
  5
5E9
330
1E
100
AcDbEntity
  8
0
100
AcDbLine
 10
459.059
 20
1000.5
 30
0.0
 11
459.628
 21
1000.5
 31
0.0
  0
LINE
  5
5EA
330
1E
100
AcDbEntity
  8
0
100
AcDbLine
 10
459.3939999999999
 20
1000.5
 30
0.0
 11
460.25
 21
1000.5
 31
0.0
  0
LINE
  5
5EB
330
1E
100
AcDbEntity
  8
0
100
AcDbLine
 10
459.6499999999999
 20
1000.5
 30
0.0
 11
460.369
 21
1000.5
 31
0.0
  0
LINE
  5
5EC
330
1E
100
AcDbEntity
  8
0
100
AcDbLine
 10
460.369
 20
1000.5
 30
0.0
 11
460.989
 21
1000.5
 31
0.0
  0
LINE
  5
5ED
330
1E
100
AcDbEntity
  8
0
100
AcDbLine
 10
460.989
 20
1000.5
 30
0.0
 11
461.559
 21
1000.5
 31
0.0
  0
LINE
  5
5EE
330
1E
100
AcDbEntity
  8
0
100
AcDbLine
 10
460.25
 20
1000.5
 30
0.0
 11
461.229
 21
1000.5
 31
0.0
  0
LINE
  5
5EF
330
1E
100
AcDbEntity
  8
0
100
AcDbLine
 10
460.967
 20
1000.5
 30
0.0
 11
461.614
 21
1000.5
 31
0.0
  0
LINE
  5
5F0
330
1E
100
AcDbEntity
  8
0
100
AcDbLine
 10
461.559
 20
1000.5
 30
0.0
 11
462.028
 21
1000.5
 31
0.0
  0
LINE
  5
5F1
330
1E
100
AcDbEntity
  8
0
100
AcDbLine
 10
461.229
 20
1000.5
 30
0.0
 11
462.0589999999999
 21
1000.5
 31
0.0
  0
LINE
  5
5F2
330
1E
100
AcDbEntity
  8
0
100
AcDbLine
 10
462.448
 20
1000.5
 30
0.0
 11
462.767
 21
1000.5
 31
0.0
  0
LINE
  5
5F3
330
1E
100
AcDbEntity
  8
0
100
AcDbLine
 10
462.028
 20
1000.5
 30
0.0
 11
462.448
 21
1000.5
 31
0.0
  0
LINE
  5
5F4
330
1E
100
AcDbEntity
  8
0
100
AcDbLine
 10
462.0589999999999
 20
1000.5
 30
0.0
 11
462.788
 21
1000.5
 31
0.0
  0
LINE
  5
5F5
330
1E
100
AcDbEntity
  8
0
100
AcDbLine
 10
462.788
 20
1000.5
 30
0.0
 11
463.3669999999999
 21
1000.5
 31
0.0
  0
LINE
  5
5F6
330
1E
100
AcDbEntity
  8
0
100
AcDbLine
 10
462.6869999999999
 20
1000.5
 30
0.0
 11
462.814
 21
1000.5
 31
0.0
  0
LINE
  5
5F7
330
1E
100
AcDbEntity
  8
0
100
AcDbLine
 10
462.474
 20
1000.5
 30
0.0
 11
462.6869999999999
 21
1000.5
 31
0.0
  0
LINE
  5
5F8
330
1E
100
AcDbEntity
  8
0
100
AcDbLine
 10
461.614
 20
1000.5
 30
0.0
 11
462.087
 21
1000.5
 31
0.0
  0
LINE
  5
5F9
330
1E
100
AcDbEntity
  8
0
100
AcDbLine
 10
462.087
 20
1000.5
 30
0.0
 11
462.474
 21
1000.5
 31
0.0
  0
LINE
  5
5FA
330
1E
100
AcDbEntity
  8
0
100
AcDbLine
 10
461.2239999999999
 20
1000.5
 30
0.0
 11
462.0069999999999
 21
1000.5
 31
0.0
  0
LINE
  5
5FB
330
1E
100
AcDbEntity
  8
0
100
AcDbLine
 10
462.0069999999999
 20
1000.5
 30
0.0
 11
462.803
 21
1000.5
 31
0.0
  0
LINE
  5
5FC
330
1E
100
AcDbEntity
  8
0
100
AcDbLine
 10
463.3669999999999
 20
1000.5
 30
0.0
 11
463.724
 21
1000.5
 31
0.0
  0
LINE
  5
5FD
330
1E
100
AcDbEntity
  8
0
100
AcDbLine
 10
463.724
 20
1000.5
 30
0.0
 11
463.8069999999999
 21
1000.5
 31
0.0
  0
LINE
  5
5FE
330
1E
100
AcDbEntity
  8
0
100
AcDbLine
 10
463.8069999999999
 20
1000.5
 30
0.0
 11
464.3399999999999
 21
1001.5
 31
0.0
  0
LINE
  5
5FF
330
1E
100
AcDbEntity
  8
0
100
AcDbLine
 10
463.703
 20
1000.5
 30
0.0
 11
463.8069999999999
 21
1000.5
 31
0.0
  0
LINE
  5
600
330
1E
100
AcDbEntity
  8
0
100
AcDbLine
 10
463.3399999999999
 20
1000.5
 30
0.0
 11
463.703
 21
1000.5
 31
0.0
  0
LINE
  5
601
330
1E
100
AcDbEntity
  8
0
100
AcDbLine
 10
462.803
 20
1000.5
 30
0.0
 11
463.3399999999999
 21
1000.5
 31
0.0
  0
LINE
  5
602
330
1E
100
AcDbEntity
  8
0
100
AcDbLine
 10
460.248
 20
1000.5
 30
0.0
 11
460.967
 21
1000.5
 31
0.0
  0
LINE
  5
603
330
1E
100
AcDbEntity
  8
0
100
AcDbLine
 10
459.628
 20
1000.5
 30
0.0
 11
460.248
 21
1000.5
 31
0.0
  0
LINE
  5
604
330
1E
100
AcDbEntity
  8
0
100
AcDbLine
 10
460.367
 20
1000.5
 30
0.0
 11
461.2239999999999
 21
1000.5
 31
0.0
  0
LINE
  5
605
330
1E
100
AcDbEntity
  8
0
100
AcDbLine
 10
459.388
 20
1000.5
 30
0.0
 11
460.367
 21
1000.5
 31
0.0
  0
LINE
  5
606
330
1E
100
AcDbEntity
  8
0
100
AcDbLine
 10
458.559
 20
1000.5
 30
0.0
 11
459.388
 21
1000.5
 31
0.0
  0
LINE
  5
607
330
1E
100
AcDbEntity
  8
0
100
AcDbLine
 10
458.169
 20
1000.5
 30
0.0
 11
458.589
 21
1000.5
 31
0.0
  0
LINE
  5
608
330
1E
100
AcDbEntity
  8
0
100
AcDbLine
 10
458.589
 20
1000.5
 30
0.0
 11
459.059
 21
1000.5
 31
0.0
  0
LINE
  5
609
330
1E
100
AcDbEntity
  8
0
100
AcDbLine
 10
457.2499999999999
 20
1000.5
 30
0.0
 11
457.8289999999999
 21
1000.5
 31
0.0
  0
LINE
  5
60A
330
1E
100
AcDbEntity
  8
0
100
AcDbLine
 10
456.8
 20
1003.5
 30
0.0
 11
457.2
 21
1003.5
 31
0.0
  0
LINE
  5
60B
330
1E
100
AcDbEntity
  8
0
100
AcDbLine
 10
457.6999999999999
 20
1003.5
 30
0.0
 11
458.8999999999999
 21
1003.5
 31
0.0
  0
LINE
  5
60C
330
1E
100
AcDbEntity
  8
0
100
AcDbLine
 10
457.2
 20
1003.5
 30
0.0
 11
457.3999999999999
 21
1003.5
 31
0.0
  0
LINE
  5
60D
330
1E
100
AcDbEntity
  8
0
100
AcDbLine
 10
457.3999999999999
 20
1003.5
 30
0.0
 11
457.5
 21
1003.5
 31
0.0
  0
LINE
  5
60E
330
1E
100
AcDbEntity
  8
0
100
AcDbLine
 10
458.8999999999999
 20
1003.5
 30
0.0
 11
459.7999999999999
 21
1003.5
 31
0.0
  0
LINE
  5
60F
330
1E
100
AcDbEntity
  8
0
100
AcDbLine
 10
459.7999999999999
 20
1003.5
 30
0.0
 11
460.3
 21
1003.5
 31
0.0
  0
LINE
  5
610
330
1E
100
AcDbEntity
  8
0
100
AcDbLine
 10
460.3
 20
1003.5
 30
0.0
 11
460.5
 21
1003.5
 31
0.0
  0
LINE
  5
611
330
1E
100
AcDbEntity
  8
0
100
AcDbLine
 10
460.5
 20
1003.5
 30
0.0
 11
461.0
 21
1004.0
 31
0.0
  0
LINE
  5
612
330
1E
100
AcDbEntity
  8
0
100
AcDbLine
 10
461.9919999999999
 20
1003.5
 30
0.0
 11
463.558
 21
1003.5
 31
0.0
  0
LINE
  5
613
330
1E
100
AcDbEntity
  8
0
100
AcDbLine
 10
464.3399999999999
 20
1001.5
 30
0.0
 11
465.283
 21
1002.5
 31
0.0
  0
LINE
  5
614
330
1E
100
AcDbEntity
  8
0
100
AcDbLine
 10
465.283
 20
1002.5
 30
0.0
 11
466.134285714286
 21
1003.07714285714
 31
0.0
  0
LINE
  5
615
330
1E
100
AcDbEntity
  8
0
100
AcDbLine
 10
463.558
 20
1003.5
 30
0.0
 11
464.915
 21
1003.5
 31
0.0
  0
LINE
  5
616
330
1E
100
AcDbEntity
  8
0
100
AcDbLine
 10
464.915
 20
1003.5
 30
0.0
 11
465.5
 21
1003.5
 31
0.0
  0
LINE
  5
617
330
1E
100
AcDbEntity
  8
0
100
AcDbLine
 10
460.28
 20
1003.5
 30
0.0
 11
461.9919999999999
 21
1003.5
 31
0.0
  0
LINE
  5
618
330
1E
100
AcDbEntity
  8
0
100
AcDbLine
 10
458.631
 20
1003.5
 30
0.0
 11
460.28
 21
1003.5
 31
0.0
  0
LINE
  5
619
330
1E
100
AcDbEntity
  8
0
100
AcDbLine
 10
457.059
 20
1003.5
 30
0.0
 11
458.631
 21
1003.5
 31
0.0
  0
LINE
  5
61A
330
1E
100
AcDbEntity
  8
0
100
AcDbLine
 10
457.8289999999999
 20
1000.5
 30
0.0
 11
458.559
 21
1000.5
 31
0.0
  0
LINE
  5
61B
330
1E
100
AcDbEntity
  8
0
100
AcDbLine
 10
465.7
 20
1003.5
 30
0.0
 11
466.3999999999999
 21
1003.5
 31
0.0
  0
LINE
  5
61C
330
1E
100
AcDbEntity
  8
0
100
AcDbLine
 10
465.5
 20
1003.5
 30
0.0
 11
467.0
 21
1002.5
 31
0.0
  0
LINE
  5
61D
330
1E
100
AcDbEntity
  8
0
100
AcDbLine
 10
465.5
 20
1003.5
 30
0.0
 11
465.7
 21
1003.5
 31
0.0
  0
LINE
  5
61E
330
1E
100
AcDbEntity
  8
0
100
AcDbLine
 10
456.5
 20
1003.5
 30
0.0
 11
461.1
 21
1003.5
 31
0.0
  0
LINE
  5
61F
330
1E
100
AcDbEntity
  8
0
100
AcDbLine
 10
461.1
 20
1003.5
 30
0.0
 11
466.3
 21
1003.5
 31
0.0
  0
LINE
  5
620
330
1E
100
AcDbEntity
  8
0
100
AcDbLine
 10
469.0
 20
1000.5
 30
0.0
 11
469.5
 21
1000.5
 31
0.0
  0
LINE
  5
621
330
1E
100
AcDbEntity
  8
0
100
AcDbLine
 10
468.5999999999999
 20
1000.5
 30
0.0
 11
469.0
 21
1000.5
 31
0.0
  0
LINE
  5
622
330
1E
100
AcDbEntity
  8
0
100
AcDbLine
 10
468.5
 20
1000.5
 30
0.0
 11
468.5999999999999
 21
1000.5
 31
0.0
  0
LINE
  5
623
330
1E
100
AcDbEntity
  8
0
100
AcDbLine
 10
469.8
 20
1000.5
 30
0.0
 11
470.1999999999999
 21
1000.5
 31
0.0
  0
LINE
  5
624
330
1E
100
AcDbEntity
  8
0
100
AcDbLine
 10
469.6
 20
1000.5
 30
0.0
 11
469.8
 21
1000.5
 31
0.0
  0
LINE
  5
625
330
1E
100
AcDbEntity
  8
0
100
AcDbLine
 10
470.8
 20
1000.5
 30
0.0
 11
471.3999999999999
 21
1000.5
 31
0.0
  0
LINE
  5
626
330
1E
100
AcDbEntity
  8
0
100
AcDbLine
 10
469.5
 20
1000.5
 30
0.0
 11
470.1999999999999
 21
1000.5
 31
0.0
  0
LINE
  5
627
330
1E
100
AcDbEntity
  8
0
100
AcDbLine
 10
469.5
 20
1000.5
 30
0.0
 11
469.6
 21
1000.5
 31
0.0
  0
LINE
  5
628
330
1E
100
AcDbEntity
  8
0
100
AcDbLine
 10
470.1999999999999
 20
1000.5
 30
0.0
 11
471.1
 21
1000.5
 31
0.0
  0
LINE
  5
629
330
1E
100
AcDbEntity
  8
0
100
AcDbLine
 10
470.1999999999999
 20
1000.5
 30
0.0
 11
470.8
 21
1000.5
 31
0.0
  0
LINE
  5
62A
330
1E
100
AcDbEntity
  8
0
100
AcDbLine
 10
471.3999999999999
 20
1000.5
 30
0.0
 11
472.0
 21
1000.5
 31
0.0
  0
LINE
  5
62B
330
1E
100
AcDbEntity
  8
0
100
AcDbLine
 10
471.1
 20
1000.5
 30
0.0
 11
472.0
 21
1000.5
 31
0.0
  0
LINE
  5
62C
330
1E
100
AcDbEntity
  8
0
100
AcDbLine
 10
472.5999999999999
 20
1000.5
 30
0.0
 11
473.2
 21
1000.5
 31
0.0
  0
LINE
  5
62D
330
1E
100
AcDbEntity
  8
0
100
AcDbLine
 10
474.1999999999999
 20
1000.5
 30
0.0
 11
474.3999999999999
 21
1000.5
 31
0.0
  0
LINE
  5
62E
330
1E
100
AcDbEntity
  8
0
100
AcDbLine
 10
474.3999999999999
 20
1000.5
 30
0.0
 11
474.5
 21
1000.5
 31
0.0
  0
LINE
  5
62F
330
1E
100
AcDbEntity
  8
0
100
AcDbLine
 10
474.5
 20
1000.5
 30
0.0
 11
475.0
 21
1000.5
 31
0.0
  0
LINE
  5
630
330
1E
100
AcDbEntity
  8
0
100
AcDbLine
 10
475.0
 20
1000.5
 30
0.0
 11
475.3999999999999
 21
1000.5
 31
0.0
  0
LINE
  5
631
330
1E
100
AcDbEntity
  8
0
100
AcDbLine
 10
473.2
 20
1000.5
 30
0.0
 11
473.8
 21
1000.5
 31
0.0
  0
LINE
  5
632
330
1E
100
AcDbEntity
  8
0
100
AcDbLine
 10
473.8
 20
1000.5
 30
0.0
 11
474.5
 21
1000.5
 31
0.0
  0
LINE
  5
633
330
1E
100
AcDbEntity
  8
0
100
AcDbLine
 10
473.8
 20
1000.5
 30
0.0
 11
474.1999999999999
 21
1000.5
 31
0.0
  0
LINE
  5
634
330
1E
100
AcDbEntity
  8
0
100
AcDbLine
 10
472.9
 20
1000.5
 30
0.0
 11
473.8
 21
1000.5
 31
0.0
  0
LINE
  5
635
330
1E
100
AcDbEntity
  8
0
100
AcDbLine
 10
466.3999999999999
 20
1003.5
 30
0.0
 11
467.3999999999999
 21
1003.5
 31
0.0
  0
LINE
  5
636
330
1E
100
AcDbEntity
  8
0
100
AcDbLine
 10
467.0
 20
1002.5
 30
0.0
 11
468.0
 21
1001.5
 31
0.0
  0
LINE
  5
637
330
1E
100
AcDbEntity
  8
0
100
AcDbLine
 10
468.0
 20
1001.5
 30
0.0
 11
468.5
 21
1000.5
 31
0.0
  0
LINE
  5
638
330
1E
100
AcDbEntity
  8
0
100
AcDbLine
 10
467.3999999999999
 20
1003.5
 30
0.0
 11
468.8
 21
1003.5
 31
0.0
  0
LINE
  5
639
330
1E
100
AcDbEntity
  8
0
100
AcDbLine
 10
468.8
 20
1003.5
 30
0.0
 11
470.3
 21
1003.5
 31
0.0
  0
LINE
  5
63A
330
1E
100
AcDbEntity
  8
0
100
AcDbLine
 10
470.3
 20
1003.5
 30
0.0
 11
472.0
 21
1003.5
 31
0.0
  0
LINE
  5
63B
330
1E
100
AcDbEntity
  8
0
100
AcDbLine
 10
472.0
 20
1000.5
 30
0.0
 11
472.9
 21
1000.5
 31
0.0
  0
LINE
  5
63C
330
1E
100
AcDbEntity
  8
0
100
AcDbLine
 10
472.0
 20
1000.5
 30
0.0
 11
472.5999999999999
 21
1000.5
 31
0.0
  0
LINE
  5
63D
330
1E
100
AcDbEntity
  8
0
100
AcDbLine
 10
475.3999999999999
 20
1000.5
 30
0.0
 11
475.4999999999999
 21
1000.5
 31
0.0
  0
LINE
  5
63E
330
1E
100
AcDbEntity
  8
0
100
AcDbLine
 10
475.4999999999999
 20
1000.5
 30
0.0
 11
476.0
 21
1001.5
 31
0.0
  0
LINE
  5
63F
330
1E
100
AcDbEntity
  8
0
100
AcDbLine
 10
476.0
 20
1001.5
 30
0.0
 11
477.0
 21
1002.5
 31
0.0
  0
LINE
  5
640
330
1E
100
AcDbEntity
  8
0
100
AcDbLine
 10
476.6
 20
1003.5
 30
0.0
 11
477.6
 21
1003.5
 31
0.0
  0
LINE
  5
641
330
1E
100
AcDbEntity
  8
0
100
AcDbLine
 10
477.6
 20
1003.5
 30
0.0
 11
478.3
 21
1003.5
 31
0.0
  0
LINE
  5
642
330
1E
100
AcDbEntity
  8
0
100
AcDbLine
 10
477.0
 20
1002.5
 30
0.0
 11
478.5
 21
1003.5
 31
0.0
  0
LINE
  5
643
330
1E
100
AcDbEntity
  8
0
100
AcDbLine
 10
475.1999999999999
 20
1003.5
 30
0.0
 11
476.6
 21
1003.5
 31
0.0
  0
LINE
  5
644
330
1E
100
AcDbEntity
  8
0
100
AcDbLine
 10
473.7
 20
1003.5
 30
0.0
 11
475.1999999999999
 21
1003.5
 31
0.0
  0
LINE
  5
645
330
1E
100
AcDbEntity
  8
0
100
AcDbLine
 10
480.276
 20
1000.5
 30
0.0
 11
480.633
 21
1000.5
 31
0.0
  0
LINE
  5
646
330
1E
100
AcDbEntity
  8
0
100
AcDbLine
 10
480.633
 20
1000.5
 30
0.0
 11
481.212
 21
1000.5
 31
0.0
  0
LINE
  5
647
330
1E
100
AcDbEntity
  8
0
100
AcDbLine
 10
481.186
 20
1000.5
 30
0.0
 11
481.313
 21
1000.5
 31
0.0
  0
LINE
  5
648
330
1E
100
AcDbEntity
  8
0
100
AcDbLine
 10
480.193
 20
1000.5
 30
0.0
 11
480.297
 21
1000.5
 31
0.0
  0
LINE
  5
649
330
1E
100
AcDbEntity
  8
0
100
AcDbLine
 10
480.193
 20
1000.5
 30
0.0
 11
480.276
 21
1000.5
 31
0.0
  0
LINE
  5
64A
330
1E
100
AcDbEntity
  8
0
100
AcDbLine
 10
480.297
 20
1000.5
 30
0.0
 11
480.66
 21
1000.5
 31
0.0
  0
LINE
  5
64B
330
1E
100
AcDbEntity
  8
0
100
AcDbLine
 10
481.233
 20
1000.5
 30
0.0
 11
481.5519999999999
 21
1000.5
 31
0.0
  0
LINE
  5
64C
330
1E
100
AcDbEntity
  8
0
100
AcDbLine
 10
481.5519999999999
 20
1000.5
 30
0.0
 11
481.972
 21
1000.5
 31
0.0
  0
LINE
  5
64D
330
1E
100
AcDbEntity
  8
0
100
AcDbLine
 10
481.212
 20
1000.5
 30
0.0
 11
481.9409999999999
 21
1000.5
 31
0.0
  0
LINE
  5
64E
330
1E
100
AcDbEntity
  8
0
100
AcDbLine
 10
481.313
 20
1000.5
 30
0.0
 11
481.526
 21
1000.5
 31
0.0
  0
LINE
  5
64F
330
1E
100
AcDbEntity
  8
0
100
AcDbLine
 10
481.913
 20
1000.5
 30
0.0
 11
482.3859999999999
 21
1000.5
 31
0.0
  0
LINE
  5
650
330
1E
100
AcDbEntity
  8
0
100
AcDbLine
 10
481.526
 20
1000.5
 30
0.0
 11
481.913
 21
1000.5
 31
0.0
  0
LINE
  5
651
330
1E
100
AcDbEntity
  8
0
100
AcDbLine
 10
481.1969999999999
 20
1000.5
 30
0.0
 11
481.993
 21
1000.5
 31
0.0
  0
LINE
  5
652
330
1E
100
AcDbEntity
  8
0
100
AcDbLine
 10
480.66
 20
1000.5
 30
0.0
 11
481.1969999999999
 21
1000.5
 31
0.0
  0
LINE
  5
653
330
1E
100
AcDbEntity
  8
0
100
AcDbLine
 10
481.972
 20
1000.5
 30
0.0
 11
482.4409999999999
 21
1000.5
 31
0.0
  0
LINE
  5
654
330
1E
100
AcDbEntity
  8
0
100
AcDbLine
 10
482.776
 20
1000.5
 30
0.0
 11
483.633
 21
1000.5
 31
0.0
  0
LINE
  5
655
330
1E
100
AcDbEntity
  8
0
100
AcDbLine
 10
482.3859999999999
 20
1000.5
 30
0.0
 11
483.033
 21
1000.5
 31
0.0
  0
LINE
  5
656
330
1E
100
AcDbEntity
  8
0
100
AcDbLine
 10
481.993
 20
1000.5
 30
0.0
 11
482.776
 21
1000.5
 31
0.0
  0
LINE
  5
657
330
1E
100
AcDbEntity
  8
0
100
AcDbLine
 10
483.033
 20
1000.5
 30
0.0
 11
483.7519999999999
 21
1000.5
 31
0.0
  0
LINE
  5
658
330
1E
100
AcDbEntity
  8
0
100
AcDbLine
 10
483.633
 20
1000.5
 30
0.0
 11
484.6119999999999
 21
1000.5
 31
0.0
  0
LINE
  5
659
330
1E
100
AcDbEntity
  8
0
100
AcDbLine
 10
483.631
 20
1000.5
 30
0.0
 11
484.35
 21
1000.5
 31
0.0
  0
LINE
  5
65A
330
1E
100
AcDbEntity
  8
0
100
AcDbLine
 10
483.0109999999999
 20
1000.5
 30
0.0
 11
483.631
 21
1000.5
 31
0.0
  0
LINE
  5
65B
330
1E
100
AcDbEntity
  8
0
100
AcDbLine
 10
482.4409999999999
 20
1000.5
 30
0.0
 11
483.0109999999999
 21
1000.5
 31
0.0
  0
LINE
  5
65C
330
1E
100
AcDbEntity
  8
0
100
AcDbLine
 10
483.7519999999999
 20
1000.5
 30
0.0
 11
484.3719999999999
 21
1000.5
 31
0.0
  0
LINE
  5
65D
330
1E
100
AcDbEntity
  8
0
100
AcDbLine
 10
484.3719999999999
 20
1000.5
 30
0.0
 11
484.9409999999999
 21
1000.5
 31
0.0
  0
LINE
  5
65E
330
1E
100
AcDbEntity
  8
0
100
AcDbLine
 10
483.75
 20
1000.5
 30
0.0
 11
484.606
 21
1000.5
 31
0.0
  0
LINE
  5
65F
330
1E
100
AcDbEntity
  8
0
100
AcDbLine
 10
482.7709999999999
 20
1000.5
 30
0.0
 11
483.75
 21
1000.5
 31
0.0
  0
LINE
  5
660
330
1E
100
AcDbEntity
  8
0
100
AcDbLine
 10
481.9409999999999
 20
1000.5
 30
0.0
 11
482.7709999999999
 21
1000.5
 31
0.0
  0
LINE
  5
661
330
1E
100
AcDbEntity
  8
0
100
AcDbLine
 10
484.35
 20
1000.5
 30
0.0
 11
484.9969999999999
 21
1000.5
 31
0.0
  0
LINE
  5
662
330
1E
100
AcDbEntity
  8
0
100
AcDbLine
 10
484.6119999999999
 20
1000.5
 30
0.0
 11
485.4409999999999
 21
1000.5
 31
0.0
  0
LINE
  5
663
330
1E
100
AcDbEntity
  8
0
100
AcDbLine
 10
484.9969999999999
 20
1000.5
 30
0.0
 11
485.47
 21
1000.5
 31
0.0
  0
LINE
  5
664
330
1E
100
AcDbEntity
  8
0
100
AcDbLine
 10
484.606
 20
1000.5
 30
0.0
 11
485.3889999999999
 21
1000.5
 31
0.0
  0
LINE
  5
665
330
1E
100
AcDbEntity
  8
0
100
AcDbLine
 10
485.3889999999999
 20
1000.5
 30
0.0
 11
486.186
 21
1000.5
 31
0.0
  0
LINE
  5
666
330
1E
100
AcDbEntity
  8
0
100
AcDbLine
 10
485.47
 20
1000.5
 30
0.0
 11
485.8559999999999
 21
1000.5
 31
0.0
  0
LINE
  5
667
330
1E
100
AcDbEntity
  8
0
100
AcDbLine
 10
486.07
 20
1000.5
 30
0.0
 11
486.1969999999999
 21
1000.5
 31
0.0
  0
LINE
  5
668
330
1E
100
AcDbEntity
  8
0
100
AcDbLine
 10
485.8559999999999
 20
1000.5
 30
0.0
 11
486.07
 21
1000.5
 31
0.0
  0
LINE
  5
669
330
1E
100
AcDbEntity
  8
0
100
AcDbLine
 10
485.8309999999999
 20
1000.5
 30
0.0
 11
486.1499999999999
 21
1000.5
 31
0.0
  0
LINE
  5
66A
330
1E
100
AcDbEntity
  8
0
100
AcDbLine
 10
485.411
 20
1000.5
 30
0.0
 11
485.8309999999999
 21
1000.5
 31
0.0
  0
LINE
  5
66B
330
1E
100
AcDbEntity
  8
0
100
AcDbLine
 10
484.9409999999999
 20
1000.5
 30
0.0
 11
485.411
 21
1000.5
 31
0.0
  0
LINE
  5
66C
330
1E
100
AcDbEntity
  8
0
100
AcDbLine
 10
486.186
 20
1000.5
 30
0.0
 11
486.7219999999999
 21
1000.5
 31
0.0
  0
LINE
  5
66D
330
1E
100
AcDbEntity
  8
0
100
AcDbLine
 10
487.1059999999999
 20
1000.5
 30
0.0
 11
487.189
 21
1000.5
 31
0.0
  0
LINE
  5
66E
330
1E
100
AcDbEntity
  8
0
100
AcDbLine
 10
487.189
 20
1000.5
 30
0.0
 11
487.722
 21
1001.5
 31
0.0
  0
LINE
  5
66F
330
1E
100
AcDbEntity
  8
0
100
AcDbLine
 10
487.086
 20
1000.5
 30
0.0
 11
487.189
 21
1000.5
 31
0.0
  0
LINE
  5
670
330
1E
100
AcDbEntity
  8
0
100
AcDbLine
 10
486.7219999999999
 20
1000.5
 30
0.0
 11
487.086
 21
1000.5
 31
0.0
  0
LINE
  5
671
330
1E
100
AcDbEntity
  8
0
100
AcDbLine
 10
486.7499999999999
 20
1000.5
 30
0.0
 11
487.1059999999999
 21
1000.5
 31
0.0
  0
LINE
  5
672
330
1E
100
AcDbEntity
  8
0
100
AcDbLine
 10
486.171
 20
1000.5
 30
0.0
 11
486.7499999999999
 21
1000.5
 31
0.0
  0
LINE
  5
673
330
1E
100
AcDbEntity
  8
0
100
AcDbLine
 10
478.7169999999999
 20
1002.5
 30
0.0
 11
479.66
 21
1001.5
 31
0.0
  0
LINE
  5
674
330
1E
100
AcDbEntity
  8
0
100
AcDbLine
 10
478.3
 20
1003.5
 30
0.0
 11
478.5
 21
1003.5
 31
0.0
  0
LINE
  5
675
330
1E
100
AcDbEntity
  8
0
100
AcDbLine
 10
477.865714285714
 20
1003.07714285714
 30
0.0
 11
478.7169999999999
 21
1002.5
 31
0.0
  0
LINE
  5
676
330
1E
100
AcDbEntity
  8
0
100
AcDbLine
 10
482.008
 20
1003.5
 30
0.0
 11
483.72
 21
1003.5
 31
0.0
  0
LINE
  5
677
330
1E
100
AcDbEntity
  8
0
100
AcDbLine
 10
483.72
 20
1003.5
 30
0.0
 11
485.369
 21
1003.5
 31
0.0
  0
LINE
  5
678
330
1E
100
AcDbEntity
  8
0
100
AcDbLine
 10
485.369
 20
1003.5
 30
0.0
 11
486.941
 21
1003.5
 31
0.0
  0
LINE
  5
679
330
1E
100
AcDbEntity
  8
0
100
AcDbLine
 10
479.66
 20
1001.5
 30
0.0
 11
480.193
 21
1000.5
 31
0.0
  0
LINE
  5
67A
330
1E
100
AcDbEntity
  8
0
100
AcDbLine
 10
480.4419999999999
 20
1003.5
 30
0.0
 11
482.008
 21
1003.5
 31
0.0
  0
LINE
  5
67B
330
1E
100
AcDbEntity
  8
0
100
AcDbLine
 10
479.0849999999999
 20
1003.5
 30
0.0
 11
480.4419999999999
 21
1003.5
 31
0.0
  0
LINE
  5
67C
330
1E
100
AcDbEntity
  8
0
100
AcDbLine
 10
478.5
 20
1003.5
 30
0.0
 11
479.0849999999999
 21
1003.5
 31
0.0
  0
LINE
  5
67D
330
1E
100
AcDbEntity
  8
0
100
AcDbLine
 10
487.722
 20
1001.5
 30
0.0
 11
488.665
 21
1002.5
 31
0.0
  0
LINE
  5
67E
330
1E
100
AcDbEntity
  8
0
100
AcDbLine
 10
485.4409999999999
 20
1000.5
 30
0.0
 11
486.171
 21
1000.5
 31
0.0
  0
LINE
  5
67F
330
1E
100
AcDbEntity
  8
0
100
AcDbLine
 10
489.975
 20
1003.5
 30
0.0
 11
490.1409999999999
 21
1003.5
 31
0.0
  0
LINE
  5
680
330
1E
100
AcDbEntity
  8
0
100
AcDbLine
 10
489.9969999999999
 20
1003.5
 30
0.0
 11
490.1409999999999
 21
1003.5
 31
0.0
  0
LINE
  5
681
330
1E
100
AcDbEntity
  8
0
100
AcDbLine
 10
488.665
 20
1002.5
 30
0.0
 11
490.1409999999999
 21
1003.5
 31
0.0
  0
LINE
  5
682
330
1E
100
AcDbEntity
  8
0
100
AcDbLine
 10
489.263
 20
1003.5
 30
0.0
 11
489.975
 21
1003.5
 31
0.0
  0
LINE
  5
683
330
1E
100
AcDbEntity
  8
0
100
AcDbLine
 10
488.314
 20
1003.5
 30
0.0
 11
489.263
 21
1003.5
 31
0.0
  0
LINE
  5
684
330
1E
100
AcDbEntity
  8
0
100
AcDbLine
 10
486.941
 20
1003.5
 30
0.0
 11
488.314
 21
1003.5
 31
0.0
  0
LINE
  5
685
330
1E
100
AcDbEntity
  8
0
100
AcDbLine
 10
490.1409999999999
 20
1003.5
 30
0.0
 11
491.1
 21
1003.5
 31
0.0
  0
LINE
  5
686
330
1E
100
AcDbEntity
  8
0
100
AcDbLine
 10
487.5
 20
1003.5
 30
0.0
 11
491.1
 21
1003.5
 31
0.0
  0
LINE
  5
687
330
1E
100
AcDbEntity
  8
0
100
AcDbLine
 10
491.1
 20
1003.5
 30
0.0
 11
493.2
 21
1003.5
 31
0.0
  0
LINE
  5
688
330
1E
100
AcDbEntity
  8
0
100
AcDbLine
 10
493.2
 20
1003.5
 30
0.0
 11
494.0
 21
1003.5
 31
0.0
  0
LINE
  5
689
330
1E
100
AcDbEntity
  8
0
100
AcDbLine
 10
539.45
 20
1003.5
 30
0.0
 11
542.0499999999999
 21
1003.5
 31
0.0
  0
LINE
  5
68A
330
1E
100
AcDbEntity
  8
0
100
AcDbLine
 10
542.0499999999999
 20
1003.5
 30
0.0
 11
544.8669999999999
 21
1003.5
 31
0.0
  0
LINE
  5
68B
330
1E
100
AcDbEntity
  8
0
100
AcDbLine
 10
537.5
 20
1003.5
 30
0.0
 11
539.45
 21
1003.5
 31
0.0
  0
LINE
  5
68C
330
1E
100
AcDbEntity
  8
0
100
AcDbLine
 10
536.4169999999999
 20
1003.5
 30
0.0
 11
537.5
 21
1003.5
 31
0.0
  0
LINE
  5
68D
330
1E
100
AcDbEntity
  8
0
100
AcDbLine
 10
535.983
 20
1003.5
 30
0.0
 11
536.4169999999999
 21
1003.5
 31
0.0
  0
LINE
  5
68E
330
1E
100
AcDbEntity
  8
0
100
AcDbLine
 10
544.8669999999999
 20
1003.5
 30
0.0
 11
547.9
 21
1003.5
 31
0.0
  0
LINE
  5
68F
330
1E
100
AcDbEntity
  8
0
100
AcDbLine
 10
543.133
 20
1003.5
 30
0.0
 11
544.0
 21
1003.5
 31
0.0
  0
LINE
  5
690
330
1E
100
AcDbEntity
  8
0
100
AcDbLine
 10
542.7
 20
1003.5
 30
0.0
 11
543.133
 21
1003.5
 31
0.0
  0
LINE
  5
691
330
1E
100
AcDbEntity
  8
0
100
AcDbLine
 10
542.483
 20
1003.5
 30
0.0
 11
542.7
 21
1003.5
 31
0.0
  0
LINE
  5
692
330
1E
100
AcDbEntity
  8
0
100
AcDbLine
 10
544.0
 20
1003.5
 30
0.0
 11
545.2999999999999
 21
1003.5
 31
0.0
  0
LINE
  5
693
330
1E
100
AcDbEntity
  8
0
100
AcDbLine
 10
545.2999999999999
 20
1003.5
 30
0.0
 11
546.6
 21
1003.5
 31
0.0
  0
LINE
  5
694
330
1E
100
AcDbEntity
  8
0
100
AcDbLine
 10
546.6
 20
1003.5
 30
0.0
 11
547.9
 21
1003.5
 31
0.0
  0
LINE
  5
695
330
1E
100
AcDbEntity
  8
0
100
AcDbLine
 10
550.933
 20
1003.5
 30
0.0
 11
553.75
 21
1003.5
 31
0.0
  0
LINE
  5
696
330
1E
100
AcDbEntity
  8
0
100
AcDbLine
 10
550.4999999999999
 20
1003.5
 30
0.0
 11
551.7999999999999
 21
1003.5
 31
0.0
  0
LINE
  5
697
330
1E
100
AcDbEntity
  8
0
100
AcDbLine
 10
549.2
 20
1003.5
 30
0.0
 11
550.4999999999999
 21
1003.5
 31
0.0
  0
LINE
  5
698
330
1E
100
AcDbEntity
  8
0
100
AcDbLine
 10
547.9
 20
1003.5
 30
0.0
 11
549.2
 21
1003.5
 31
0.0
  0
LINE
  5
699
330
1E
100
AcDbEntity
  8
0
100
AcDbLine
 10
547.9
 20
1003.5
 30
0.0
 11
550.933
 21
1003.5
 31
0.0
  0
LINE
  5
69A
330
1E
100
AcDbEntity
  8
0
100
AcDbLine
 10
551.7999999999999
 20
1003.5
 30
0.0
 11
552.6669999999999
 21
1003.5
 31
0.0
  0
LINE
  5
69B
330
1E
100
AcDbEntity
  8
0
100
AcDbLine
 10
552.6669999999999
 20
1003.5
 30
0.0
 11
553.1
 21
1003.5
 31
0.0
  0
LINE
  5
69C
330
1E
100
AcDbEntity
  8
0
100
AcDbLine
 10
556.35
 20
1003.5
 30
0.0
 11
558.2999999999999
 21
1003.5
 31
0.0
  0
LINE
  5
69D
330
1E
100
AcDbEntity
  8
0
100
AcDbLine
 10
558.2999999999999
 20
1003.5
 30
0.0
 11
559.383
 21
1003.5
 31
0.0
  0
LINE
  5
69E
330
1E
100
AcDbEntity
  8
0
100
AcDbLine
 10
559.383
 20
1003.5
 30
0.0
 11
559.817
 21
1003.5
 31
0.0
  0
LINE
  5
69F
330
1E
100
AcDbEntity
  8
0
100
AcDbLine
 10
553.75
 20
1003.5
 30
0.0
 11
556.35
 21
1003.5
 31
0.0
  0
LINE
  5
6A0
330
1E
100
AcDbEntity
  8
0
100
AcDbLine
 10
553.1
 20
1003.5
 30
0.0
 11
553.317
 21
1003.5
 31
0.0
  0
LINE
  5
6A1
330
1E
100
AcDbEntity
  8
0
100
AcDbLine
 10
559.817
 20
1003.5
 30
0.0
 11
560.8999999999999
 21
1004.0
 31
0.0
  0
LINE
  5
6A2
330
1E
100
AcDbEntity
  8
0
100
AcDbLine
 10
643.2
 20
1003.5
 30
0.0
 11
644.1
 21
1003.5
 31
0.0
  0
LINE
  5
6A3
330
1E
100
AcDbEntity
  8
0
100
AcDbLine
 10
642.7
 20
1003.5
 30
0.0
 11
643.2
 21
1003.5
 31
0.0
  0
LINE
  5
6A4
330
1E
100
AcDbEntity
  8
0
100
AcDbLine
 10
642.4999999999999
 20
1003.5
 30
0.0
 11
642.7
 21
1003.5
 31
0.0
  0
LINE
  5
6A5
330
1E
100
AcDbEntity
  8
0
100
AcDbLine
 10
644.1
 20
1003.5
 30
0.0
 11
645.2999999999999
 21
1003.5
 31
0.0
  0
LINE
  5
6A6
330
1E
100
AcDbEntity
  8
0
100
AcDbLine
 10
645.7999999999999
 20
1003.5
 30
0.0
 11
646.2
 21
1003.5
 31
0.0
  0
LINE
  5
6A7
330
1E
100
AcDbEntity
  8
0
100
AcDbLine
 10
645.6
 20
1003.5
 30
0.0
 11
645.7999999999999
 21
1003.5
 31
0.0
  0
LINE
  5
6A8
330
1E
100
AcDbEntity
  8
0
100
AcDbLine
 10
645.5
 20
1003.5
 30
0.0
 11
645.6
 21
1003.5
 31
0.0
  0
LINE
  5
6A9
330
1E
100
AcDbEntity
  8
0
100
AcDbLine
 10
646.2
 20
1003.5
 30
0.0
 11
646.7999999999999
 21
1003.5
 31
0.0
  0
LINE
  5
6AA
330
1E
100
AcDbEntity
  8
0
100
AcDbLine
 10
646.7999999999999
 20
1003.5
 30
0.0
 11
647.4
 21
1003.5
 31
0.0
  0
LINE
  5
6AB
330
1E
100
AcDbEntity
  8
0
100
AcDbLine
 10
647.4
 20
1003.5
 30
0.0
 11
648.0
 21
1003.5
 31
0.0
  0
LINE
  5
6AC
330
1E
100
AcDbEntity
  8
0
100
AcDbLine
 10
645.2999999999999
 20
1003.5
 30
0.0
 11
646.6
 21
1003.5
 31
0.0
  0
LINE
  5
6AD
330
1E
100
AcDbEntity
  8
0
100
AcDbLine
 10
646.6
 20
1003.5
 30
0.0
 11
648.0
 21
1003.5
 31
0.0
  0
LINE
  5
6AE
330
1E
100
AcDbEntity
  8
0
100
AcDbLine
 10
649.2
 20
1003.5
 30
0.0
 11
649.7999999999999
 21
1003.5
 31
0.0
  0
LINE
  5
6AF
330
1E
100
AcDbEntity
  8
0
100
AcDbLine
 10
648.6
 20
1003.5
 30
0.0
 11
649.2
 21
1003.5
 31
0.0
  0
LINE
  5
6B0
330
1E
100
AcDbEntity
  8
0
100
AcDbLine
 10
649.3999999999999
 20
1003.5
 30
0.0
 11
650.7
 21
1003.5
 31
0.0
  0
LINE
  5
6B1
330
1E
100
AcDbEntity
  8
0
100
AcDbLine
 10
648.0
 20
1003.5
 30
0.0
 11
649.3999999999999
 21
1003.5
 31
0.0
  0
LINE
  5
6B2
330
1E
100
AcDbEntity
  8
0
100
AcDbLine
 10
648.0
 20
1003.5
 30
0.0
 11
648.6
 21
1003.5
 31
0.0
  0
LINE
  5
6B3
330
1E
100
AcDbEntity
  8
0
100
AcDbLine
 10
649.7999999999999
 20
1003.5
 30
0.0
 11
650.2
 21
1003.5
 31
0.0
  0
LINE
  5
6B4
330
1E
100
AcDbEntity
  8
0
100
AcDbLine
 10
650.7
 20
1003.5
 30
0.0
 11
651.9
 21
1003.5
 31
0.0
  0
LINE
  5
6B5
330
1E
100
AcDbEntity
  8
0
100
AcDbLine
 10
650.2
 20
1003.5
 30
0.0
 11
650.3999999999999
 21
1003.5
 31
0.0
  0
LINE
  5
6B6
330
1E
100
AcDbEntity
  8
0
100
AcDbLine
 10
650.3999999999999
 20
1003.5
 30
0.0
 11
650.4999999999999
 21
1003.5
 31
0.0
  0
LINE
  5
6B7
330
1E
100
AcDbEntity
  8
0
100
AcDbLine
 10
651.9
 20
1003.5
 30
0.0
 11
652.7999999999999
 21
1003.5
 31
0.0
  0
LINE
  5
6B8
330
1E
100
AcDbEntity
  8
0
100
AcDbLine
 10
652.7999999999999
 20
1003.5
 30
0.0
 11
653.2999999999999
 21
1003.5
 31
0.0
  0
LINE
  5
6B9
330
1E
100
AcDbEntity
  8
0
100
AcDbLine
 10
653.2999999999999
 20
1003.5
 30
0.0
 11
653.5
 21
1003.5
 31
0.0
  0
LINE
  5
6BA
330
1E
100
AcDbEntity
  8
0
100
AcDbLine
 10
653.5
 20
1003.5
 30
0.0
 11
654.0
 21
1004.0
 31
0.0
  0
LINE
  5
6BB
330
1E
100
AcDbEntity
  8
0
100
AcDbLine
 10
494.0
 20
1003.5
 30
0.0
 11
494.0
 21
1005.0
 31
0.0
  0
LINE
  5
6BC
330
1E
100
AcDbEntity
  8
0
100
AcDbLine
 10
482.8999999999999
 20
1003.5
 30
0.0
 11
487.5
 21
1003.5
 31
0.0
  0
LINE
  5
6BD
330
1E
100
AcDbEntity
  8
0
100
AcDbLine
 10
477.7
 20
1003.5
 30
0.0
 11
482.8999999999999
 21
1003.5
 31
0.0
  0
LINE
  5
6BE
330
1E
100
AcDbEntity
  8
0
100
AcDbLine
 10
472.0
 20
1003.5
 30
0.0
 11
477.7
 21
1003.5
 31
0.0
  0
LINE
  5
6BF
330
1E
100
AcDbEntity
  8
0
100
AcDbLine
 10
472.0
 20
1003.5
 30
0.0
 11
473.7
 21
1003.5
 31
0.0
  0
LINE
  5
6C0
330
1E
100
AcDbEntity
  8
0
100
AcDbLine
 10
466.3
 20
1003.5
 30
0.0
 11
472.0
 21
1003.5
 31
0.0
  0
LINE
  5
6C1
330
1E
100
AcDbEntity
  8
0
100
AcDbLine
 10
452.8999999999999
 20
1003.5
 30
0.0
 11
456.5
 21
1003.5
 31
0.0
  0
LINE
  5
6C2
330
1E
100
AcDbEntity
  8
0
100
AcDbLine
 10
452.8999999999999
 20
1003.5
 30
0.0
 11
453.859
 21
1003.5
 31
0.0
  0
LINE
  5
6C3
330
1E
100
AcDbEntity
  8
0
100
AcDbLine
 10
450.8
 20
1003.5
 30
0.0
 11
452.8999999999999
 21
1003.5
 31
0.0
  0
LINE
  5
6C4
330
1E
100
AcDbEntity
  8
0
100
AcDbLine
 10
450.0
 20
1003.5
 30
0.0
 11
450.8
 21
1003.5
 31
0.0
  0
LINE
  5
6C5
330
1E
100
AcDbEntity
  8
0
100
AcDbLine
 10
362.0
 20
1003.5
 30
0.0
 11
362.0
 21
1005.0
 31
0.0
  0
LINE
  5
6C6
330
1E
100
AcDbEntity
  8
0
100
AcDbLine
 10
350.8999999999999
 20
1003.5
 30
0.0
 11
355.5
 21
1003.5
 31
0.0
  0
LINE
  5
6C7
330
1E
100
AcDbEntity
  8
0
100
AcDbLine
 10
345.6999999999999
 20
1003.5
 30
0.0
 11
350.8999999999999
 21
1003.5
 31
0.0
  0
LINE
  5
6C8
330
1E
100
AcDbEntity
  8
0
100
AcDbLine
 10
340.0
 20
1003.5
 30
0.0
 11
345.6999999999999
 21
1003.5
 31
0.0
  0
LINE
  5
6C9
330
1E
100
AcDbEntity
  8
0
100
AcDbLine
 10
340.0
 20
1003.5
 30
0.0
 11
341.6999999999999
 21
1003.5
 31
0.0
  0
LINE
  5
6CA
330
1E
100
AcDbEntity
  8
0
100
AcDbLine
 10
340.0
 20
1003.5
 30
0.0
 11
341.3
 21
1003.5
 31
0.0
  0
LINE
  5
6CB
330
1E
100
AcDbEntity
  8
0
100
AcDbLine
 10
340.0
 20
1003.5
 30
0.0
 11
343.033
 21
1003.5
 31
0.0
  0
LINE
  5
6CC
330
1E
100
AcDbEntity
  8
0
100
AcDbLine
 10
329.1
 20
1003.5
 30
0.0
 11
334.2999999999999
 21
1003.5
 31
0.0
  0
LINE
  5
6CD
330
1E
100
AcDbEntity
  8
0
100
AcDbLine
 10
334.2999999999999
 20
1003.5
 30
0.0
 11
340.0
 21
1003.5
 31
0.0
  0
LINE
  5
6CE
330
1E
100
AcDbEntity
  8
0
100
AcDbLine
 10
320.8999999999999
 20
1003.5
 30
0.0
 11
324.5
 21
1003.5
 31
0.0
  0
LINE
  5
6CF
330
1E
100
AcDbEntity
  8
0
100
AcDbLine
 10
320.8999999999999
 20
1003.5
 30
0.0
 11
321.859
 21
1003.5
 31
0.0
  0
LINE
  5
6D9
330
1E
100
AcDbEntity
  8
0
100
AcDbLine
 10
330.8999999999999
 20
1004.0
 30
0.0
 11
333.4999999999999
 21
1004.0
 31
0.0
  0
LINE
  5
6DA
330
1E
100
AcDbEntity
  8
0
100
AcDbLine
 10
333.4999999999999
 20
1004.0
 30
0.0
 11
336.75
 21
1004.0
 31
0.0
  0
LINE
  5
6DD
330
1E
100
AcDbEntity
  8
0
100
AcDbLine
 10
340.7
 20
1004.0
 30
0.0
 11
341.0
 21
1004.0
 31
0.0
  0
LINE
  5
6DE
330
1E
100
AcDbEntity
  8
0
100
AcDbLine
 10
339.0
 20
1004.0
 30
0.0
 11
339.3
 21
1004.0
 31
0.0
  0
LINE
  5
6E1
330
1E
100
AcDbEntity
  8
0
100
AcDbLine
 10
339.3
 20
1004.0
 30
0.0
 11
340.0
 21
1004.0
 31
0.0
  0
LINE
  5
6E2
330
1E
100
AcDbEntity
  8
0
100
AcDbLine
 10
349.1
 20
1004.0
 30
0.0
 11
351.2669999999999
 21
1004.0
 31
0.0
  0
LINE
  5
6E3
330
1E
100
AcDbEntity
  8
0
100
AcDbLine
 10
351.2669999999999
 20
1004.0
 30
0.0
 11
352.5669999999999
 21
1004.0
 31
0.0
  0
LINE
  5
6ED
330
1E
100
AcDbEntity
  8
0
100
AcDbLine
 10
353.0
 20
1004.0
 30
0.0
 11
353.0
 21
1005.0
 31
0.0
  0
LINE
  5
6EE
330
1E
100
AcDbEntity
  8
0
100
AcDbLine
 10
352.5669999999999
 20
1004.0
 30
0.0
 11
353.0
 21
1004.0
 31
0.0
  0
LINE
  5
6EF
330
1E
100
AcDbEntity
  8
0
100
AcDbLine
 10
346.4999999999999
 20
1004.0
 30
0.0
 11
349.1
 21
1004.0
 31
0.0
  0
LINE
  5
6F0
330
1E
100
AcDbEntity
  8
0
100
AcDbLine
 10
343.25
 20
1004.0
 30
0.0
 11
346.4999999999999
 21
1004.0
 31
0.0
  0
LINE
  5
6F1
330
1E
100
AcDbEntity
  8
0
100
AcDbLine
 10
340.0
 20
1004.0
 30
0.0
 11
343.25
 21
1004.0
 31
0.0
  0
LINE
  5
6F3
330
1E
100
AcDbEntity
  8
0
100
AcDbLine
 10
340.0
 20
1004.0
 30
0.0
 11
340.7
 21
1004.0
 31
0.0
  0
LINE
  5
6F4
330
1E
100
AcDbEntity
  8
0
100
AcDbLine
 10
336.75
 20
1004.0
 30
0.0
 11
340.0
 21
1004.0
 31
0.0
  0
LINE
  5
6F5
330
1E
100
AcDbEntity
  8
0
100
AcDbLine
 10
328.733
 20
1004.0
 30
0.0
 11
330.8999999999999
 21
1004.0
 31
0.0
  0
LINE
  5
6F6
330
1E
100
AcDbEntity
  8
0
100
AcDbLine
 10
327.4329999999999
 20
1004.0
 30
0.0
 11
328.733
 21
1004.0
 31
0.0
  0
LINE
  5
6FF
330
1E
100
AcDbEntity
  8
0
100
AcDbLine
 10
340.0
 20
1005.0
 30
0.0
 11
675.0
 21
1005.0
 31
0.0
  0
LINE
  5
702
330
1E
100
AcDbEntity
  8
0
100
AcDbLine
 10
340.0
 20
1010.0
 30
0.0
 11
675.0
 21
1010.0
 31
0.0
  0
LINE
  5
703
330
1E
100
AcDbEntity
  8
0
100
AcDbLine
 10
327.0
 20
1005.0
 30
0.0
 11
327.0
 21
1004.0
 31
0.0
  0
LINE
  5
709
330
1E
100
AcDbEntity
  8
0
100
AcDbLine
 10
353.0
 20
1005.0
 30
0.0
 11
353.0
 21
1004.0
 31
0.0
  0
LINE
  5
70A
330
1E
100
AcDbEntity
  8
0
100
AcDbLine
 10
327.0
 20
1004.0
 30
0.0
 11
327.0
 21
1005.0
 31
0.0
  0
LINE
  5
70B
330
1E
100
AcDbEntity
  8
0
100
AcDbLine
 10
327.0
 20
1004.0
 30
0.0
 11
327.4329999999999
 21
1004.0
 31
0.0
  0
LINE
  5
70C
330
1E
100
AcDbEntity
  8
0
100
AcDbLine
 10
327.0
 20
1004.0
 30
0.0
 11
328.083
 21
1003.5
 31
0.0
  0
LINE
  5
782
330
1E
100
AcDbEntity
  8
0
100
AcDbLine
 10
397.858
 20
1005.0
 30
0.0
 11
414.5209999999999
 21
1005.0
 31
0.0
  0
LINE
  5
793
330
1E
100
AcDbEntity
  8
0
100
AcDbLine
 10
416.679
 20
1005.0
 30
0.0
 11
431.5209999999999
 21
1005.0
 31
0.0
  0
LINE
  5
79C
330
1E
100
AcDbEntity
  8
0
100
AcDbLine
 10
435.5
 20
1005.0
 30
0.0
 11
449.0
 21
1005.0
 31
0.0
  0
LINE
  5
79E
330
1E
100
AcDbEntity
  8
0
100
AcDbLine
 10
378.8909999999999
 20
1005.0
 30
0.0
 11
395.621
 21
1005.0
 31
0.0
  0
LINE
  5
7A1
330
1E
100
AcDbEntity
  8
0
100
AcDbLine
 10
449.0
 20
1004.0
 30
0.0
 11
449.5
 21
1003.5
 31
0.0
  0
LINE
  5
7A2
330
1E
100
AcDbEntity
  8
0
100
AcDbLine
 10
449.0
 20
1004.0
 30
0.0
 11
449.0
 21
1005.0
 31
0.0
  0
LINE
  5
7A3
330
1E
100
AcDbEntity
  8
0
100
AcDbLine
 10
449.0
 20
1004.0
 30
0.0
 11
449.1999999999999
 21
1004.0
 31
0.0
  0
LINE
  5
7A4
330
1E
100
AcDbEntity
  8
0
100
AcDbLine
 10
449.8
 20
1004.0
 30
0.0
 11
450.8
 21
1004.0
 31
0.0
  0
LINE
  5
7A5
330
1E
100
AcDbEntity
  8
0
100
AcDbLine
 10
449.1999999999999
 20
1004.0
 30
0.0
 11
449.8
 21
1004.0
 31
0.0
  0
LINE
  5
7A6
330
1E
100
AcDbEntity
  8
0
100
AcDbLine
 10
450.8
 20
1004.0
 30
0.0
 11
452.0
 21
1004.0
 31
0.0
  0
LINE
  5
7A7
330
1E
100
AcDbEntity
  8
0
100
AcDbLine
 10
452.0
 20
1004.0
 30
0.0
 11
453.5
 21
1004.0
 31
0.0
  0
LINE
  5
7A8
330
1E
100
AcDbEntity
  8
0
100
AcDbLine
 10
453.5
 20
1004.0
 30
0.0
 11
455.0
 21
1004.0
 31
0.0
  0
LINE
  5
7A9
330
1E
100
AcDbEntity
  8
0
100
AcDbLine
 10
458.0
 20
1004.0
 30
0.0
 11
459.1999999999999
 21
1004.0
 31
0.0
  0
LINE
  5
7AA
330
1E
100
AcDbEntity
  8
0
100
AcDbLine
 10
456.5
 20
1004.0
 30
0.0
 11
458.0
 21
1004.0
 31
0.0
  0
LINE
  5
7AB
330
1E
100
AcDbEntity
  8
0
100
AcDbLine
 10
455.0
 20
1004.0
 30
0.0
 11
456.5
 21
1004.0
 31
0.0
  0
LINE
  5
7AC
330
1E
100
AcDbEntity
  8
0
100
AcDbLine
 10
459.1999999999999
 20
1004.0
 30
0.0
 11
460.2
 21
1004.0
 31
0.0
  0
LINE
  5
7AD
330
1E
100
AcDbEntity
  8
0
100
AcDbLine
 10
460.2
 20
1004.0
 30
0.0
 11
460.8
 21
1004.0
 31
0.0
  0
LINE
  5
85D
330
1E
100
AcDbEntity
  8
0
100
AcDbLine
 10
535.219
 20
1004.0
 30
0.0
 11
535.519
 21
1004.0
 31
0.0
  0
LINE
  5
85F
330
1E
100
AcDbEntity
  8
0
100
AcDbLine
 10
535.519
 20
1004.0
 30
0.0
 11
536.219
 21
1004.0
 31
0.0
  0
LINE
  5
861
330
1E
100
AcDbEntity
  8
0
100
AcDbLine
 10
536.219
 20
1004.0
 30
0.0
 11
536.9189999999999
 21
1004.0
 31
0.0
  0
LINE
  5
864
330
1E
100
AcDbEntity
  8
0
100
AcDbLine
 10
536.9189999999999
 20
1004.0
 30
0.0
 11
537.219
 21
1004.0
 31
0.0
  0
LINE
  5
866
330
1E
100
AcDbEntity
  8
0
100
AcDbLine
 10
539.579
 20
1004.0
 30
0.0
 11
539.8789999999999
 21
1004.0
 31
0.0
  0
LINE
  5
868
330
1E
100
AcDbEntity
  8
0
100
AcDbLine
 10
539.8789999999999
 20
1004.0
 30
0.0
 11
540.579
 21
1004.0
 31
0.0
  0
LINE
  5
86A
330
1E
100
AcDbEntity
  8
0
100
AcDbLine
 10
540.579
 20
1004.0
 30
0.0
 11
541.279
 21
1004.0
 31
0.0
  0
LINE
  5
86C
330
1E
100
AcDbEntity
  8
0
100
AcDbLine
 10
541.279
 20
1004.0
 30
0.0
 11
541.579
 21
1004.0
 31
0.0
  0
LINE
  5
86D
330
1E
100
AcDbEntity
  8
0
100
AcDbLine
 10
536.633
 20
1004.0
 30
0.0
 11
538.7999999999999
 21
1004.0
 31
0.0
  0
LINE
  5
86E
330
1E
100
AcDbEntity
  8
0
100
AcDbLine
 10
535.333
 20
1004.0
 30
0.0
 11
536.633
 21
1004.0
 31
0.0
  0
LINE
  5
86F
330
1E
100
AcDbEntity
  8
0
100
AcDbLine
 10
534.9
 20
1004.0
 30
0.0
 11
535.333
 21
1004.0
 31
0.0
  0
LINE
  5
870
330
1E
100
AcDbEntity
  8
0
100
AcDbLine
 10
534.9
 20
1004.0
 30
0.0
 11
535.983
 21
1003.5
 31
0.0
  0
LINE
  5
872
330
1E
100
AcDbEntity
  8
0
100
AcDbLine
 10
538.7999999999999
 20
1004.0
 30
0.0
 11
541.3999999999999
 21
1004.0
 31
0.0
  0
LINE
  5
875
330
1E
100
AcDbEntity
  8
0
100
AcDbLine
 10
541.7999999999999
 20
1004.0
 30
0.0
 11
542.1
 21
1004.0
 31
0.0
  0
LINE
  5
877
330
1E
100
AcDbEntity
  8
0
100
AcDbLine
 10
542.1
 20
1004.0
 30
0.0
 11
542.7999999999999
 21
1004.0
 31
0.0
  0
LINE
  5
879
330
1E
100
AcDbEntity
  8
0
100
AcDbLine
 10
542.7999999999999
 20
1004.0
 30
0.0
 11
543.5
 21
1004.0
 31
0.0
  0
LINE
  5
87B
330
1E
100
AcDbEntity
  8
0
100
AcDbLine
 10
543.5
 20
1004.0
 30
0.0
 11
543.7999999999999
 21
1004.0
 31
0.0
  0
LINE
  5
87D
330
1E
100
AcDbEntity
  8
0
100
AcDbLine
 10
543.7739999999999
 20
1004.0
 30
0.0
 11
544.074
 21
1004.0
 31
0.0
  0
LINE
  5
87F
330
1E
100
AcDbEntity
  8
0
100
AcDbLine
 10
544.074
 20
1004.0
 30
0.0
 11
544.774
 21
1004.0
 31
0.0
  0
LINE
  5
880
330
1E
100
AcDbEntity
  8
0
100
AcDbLine
 10
545.173
 20
1004.0
 30
0.0
 11
545.473
 21
1004.0
 31
0.0
  0
LINE
  5
881
330
1E
100
AcDbEntity
  8
0
100
AcDbLine
 10
545.473
 20
1004.0
 30
0.0
 11
546.173
 21
1004.0
 31
0.0
  0
LINE
  5
883
330
1E
100
AcDbEntity
  8
0
100
AcDbLine
 10
546.173
 20
1004.0
 30
0.0
 11
546.873
 21
1004.0
 31
0.0
  0
LINE
  5
886
330
1E
100
AcDbEntity
  8
0
100
AcDbLine
 10
546.873
 20
1004.0
 30
0.0
 11
547.1729999999999
 21
1004.0
 31
0.0
  0
LINE
  5
887
330
1E
100
AcDbEntity
  8
0
100
AcDbLine
 10
546.4059999999999
 20
1004.0
 30
0.0
 11
546.706
 21
1004.0
 31
0.0
  0
LINE
  5
888
330
1E
100
AcDbEntity
  8
0
100
AcDbLine
 10
546.706
 20
1004.0
 30
0.0
 11
547.4059999999999
 21
1004.0
 31
0.0
  0
LINE
  5
88A
330
1E
100
AcDbEntity
  8
0
100
AcDbLine
 10
547.4059999999999
 20
1004.0
 30
0.0
 11
548.106
 21
1004.0
 31
0.0
  0
LINE
  5
88D
330
1E
100
AcDbEntity
  8
0
100
AcDbLine
 10
544.774
 20
1004.0
 30
0.0
 11
545.474
 21
1004.0
 31
0.0
  0
LINE
  5
88F
330
1E
100
AcDbEntity
  8
0
100
AcDbLine
 10
545.474
 20
1004.0
 30
0.0
 11
545.774
 21
1004.0
 31
0.0
  0
LINE
  5
890
330
1E
100
AcDbEntity
  8
0
100
AcDbLine
 10
541.3999999999999
 20
1004.0
 30
0.0
 11
544.6499999999999
 21
1004.0
 31
0.0
  0
LINE
  5
891
330
1E
100
AcDbEntity
  8
0
100
AcDbLine
 10
544.6499999999999
 20
1004.0
 30
0.0
 11
547.9
 21
1004.0
 31
0.0
  0
LINE
  5
894
330
1E
100
AcDbEntity
  8
0
100
AcDbLine
 10
548.106
 20
1004.0
 30
0.0
 11
548.4059999999999
 21
1004.0
 31
0.0
  0
LINE
  5
896
330
1E
100
AcDbEntity
  8
0
100
AcDbLine
 10
552.88
 20
1004.0
 30
0.0
 11
553.1799999999999
 21
1004.0
 31
0.0
  0
LINE
  5
898
330
1E
100
AcDbEntity
  8
0
100
AcDbLine
 10
553.1799999999999
 20
1004.0
 30
0.0
 11
553.88
 21
1004.0
 31
0.0
  0
LINE
  5
89A
330
1E
100
AcDbEntity
  8
0
100
AcDbLine
 10
553.88
 20
1004.0
 30
0.0
 11
554.58
 21
1004.0
 31
0.0
  0
LINE
  5
89D
330
1E
100
AcDbEntity
  8
0
100
AcDbLine
 10
554.58
 20
1004.0
 30
0.0
 11
554.8799999999999
 21
1004.0
 31
0.0
  0
LINE
  5
89F
330
1E
100
AcDbEntity
  8
0
100
AcDbLine
 10
556.884
 20
1004.0
 30
0.0
 11
557.1839999999999
 21
1004.0
 31
0.0
  0
LINE
  5
8A1
330
1E
100
AcDbEntity
  8
0
100
AcDbLine
 10
557.1839999999999
 20
1004.0
 30
0.0
 11
557.884
 21
1004.0
 31
0.0
  0
LINE
  5
8A4
330
1E
100
AcDbEntity
  8
0
100
AcDbLine
 10
557.884
 20
1004.0
 30
0.0
 11
558.5840000000001
 21
1004.0
 31
0.0
  0
LINE
  5
8A6
330
1E
100
AcDbEntity
  8
0
100
AcDbLine
 10
558.5840000000001
 20
1004.0
 30
0.0
 11
558.884
 21
1004.0
 31
0.0
  0
LINE
  5
8A7
330
1E
100
AcDbEntity
  8
0
100
AcDbLine
 10
554.3999999999999
 20
1004.0
 30
0.0
 11
557.0
 21
1004.0
 31
0.0
  0
LINE
  5
8A8
330
1E
100
AcDbEntity
  8
0
100
AcDbLine
 10
551.1499999999999
 20
1004.0
 30
0.0
 11
554.3999999999999
 21
1004.0
 31
0.0
  0
LINE
  5
8A9
330
1E
100
AcDbEntity
  8
0
100
AcDbLine
 10
547.9
 20
1004.0
 30
0.0
 11
551.1499999999999
 21
1004.0
 31
0.0
  0
LINE
  5
8AA
330
1E
100
AcDbEntity
  8
0
100
AcDbLine
 10
557.0
 20
1004.0
 30
0.0
 11
559.1669999999999
 21
1004.0
 31
0.0
  0
LINE
  5
8AC
330
1E
100
AcDbEntity
  8
0
100
AcDbLine
 10
560.613
 20
1004.0
 30
0.0
 11
560.913
 21
1004.0
 31
0.0
  0
LINE
  5
93C
330
1E
100
AcDbEntity
  8
0
100
AcDbLine
 10
559.1669999999999
 20
1004.0
 30
0.0
 11
560.4669999999999
 21
1004.0
 31
0.0
  0
LINE
  5
93D
330
1E
100
AcDbEntity
  8
0
100
AcDbLine
 10
560.4669999999999
 20
1004.0
 30
0.0
 11
560.8999999999999
 21
1004.0
 31
0.0
  0
LINE
  5
93E
330
1E
100
AcDbEntity
  8
0
100
AcDbLine
 10
642.7999999999999
 20
1004.0
 30
0.0
 11
643.7999999999999
 21
1004.0
 31
0.0
  0
LINE
  5
93F
330
1E
100
AcDbEntity
  8
0
100
AcDbLine
 10
642.2
 20
1004.0
 30
0.0
 11
642.7999999999999
 21
1004.0
 31
0.0
  0
LINE
  5
940
330
1E
100
AcDbEntity
  8
0
100
AcDbLine
 10
642.0
 20
1004.0
 30
0.0
 11
642.2
 21
1004.0
 31
0.0
  0
LINE
  5
941
330
1E
100
AcDbEntity
  8
0
100
AcDbLine
 10
642.0
 20
1004.0
 30
0.0
 11
642.4999999999999
 21
1003.5
 31
0.0
  0
LINE
  5
942
330
1E
100
AcDbEntity
  8
0
100
AcDbLine
 10
642.0
 20
1004.0
 30
0.0
 11
642.0
 21
1005.0
 31
0.0
  0
LINE
  5
943
330
1E
100
AcDbEntity
  8
0
100
AcDbLine
 10
643.7999999999999
 20
1004.0
 30
0.0
 11
645.0
 21
1004.0
 31
0.0
  0
LINE
  5
944
330
1E
100
AcDbEntity
  8
0
100
AcDbLine
 10
645.0
 20
1004.0
 30
0.0
 11
646.4999999999999
 21
1004.0
 31
0.0
  0
LINE
  5
945
330
1E
100
AcDbEntity
  8
0
100
AcDbLine
 10
646.4999999999999
 20
1004.0
 30
0.0
 11
648.0
 21
1004.0
 31
0.0
  0
LINE
  5
946
330
1E
100
AcDbEntity
  8
0
100
AcDbLine
 10
651.0
 20
1004.0
 30
0.0
 11
652.2
 21
1004.0
 31
0.0
  0
LINE
  5
947
330
1E
100
AcDbEntity
  8
0
100
AcDbLine
 10
649.5
 20
1004.0
 30
0.0
 11
651.0
 21
1004.0
 31
0.0
  0
LINE
  5
948
330
1E
100
AcDbEntity
  8
0
100
AcDbLine
 10
648.0
 20
1004.0
 30
0.0
 11
649.5
 21
1004.0
 31
0.0
  0
LINE
  5
949
330
1E
100
AcDbEntity
  8
0
100
AcDbLine
 10
652.2
 20
1004.0
 30
0.0
 11
653.2
 21
1004.0
 31
0.0
  0
LINE
  5
94A
330
1E
100
AcDbEntity
  8
0
100
AcDbLine
 10
653.2
 20
1004.0
 30
0.0
 11
653.7999999999999
 21
1004.0
 31
0.0
  0
LINE
  5
94B
330
1E
100
AcDbEntity
  8
0
100
AcDbLine
 10
653.7999999999999
 20
1004.0
 30
0.0
 11
654.0
 21
1004.0
 31
0.0
  0
LINE
  5
94C
330
1E
100
AcDbEntity
  8
0
100
AcDbLine
 10
654.0
 20
1004.0
 30
0.0
 11
654.0
 21
1005.0
 31
0.0
  0
LINE
  5
94D
330
1E
100
AcDbEntity
  8
0
100
AcDbLine
 10
460.8
 20
1004.0
 30
0.0
 11
461.0
 21
1004.0
 31
0.0
  0
LINE
  5
96B
330
1E
100
AcDbEntity
  8
0
100
AcDbLine
 10
503.0389999999999
 20
1005.0
 30
0.0
 11
504.164
 21
1005.0
 31
0.0
  0
LINE
  5
97E
330
1E
100
AcDbEntity
  8
0
100
AcDbLine
 10
511.1
 20
1005.0
 30
0.0
 11
518.3759999999999
 21
1005.0
 31
0.0
  0
LINE
  5
984
330
1E
100
AcDbEntity
  8
0
100
AcDbLine
 10
520.3759999999999
 20
1005.0
 30
0.0
 11
521.9129999999999
 21
1005.0
 31
0.0
  0
LINE
  5
996
330
1E
100
AcDbEntity
  8
0
100
AcDbLine
 10
530.0
 20
1005.0
 30
0.0
 11
534.9
 21
1005.0
 31
0.0
  0
LINE
  5
9C6
330
1E
100
AcDbEntity
  8
0
100
AcDbLine
 10
567.7999999999999
 20
1005.0
 30
0.0
 11
572.613
 21
1005.0
 31
0.0
  0
LINE
  5
9CD
330
1E
100
AcDbEntity
  8
0
100
AcDbLine
 10
574.613
 20
1005.0
 30
0.0
 11
577.0209999999999
 21
1005.0
 31
0.0
  0
LINE
  5
9D8
330
1E
100
AcDbEntity
  8
0
100
AcDbLine
 10
579.021
 20
1005.0
 30
0.0
 11
580.3209999999999
 21
1005.0
 31
0.0
  0
LINE
  5
9F2
330
1E
100
AcDbEntity
  8
0
100
AcDbLine
 10
596.9819999999999
 20
1005.0
 30
0.0
 11
598.6309999999999
 21
1005.0
 31
0.0
  0
LINE
  5
9F4
330
1E
100
AcDbEntity
  8
0
100
AcDbLine
 10
591.263
 20
1005.0
 30
0.0
 11
594.9819999999999
 21
1005.0
 31
0.0
  0
LINE
  5
A06
330
1E
100
AcDbEntity
  8
0
100
AcDbLine
 10
606.093
 20
1005.0
 30
0.0
 11
642.0
 21
1005.0
 31
0.0
  0
LINE
  5
A09
330
1E
100
AcDbEntity
  8
0
100
AcDbLine
 10
587.1419999999999
 20
1005.0
 30
0.0
 11
589.263
 21
1005.0
 31
0.0
  0
LINE
  5
A0C
330
1E
100
AcDbEntity
  8
0
100
AcDbLine
 10
675.0
 20
1005.0
 30
0.0
 11
677.4
 21
1005.0
 31
0.0
  0
LINE
  5
A0D
330
1E
100
AcDbEntity
  8
0
100
AcDbLine
 10
677.4
 20
1005.0
 30
0.0
 11
679.2999999999999
 21
1005.0
 31
0.0
  0
LINE
  5
A0E
330
1E
100
AcDbEntity
  8
0
100
AcDbLine
 10
679.2999999999999
 20
1005.0
 30
0.0
 11
680.0
 21
1005.0
 31
0.0
  0
LINE
  5
A0F
330
1E
100
AcDbEntity
  8
0
100
AcDbLine
 10
680.0
 20
1005.0
 30
0.0
 11
680.0
 21
1010.0
 31
0.0
  0
LINE
  5
A10
330
1E
100
AcDbEntity
  8
0
100
AcDbLine
 10
654.0
 20
1005.0
 30
0.0
 11
654.0
 21
1004.0
 31
0.0
  0
LINE
  5
A11
330
1E
100
AcDbEntity
  8
0
100
AcDbLine
 10
654.0
 20
1005.0
 30
0.0
 11
675.0
 21
1005.0
 31
0.0
  0
LINE
  5
A12
330
1E
100
AcDbEntity
  8
0
100
AcDbLine
 10
642.0
 20
1005.0
 30
0.0
 11
642.0
 21
1004.0
 31
0.0
  0
LINE
  5
A13
330
1E
100
AcDbEntity
  8
0
100
AcDbLine
 10
461.0
 20
1005.0
 30
0.0
 11
461.0
 21
1004.0
 31
0.0
  0
LINE
  5
A14
330
1E
100
AcDbEntity
  8
0
100
AcDbLine
 10
461.0
 20
1004.0
 30
0.0
 11
461.0
 21
1005.0
 31
0.0
  0
LINE
  5
A15
330
1E
100
AcDbEntity
  8
0
100
AcDbLine
 10
449.0
 20
1005.0
 30
0.0
 11
449.0
 21
1004.0
 31
0.0
  0
LINE
  5
A16
330
1E
100
AcDbEntity
  8
0
100
AcDbLine
 10
675.0
 20
1010.0
 30
0.0
 11
677.4
 21
1010.0
 31
0.0
  0
LINE
  5
A17
330
1E
100
AcDbEntity
  8
0
100
AcDbLine
 10
677.4
 20
1010.0
 30
0.0
 11
679.2999999999999
 21
1010.0
 31
0.0
  0
LINE
  5
A18
330
1E
100
AcDbEntity
  8
0
100
AcDbLine
 10
680.0
 20
1010.0
 30
0.0
 11
680.0
 21
1005.0
 31
0.0
  0
LINE
  5
A19
330
1E
100
AcDbEntity
  8
0
100
AcDbLine
 10
679.2999999999999
 20
1010.0
 30
0.0
 11
680.0
 21
1010.0
 31
0.0
  0
LINE
  5
A1A
330
1E
100
AcDbEntity
  8
0
100
AcDbLine
 10
494.0
 20
1005.0
 30
0.0
 11
494.0
 21
1003.5
 31
0.0
  0
LINE
  5
A1B
330
1E
100
AcDbEntity
  8
0
100
AcDbLine
 10
494.0
 20
1005.0
 30
0.0
 11
501.039
 21
1005.0
 31
0.0
  0
LINE
  5
A1C
330
1E
100
AcDbEntity
  8
0
100
AcDbLine
 10
362.0
 20
1005.0
 30
0.0
 11
362.0
 21
1003.5
 31
0.0
  0
LINE
  5
A1D
330
1E
100
AcDbEntity
  8
0
100
AcDbLine
 10
362.0
 20
1005.0
 30
0.0
 11
376.8
 21
1005.0
 31
0.0
  0
LINE
  5
A1E
330
1E
100
AcDbEntity
  8
0
100
AcDbLine
 10
318.8
 20
1003.5
 30
0.0
 11
320.8999999999999
 21
1003.5
 31
0.0
  0
LINE
  5
A1F
330
1E
100
AcDbEntity
  8
0
100
AcDbLine
 10
318.0
 20
1003.5
 30
0.0
 11
318.8
 21
1003.5
 31
0.0
  0
LINE
  5
A20
330
1E
100
AcDbEntity
  8
0
100
AcDbLine
 10
318.0
 20
1003.5
 30
0.0
 11
318.0
 21
1005.0
 31
0.0
  0
LINE
  5
A2C
330
1E
100
AcDbEntity
  8
0
100
AcDbLine
 10
145.1
 20
1004.0
 30
0.0
 11
145.1
 21
1005.0
 31
0.0
  0
LINE
  5
A2D
330
1E
100
AcDbEntity
  8
0
100
AcDbLine
 10
119.087
 20
1004.0
 30
0.0
 11
119.087
 21
1005.0
 31
0.0
  0
LINE
  5
A2E
330
1E
100
AcDbEntity
  8
0
100
AcDbLine
 10
560.913
 20
1004.0
 30
0.0
 11
560.913
 21
1005.0
 31
0.0
  0
LINE
  5
A2F
330
1E
100
AcDbEntity
  8
0
100
AcDbLine
 10
534.9
 20
1004.0
 30
0.0
 11
534.9
 21
1005.0
 31
0.0
  0
ENDSEC
  0
SECTION
  2
OBJECTS
  0
DICTIONARY
  5
C
330
0
100
AcDbDictionary
281
     1
  3
ACAD_GROUP
350
D
  3
ACAD_LAYOUT
350
19
  3
ACAD_MLINESTYLE
350
16
  3
ACAD_PLOTSETTINGS
350
18
  3
ACAD_PLOTSTYLENAME
350
E
  3
AcDbVariableDictionary
350
A30
  0
DICTIONARY
  5
D
102
{ACAD_REACTORS
330
C
102
}
330
C
100
AcDbDictionary
281
     1
  0
DICTIONARY
  5
19
102
{ACAD_REACTORS
330
C
102
}
330
C
100
AcDbDictionary
281
     1
  3
Layout1
350
1D
  3
Model
350
21
  0
DICTIONARY
  5
16
102
{ACAD_REACTORS
330
C
102
}
330
C
100
AcDbDictionary
281
     1
  3
Standard
350
17
  0
DICTIONARY
  5
18
102
{ACAD_REACTORS
330
C
102
}
330
C
100
AcDbDictionary
281
     1
  0
ACDBDICTIONARYWDFLT
  5
E
102
{ACAD_REACTORS
330
C
102
}
330
C
100
AcDbDictionary
281
     1
  3
Normal
350
F
100
AcDbDictionaryWithDefault
340
F
  0
DICTIONARY
  5
A30
102
{ACAD_REACTORS
330
C
102
}
330
C
100
AcDbDictionary
281
     1
  3
DIMASSOC
350
A31
  0
LAYOUT
  5
1D
102
{ACAD_REACTORS
330
19
102
}
330
19
100
AcDbPlotSettings
  1

  2
hp deskjet 980c series
  4

  6

 40
0.0
 41
0.0
 42
0.0
 43
0.0
 44
0.0
 45
0.0
 46
0.0
 47
0.0
 48
0.0
 49
0.0
140
0.0
141
0.0
142
1.0
143
1.0
 70
   688
 72
     0
 73
     0
 74
     5
  7

 75
    16
147
1.0
148
0.0
149
0.0
100
AcDbLayout
  1
Layout1
 70
     1
 71
     1
 10
0.0
 20
0.0
 11
12.0
 21
9.0
 12
0.0
 22
0.0
 32
0.0
 14
1.000000000000000E+20
 24
1.000000000000000E+20
 34
1.000000000000000E+20
 15
-1.000000000000000E+20
 25
-1.000000000000000E+20
 35
-1.000000000000000E+20
146
0.0
 13
0.0
 23
0.0
 33
0.0
 16
1.0
 26
0.0
 36
0.0
 17
0.0
 27
1.0
 37
0.0
 76
     0
330
1A
  0
LAYOUT
  5
21
102
{ACAD_REACTORS
330
19
102
}
330
19
100
AcDbPlotSettings
  1

  2
hp deskjet 980c series
  4

  6

 40
0.0
 41
0.0
 42
0.0
 43
0.0
 44
0.0
 45
0.0
 46
0.0
 47
0.0
 48
0.0
 49
0.0
140
0.0
141
0.0
142
1.0
143
1.0
 70
  1712
 72
     0
 73
     0
 74
     0
  7

 75
     0
147
1.0
148
0.0
149
0.0
100
AcDbLayout
  1
Model
 70
     1
 71
     0
 10
0.0
 20
0.0
 11
12.0
 21
9.0
 12
0.0
 22
0.0
 32
0.0
 14
0.0
 24
0.0
 34
0.0
 15
0.0
 25
0.0
 35
0.0
146
0.0
 13
0.0
 23
0.0
 33
0.0
 16
1.0
 26
0.0
 36
0.0
 17
0.0
 27
1.0
 37
0.0
 76
     0
330
1E
  0
MLINESTYLE
  5
17
102
{ACAD_REACTORS
330
16
102
}
330
16
100
AcDbMlineStyle
  2
STANDARD
 70
     0
  3

 62
   256
 51
90.0
 52
90.0
 71
     2
 49
0.5
 62
   256
  6
BYLAYER
 49
-0.5
 62
   256
  6
BYLAYER
  0
ACDBPLACEHOLDER
  5
F
102
{ACAD_REACTORS
330
E
102
}
330
E
  0
DICTIONARYVAR
  5
A31
102
{ACAD_REACTORS
330
A30
102
}
330
A30
100
DictionaryVariables
280
     0
  1
1
  0
ENDSEC
  0
EOF
