  0
SECTION
  2
HEADER
  9
$ACADVER
  1
AC1015
  9
$ACADMAINTVER
 70
    13
  9
$DWGCODEPAGE
  3
ANSI_1252
  9
$INSBASE
 10
0.0
 20
0.0
 30
0.0
  9
$EXTMIN
 10
-0.0000000000000034
 20
0.0765000000001046
 30
0.0
  9
$EXTMAX
 10
180.0
 20
865.9235
 30
0.0
  9
$LIMMIN
 10
0.0
 20
0.0
  9
$LIMMAX
 10
12.0
 20
9.0
  9
$ORTHOMODE
 70
     0
  9
$REGENMODE
 70
     1
  9
$FILLMODE
 70
     1
  9
$QTEXTMODE
 70
     0
  9
$MIRRTEXT
 70
     1
  9
$LTSCALE
 40
1.0
  9
$ATTMODE
 70
     1
  9
$TEXTSIZE
 40
0.2
  9
$TRACEWID
 40
0.05
  9
$TEXTSTYLE
  7
Standard
  9
$CLAYER
  8
0
  9
$CELTYPE
  6
Continuous
  9
$CECOLOR
 62
   256
  9
$CELTSCALE
 40
1.0
  9
$DISPSILH
 70
     0
  9
$DIMSCALE
 40
1.0
  9
$DIMASZ
 40
0.18
  9
$DIMEXO
 40
0.0625
  9
$DIMDLI
 40
0.38
  9
$DIMRND
 40
0.0
  9
$DIMDLE
 40
0.0
  9
$DIMEXE
 40
0.18
  9
$DIMTP
 40
0.0
  9
$DIMTM
 40
0.0
  9
$DIMTXT
 40
0.18
  9
$DIMCEN
 40
0.09
  9
$DIMTSZ
 40
0.0
  9
$DIMTOL
 70
     0
  9
$DIMLIM
 70
     0
  9
$DIMTIH
 70
     1
  9
$DIMTOH
 70
     1
  9
$DIMSE1
 70
     0
  9
$DIMSE2
 70
     0
  9
$DIMTAD
 70
     0
  9
$DIMZIN
 70
     0
  9
$DIMBLK
  1

  9
$DIMASO
 70
     1
  9
$DIMSHO
 70
     1
  9
$DIMPOST
  1

  9
$DIMAPOST
  1

  9
$DIMALT
 70
     0
  9
$DIMALTD
 70
     2
  9
$DIMALTF
 40
25.4
  9
$DIMLFAC
 40
1.0
  9
$DIMTOFL
 70
     0
  9
$DIMTVP
 40
0.0
  9
$DIMTIX
 70
     0
  9
$DIMSOXD
 70
     0
  9
$DIMSAH
 70
     0
  9
$DIMBLK1
  1

  9
$DIMBLK2
  1

  9
$DIMSTYLE
  2
Standard
  9
$DIMCLRD
 70
     0
  9
$DIMCLRE
 70
     0
  9
$DIMCLRT
 70
     0
  9
$DIMTFAC
 40
1.0
  9
$DIMGAP
 40
0.09
  9
$DIMJUST
 70
     0
  9
$DIMSD1
 70
     0
  9
$DIMSD2
 70
     0
  9
$DIMTOLJ
 70
     1
  9
$DIMTZIN
 70
     0
  9
$DIMALTZ
 70
     0
  9
$DIMALTTZ
 70
     0
  9
$DIMUPT
 70
     0
  9
$DIMDEC
 70
     4
  9
$DIMTDEC
 70
     4
  9
$DIMALTU
 70
     2
  9
$DIMALTTD
 70
     2
  9
$DIMTXSTY
  7
Standard
  9
$DIMAUNIT
 70
     0
  9
$DIMADEC
 70
     0
  9
$DIMALTRND
 40
0.0
  9
$DIMAZIN
 70
     0
  9
$DIMDSEP
 70
    46
  9
$DIMATFIT
 70
     3
  9
$DIMFRAC
 70
     0
  9
$DIMLDRBLK
  1

  9
$DIMLUNIT
 70
     2
  9
$DIMLWD
 70
    -2
  9
$DIMLWE
 70
    -2
  9
$DIMTMOVE
 70
     0
  9
$LUNITS
 70
     2
  9
$LUPREC
 70
     4
  9
$SKETCHINC
 40
0.1
  9
$FILLETRAD
 40
0.0
  9
$AUNITS
 70
     0
  9
$AUPREC
 70
     0
  9
$MENU
  1
.
  9
$ELEVATION
 40
0.0
  9
$PELEVATION
 40
0.0
  9
$THICKNESS
 40
0.0
  9
$LIMCHECK
 70
     0
  9
$CHAMFERA
 40
0.0
  9
$CHAMFERB
 40
0.0
  9
$CHAMFERC
 40
0.0
  9
$CHAMFERD
 40
0.0
  9
$SKPOLY
 70
     0
  9
$TDCREATE
 40
2454738.485450115
  9
$TDUCREATE
 40
2454738.402116782
  9
$TDUPDATE
 40
2454738.549288726
  9
$TDUUPDATE
 40
2454738.465955393
  9
$TDINDWG
 40
0.0638386111
  9
$TDUSRTIMER
 40
0.0638386111
  9
$USRTIMER
 70
     1
  9
$ANGBASE
 50
0.0
  9
$ANGDIR
 70
     0
  9
$PDMODE
 70
     0
  9
$PDSIZE
 40
0.0
  9
$PLINEWID
 40
0.0
  9
$SPLFRAME
 70
     0
  9
$SPLINETYPE
 70
     6
  9
$SPLINESEGS
 70
     8
  9
$HANDSEED
  5
6D0
  9
$SURFTAB1
 70
     6
  9
$SURFTAB2
 70
     6
  9
$SURFTYPE
 70
     6
  9
$SURFU
 70
     6
  9
$SURFV
 70
     6
  9
$UCSBASE
  2

  9
$UCSNAME
  2

  9
$UCSORG
 10
0.0
 20
0.0
 30
0.0
  9
$UCSXDIR
 10
1.0
 20
0.0
 30
0.0
  9
$UCSYDIR
 10
0.0
 20
1.0
 30
0.0
  9
$UCSORTHOREF
  2

  9
$UCSORTHOVIEW
 70
     1
  9
$UCSORGTOP
 10
0.0
 20
0.0
 30
0.0
  9
$UCSORGBOTTOM
 10
0.0
 20
0.0
 30
0.0
  9
$UCSORGLEFT
 10
0.0
 20
0.0
 30
0.0
  9
$UCSORGRIGHT
 10
0.0
 20
0.0
 30
0.0
  9
$UCSORGFRONT
 10
0.0
 20
0.0
 30
0.0
  9
$UCSORGBACK
 10
0.0
 20
0.0
 30
0.0
  9
$PUCSBASE
  2

  9
$PUCSNAME
  2

  9
$PUCSORG
 10
0.0
 20
0.0
 30
0.0
  9
$PUCSXDIR
 10
1.0
 20
0.0
 30
0.0
  9
$PUCSYDIR
 10
0.0
 20
1.0
 30
0.0
  9
$PUCSORTHOREF
  2

  9
$PUCSORTHOVIEW
 70
     0
  9
$PUCSORGTOP
 10
0.0
 20
0.0
 30
0.0
  9
$PUCSORGBOTTOM
 10
0.0
 20
0.0
 30
0.0
  9
$PUCSORGLEFT
 10
0.0
 20
0.0
 30
0.0
  9
$PUCSORGRIGHT
 10
0.0
 20
0.0
 30
0.0
  9
$PUCSORGFRONT
 10
0.0
 20
0.0
 30
0.0
  9
$PUCSORGBACK
 10
0.0
 20
0.0
 30
0.0
  9
$USERI1
 70
     0
  9
$USERI2
 70
     0
  9
$USERI3
 70
     0
  9
$USERI4
 70
     0
  9
$USERI5
 70
     0
  9
$USERR1
 40
0.0
  9
$USERR2
 40
0.0
  9
$USERR3
 40
0.0
  9
$USERR4
 40
0.0
  9
$USERR5
 40
0.0
  9
$WORLDVIEW
 70
     1
  9
$SHADEDGE
 70
     3
  9
$SHADEDIF
 70
    70
  9
$TILEMODE
 70
     1
  9
$MAXACTVP
 70
    64
  9
$PINSBASE
 10
0.0
 20
0.0
 30
0.0
  9
$PLIMCHECK
 70
     0
  9
$PEXTMIN
 10
1.000000000000000E+20
 20
1.000000000000000E+20
 30
1.000000000000000E+20
  9
$PEXTMAX
 10
-1.000000000000000E+20
 20
-1.000000000000000E+20
 30
-1.000000000000000E+20
  9
$PLIMMIN
 10
0.0
 20
0.0
  9
$PLIMMAX
 10
12.0
 20
9.0
  9
$UNITMODE
 70
     0
  9
$VISRETAIN
 70
     1
  9
$PLINEGEN
 70
     0
  9
$PSLTSCALE
 70
     1
  9
$TREEDEPTH
 70
  3020
  9
$CMLSTYLE
  2
Standard
  9
$CMLJUST
 70
     0
  9
$CMLSCALE
 40
1.0
  9
$PROXYGRAPHICS
 70
     1
  9
$MEASUREMENT
 70
     0
  9
$CELWEIGHT
370
    -1
  9
$ENDCAPS
280
     0
  9
$JOINSTYLE
280
     0
  9
$LWDISPLAY
290
     0
  9
$INSUNITS
 70
     0
  9
$HYPERLINKBASE
  1

  9
$STYLESHEET
  1

  9
$XEDIT
290
     1
  9
$CEPSNTYPE
380
     0
  9
$PSTYLEMODE
290
     1
  9
$FINGERPRINTGUID
  2
{AD0C6932-21F1-43FE-8C47-824F7616E737}
  9
$VERSIONGUID
  2
{ABCE569B-37EA-4DC1-8E3C-60B6AD79FCAA}
  9
$EXTNAMES
290
     1
  9
$PSVPSCALE
 40
0.0
  9
$OLESTARTUP
290
     0
  0
ENDSEC
  0
SECTION
  2
CLASSES
  0
CLASS
  1
ACDBDICTIONARYWDFLT
  2
AcDbDictionaryWithDefault
  3
AutoCAD 2000
 90
        0
280
     0
281
     0
  0
CLASS
  1
ACDBPLACEHOLDER
  2
AcDbPlaceHolder
  3
AutoCAD 2000
 90
        0
280
     0
281
     0
  0
CLASS
  1
LAYOUT
  2
AcDbLayout
  3
AutoCAD 2000
 90
        0
280
     0
281
     0
  0
CLASS
  1
DICTIONARYVAR
  2
AcDbDictionaryVar
  3
AutoCAD 2000
 90
        0
280
     0
281
     0
  0
ENDSEC
  0
SECTION
  2
TABLES
  0
TABLE
  2
VPORT
  5
8
330
0
100
AcDbSymbolTable
 70
     2
  0
VPORT
  5
6CF
330
8
100
AcDbSymbolTableRecord
100
AcDbViewportTableRecord
  2
*Active
 70
     0
 10
0.0
 20
0.0
 11
1.0
 21
1.0
 12
90.0
 22
433.0
 13
0.0
 23
0.0
 14
1.0
 24
1.0
 15
0.0
 25
0.0
 16
0.0
 26
0.0
 36
1.0
 17
0.0
 27
0.0
 37
0.0
 40
872.4903273657288
 41
2.078104993597951
 42
50.0
 43
0.0
 44
0.0
 50
0.0
 51
0.0
 71
     0
 72
   100
 73
     1
 74
     3
 75
     0
 76
     0
 77
     0
 78
     0
281
     0
 65
     1
110
0.0
120
0.0
130
0.0
111
1.0
121
0.0
131
0.0
112
0.0
122
1.0
132
0.0
 79
     1
146
0.0
  0
ENDTAB
  0
TABLE
  2
LTYPE
  5
5
330
0
100
AcDbSymbolTable
 70
     1
  0
LTYPE
  5
13
330
5
100
AcDbSymbolTableRecord
100
AcDbLinetypeTableRecord
  2
ByBlock
 70
     0
  3

 72
    65
 73
     0
 40
0.0
  0
LTYPE
  5
14
330
5
100
AcDbSymbolTableRecord
100
AcDbLinetypeTableRecord
  2
ByLayer
 70
     0
  3

 72
    65
 73
     0
 40
0.0
  0
LTYPE
  5
15
330
5
100
AcDbSymbolTableRecord
100
AcDbLinetypeTableRecord
  2
Continuous
 70
     0
  3
Solid line
 72
    65
 73
     0
 40
0.0
  0
ENDTAB
  0
TABLE
  2
LAYER
  5
2
330
0
100
AcDbSymbolTable
 70
     1
  0
LAYER
  5
10
330
2
100
AcDbSymbolTableRecord
100
AcDbLayerTableRecord
  2
0
 70
     0
 62
     7
  6
Continuous
370
    -3
390
F
  0
ENDTAB
  0
TABLE
  2
STYLE
  5
3
330
0
100
AcDbSymbolTable
 70
     1
  0
STYLE
  5
11
330
3
100
AcDbSymbolTableRecord
100
AcDbTextStyleTableRecord
  2
Standard
 70
     0
 40
0.0
 41
1.0
 50
0.0
 71
     0
 42
0.2
  3
txt
  4

  0
ENDTAB
  0
TABLE
  2
VIEW
  5
6
330
0
100
AcDbSymbolTable
 70
     0
  0
ENDTAB
  0
TABLE
  2
UCS
  5
7
330
0
100
AcDbSymbolTable
 70
     0
  0
ENDTAB
  0
TABLE
  2
APPID
  5
9
330
0
100
AcDbSymbolTable
 70
     1
  0
APPID
  5
12
330
9
100
AcDbSymbolTableRecord
100
AcDbRegAppTableRecord
  2
ACAD
 70
     0
  0
ENDTAB
  0
TABLE
  2
DIMSTYLE
  5
A
330
0
100
AcDbSymbolTable
 70
     1
100
AcDbDimStyleTable
 71
     0
  0
DIMSTYLE
105
6C5
330
A
100
AcDbSymbolTableRecord
100
AcDbDimStyleTableRecord
  2
Standard
 70
     0
340
11
  0
ENDTAB
  0
TABLE
  2
BLOCK_RECORD
  5
1
330
0
100
AcDbSymbolTable
 70
     0
  0
BLOCK_RECORD
  5
1E
330
1
100
AcDbSymbolTableRecord
100
AcDbBlockTableRecord
  2
*Model_Space
340
21
  0
BLOCK_RECORD
  5
1A
330
1
100
AcDbSymbolTableRecord
100
AcDbBlockTableRecord
  2
*Paper_Space
340
1D
  0
ENDTAB
  0
ENDSEC
  0
SECTION
  2
BLOCKS
  0
BLOCK
  5
1F
330
1E
100
AcDbEntity
  8
0
100
AcDbBlockBegin
  2
*Model_Space
 70
     0
 10
0.0
 20
0.0
 30
0.0
  3
*Model_Space
  1

  0
ENDBLK
  5
20
330
1E
100
AcDbEntity
  8
0
100
AcDbBlockEnd
  0
BLOCK
  5
1B
330
1A
100
AcDbEntity
 67
     1
  8
0
100
AcDbBlockBegin
  2
*Paper_Space
 70
     0
 10
0.0
 20
0.0
 30
0.0
  3
*Paper_Space
  1

  0
ENDBLK
  5
1C
330
1A
100
AcDbEntity
 67
     1
  8
0
100
AcDbBlockEnd
  0
ENDSEC
  0
SECTION
  2
ENTITIES
  0
LINE
  5
22
330
1E
100
AcDbEntity
  8
0
100
AcDbLine
 10
47.0
 20
733.3334999999999
 30
0.0
 11
52.0
 21
733.3334999999999
 31
0.0
  0
LINE
  5
23
330
1E
100
AcDbEntity
  8
0
100
AcDbLine
 10
32.0
 20
740.7034999999999
 30
0.0
 11
32.0
 21
741.0334999999999
 31
0.0
  0
LINE
  5
24
330
1E
100
AcDbEntity
  8
0
100
AcDbLine
 10
32.0
 20
740.7034999999999
 30
0.0
 11
32.0
 21
741.0035
 31
0.0
  0
LINE
  5
25
330
1E
100
AcDbEntity
  8
0
100
AcDbLine
 10
32.0
 20
740.7034999999999
 30
0.0
 11
33.6667
 21
738.8434999999999
 31
0.0
  0
LINE
  5
26
330
1E
100
AcDbEntity
  8
0
100
AcDbLine
 10
32.0
 20
741.0035
 30
0.0
 11
32.0
 21
740.7034999999999
 31
0.0
  0
LINE
  5
27
330
1E
100
AcDbEntity
  8
0
100
AcDbLine
 10
32.0
 20
741.0035
 30
0.0
 11
32.0
 21
742.1934999999999
 31
0.0
  0
LINE
  5
28
330
1E
100
AcDbEntity
  8
0
100
AcDbLine
 10
32.0
 20
742.1934999999999
 30
0.0
 11
32.0
 21
741.0035
 31
0.0
  0
LINE
  5
29
330
1E
100
AcDbEntity
  8
0
100
AcDbLine
 10
32.0
 20
742.1934999999999
 30
0.0
 11
32.0
 21
744.0434999999999
 31
0.0
  0
LINE
  5
2A
330
1E
100
AcDbEntity
  8
0
100
AcDbLine
 10
32.0
 20
741.0334999999999
 30
0.0
 11
32.0
 21
742.2335
 31
0.0
  0
LINE
  5
2B
330
1E
100
AcDbEntity
  8
0
100
AcDbLine
 10
32.0
 20
741.0334999999999
 30
0.0
 11
32.0
 21
740.7034999999999
 31
0.0
  0
LINE
  5
2C
330
1E
100
AcDbEntity
  8
0
100
AcDbLine
 10
32.0
 20
742.2335
 30
0.0
 11
32.0
 21
744.0135
 31
0.0
  0
LINE
  5
2D
330
1E
100
AcDbEntity
  8
0
100
AcDbLine
 10
32.0
 20
742.2335
 30
0.0
 11
32.0
 21
741.0334999999999
 31
0.0
  0
LINE
  5
2E
330
1E
100
AcDbEntity
  8
0
100
AcDbLine
 10
32.0
 20
744.0434999999999
 30
0.0
 11
32.0
 21
742.1934999999999
 31
0.0
  0
LINE
  5
2F
330
1E
100
AcDbEntity
  8
0
100
AcDbLine
 10
32.0
 20
744.0434999999999
 30
0.0
 11
32.0
 21
746.5234999999999
 31
0.0
  0
LINE
  5
30
330
1E
100
AcDbEntity
  8
0
100
AcDbLine
 10
32.0
 20
746.5234999999999
 30
0.0
 11
32.0
 21
744.0434999999999
 31
0.0
  0
LINE
  5
31
330
1E
100
AcDbEntity
  8
0
100
AcDbLine
 10
32.0
 20
746.5234999999999
 30
0.0
 11
32.0
 21
749.2634999999999
 31
0.0
  0
LINE
  5
32
330
1E
100
AcDbEntity
  8
0
100
AcDbLine
 10
32.0
 20
749.2634999999999
 30
0.0
 11
32.0
 21
746.5234999999999
 31
0.0
  0
LINE
  5
33
330
1E
100
AcDbEntity
  8
0
100
AcDbLine
 10
32.0
 20
749.2634999999999
 30
0.0
 11
32.0
 21
752.2335
 31
0.0
  0
LINE
  5
34
330
1E
100
AcDbEntity
  8
0
100
AcDbLine
 10
32.0
 20
744.0135
 30
0.0
 11
32.0
 21
746.4534999999999
 31
0.0
  0
LINE
  5
35
330
1E
100
AcDbEntity
  8
0
100
AcDbLine
 10
32.0
 20
744.0135
 30
0.0
 11
32.0
 21
742.2335
 31
0.0
  0
LINE
  5
36
330
1E
100
AcDbEntity
  8
0
100
AcDbLine
 10
32.0
 20
746.4534999999999
 30
0.0
 11
32.0
 21
749.2735
 31
0.0
  0
LINE
  5
37
330
1E
100
AcDbEntity
  8
0
100
AcDbLine
 10
32.0
 20
746.4534999999999
 30
0.0
 11
32.0
 21
744.0135
 31
0.0
  0
LINE
  5
38
330
1E
100
AcDbEntity
  8
0
100
AcDbLine
 10
32.0
 20
755.2735
 30
0.0
 11
32.0
 21
752.2335
 31
0.0
  0
LINE
  5
39
330
1E
100
AcDbEntity
  8
0
100
AcDbLine
 10
32.0
 20
755.2735
 30
0.0
 11
32.0
 21
758.0934999999999
 31
0.0
  0
LINE
  5
3A
330
1E
100
AcDbEntity
  8
0
100
AcDbLine
 10
32.0
 20
752.2335
 30
0.0
 11
32.0
 21
749.2634999999999
 31
0.0
  0
LINE
  5
3B
330
1E
100
AcDbEntity
  8
0
100
AcDbLine
 10
32.0
 20
752.2335
 30
0.0
 11
32.0
 21
755.2735
 31
0.0
  0
LINE
  5
3C
330
1E
100
AcDbEntity
  8
0
100
AcDbLine
 10
32.0
 20
762.3134999999999
 30
0.0
 11
32.0
 21
760.5335
 31
0.0
  0
LINE
  5
3D
330
1E
100
AcDbEntity
  8
0
100
AcDbLine
 10
32.0
 20
762.3134999999999
 30
0.0
 11
32.0
 21
763.5135
 31
0.0
  0
LINE
  5
3E
330
1E
100
AcDbEntity
  8
0
100
AcDbLine
 10
32.0
 20
760.5335
 30
0.0
 11
32.0
 21
758.0934999999999
 31
0.0
  0
LINE
  5
3F
330
1E
100
AcDbEntity
  8
0
100
AcDbLine
 10
32.0
 20
760.5335
 30
0.0
 11
32.0
 21
762.3134999999999
 31
0.0
  0
LINE
  5
40
330
1E
100
AcDbEntity
  8
0
100
AcDbLine
 10
32.0
 20
758.0934999999999
 30
0.0
 11
32.0
 21
755.2735
 31
0.0
  0
LINE
  5
41
330
1E
100
AcDbEntity
  8
0
100
AcDbLine
 10
32.0
 20
758.0934999999999
 30
0.0
 11
32.0
 21
760.5335
 31
0.0
  0
LINE
  5
42
330
1E
100
AcDbEntity
  8
0
100
AcDbLine
 10
32.0
 20
763.5135
 30
0.0
 11
32.0
 21
763.8434999999999
 31
0.0
  0
LINE
  5
43
330
1E
100
AcDbEntity
  8
0
100
AcDbLine
 10
32.0
 20
763.5135
 30
0.0
 11
32.0
 21
762.3134999999999
 31
0.0
  0
LINE
  5
44
330
1E
100
AcDbEntity
  8
0
100
AcDbLine
 10
16.69999999999999
 20
821.1534999999999
 30
0.0
 11
22.6
 21
815.5435
 31
0.0
  0
LINE
  5
45
330
1E
100
AcDbEntity
  8
0
100
AcDbLine
 10
-0.0000000000000034
 20
835.3835
 30
0.0
 11
-0.0000000000000034
 21
837.6235000000001
 31
0.0
  0
LINE
  5
46
330
1E
100
AcDbEntity
  8
0
100
AcDbLine
 10
-0.0000000000000034
 20
837.6235000000001
 30
0.0
 11
-0.0000000000000034
 21
840.2834999999999
 31
0.0
  0
LINE
  5
48
330
1E
100
AcDbEntity
  8
0
100
AcDbLine
 10
-0.0000000000000034
 20
833.6235
 30
0.0
 11
-0.0000000000000034
 21
835.3835
 31
0.0
  0
LINE
  5
49
330
1E
100
AcDbEntity
  8
0
100
AcDbLine
 10
-0.0000000000000034
 20
840.2834999999999
 30
0.0
 11
-0.0000000000000034
 21
843.1734999999999
 31
0.0
  0
LINE
  5
4A
330
1E
100
AcDbEntity
  8
0
100
AcDbLine
 10
-0.0000000000000034
 20
840.2834999999999
 30
0.0
 11
-0.0000000000000034
 21
837.6235000000001
 31
0.0
  0
LINE
  5
4B
330
1E
100
AcDbEntity
  8
0
100
AcDbLine
 10
-0.0000000000000034
 20
832.5134999999999
 30
0.0
 11
-0.0000000000000034
 21
833.6235
 31
0.0
  0
LINE
  5
4C
330
1E
100
AcDbEntity
  8
0
100
AcDbLine
 10
-0.0000000000000034
 20
843.1734999999999
 30
0.0
 11
-0.0000000000000034
 21
845.9834999999999
 31
0.0
  0
LINE
  5
4D
330
1E
100
AcDbEntity
  8
0
100
AcDbLine
 10
-0.0000000000000034
 20
843.1734999999999
 30
0.0
 11
-0.0000000000000034
 21
840.2834999999999
 31
0.0
  0
LINE
  5
4E
330
1E
100
AcDbEntity
  8
0
100
AcDbLine
 10
-0.0000000000000034
 20
832.1735
 30
0.0
 11
-0.0000000000000034
 21
832.5134999999999
 31
0.0
  0
LINE
  5
4F
330
1E
100
AcDbEntity
  8
0
100
AcDbLine
 10
-0.0000000000000034
 20
832.1735
 30
0.0
 11
2.0
 21
829.1634999999999
 31
0.0
  0
LINE
  5
50
330
1E
100
AcDbEntity
  8
0
100
AcDbLine
 10
-0.0000000000000034
 20
845.9834999999999
 30
0.0
 11
-0.0000000000000034
 21
848.5834999999999
 31
0.0
  0
LINE
  5
51
330
1E
100
AcDbEntity
  8
0
100
AcDbLine
 10
-0.0000000000000034
 20
845.9834999999999
 30
0.0
 11
-0.0000000000000034
 21
843.1734999999999
 31
0.0
  0
LINE
  5
52
330
1E
100
AcDbEntity
  8
0
100
AcDbLine
 10
-0.0000000000000034
 20
832.5335
 30
0.0
 11
-0.0000000000000034
 21
832.1735
 31
0.0
  0
LINE
  5
53
330
1E
100
AcDbEntity
  8
0
100
AcDbLine
 10
-0.0000000000000034
 20
848.5834999999999
 30
0.0
 11
-0.0000000000000034
 21
850.9135
 31
0.0
  0
LINE
  5
54
330
1E
100
AcDbEntity
  8
0
100
AcDbLine
 10
-0.0000000000000034
 20
848.5834999999999
 30
0.0
 11
-0.0000000000000034
 21
845.9834999999999
 31
0.0
  0
LINE
  5
55
330
1E
100
AcDbEntity
  8
0
100
AcDbLine
 10
-0.0000000000000034
 20
833.5834999999999
 30
0.0
 11
-0.0000000000000034
 21
832.5335
 31
0.0
  0
LINE
  5
56
330
1E
100
AcDbEntity
  8
0
100
AcDbLine
 10
-0.0000000000000034
 20
850.9135
 30
0.0
 11
-0.0000000000000034
 21
852.6934999999999
 31
0.0
  0
LINE
  5
57
330
1E
100
AcDbEntity
  8
0
100
AcDbLine
 10
-0.0000000000000034
 20
850.9135
 30
0.0
 11
-0.0000000000000034
 21
848.5834999999999
 31
0.0
  0
LINE
  5
58
330
1E
100
AcDbEntity
  8
0
100
AcDbLine
 10
-0.0000000000000034
 20
835.3635
 30
0.0
 11
-0.0000000000000034
 21
833.5834999999999
 31
0.0
  0
LINE
  5
59
330
1E
100
AcDbEntity
  8
0
100
AcDbLine
 10
-0.0000000000000034
 20
852.6934999999999
 30
0.0
 11
-0.0000000000000034
 21
853.7335
 31
0.0
  0
LINE
  5
5A
330
1E
100
AcDbEntity
  8
0
100
AcDbLine
 10
-0.0000000000000034
 20
852.6934999999999
 30
0.0
 11
-0.0000000000000034
 21
850.9135
 31
0.0
  0
LINE
  5
5B
330
1E
100
AcDbEntity
  8
0
100
AcDbLine
 10
-0.0000000000000034
 20
837.5534999999999
 30
0.0
 11
-0.0000000000000034
 21
835.3635
 31
0.0
  0
LINE
  5
5C
330
1E
100
AcDbEntity
  8
0
100
AcDbLine
 10
-0.0000000000000034
 20
853.7335
 30
0.0
 11
-0.0000000000000034
 21
856.4334999999999
 31
0.0
  0
LINE
  5
5D
330
1E
100
AcDbEntity
  8
0
100
AcDbLine
 10
-0.0000000000000034
 20
853.7335
 30
0.0
 11
-0.0000000000000034
 21
852.6934999999999
 31
0.0
  0
LINE
  5
65
330
1E
100
AcDbEntity
  8
0
100
AcDbLine
 10
2.0
 20
829.1634999999999
 30
0.0
 11
5.0
 21
828.1235
 31
0.0
  0
LINE
  5
75
330
1E
100
AcDbEntity
  8
0
100
AcDbLine
 10
-0.0000000000000034
 20
839.8635
 30
0.0
 11
-0.0000000000000034
 21
837.5534999999999
 31
0.0
  0
LINE
  5
76
330
1E
100
AcDbEntity
  8
0
100
AcDbLine
 10
-0.0000000000000034
 20
856.4334999999999
 30
0.0
 11
-0.0000000000000034
 21
853.7335
 31
0.0
  0
LINE
  5
77
330
1E
100
AcDbEntity
  8
0
100
AcDbLine
 10
-0.0000000000000034
 20
856.4334999999999
 30
0.0
 11
-0.0000000000000034
 21
858.4635
 31
0.0
  0
LINE
  5
85
330
1E
100
AcDbEntity
  8
0
100
AcDbLine
 10
5.0
 20
828.1235
 30
0.0
 11
10.0
 21
828.1235
 31
0.0
  0
LINE
  5
90
330
1E
100
AcDbEntity
  8
0
100
AcDbLine
 10
0.199999999999997
 20
859.2634999999999
 30
0.0
 11
2.2
 21
862.1634999999999
 31
0.0
  0
LINE
  5
91
330
1E
100
AcDbEntity
  8
0
100
AcDbLine
 10
0.199999999999997
 20
859.2634999999999
 30
0.0
 11
2.2
 21
862.1634999999999
 31
0.0
  0
LINE
  5
92
330
1E
100
AcDbEntity
  8
0
100
AcDbLine
 10
-0.0000000000000034
 20
858.4635
 30
0.0
 11
-0.0000000000000034
 21
856.4334999999999
 31
0.0
  0
LINE
  5
93
330
1E
100
AcDbEntity
  8
0
100
AcDbLine
 10
-0.0000000000000034
 20
858.4635
 30
0.0
 11
0.199999999999997
 21
859.2634999999999
 31
0.0
  0
LINE
  5
94
330
1E
100
AcDbEntity
  8
0
100
AcDbLine
 10
2.2
 20
862.1634999999999
 30
0.0
 11
5.2
 21
863.1334999999999
 31
0.0
  0
LINE
  5
9C
330
1E
100
AcDbEntity
  8
0
100
AcDbLine
 10
10.0
 20
828.2228322755701
 30
0.0
 11
10.175
 21
828.1435
 31
0.0
  0
LINE
  5
9D
330
1E
100
AcDbEntity
  8
0
100
AcDbLine
 10
10.0
 20
832.5235000000001
 30
0.0
 11
10.0
 21
835.6435000000001
 31
0.0
  0
LINE
  5
9E
330
1E
100
AcDbEntity
  8
0
100
AcDbLine
 10
10.0
 20
830.1434999999999
 30
0.0
 11
10.0
 21
832.5235000000001
 31
0.0
  0
LINE
  5
9F
330
1E
100
AcDbEntity
  8
0
100
AcDbLine
 10
10.0
 20
828.6535
 30
0.0
 11
10.0
 21
830.1434999999999
 31
0.0
  0
LINE
  5
A0
330
1E
100
AcDbEntity
  8
0
100
AcDbLine
 10
10.0
 20
828.1235
 30
0.0
 11
10.0
 21
828.6535
 31
0.0
  0
LINE
  5
A1
330
1E
100
AcDbEntity
  8
0
100
AcDbLine
 10
10.0
 20
835.6435000000001
 30
0.0
 11
10.0
 21
839.2535
 31
0.0
  0
LINE
  5
A2
330
1E
100
AcDbEntity
  8
0
100
AcDbLine
 10
10.175
 20
828.1435
 30
0.0
 11
14.4704
 21
828.1435
 31
0.0
  0
LINE
  5
AB
330
1E
100
AcDbEntity
  8
0
100
AcDbLine
 10
10.0
 20
839.2535
 30
0.0
 11
10.0
 21
843.1235
 31
0.0
  0
LINE
  5
AC
330
1E
100
AcDbEntity
  8
0
100
AcDbLine
 10
10.0
 20
853.7435
 30
0.0
 11
10.0
 21
856.1234999999999
 31
0.0
  0
LINE
  5
AD
330
1E
100
AcDbEntity
  8
0
100
AcDbLine
 10
10.0
 20
850.6534999999999
 30
0.0
 11
10.0
 21
853.7435
 31
0.0
  0
LINE
  5
AE
330
1E
100
AcDbEntity
  8
0
100
AcDbLine
 10
10.0
 20
847.0235
 30
0.0
 11
10.0
 21
850.6534999999999
 31
0.0
  0
LINE
  5
AF
330
1E
100
AcDbEntity
  8
0
100
AcDbLine
 10
10.175
 20
850.5734999999999
 30
0.0
 11
21.0
 21
850.5734999999999
 31
0.0
  0
LINE
  5
B0
330
1E
100
AcDbEntity
  8
0
100
AcDbLine
 10
10.0
 20
856.1234999999999
 30
0.0
 11
10.0
 21
857.6335
 31
0.0
  0
LINE
  5
B1
330
1E
100
AcDbEntity
  8
0
100
AcDbLine
 10
10.0
 20
843.1235
 30
0.0
 11
10.0
 21
847.0235
 31
0.0
  0
LINE
  5
B2
330
1E
100
AcDbEntity
  8
0
100
AcDbLine
 10
12.09999999999999
 20
826.0835
 30
0.0
 11
16.69999999999999
 21
821.1534999999999
 31
0.0
  0
LINE
  5
B3
330
1E
100
AcDbEntity
  8
0
100
AcDbLine
 10
10.450114416476
 20
828.1435
 30
0.0
 11
12.09999999999999
 21
826.0835
 31
0.0
  0
LINE
  5
B4
330
1E
100
AcDbEntity
  8
0
100
AcDbLine
 10
10.0
 20
858.0641677244299
 30
0.0
 11
10.175
 21
858.1435
 31
0.0
  0
LINE
  5
B5
330
1E
100
AcDbEntity
  8
0
100
AcDbLine
 10
10.0
 20
861.6235000000001
 30
0.0
 11
10.2
 21
863.1334999999999
 31
0.0
  0
LINE
  5
B6
330
1E
100
AcDbEntity
  8
0
100
AcDbLine
 10
10.175
 20
858.1435
 30
0.0
 11
21.0
 21
858.1435
 31
0.0
  0
LINE
  5
B7
330
1E
100
AcDbEntity
  8
0
100
AcDbLine
 10
11.59999999999999
 20
861.4535
 30
0.0
 11
13.2
 21
858.8034999999999
 31
0.0
  0
LINE
  5
B8
330
1E
100
AcDbEntity
  8
0
100
AcDbLine
 10
10.6
 20
862.8035
 30
0.0
 11
11.59999999999999
 21
861.4535
 31
0.0
  0
LINE
  5
B9
330
1E
100
AcDbEntity
  8
0
100
AcDbLine
 10
10.2
 20
863.1334999999999
 30
0.0
 11
10.6
 21
862.8035
 31
0.0
  0
LINE
  5
BA
330
1E
100
AcDbEntity
  8
0
100
AcDbLine
 10
10.0
 20
860.2935
 30
0.0
 11
10.0
 21
861.6235000000001
 31
0.0
  0
LINE
  5
BB
330
1E
100
AcDbEntity
  8
0
100
AcDbLine
 10
10.0
 20
857.6335
 30
0.0
 11
10.0
 21
860.2935
 31
0.0
  0
LINE
  5
BF
330
1E
100
AcDbEntity
  8
0
100
AcDbLine
 10
5.2
 20
863.1334999999999
 30
0.0
 11
10.2
 21
863.1334999999999
 31
0.0
  0
LINE
  5
C0
330
1E
100
AcDbEntity
  8
0
100
AcDbLine
 10
14.4704
 20
828.1435
 30
0.0
 11
16.6522
 21
828.6834999999999
 31
0.0
  0
LINE
  5
C1
330
1E
100
AcDbEntity
  8
0
100
AcDbLine
 10
16.6522
 20
828.6834999999999
 30
0.0
 11
17.85709999999999
 21
828.9835
 31
0.0
  0
LINE
  5
C3
330
1E
100
AcDbEntity
  8
0
100
AcDbLine
 10
14.4197
 20
851.1235
 30
0.0
 11
17.9127
 21
853.5235
 31
0.0
  0
LINE
  5
C4
330
1E
100
AcDbEntity
  8
0
100
AcDbLine
 10
13.9847346153847
 20
850.5734999999999
 30
0.0
 11
14.4197
 21
851.1235
 31
0.0
  0
LINE
  5
C7
330
1E
100
AcDbEntity
  8
0
100
AcDbLine
 10
17.85709999999999
 20
828.9835
 30
0.0
 11
19.5455
 21
830.0035000000001
 31
0.0
  0
LINE
  5
C9
330
1E
100
AcDbEntity
  8
0
100
AcDbLine
 10
19.5455
 20
830.0035000000001
 30
0.0
 11
19.6337
 21
830.1135
 31
0.0
  0
LINE
  5
CA
330
1E
100
AcDbEntity
  8
0
100
AcDbLine
 10
19.6337
 20
830.1135
 30
0.0
 11
21.0
 21
831.9435
 31
0.0
  0
LINE
  5
CD
330
1E
100
AcDbEntity
  8
0
100
AcDbLine
 10
17.9127
 20
853.5235
 30
0.0
 11
22.33999999999999
 21
855.6535
 31
0.0
  0
LINE
  5
D1
330
1E
100
AcDbEntity
  8
0
100
AcDbLine
 10
17.14956049588519
 20
828.807334466566
 30
0.0
 11
20.1
 21
825.1235000000001
 31
0.0
  0
LINE
  5
D2
330
1E
100
AcDbEntity
  8
0
100
AcDbLine
 10
13.2
 20
858.8034999999999
 30
0.0
 11
13.6228412256268
 21
858.1435
 31
0.0
  0
LINE
  5
D6
330
1E
100
AcDbEntity
  8
0
100
AcDbLine
 10
28.86514052430939
 20
808.0921595364211
 30
0.0
 11
33.9
 21
798.6735
 31
0.0
  0
LINE
  5
D8
330
1E
100
AcDbEntity
  8
0
100
AcDbLine
 10
30.6
 20
814.5735
 30
0.0
 11
38.1
 21
805.6535
 31
0.0
  0
LINE
  5
DA
330
1E
100
AcDbEntity
  8
0
100
AcDbLine
 10
24.7
 20
820.1834999999999
 30
0.0
 11
30.6
 21
814.5735
 31
0.0
  0
LINE
  5
DB
330
1E
100
AcDbEntity
  8
0
100
AcDbLine
 10
21.0
 20
834.964963414634
 30
0.0
 11
25.0
 21
832.6235
 31
0.0
  0
LINE
  5
DC
330
1E
100
AcDbEntity
  8
0
100
AcDbLine
 10
21.0
 20
832.5734999999999
 30
0.0
 11
21.0
 21
831.9435
 31
0.0
  0
LINE
  5
DD
330
1E
100
AcDbEntity
  8
0
100
AcDbLine
 10
21.0
 20
835.7134999999999
 30
0.0
 11
21.0
 21
832.5734999999999
 31
0.0
  0
LINE
  5
DE
330
1E
100
AcDbEntity
  8
0
100
AcDbLine
 10
21.0
 20
836.2235
 30
0.0
 11
21.0
 21
835.7134999999999
 31
0.0
  0
LINE
  5
E4
330
1E
100
AcDbEntity
  8
0
100
AcDbLine
 10
21.0
 20
858.1435
 30
0.0
 11
26.7185968421052
 21
858.1435
 31
0.0
  0
LINE
  5
E8
330
1E
100
AcDbEntity
  8
0
100
AcDbLine
 10
21.0
 20
850.5734999999999
 30
0.0
 11
23.4044478003192
 21
850.9832674948709
 31
0.0
  0
LINE
  5
EB
330
1E
100
AcDbEntity
  8
0
100
AcDbLine
 10
22.33999999999999
 20
855.6535
 30
0.0
 11
28.3958
 21
858.1235000000001
 31
0.0
  0
LINE
  5
EF
330
1E
100
AcDbEntity
  8
0
100
AcDbLine
 10
25.7
 20
831.6235
 30
0.0
 11
27.3
 21
831.6235
 31
0.0
  0
LINE
  5
F0
330
1E
100
AcDbEntity
  8
0
100
AcDbLine
 10
25.7
 20
832.6235
 30
0.0
 11
27.3
 21
832.6235
 31
0.0
  0
LINE
  5
F1
330
1E
100
AcDbEntity
  8
0
100
AcDbLine
 10
25.0
 20
832.6235
 30
0.0
 11
25.7
 21
832.6235
 31
0.0
  0
LINE
  5
F2
330
1E
100
AcDbEntity
  8
0
100
AcDbLine
 10
25.0
 20
832.6235
 30
0.0
 11
25.0
 21
831.6235
 31
0.0
  0
LINE
  5
F3
330
1E
100
AcDbEntity
  8
0
100
AcDbLine
 10
25.0
 20
831.6235
 30
0.0
 11
25.0
 21
832.6235
 31
0.0
  0
LINE
  5
F4
330
1E
100
AcDbEntity
  8
0
100
AcDbLine
 10
25.0
 20
831.6235
 30
0.0
 11
30.6
 21
829.8235
 31
0.0
  0
LINE
  5
F5
330
1E
100
AcDbEntity
  8
0
100
AcDbLine
 10
25.0
 20
831.6235
 30
0.0
 11
25.7
 21
831.6235
 31
0.0
  0
LINE
  5
F6
330
1E
100
AcDbEntity
  8
0
100
AcDbLine
 10
27.3
 20
831.6235
 30
0.0
 11
30.1
 21
831.6235
 31
0.0
  0
LINE
  5
F7
330
1E
100
AcDbEntity
  8
0
100
AcDbLine
 10
27.3
 20
832.6235
 30
0.0
 11
30.1
 21
832.6235
 31
0.0
  0
LINE
  5
F8
330
1E
100
AcDbEntity
  8
0
100
AcDbLine
 10
30.8819
 20
828.8635000000001
 30
0.0
 11
31.17849476439789
 21
829.8235
 31
0.0
  0
LINE
  5
F9
330
1E
100
AcDbEntity
  8
0
100
AcDbLine
 10
30.8819
 20
828.8635000000001
 30
0.0
 11
32.7929
 21
828.2735
 31
0.0
  0
LINE
  5
FA
330
1E
100
AcDbEntity
  8
0
100
AcDbLine
 10
30.1
 20
831.6235
 30
0.0
 11
33.7
 21
831.6235
 31
0.0
  0
LINE
  5
FB
330
1E
100
AcDbEntity
  8
0
100
AcDbLine
 10
30.1
 20
832.6235
 30
0.0
 11
33.7
 21
832.6235
 31
0.0
  0
LINE
  5
FC
330
1E
100
AcDbEntity
  8
0
100
AcDbLine
 10
30.6
 20
829.8235
 30
0.0
 11
31.1448294395519
 21
829.7145341120899
 31
0.0
  0
LINE
  5
102
330
1E
100
AcDbEntity
  8
0
100
AcDbLine
 10
26.64
 20
858.1235000000001
 30
0.0
 11
33.5733
 21
860.0234999999999
 31
0.0
  0
LINE
  5
104
330
1E
100
AcDbEntity
  8
0
100
AcDbLine
 10
28.3958
 20
858.1235000000001
 30
0.0
 11
35.4869
 21
860.0234999999999
 31
0.0
  0
LINE
  5
109
330
1E
100
AcDbEntity
  8
0
100
AcDbLine
 10
20.1
 20
825.1235000000001
 30
0.0
 11
24.7
 21
820.1834999999999
 31
0.0
  0
LINE
  5
10B
330
1E
100
AcDbEntity
  8
0
100
AcDbLine
 10
32.0
 20
763.8434999999999
 30
0.0
 11
32.0
 21
763.5135
 31
0.0
  0
LINE
  5
10C
330
1E
100
AcDbEntity
  8
0
100
AcDbLine
 10
32.0
 20
763.8434999999999
 30
0.0
 11
32.0
 21
763.5435
 31
0.0
  0
LINE
  5
10D
330
1E
100
AcDbEntity
  8
0
100
AcDbLine
 10
32.0
 20
763.8434999999999
 30
0.0
 11
33.6667
 21
765.7034999999999
 31
0.0
  0
LINE
  5
10E
330
1E
100
AcDbEntity
  8
0
100
AcDbLine
 10
32.0
 20
763.5435
 30
0.0
 11
32.0
 21
763.8434999999999
 31
0.0
  0
LINE
  5
10F
330
1E
100
AcDbEntity
  8
0
100
AcDbLine
 10
32.0
 20
763.5435
 30
0.0
 11
32.0
 21
762.3535
 31
0.0
  0
LINE
  5
110
330
1E
100
AcDbEntity
  8
0
100
AcDbLine
 10
32.0
 20
762.3535
 30
0.0
 11
32.0
 21
763.5435
 31
0.0
  0
LINE
  5
111
330
1E
100
AcDbEntity
  8
0
100
AcDbLine
 10
32.0
 20
762.3535
 30
0.0
 11
32.0
 21
760.5035
 31
0.0
  0
LINE
  5
112
330
1E
100
AcDbEntity
  8
0
100
AcDbLine
 10
32.0
 20
760.5035
 30
0.0
 11
32.0
 21
762.3535
 31
0.0
  0
LINE
  5
113
330
1E
100
AcDbEntity
  8
0
100
AcDbLine
 10
32.0
 20
760.5035
 30
0.0
 11
32.0
 21
758.0235
 31
0.0
  0
LINE
  5
114
330
1E
100
AcDbEntity
  8
0
100
AcDbLine
 10
32.0
 20
758.0235
 30
0.0
 11
32.0
 21
760.5035
 31
0.0
  0
LINE
  5
115
330
1E
100
AcDbEntity
  8
0
100
AcDbLine
 10
32.0
 20
758.0235
 30
0.0
 11
32.0
 21
755.2834999999999
 31
0.0
  0
LINE
  5
116
330
1E
100
AcDbEntity
  8
0
100
AcDbLine
 10
32.0
 20
755.2834999999999
 30
0.0
 11
32.0
 21
752.3134999999999
 31
0.0
  0
LINE
  5
117
330
1E
100
AcDbEntity
  8
0
100
AcDbLine
 10
32.0
 20
755.2834999999999
 30
0.0
 11
32.0
 21
758.0235
 31
0.0
  0
LINE
  5
118
330
1E
100
AcDbEntity
  8
0
100
AcDbLine
 10
32.0
 20
749.2735
 30
0.0
 11
32.0
 21
752.3134999999999
 31
0.0
  0
LINE
  5
119
330
1E
100
AcDbEntity
  8
0
100
AcDbLine
 10
32.0
 20
749.2735
 30
0.0
 11
32.0
 21
746.4534999999999
 31
0.0
  0
LINE
  5
11A
330
1E
100
AcDbEntity
  8
0
100
AcDbLine
 10
33.6667
 20
738.8434999999999
 30
0.0
 11
33.6667
 21
739.3135
 31
0.0
  0
LINE
  5
11B
330
1E
100
AcDbEntity
  8
0
100
AcDbLine
 10
33.6667
 20
738.8434999999999
 30
0.0
 11
42.0
 21
735.3234999999999
 31
0.0
  0
LINE
  5
11C
330
1E
100
AcDbEntity
  8
0
100
AcDbLine
 10
33.6667
 20
739.3135
 30
0.0
 11
33.6667
 21
740.6435
 31
0.0
  0
LINE
  5
11D
330
1E
100
AcDbEntity
  8
0
100
AcDbLine
 10
33.6667
 20
739.3135
 30
0.0
 11
33.6667
 21
738.8434999999999
 31
0.0
  0
LINE
  5
11E
330
1E
100
AcDbEntity
  8
0
100
AcDbLine
 10
33.6667
 20
740.6435
 30
0.0
 11
33.6667
 21
742.7735
 31
0.0
  0
LINE
  5
11F
330
1E
100
AcDbEntity
  8
0
100
AcDbLine
 10
33.6667
 20
740.6435
 30
0.0
 11
33.6667
 21
739.3135
 31
0.0
  0
LINE
  5
120
330
1E
100
AcDbEntity
  8
0
100
AcDbLine
 10
33.6667
 20
742.7735
 30
0.0
 11
33.6667
 21
745.5635
 31
0.0
  0
LINE
  5
121
330
1E
100
AcDbEntity
  8
0
100
AcDbLine
 10
33.6667
 20
742.7735
 30
0.0
 11
33.6667
 21
740.6435
 31
0.0
  0
LINE
  5
122
330
1E
100
AcDbEntity
  8
0
100
AcDbLine
 10
33.6667
 20
745.5635
 30
0.0
 11
33.6667
 21
748.8034999999999
 31
0.0
  0
LINE
  5
123
330
1E
100
AcDbEntity
  8
0
100
AcDbLine
 10
33.6667
 20
745.5635
 30
0.0
 11
33.6667
 21
742.7735
 31
0.0
  0
LINE
  5
124
330
1E
100
AcDbEntity
  8
0
100
AcDbLine
 10
42.0
 20
735.3234999999999
 30
0.0
 11
42.0
 21
735.8535
 31
0.0
  0
LINE
  5
125
330
1E
100
AcDbEntity
  8
0
100
AcDbLine
 10
42.0
 20
737.2535
 30
0.0
 11
44.0
 21
734.3735
 31
0.0
  0
LINE
  5
126
330
1E
100
AcDbEntity
  8
0
100
AcDbLine
 10
42.0
 20
735.8535
 30
0.0
 11
42.0
 21
737.5934999999999
 31
0.0
  0
LINE
  5
128
330
1E
100
AcDbEntity
  8
0
100
AcDbLine
 10
44.0
 20
734.3735
 30
0.0
 11
47.0
 21
733.3334999999999
 31
0.0
  0
LINE
  5
12F
330
1E
100
AcDbEntity
  8
0
100
AcDbLine
 10
42.0
 20
737.5934999999999
 30
0.0
 11
42.0
 21
740.1934999999999
 31
0.0
  0
LINE
  5
131
330
1E
100
AcDbEntity
  8
0
100
AcDbLine
 10
41.7
 20
750.3034999999999
 30
0.0
 11
42.0
 21
743.1035
 31
0.0
  0
LINE
  5
134
330
1E
100
AcDbEntity
  8
0
100
AcDbLine
 10
42.0
 20
740.1934999999999
 30
0.0
 11
42.0
 21
743.1035
 31
0.0
  0
LINE
  5
135
330
1E
100
AcDbEntity
  8
0
100
AcDbLine
 10
33.6667
 20
748.8034999999999
 30
0.0
 11
33.6667
 21
752.2635
 31
0.0
  0
LINE
  5
136
330
1E
100
AcDbEntity
  8
0
100
AcDbLine
 10
33.6667
 20
748.8034999999999
 30
0.0
 11
33.6667
 21
745.5635
 31
0.0
  0
LINE
  5
137
330
1E
100
AcDbEntity
  8
0
100
AcDbLine
 10
32.6375
 20
828.8635000000001
 30
0.0
 11
33.15509999999999
 21
828.8635000000001
 31
0.0
  0
LINE
  5
138
330
1E
100
AcDbEntity
  8
0
100
AcDbLine
 10
32.6375
 20
828.8635000000001
 30
0.0
 11
32.914168493279
 21
829.790744818675
 31
0.0
  0
LINE
  5
139
330
1E
100
AcDbEntity
  8
0
100
AcDbLine
 10
32.6375
 20
828.8635000000001
 30
0.0
 11
34.4833
 21
828.2735
 31
0.0
  0
LINE
  5
13A
330
1E
100
AcDbEntity
  8
0
100
AcDbLine
 10
32.7929
 20
828.2735
 30
0.0
 11
32.9448081944393
 21
828.7652705955579
 31
0.0
  0
LINE
  5
13B
330
1E
100
AcDbEntity
  8
0
100
AcDbLine
 10
32.9448081944393
 20
828.7652705955579
 30
0.0
 11
34.4833
 21
828.2735
 31
0.0
  0
LINE
  5
13E
330
1E
100
AcDbEntity
  8
0
100
AcDbLine
 10
33.15509999999999
 20
828.8635000000001
 30
0.0
 11
33.44159214659689
 21
829.8235
 31
0.0
  0
LINE
  5
13F
330
1E
100
AcDbEntity
  8
0
100
AcDbLine
 10
33.15509999999999
 20
828.8635000000001
 30
0.0
 11
35.00099999999999
 21
828.2735
 31
0.0
  0
LINE
  5
140
330
1E
100
AcDbEntity
  8
0
100
AcDbLine
 10
33.5733
 20
860.0234999999999
 30
0.0
 11
41.36
 21
861.7234999999999
 31
0.0
  0
LINE
  5
142
330
1E
100
AcDbEntity
  8
0
100
AcDbLine
 10
33.6667
 20
765.7034999999999
 30
0.0
 11
33.6667
 21
765.2435
 31
0.0
  0
LINE
  5
143
330
1E
100
AcDbEntity
  8
0
100
AcDbLine
 10
33.6667
 20
765.7034999999999
 30
0.0
 11
34.9570022280683
 21
766.2485258412401
 31
0.0
  0
LINE
  5
144
330
1E
100
AcDbEntity
  8
0
100
AcDbLine
 10
33.6667
 20
765.2435
 30
0.0
 11
33.6667
 21
765.7034999999999
 31
0.0
  0
LINE
  5
145
330
1E
100
AcDbEntity
  8
0
100
AcDbLine
 10
33.6667
 20
765.2435
 30
0.0
 11
33.6667
 21
763.8935
 31
0.0
  0
LINE
  5
146
330
1E
100
AcDbEntity
  8
0
100
AcDbLine
 10
33.6667
 20
763.8935
 30
0.0
 11
33.6667
 21
765.2435
 31
0.0
  0
LINE
  5
147
330
1E
100
AcDbEntity
  8
0
100
AcDbLine
 10
33.6667
 20
763.8935
 30
0.0
 11
33.6667
 21
761.7634999999999
 31
0.0
  0
LINE
  5
148
330
1E
100
AcDbEntity
  8
0
100
AcDbLine
 10
33.6667
 20
761.7634999999999
 30
0.0
 11
33.6667
 21
763.8935
 31
0.0
  0
LINE
  5
149
330
1E
100
AcDbEntity
  8
0
100
AcDbLine
 10
33.6667
 20
761.7634999999999
 30
0.0
 11
33.6667
 21
759.0035
 31
0.0
  0
LINE
  5
14A
330
1E
100
AcDbEntity
  8
0
100
AcDbLine
 10
33.6667
 20
759.0035
 30
0.0
 11
33.6667
 21
761.7634999999999
 31
0.0
  0
LINE
  5
14B
330
1E
100
AcDbEntity
  8
0
100
AcDbLine
 10
33.6667
 20
759.0035
 30
0.0
 11
33.6667
 21
755.7435
 31
0.0
  0
LINE
  5
14C
330
1E
100
AcDbEntity
  8
0
100
AcDbLine
 10
34.0011579774172
 20
755.780825659583
 30
0.0
 11
34.6316
 21
765.2134999999999
 31
0.0
  0
LINE
  5
14D
330
1E
100
AcDbEntity
  8
0
100
AcDbLine
 10
36.47899999999999
 20
764.0534999999999
 30
0.0
 11
37.0
 21
763.9935
 31
0.0
  0
LINE
  5
14E
330
1E
100
AcDbEntity
  8
0
100
AcDbLine
 10
35.9737
 20
764.2234999999999
 30
0.0
 11
36.47899999999999
 21
764.0534999999999
 31
0.0
  0
LINE
  5
14F
330
1E
100
AcDbEntity
  8
0
100
AcDbLine
 10
37.0
 20
763.9935
 30
0.0
 11
37.521
 21
764.0534999999999
 31
0.0
  0
LINE
  5
150
330
1E
100
AcDbEntity
  8
0
100
AcDbLine
 10
37.521
 20
764.0534999999999
 30
0.0
 11
38.0263
 21
764.2234999999999
 31
0.0
  0
LINE
  5
151
330
1E
100
AcDbEntity
  8
0
100
AcDbLine
 10
35.5474
 20
764.5035
 30
0.0
 11
35.9737
 21
764.2234999999999
 31
0.0
  0
LINE
  5
152
330
1E
100
AcDbEntity
  8
0
100
AcDbLine
 10
35.2158
 20
764.8735
 30
0.0
 11
35.5474
 21
764.5035
 31
0.0
  0
LINE
  5
153
330
1E
100
AcDbEntity
  8
0
100
AcDbLine
 10
38.0263
 20
764.2234999999999
 30
0.0
 11
38.45259999999999
 21
764.5035
 31
0.0
  0
LINE
  5
154
330
1E
100
AcDbEntity
  8
0
100
AcDbLine
 10
38.45259999999999
 20
764.5035
 30
0.0
 11
38.7842
 21
764.8735
 31
0.0
  0
LINE
  5
155
330
1E
100
AcDbEntity
  8
0
100
AcDbLine
 10
34.9474
 20
766.2335
 30
0.0
 11
35.2158
 21
766.6535
 31
0.0
  0
LINE
  5
156
330
1E
100
AcDbEntity
  8
0
100
AcDbLine
 10
34.7105
 20
765.7435
 30
0.0
 11
34.9474
 21
766.2335
 31
0.0
  0
LINE
  5
157
330
1E
100
AcDbEntity
  8
0
100
AcDbLine
 10
34.6316
 20
765.2134999999999
 30
0.0
 11
34.7105
 21
765.7435
 31
0.0
  0
LINE
  5
158
330
1E
100
AcDbEntity
  8
0
100
AcDbLine
 10
35.2158
 20
766.6535
 30
0.0
 11
35.5474
 21
767.0234999999999
 31
0.0
  0
LINE
  5
159
330
1E
100
AcDbEntity
  8
0
100
AcDbLine
 10
35.02629999999999
 20
766.2134999999999
 30
0.0
 11
35.2158
 21
766.6535
 31
0.0
  0
LINE
  5
15A
330
1E
100
AcDbEntity
  8
0
100
AcDbLine
 10
35.9737
 20
767.3135
 30
0.0
 11
36.47899999999999
 21
767.4734999999999
 31
0.0
  0
LINE
  5
15B
330
1E
100
AcDbEntity
  8
0
100
AcDbLine
 10
35.5474
 20
767.0234999999999
 30
0.0
 11
35.9737
 21
767.3135
 31
0.0
  0
LINE
  5
15C
330
1E
100
AcDbEntity
  8
0
100
AcDbLine
 10
38.0263
 20
767.3135
 30
0.0
 11
38.45259999999999
 21
767.0234999999999
 31
0.0
  0
LINE
  5
15D
330
1E
100
AcDbEntity
  8
0
100
AcDbLine
 10
38.45259999999999
 20
767.0234999999999
 30
0.0
 11
38.7842
 21
766.6535
 31
0.0
  0
LINE
  5
15E
330
1E
100
AcDbEntity
  8
0
100
AcDbLine
 10
38.7842
 20
766.6535
 30
0.0
 11
38.9737
 21
766.2134999999999
 31
0.0
  0
LINE
  5
15F
330
1E
100
AcDbEntity
  8
0
100
AcDbLine
 10
38.7842
 20
766.6535
 30
0.0
 11
39.0526
 21
766.2335
 31
0.0
  0
LINE
  5
160
330
1E
100
AcDbEntity
  8
0
100
AcDbLine
 10
38.9737
 20
766.2134999999999
 30
0.0
 11
39.0526
 21
765.7634999999999
 31
0.0
  0
LINE
  5
161
330
1E
100
AcDbEntity
  8
0
100
AcDbLine
 10
35.02629999999999
 20
765.3134999999999
 30
0.0
 11
35.2158
 21
764.8735
 31
0.0
  0
LINE
  5
162
330
1E
100
AcDbEntity
  8
0
100
AcDbLine
 10
34.9474
 20
765.7634999999999
 30
0.0
 11
35.02629999999999
 21
765.3134999999999
 31
0.0
  0
LINE
  5
163
330
1E
100
AcDbEntity
  8
0
100
AcDbLine
 10
34.9474
 20
765.7634999999999
 30
0.0
 11
35.02629999999999
 21
766.2134999999999
 31
0.0
  0
LINE
  5
164
330
1E
100
AcDbEntity
  8
0
100
AcDbLine
 10
38.7842
 20
764.8735
 30
0.0
 11
38.9737
 21
765.3134999999999
 31
0.0
  0
LINE
  5
165
330
1E
100
AcDbEntity
  8
0
100
AcDbLine
 10
41.29999999999999
 20
759.4034999999999
 30
0.0
 11
41.7
 21
750.3034999999999
 31
0.0
  0
LINE
  5
168
330
1E
100
AcDbEntity
  8
0
100
AcDbLine
 10
39.0526
 20
766.2335
 30
0.0
 11
39.2895
 21
765.7435
 31
0.0
  0
LINE
  5
169
330
1E
100
AcDbEntity
  8
0
100
AcDbLine
 10
39.2895
 20
765.7435
 30
0.0
 11
39.3684
 21
765.2134999999999
 31
0.0
  0
LINE
  5
16A
330
1E
100
AcDbEntity
  8
0
100
AcDbLine
 10
39.3684
 20
765.2134999999999
 30
0.0
 11
39.8999344642581
 21
757.260680672516
 31
0.0
  0
LINE
  5
16B
330
1E
100
AcDbEntity
  8
0
100
AcDbLine
 10
38.9737
 20
765.3134999999999
 30
0.0
 11
39.0526
 21
765.7634999999999
 31
0.0
  0
LINE
  5
16C
330
1E
100
AcDbEntity
  8
0
100
AcDbLine
 10
36.47899999999999
 20
767.4734999999999
 30
0.0
 11
37.0
 21
767.5435
 31
0.0
  0
LINE
  5
16D
330
1E
100
AcDbEntity
  8
0
100
AcDbLine
 10
33.7
 20
831.6235
 30
0.0
 11
38.5
 21
831.6235
 31
0.0
  0
LINE
  5
16E
330
1E
100
AcDbEntity
  8
0
100
AcDbLine
 10
33.7
 20
832.6235
 30
0.0
 11
38.5
 21
832.6235
 31
0.0
  0
LINE
  5
16F
330
1E
100
AcDbEntity
  8
0
100
AcDbLine
 10
34.4833
 20
828.2735
 30
0.0
 11
34.5191930953689
 21
828.393773354657
 31
0.0
  0
LINE
  5
170
330
1E
100
AcDbEntity
  8
0
100
AcDbLine
 10
34.4833
 20
828.2735
 30
0.0
 11
35.00099999999999
 21
828.2735
 31
0.0
  0
LINE
  5
173
330
1E
100
AcDbEntity
  8
0
100
AcDbLine
 10
33.9
 20
798.6735
 30
0.0
 11
37.6
 21
786.1335
 31
0.0
  0
LINE
  5
174
330
1E
100
AcDbEntity
  8
0
100
AcDbLine
 10
35.00099999999999
 20
828.2735
 30
0.0
 11
35.3428788333087
 21
829.4192950019649
 31
0.0
  0
LINE
  5
175
330
1E
100
AcDbEntity
  8
0
100
AcDbLine
 10
35.00099999999999
 20
828.2735
 30
0.0
 11
35.1895982173737
 21
828.9055803565249
 31
0.0
  0
LINE
  5
176
330
1E
100
AcDbEntity
  8
0
100
AcDbLine
 10
35.1895982173737
 20
828.9055803565249
 30
0.0
 11
37.1
 21
828.5235
 31
0.0
  0
LINE
  5
177
330
1E
100
AcDbEntity
  8
0
100
AcDbLine
 10
35.4869
 20
860.0234999999999
 30
0.0
 11
37.7961
 21
860.5235
 31
0.0
  0
LINE
  5
178
330
1E
100
AcDbEntity
  8
0
100
AcDbLine
 10
37.1
 20
828.5235
 30
0.0
 11
43.1213576459577
 21
827.1212660276539
 31
0.0
  0
LINE
  5
17B
330
1E
100
AcDbEntity
  8
0
100
AcDbLine
 10
34.9826446280991
 20
828.2735
 30
0.0
 11
37.7
 21
824.1635
 31
0.0
  0
LINE
  5
17C
330
1E
100
AcDbEntity
  8
0
100
AcDbLine
 10
37.0
 20
767.5435
 30
0.0
 11
37.521
 21
767.4734999999999
 31
0.0
  0
LINE
  5
17D
330
1E
100
AcDbEntity
  8
0
100
AcDbLine
 10
37.6
 20
786.1335
 30
0.0
 11
40.2
 21
772.2435
 31
0.0
  0
LINE
  5
17E
330
1E
100
AcDbEntity
  8
0
100
AcDbLine
 10
40.2
 20
772.2435
 30
0.0
 11
41.29999999999999
 21
759.4034999999999
 31
0.0
  0
LINE
  5
182
330
1E
100
AcDbEntity
  8
0
100
AcDbLine
 10
43.89999999999999
 20
794.8134999999999
 30
0.0
 11
47.6
 21
782.2735
 31
0.0
  0
LINE
  5
184
330
1E
100
AcDbEntity
  8
0
100
AcDbLine
 10
38.1
 20
805.6535
 30
0.0
 11
43.89999999999999
 21
794.8134999999999
 31
0.0
  0
LINE
  5
186
330
1E
100
AcDbEntity
  8
0
100
AcDbLine
 10
47.6
 20
782.2735
 30
0.0
 11
50.2
 21
768.3735
 31
0.0
  0
LINE
  5
187
330
1E
100
AcDbEntity
  8
0
100
AcDbLine
 10
46.39999999999999
 20
792.2234999999999
 30
0.0
 11
46.8873718149657
 21
784.68873174063
 31
0.0
  0
LINE
  5
188
330
1E
100
AcDbEntity
  8
0
100
AcDbLine
 10
45.6
 20
800.2034999999999
 30
0.0
 11
46.39999999999999
 21
792.2234999999999
 31
0.0
  0
LINE
  5
189
330
1E
100
AcDbEntity
  8
0
100
AcDbLine
 10
44.0
 20
808.4035
 30
0.0
 11
45.6
 21
800.2034999999999
 31
0.0
  0
LINE
  5
18A
330
1E
100
AcDbEntity
  8
0
100
AcDbLine
 10
45.1112
 20
825.6935
 30
0.0
 11
45.34625153061219
 21
826.8235
 31
0.0
  0
LINE
  5
18B
330
1E
100
AcDbEntity
  8
0
100
AcDbLine
 10
44.8502
 20
825.6935
 30
0.0
 11
44.861187928585
 21
825.746323988292
 31
0.0
  0
LINE
  5
18C
330
1E
100
AcDbEntity
  8
0
100
AcDbLine
 10
44.8502
 20
825.6935
 30
0.0
 11
45.1112
 21
825.6935
 31
0.0
  0
LINE
  5
18D
330
1E
100
AcDbEntity
  8
0
100
AcDbLine
 10
48.4314
 20
825.6935
 30
0.0
 11
48.6504239795918
 21
826.8235
 31
0.0
  0
LINE
  5
18E
330
1E
100
AcDbEntity
  8
0
100
AcDbLine
 10
47.666
 20
825.6935
 30
0.0
 11
47.6889255964037
 21
825.8117789390659
 31
0.0
  0
LINE
  5
18F
330
1E
100
AcDbEntity
  8
0
100
AcDbLine
 10
47.666
 20
825.6935
 30
0.0
 11
48.4314
 21
825.6935
 31
0.0
  0
LINE
  5
190
330
1E
100
AcDbEntity
  8
0
100
AcDbLine
 10
41.5
 20
816.3635000000001
 30
0.0
 11
44.0
 21
808.4035
 31
0.0
  0
LINE
  5
191
330
1E
100
AcDbEntity
  8
0
100
AcDbLine
 10
37.7
 20
824.1635
 30
0.0
 11
41.5
 21
816.3635000000001
 31
0.0
  0
LINE
  5
192
330
1E
100
AcDbEntity
  8
0
100
AcDbLine
 10
38.3022
 20
828.8635000000001
 30
0.0
 11
39.3022
 21
828.8635000000001
 31
0.0
  0
LINE
  5
193
330
1E
100
AcDbEntity
  8
0
100
AcDbLine
 10
38.3022
 20
828.8635000000001
 30
0.0
 11
38.5590376963351
 21
829.8235
 31
0.0
  0
LINE
  5
194
330
1E
100
AcDbEntity
  8
0
100
AcDbLine
 10
38.3022
 20
828.8635000000001
 30
0.0
 11
39.9572
 21
828.2735
 31
0.0
  0
LINE
  5
195
330
1E
100
AcDbEntity
  8
0
100
AcDbLine
 10
38.5
 20
831.6235
 30
0.0
 11
44.1
 21
831.6235
 31
0.0
  0
LINE
  5
196
330
1E
100
AcDbEntity
  8
0
100
AcDbLine
 10
38.5
 20
832.6235
 30
0.0
 11
44.1
 21
832.6235
 31
0.0
  0
LINE
  5
197
330
1E
100
AcDbEntity
  8
0
100
AcDbLine
 10
39.3022
 20
828.8635000000001
 30
0.0
 11
39.5590376963351
 21
829.8235
 31
0.0
  0
LINE
  5
198
330
1E
100
AcDbEntity
  8
0
100
AcDbLine
 10
39.3022
 20
828.8635000000001
 30
0.0
 11
40.9572
 21
828.2735
 31
0.0
  0
LINE
  5
19F
330
1E
100
AcDbEntity
  8
0
100
AcDbLine
 10
37.7961
 20
860.5235
 30
0.0
 11
43.5238
 21
861.7234999999999
 31
0.0
  0
LINE
  5
1A1
330
1E
100
AcDbEntity
  8
0
100
AcDbLine
 10
42.9096
 20
826.1035000000001
 30
0.0
 11
43.1707
 21
826.1035000000001
 31
0.0
  0
LINE
  5
1A2
330
1E
100
AcDbEntity
  8
0
100
AcDbLine
 10
42.9096
 20
826.1035000000001
 30
0.0
 11
43.1444643716594
 21
827.232323365504
 31
0.0
  0
LINE
  5
1A3
330
1E
100
AcDbEntity
  8
0
100
AcDbLine
 10
42.9096
 20
826.1035000000001
 30
0.0
 11
44.8502
 21
825.6935
 31
0.0
  0
LINE
  5
1A4
330
1E
100
AcDbEntity
  8
0
100
AcDbLine
 10
42.9096
 20
826.1035000000001
 30
0.0
 11
43.1213576459577
 21
827.1212660276539
 31
0.0
  0
LINE
  5
1A5
330
1E
100
AcDbEntity
  8
0
100
AcDbLine
 10
43.1707
 20
826.1035000000001
 30
0.0
 11
43.42871165215079
 21
827.3438797846839
 31
0.0
  0
LINE
  5
1A6
330
1E
100
AcDbEntity
  8
0
100
AcDbLine
 10
43.1707
 20
826.1035000000001
 30
0.0
 11
45.1112
 21
825.6935
 31
0.0
  0
LINE
  5
1A7
330
1E
100
AcDbEntity
  8
0
100
AcDbLine
 10
40.9572
 20
828.2735
 30
0.0
 11
41.2739894094942
 21
829.4575856597528
 31
0.0
  0
LINE
  5
1A8
330
1E
100
AcDbEntity
  8
0
100
AcDbLine
 10
39.9572
 20
828.2735
 30
0.0
 11
40.9572
 21
828.2735
 31
0.0
  0
LINE
  5
1A9
330
1E
100
AcDbEntity
  8
0
100
AcDbLine
 10
44.1
 20
831.6235
 30
0.0
 11
50.5
 21
831.6235
 31
0.0
  0
LINE
  5
1AA
330
1E
100
AcDbEntity
  8
0
100
AcDbLine
 10
44.1
 20
832.6235
 30
0.0
 11
50.5
 21
832.6235
 31
0.0
  0
LINE
  5
1AB
330
1E
100
AcDbEntity
  8
0
100
AcDbLine
 10
45.8577
 20
826.1035000000001
 30
0.0
 11
46.6231
 21
826.1035000000001
 31
0.0
  0
LINE
  5
1AC
330
1E
100
AcDbEntity
  8
0
100
AcDbLine
 10
45.8577
 20
826.1035000000001
 30
0.0
 11
46.0898744525547
 21
827.3010313868608
 31
0.0
  0
LINE
  5
1AD
330
1E
100
AcDbEntity
  8
0
100
AcDbLine
 10
45.8577
 20
826.1035000000001
 30
0.0
 11
47.666
 21
825.6935
 31
0.0
  0
LINE
  5
1AE
330
1E
100
AcDbEntity
  8
0
100
AcDbLine
 10
45.8577
 20
826.1035000000001
 30
0.0
 11
45.94258348756159
 21
826.5413200937389
 31
0.0
  0
LINE
  5
1AF
330
1E
100
AcDbEntity
  8
0
100
AcDbLine
 10
45.311565859784
 20
826.6567501476009
 30
0.0
 11
45.94258348756159
 21
826.5413200937389
 31
0.0
  0
LINE
  5
1B0
330
1E
100
AcDbEntity
  8
0
100
AcDbLine
 10
47.4901
 20
828.8635000000001
 30
0.0
 11
47.6997921465969
 21
829.8235
 31
0.0
  0
LINE
  5
1B1
330
1E
100
AcDbEntity
  8
0
100
AcDbLine
 10
47.4901
 20
828.8635000000001
 30
0.0
 11
48.9043
 21
828.8635000000001
 31
0.0
  0
LINE
  5
1B2
330
1E
100
AcDbEntity
  8
0
100
AcDbLine
 10
47.4901
 20
828.8635000000001
 30
0.0
 11
48.8414
 21
828.2735
 31
0.0
  0
LINE
  5
1B3
330
1E
100
AcDbEntity
  8
0
100
AcDbLine
 10
46.6231
 20
826.1035000000001
 30
0.0
 11
46.89054061629249
 21
827.483293650785
 31
0.0
  0
LINE
  5
1B4
330
1E
100
AcDbEntity
  8
0
100
AcDbLine
 10
46.6231
 20
826.1035000000001
 30
0.0
 11
48.4314
 21
825.6935
 31
0.0
  0
LINE
  5
1BB
330
1E
100
AcDbEntity
  8
0
100
AcDbLine
 10
43.5238
 20
861.7234999999999
 30
0.0
 11
52.7279
 21
863.2234999999999
 31
0.0
  0
LINE
  5
1C0
330
1E
100
AcDbEntity
  8
0
100
AcDbLine
 10
41.36
 20
861.7234999999999
 30
0.0
 11
50.1067
 21
863.2234999999999
 31
0.0
  0
LINE
  5
1C2
330
1E
100
AcDbEntity
  8
0
100
AcDbLine
 10
44.4
 20
858.4234999999999
 30
0.0
 11
52.6
 21
859.9235
 31
0.0
  0
LINE
  5
1C3
330
1E
100
AcDbEntity
  8
0
100
AcDbLine
 10
39.42499999999999
 20
857.1485
 30
0.0
 11
44.4
 21
858.4234999999999
 31
0.0
  0
LINE
  5
1C4
330
1E
100
AcDbEntity
  8
0
100
AcDbLine
 10
45.14409044482809
 20
825.851619381563
 30
0.0
 11
49.11999999999999
 21
822.7935
 31
0.0
  0
LINE
  5
1C5
330
1E
100
AcDbEntity
  8
0
100
AcDbLine
 10
37.521
 20
767.4734999999999
 30
0.0
 11
38.0263
 21
767.3135
 31
0.0
  0
LINE
  5
1C6
330
1E
100
AcDbEntity
  8
0
100
AcDbLine
 10
37.71305476843699
 20
767.4126870909359
 30
0.0
 11
40.5125492132465
 21
768.595198274469
 31
0.0
  0
LINE
  5
1C7
330
1E
100
AcDbEntity
  8
0
100
AcDbLine
 10
33.6667
 20
755.7435
 30
0.0
 11
33.6667
 21
752.2635
 31
0.0
  0
LINE
  5
1C8
330
1E
100
AcDbEntity
  8
0
100
AcDbLine
 10
33.6667
 20
755.7435
 30
0.0
 11
33.6667
 21
759.0035
 31
0.0
  0
LINE
  5
1C9
330
1E
100
AcDbEntity
  8
0
100
AcDbLine
 10
33.6667
 20
752.2635
 30
0.0
 11
33.6667
 21
755.7435
 31
0.0
  0
LINE
  5
1CA
330
1E
100
AcDbEntity
  8
0
100
AcDbLine
 10
33.6667
 20
752.2635
 30
0.0
 11
33.6667
 21
748.8034999999999
 31
0.0
  0
LINE
  5
1CB
330
1E
100
AcDbEntity
  8
0
100
AcDbLine
 10
32.0
 20
752.3134999999999
 30
0.0
 11
32.0
 21
755.2834999999999
 31
0.0
  0
LINE
  5
1CC
330
1E
100
AcDbEntity
  8
0
100
AcDbLine
 10
32.0
 20
752.3134999999999
 30
0.0
 11
32.0
 21
749.2735
 31
0.0
  0
LINE
  5
1CD
330
1E
100
AcDbEntity
  8
0
100
AcDbLine
 10
48.5
 20
733.3334999999999
 30
0.0
 11
48.5
 21
731.2734999999999
 31
0.0
  0
LINE
  5
1D0
330
1E
100
AcDbEntity
  8
0
100
AcDbLine
 10
60.5
 20
612.8735
 30
0.0
 11
61.5
 21
612.2735
 31
0.0
  0
LINE
  5
1D1
330
1E
100
AcDbEntity
  8
0
100
AcDbLine
 10
60.0
 20
614.2735
 30
0.0
 11
60.0
 21
613.8735
 31
0.0
  0
LINE
  5
1D2
330
1E
100
AcDbEntity
  8
0
100
AcDbLine
 10
60.0
 20
614.2735
 30
0.0
 11
60.0
 21
614.6734999999999
 31
0.0
  0
LINE
  5
1D4
330
1E
100
AcDbEntity
  8
0
100
AcDbLine
 10
60.0
 20
613.8735
 30
0.0
 11
60.5
 21
612.8735
 31
0.0
  0
LINE
  5
1D5
330
1E
100
AcDbEntity
  8
0
100
AcDbLine
 10
60.0
 20
613.8735
 30
0.0
 11
60.0
 21
614.2735
 31
0.0
  0
LINE
  5
1D7
330
1E
100
AcDbEntity
  8
0
100
AcDbLine
 10
67.6797
 20
0.0765000000001079
 30
0.0
 11
84.34600000000001
 21
487.3485
 31
0.0
  0
LINE
  5
1D8
330
1E
100
AcDbEntity
  8
0
100
AcDbLine
 10
67.6797
 20
0.0765000000001051
 30
0.0
 11
68.22849999999999
 21
0.0765000000001053
 31
0.0
  0
LINE
  5
1D9
330
1E
100
AcDbEntity
  8
0
100
AcDbLine
 10
67.6797
 20
0.0765000000001051
 30
0.0
 11
68.336
 21
0.0765000000001049
 31
0.0
  0
LINE
  5
1DA
330
1E
100
AcDbEntity
  8
0
100
AcDbLine
 10
67.6797
 20
0.0765000000001051
 30
0.0
 11
84.34600000000001
 21
487.3485
 31
0.0
  0
LINE
  5
1DC
330
1E
100
AcDbEntity
  8
0
100
AcDbLine
 10
68.336
 20
0.0765000000001049
 30
0.0
 11
70.1774
 21
0.0765000000001047
 31
0.0
  0
LINE
  5
1DD
330
1E
100
AcDbEntity
  8
0
100
AcDbLine
 10
68.22849999999999
 20
0.0765000000001053
 30
0.0
 11
69.9774
 21
0.0765000000001054
 31
0.0
  0
LINE
  5
1DF
330
1E
100
AcDbEntity
  8
0
100
AcDbLine
 10
66.2
 20
612.2735
 30
0.0
 11
70.59999999999999
 21
612.2735
 31
0.0
  0
LINE
  5
1E0
330
1E
100
AcDbEntity
  8
0
100
AcDbLine
 10
65.3
 20
612.2735
 30
0.0
 11
69.8
 21
612.2735
 31
0.0
  0
LINE
  5
1E1
330
1E
100
AcDbEntity
  8
0
100
AcDbLine
 10
63.5
 20
612.2735
 30
0.0
 11
66.2
 21
612.2735
 31
0.0
  0
LINE
  5
1E2
330
1E
100
AcDbEntity
  8
0
100
AcDbLine
 10
62.4
 20
612.2735
 30
0.0
 11
65.3
 21
612.2735
 31
0.0
  0
LINE
  5
1E5
330
1E
100
AcDbEntity
  8
0
100
AcDbLine
 10
62.5
 20
612.2735
 30
0.0
 11
63.5
 21
612.2735
 31
0.0
  0
LINE
  5
1E6
330
1E
100
AcDbEntity
  8
0
100
AcDbLine
 10
61.5
 20
612.2735
 30
0.0
 11
62.4
 21
612.2735
 31
0.0
  0
LINE
  5
1E7
330
1E
100
AcDbEntity
  8
0
100
AcDbLine
 10
61.5
 20
612.2735
 30
0.0
 11
62.5
 21
612.2735
 31
0.0
  0
LINE
  5
1EA
330
1E
100
AcDbEntity
  8
0
100
AcDbLine
 10
70.1774
 20
0.0765000000001047
 30
0.0
 11
72.7128
 21
0.0765000000001046
 31
0.0
  0
LINE
  5
1EB
330
1E
100
AcDbEntity
  8
0
100
AcDbLine
 10
69.9774
 20
0.0765000000001054
 30
0.0
 11
72.4493
 21
0.0765000000001055
 31
0.0
  0
LINE
  5
1EE
330
1E
100
AcDbEntity
  8
0
100
AcDbLine
 10
72.7128
 20
0.0765000000001046
 30
0.0
 11
75.82049999999999
 21
0.0765000000001046
 31
0.0
  0
LINE
  5
1EF
330
1E
100
AcDbEntity
  8
0
100
AcDbLine
 10
72.4493
 20
0.0765000000001055
 30
0.0
 11
75.5402
 21
0.0765000000001056
 31
0.0
  0
LINE
  5
1F1
330
1E
100
AcDbEntity
  8
0
100
AcDbLine
 10
70.59999999999999
 20
612.2735
 30
0.0
 11
76.29999999999999
 21
612.2735
 31
0.0
  0
LINE
  5
1F2
330
1E
100
AcDbEntity
  8
0
100
AcDbLine
 10
69.8
 20
612.2735
 30
0.0
 11
75.7
 21
612.2735
 31
0.0
  0
LINE
  5
1F6
330
1E
100
AcDbEntity
  8
0
100
AcDbLine
 10
75.5402
 20
0.0765000000001056
 30
0.0
 11
78.6458
 21
0.0765000000001056
 31
0.0
  0
LINE
  5
1F7
330
1E
100
AcDbEntity
  8
0
100
AcDbLine
 10
75.82049999999999
 20
0.0765000000001046
 30
0.0
 11
78.9094
 21
0.0765000000001046
 31
0.0
  0
LINE
  5
1F9
330
1E
100
AcDbEntity
  8
0
100
AcDbLine
 10
78.9094
 20
0.0765000000001046
 30
0.0
 11
81.3813
 21
0.0765000000001048
 31
0.0
  0
LINE
  5
1FA
330
1E
100
AcDbEntity
  8
0
100
AcDbLine
 10
81.3813
 20
0.0765000000001048
 30
0.0
 11
83.13109999999999
 21
0.0765000000001049
 31
0.0
  0
LINE
  5
1FD
330
1E
100
AcDbEntity
  8
0
100
AcDbLine
 10
81.18219999999999
 20
0.0765000000001054
 30
0.0
 11
83.0227
 21
0.0765000000001053
 31
0.0
  0
LINE
  5
1FF
330
1E
100
AcDbEntity
  8
0
100
AcDbLine
 10
78.6458
 20
0.0765000000001056
 30
0.0
 11
81.18219999999999
 21
0.0765000000001054
 31
0.0
  0
LINE
  5
200
330
1E
100
AcDbEntity
  8
0
100
AcDbLine
 10
76.29999999999999
 20
612.2735
 30
0.0
 11
82.9
 21
612.2735
 31
0.0
  0
LINE
  5
201
330
1E
100
AcDbEntity
  8
0
100
AcDbLine
 10
75.7
 20
612.2735
 30
0.0
 11
82.59999999999999
 21
612.2735
 31
0.0
  0
LINE
  5
208
330
1E
100
AcDbEntity
  8
0
100
AcDbLine
 10
83.13109999999999
 20
0.0765000000001049
 30
0.0
 11
83.68
 21
0.0765000000001051
 31
0.0
  0
LINE
  5
209
330
1E
100
AcDbEntity
  8
0
100
AcDbLine
 10
83.68
 20
0.0765000000001079
 30
0.0
 11
100.341
 21
486.9365
 31
0.0
  0
LINE
  5
20A
330
1E
100
AcDbEntity
  8
0
100
AcDbLine
 10
83.68
 20
0.0765000000001051
 30
0.0
 11
100.341
 21
486.9365
 31
0.0
  0
LINE
  5
20C
330
1E
100
AcDbEntity
  8
0
100
AcDbLine
 10
83.0227
 20
0.0765000000001053
 30
0.0
 11
83.68
 21
0.0765000000001051
 31
0.0
  0
LINE
  5
20D
330
1E
100
AcDbEntity
  8
0
100
AcDbLine
 10
84.34600000000001
 20
487.3485
 30
0.0
 11
85.194
 21
520.3425
 31
0.0
  0
LINE
  5
210
330
1E
100
AcDbEntity
  8
0
100
AcDbLine
 10
85.194
 20
520.3425
 30
0.0
 11
85.76799999999998
 21
543.3295
 31
0.0
  0
LINE
  5
213
330
1E
100
AcDbEntity
  8
0
100
AcDbLine
 10
85.76799999999998
 20
543.3295
 30
0.0
 11
86.37500000000001
 21
568.1224999999999
 31
0.0
  0
LINE
  5
216
330
1E
100
AcDbEntity
  8
0
100
AcDbLine
 10
86.37500000000001
 20
568.1224999999999
 30
0.0
 11
86.97799999999999
 21
593.2134999999999
 31
0.0
  0
LINE
  5
21A
330
1E
100
AcDbEntity
  8
0
100
AcDbLine
 10
86.97799999999999
 20
593.2134999999999
 30
0.0
 11
87.4195093522688
 21
612.2735
 31
0.0
  0
LINE
  5
21E
330
1E
100
AcDbEntity
  8
0
100
AcDbLine
 10
82.9
 20
612.2735
 30
0.0
 11
90.0
 21
612.2735
 31
0.0
  0
LINE
  5
21F
330
1E
100
AcDbEntity
  8
0
100
AcDbLine
 10
82.59999999999999
 20
612.2735
 30
0.0
 11
90.0
 21
612.2735
 31
0.0
  0
LINE
  5
221
330
1E
100
AcDbEntity
  8
0
100
AcDbLine
 10
90.0
 20
612.2735
 30
0.0
 11
97.40000000000001
 21
612.2735
 31
0.0
  0
LINE
  5
222
330
1E
100
AcDbEntity
  8
0
100
AcDbLine
 10
90.0
 20
612.2735
 30
0.0
 11
97.1
 21
612.2735
 31
0.0
  0
LINE
  5
231
330
1E
100
AcDbEntity
  8
0
100
AcDbLine
 10
97.1
 20
612.2735
 30
0.0
 11
103.7
 21
612.2735
 31
0.0
  0
LINE
  5
232
330
1E
100
AcDbEntity
  8
0
100
AcDbLine
 10
97.40000000000001
 20
612.2735
 30
0.0
 11
104.2999999999999
 21
612.2735
 31
0.0
  0
LINE
  5
23B
330
1E
100
AcDbEntity
  8
0
100
AcDbLine
 10
100.341
 20
486.9365
 30
0.0
 11
101.1879999999999
 21
519.9204999999999
 31
0.0
  0
LINE
  5
23D
330
1E
100
AcDbEntity
  8
0
100
AcDbLine
 10
101.1879999999999
 20
519.9204999999999
 30
0.0
 11
101.761
 21
542.9165
 31
0.0
  0
LINE
  5
23E
330
1E
100
AcDbEntity
  8
0
100
AcDbLine
 10
101.761
 20
542.9165
 30
0.0
 11
102.37
 21
567.7105
 31
0.0
  0
LINE
  5
240
330
1E
100
AcDbEntity
  8
0
100
AcDbLine
 10
102.37
 20
567.7105
 30
0.0
 11
102.972
 21
592.8024999999999
 31
0.0
  0
LINE
  5
24D
330
1E
100
AcDbEntity
  8
0
100
AcDbLine
 10
69.8
 20
616.2735
 30
0.0
 11
75.7
 21
616.2735
 31
0.0
  0
LINE
  5
24E
330
1E
100
AcDbEntity
  8
0
100
AcDbLine
 10
75.7
 20
616.2735
 30
0.0
 11
82.59999999999999
 21
616.2735
 31
0.0
  0
LINE
  5
252
330
1E
100
AcDbEntity
  8
0
100
AcDbLine
 10
90.0
 20
616.2735
 30
0.0
 11
97.40000000000001
 21
616.2735
 31
0.0
  0
LINE
  5
257
330
1E
100
AcDbEntity
  8
0
100
AcDbLine
 10
97.40000000000001
 20
616.2735
 30
0.0
 11
104.2999999999999
 21
616.2735
 31
0.0
  0
LINE
  5
25A
330
1E
100
AcDbEntity
  8
0
100
AcDbLine
 10
82.59999999999999
 20
616.2735
 30
0.0
 11
90.0
 21
616.2735
 31
0.0
  0
LINE
  5
25C
330
1E
100
AcDbEntity
  8
0
100
AcDbLine
 10
65.3
 20
616.2735
 30
0.0
 11
69.8
 21
616.2735
 31
0.0
  0
LINE
  5
25E
330
1E
100
AcDbEntity
  8
0
100
AcDbLine
 10
62.4
 20
616.2735
 30
0.0
 11
65.3
 21
616.2735
 31
0.0
  0
LINE
  5
260
330
1E
100
AcDbEntity
  8
0
100
AcDbLine
 10
88.54600000000001
 20
639.9634999999999
 30
0.0
 11
88.90799999999998
 21
654.9025
 31
0.0
  0
LINE
  5
265
330
1E
100
AcDbEntity
  8
0
100
AcDbLine
 10
88.90799999999998
 20
654.9025
 30
0.0
 11
89.26199999999999
 21
669.9535
 31
0.0
  0
LINE
  5
270
330
1E
100
AcDbEntity
  8
0
100
AcDbLine
 10
87.51299999999998
 20
616.3094999999999
 30
0.0
 11
88.54600000000001
 21
639.9634999999999
 31
0.0
  0
LINE
  5
271
330
1E
100
AcDbEntity
  8
0
100
AcDbLine
 10
61.5
 20
616.2735
 30
0.0
 11
62.4
 21
616.2735
 31
0.0
  0
LINE
  5
273
330
1E
100
AcDbEntity
  8
0
100
AcDbLine
 10
60.5
 20
615.6735
 30
0.0
 11
61.5
 21
616.2735
 31
0.0
  0
LINE
  5
274
330
1E
100
AcDbEntity
  8
0
100
AcDbLine
 10
60.0
 20
614.6734999999999
 30
0.0
 11
60.0
 21
614.2735
 31
0.0
  0
LINE
  5
276
330
1E
100
AcDbEntity
  8
0
100
AcDbLine
 10
60.0
 20
614.6734999999999
 30
0.0
 11
60.5
 21
615.6735
 31
0.0
  0
LINE
  5
277
330
1E
100
AcDbEntity
  8
0
100
AcDbLine
 10
102.972
 20
592.8024999999999
 30
0.0
 11
103.4222062784149
 21
612.2735
 31
0.0
  0
LINE
  5
278
330
1E
100
AcDbEntity
  8
0
100
AcDbLine
 10
103.7
 20
612.2735
 30
0.0
 11
109.4
 21
612.2735
 31
0.0
  0
LINE
  5
279
330
1E
100
AcDbEntity
  8
0
100
AcDbLine
 10
104.2999999999999
 20
612.2735
 30
0.0
 11
110.2
 21
612.2735
 31
0.0
  0
LINE
  5
27B
330
1E
100
AcDbEntity
  8
0
100
AcDbLine
 10
109.4
 20
612.2735
 30
0.0
 11
113.7999999999999
 21
612.2735
 31
0.0
  0
LINE
  5
27C
330
1E
100
AcDbEntity
  8
0
100
AcDbLine
 10
110.2
 20
612.2735
 30
0.0
 11
114.7
 21
612.2735
 31
0.0
  0
LINE
  5
27D
330
1E
100
AcDbEntity
  8
0
100
AcDbLine
 10
113.7999999999999
 20
612.2735
 30
0.0
 11
116.5
 21
612.2735
 31
0.0
  0
LINE
  5
280
330
1E
100
AcDbEntity
  8
0
100
AcDbLine
 10
114.7
 20
612.2735
 30
0.0
 11
117.5999999999999
 21
612.2735
 31
0.0
  0
LINE
  5
285
330
1E
100
AcDbEntity
  8
0
100
AcDbLine
 10
116.5
 20
612.2735
 30
0.0
 11
117.5
 21
612.2735
 31
0.0
  0
LINE
  5
286
330
1E
100
AcDbEntity
  8
0
100
AcDbLine
 10
117.5
 20
612.2735
 30
0.0
 11
118.5
 21
612.2735
 31
0.0
  0
LINE
  5
287
330
1E
100
AcDbEntity
  8
0
100
AcDbLine
 10
117.5999999999999
 20
612.2735
 30
0.0
 11
118.5
 21
612.2735
 31
0.0
  0
LINE
  5
288
330
1E
100
AcDbEntity
  8
0
100
AcDbLine
 10
118.5
 20
612.2735
 30
0.0
 11
119.5
 21
612.8735
 31
0.0
  0
LINE
  5
28A
330
1E
100
AcDbEntity
  8
0
100
AcDbLine
 10
119.5
 20
612.8735
 30
0.0
 11
120.0
 21
613.8735
 31
0.0
  0
LINE
  5
28C
330
1E
100
AcDbEntity
  8
0
100
AcDbLine
 10
120.0
 20
614.6734999999999
 30
0.0
 11
120.0
 21
614.2735
 31
0.0
  0
LINE
  5
28D
330
1E
100
AcDbEntity
  8
0
100
AcDbLine
 10
120.0
 20
614.6734999999999
 30
0.0
 11
120.0
 21
730.9204999999999
 31
0.0
  0
LINE
  5
28E
330
1E
100
AcDbEntity
  8
0
100
AcDbLine
 10
120.0
 20
613.8735
 30
0.0
 11
120.0
 21
614.2735
 31
0.0
  0
LINE
  5
291
330
1E
100
AcDbEntity
  8
0
100
AcDbLine
 10
120.0
 20
614.2735
 30
0.0
 11
120.0
 21
614.6734999999999
 31
0.0
  0
LINE
  5
292
330
1E
100
AcDbEntity
  8
0
100
AcDbLine
 10
120.0
 20
614.2735
 30
0.0
 11
120.0
 21
613.8735
 31
0.0
  0
LINE
  5
293
330
1E
100
AcDbEntity
  8
0
100
AcDbLine
 10
103.522474144519
 20
616.2735
 30
0.0
 11
104.5379999999999
 21
639.4515
 31
0.0
  0
LINE
  5
296
330
1E
100
AcDbEntity
  8
0
100
AcDbLine
 10
104.5379999999999
 20
639.4515
 30
0.0
 11
104.901
 21
654.4294999999999
 31
0.0
  0
LINE
  5
298
330
1E
100
AcDbEntity
  8
0
100
AcDbLine
 10
104.2999999999999
 20
616.2735
 30
0.0
 11
110.2
 21
616.2735
 31
0.0
  0
LINE
  5
29B
330
1E
100
AcDbEntity
  8
0
100
AcDbLine
 10
119.5
 20
615.6735
 30
0.0
 11
120.0
 21
614.6734999999999
 31
0.0
  0
LINE
  5
29F
330
1E
100
AcDbEntity
  8
0
100
AcDbLine
 10
116.0
 20
616.2735
 30
0.0
 11
116.0
 21
730.192166666667
 31
0.0
  0
LINE
  5
2A0
330
1E
100
AcDbEntity
  8
0
100
AcDbLine
 10
110.2
 20
616.2735
 30
0.0
 11
114.7
 21
616.2735
 31
0.0
  0
LINE
  5
2A1
330
1E
100
AcDbEntity
  8
0
100
AcDbLine
 10
104.901
 20
654.4294999999999
 30
0.0
 11
105.2589999999999
 21
669.6785
 31
0.0
  0
LINE
  5
2A2
330
1E
100
AcDbEntity
  8
0
100
AcDbLine
 10
114.7
 20
616.2735
 30
0.0
 11
117.5999999999999
 21
616.2735
 31
0.0
  0
LINE
  5
2A3
330
1E
100
AcDbEntity
  8
0
100
AcDbLine
 10
118.5
 20
616.2735
 30
0.0
 11
119.5
 21
615.6735
 31
0.0
  0
LINE
  5
2A5
330
1E
100
AcDbEntity
  8
0
100
AcDbLine
 10
117.5999999999999
 20
616.2735
 30
0.0
 11
118.5
 21
616.2735
 31
0.0
  0
LINE
  5
2A9
330
1E
100
AcDbEntity
  8
0
100
AcDbLine
 10
102.526735962321
 20
727.2734999999999
 30
0.0
 11
116.0
 21
727.2734999999999
 31
0.0
  0
LINE
  5
2AA
330
1E
100
AcDbEntity
  8
0
100
AcDbLine
 10
120.0
 20
727.2734999999999
 30
0.0
 11
127.5
 21
727.2734999999999
 31
0.0
  0
LINE
  5
2AB
330
1E
100
AcDbEntity
  8
0
100
AcDbLine
 10
127.5
 20
727.2734999999999
 30
0.0
 11
130.4999999999999
 21
728.2735
 31
0.0
  0
LINE
  5
2AC
330
1E
100
AcDbEntity
  8
0
100
AcDbLine
 10
130.4999999999999
 20
728.2735
 30
0.0
 11
131.4999999999999
 21
731.2734999999999
 31
0.0
  0
LINE
  5
2AE
330
1E
100
AcDbEntity
  8
0
100
AcDbLine
 10
52.5
 20
727.2734999999999
 30
0.0
 11
86.55570504938101
 21
727.2734999999999
 31
0.0
  0
LINE
  5
2B0
330
1E
100
AcDbEntity
  8
0
100
AcDbLine
 10
116.0
 20
730.192166666667
 30
0.0
 11
116.0
 21
616.2735
 31
0.0
  0
LINE
  5
2B1
330
1E
100
AcDbEntity
  8
0
100
AcDbLine
 10
102.4725573636609
 20
728.415562533761
 30
0.0
 11
117.0
 21
730.3234999999999
 31
0.0
  0
LINE
  5
2B2
330
1E
100
AcDbEntity
  8
0
100
AcDbLine
 10
117.0
 20
730.3234999999999
 30
0.0
 11
127.0
 21
732.3134999999999
 31
0.0
  0
LINE
  5
2B3
330
1E
100
AcDbEntity
  8
0
100
AcDbLine
 10
78.0
 20
728.3535
 30
0.0
 11
86.53898256004239
 21
727.6276864823959
 31
0.0
  0
LINE
  5
2B7
330
1E
100
AcDbEntity
  8
0
100
AcDbLine
 10
120.0
 20
730.9204999999999
 30
0.0
 11
120.0
 21
614.6734999999999
 31
0.0
  0
LINE
  5
2B8
330
1E
100
AcDbEntity
  8
0
100
AcDbLine
 10
63.0
 20
730.3234999999999
 30
0.0
 11
78.0
 21
728.3535
 31
0.0
  0
LINE
  5
2B9
330
1E
100
AcDbEntity
  8
0
100
AcDbLine
 10
131.4999999999999
 20
731.2734999999999
 30
0.0
 11
131.4999999999999
 21
733.3334999999999
 31
0.0
  0
LINE
  5
2BB
330
1E
100
AcDbEntity
  8
0
100
AcDbLine
 10
52.0
 20
733.9235
 30
0.0
 11
52.0
 21
733.3334999999999
 31
0.0
  0
LINE
  5
2BC
330
1E
100
AcDbEntity
  8
0
100
AcDbLine
 10
52.0
 20
733.9235
 30
0.0
 11
52.0
 21
739.2435
 31
0.0
  0
LINE
  5
2BD
330
1E
100
AcDbEntity
  8
0
100
AcDbLine
 10
52.0
 20
733.3334999999999
 30
0.0
 11
53.0
 21
732.3134999999999
 31
0.0
  0
LINE
  5
2BE
330
1E
100
AcDbEntity
  8
0
100
AcDbLine
 10
52.0
 20
733.3334999999999
 30
0.0
 11
52.0
 21
733.9235
 31
0.0
  0
LINE
  5
2BF
330
1E
100
AcDbEntity
  8
0
100
AcDbLine
 10
52.0
 20
739.2435
 30
0.0
 11
52.0
 21
742.7934999999999
 31
0.0
  0
LINE
  5
2C0
330
1E
100
AcDbEntity
  8
0
100
AcDbLine
 10
51.7
 20
746.4434999999999
 30
0.0
 11
52.0
 21
739.2435
 31
0.0
  0
LINE
  5
2C1
330
1E
100
AcDbEntity
  8
0
100
AcDbLine
 10
52.0
 20
742.7934999999999
 30
0.0
 11
52.0
 21
739.2435
 31
0.0
  0
LINE
  5
2C2
330
1E
100
AcDbEntity
  8
0
100
AcDbLine
 10
52.0
 20
742.7934999999999
 30
0.0
 11
52.0
 21
747.4634999999999
 31
0.0
  0
LINE
  5
2C3
330
1E
100
AcDbEntity
  8
0
100
AcDbLine
 10
52.0
 20
747.4634999999999
 30
0.0
 11
52.0
 21
742.7934999999999
 31
0.0
  0
LINE
  5
2C4
330
1E
100
AcDbEntity
  8
0
100
AcDbLine
 10
52.0
 20
747.4634999999999
 30
0.0
 11
52.0
 21
752.2734999999999
 31
0.0
  0
LINE
  5
2C5
330
1E
100
AcDbEntity
  8
0
100
AcDbLine
 10
51.29999999999999
 20
755.5335
 30
0.0
 11
51.7
 21
746.4434999999999
 31
0.0
  0
LINE
  5
2C6
330
1E
100
AcDbEntity
  8
0
100
AcDbLine
 10
51.30958770431821
 20
770.9428583800929
 30
0.0
 11
52.0
 21
776.8735
 31
0.0
  0
LINE
  5
2C7
330
1E
100
AcDbEntity
  8
0
100
AcDbLine
 10
50.2
 20
768.3735
 30
0.0
 11
51.29999999999999
 21
755.5335
 31
0.0
  0
LINE
  5
2C8
330
1E
100
AcDbEntity
  8
0
100
AcDbLine
 10
49.82803367472779
 20
770.362089200494
 30
0.0
 11
51.3095877043181
 21
770.9428583800929
 31
0.0
  0
LINE
  5
2C9
330
1E
100
AcDbEntity
  8
0
100
AcDbLine
 10
52.0
 20
771.2134999999999
 30
0.0
 11
52.0
 21
770.6434999999999
 31
0.0
  0
LINE
  5
2CA
330
1E
100
AcDbEntity
  8
0
100
AcDbLine
 10
52.0
 20
771.2134999999999
 30
0.0
 11
53.0
 21
772.2335000000001
 31
0.0
  0
LINE
  5
2CB
330
1E
100
AcDbEntity
  8
0
100
AcDbLine
 10
52.0
 20
770.6434999999999
 30
0.0
 11
52.0
 21
768.6835
 31
0.0
  0
LINE
  5
2CC
330
1E
100
AcDbEntity
  8
0
100
AcDbLine
 10
52.0
 20
770.6434999999999
 30
0.0
 11
52.0
 21
771.2134999999999
 31
0.0
  0
LINE
  5
2CD
330
1E
100
AcDbEntity
  8
0
100
AcDbLine
 10
52.0
 20
768.6835
 30
0.0
 11
52.0
 21
765.6235
 31
0.0
  0
LINE
  5
2CE
330
1E
100
AcDbEntity
  8
0
100
AcDbLine
 10
52.0
 20
768.6835
 30
0.0
 11
52.0
 21
770.6434999999999
 31
0.0
  0
LINE
  5
2CF
330
1E
100
AcDbEntity
  8
0
100
AcDbLine
 10
52.0
 20
765.6235
 30
0.0
 11
52.0
 21
761.7435
 31
0.0
  0
LINE
  5
2D0
330
1E
100
AcDbEntity
  8
0
100
AcDbLine
 10
52.0
 20
765.6235
 30
0.0
 11
52.0
 21
768.6835
 31
0.0
  0
LINE
  5
2D1
330
1E
100
AcDbEntity
  8
0
100
AcDbLine
 10
52.0
 20
761.7435
 30
0.0
 11
52.0
 21
757.1934999999999
 31
0.0
  0
LINE
  5
2D2
330
1E
100
AcDbEntity
  8
0
100
AcDbLine
 10
52.0
 20
761.7435
 30
0.0
 11
52.0
 21
765.6235
 31
0.0
  0
LINE
  5
2D3
330
1E
100
AcDbEntity
  8
0
100
AcDbLine
 10
52.0
 20
752.2734999999999
 30
0.0
 11
52.0
 21
747.4634999999999
 31
0.0
  0
LINE
  5
2D4
330
1E
100
AcDbEntity
  8
0
100
AcDbLine
 10
52.0
 20
752.2734999999999
 30
0.0
 11
52.0
 21
757.1934999999999
 31
0.0
  0
LINE
  5
2D5
330
1E
100
AcDbEntity
  8
0
100
AcDbLine
 10
53.0
 20
732.3134999999999
 30
0.0
 11
63.0
 21
730.3234999999999
 31
0.0
  0
LINE
  5
2D6
330
1E
100
AcDbEntity
  8
0
100
AcDbLine
 10
53.0
 20
732.3134999999999
 30
0.0
 11
53.0
 21
732.9534999999999
 31
0.0
  0
LINE
  5
2D7
330
1E
100
AcDbEntity
  8
0
100
AcDbLine
 10
53.0
 20
732.9534999999999
 30
0.0
 11
53.0
 21
734.9534999999999
 31
0.0
  0
LINE
  5
2D8
330
1E
100
AcDbEntity
  8
0
100
AcDbLine
 10
53.0
 20
732.9534999999999
 30
0.0
 11
53.0
 21
732.3134999999999
 31
0.0
  0
LINE
  5
2D9
330
1E
100
AcDbEntity
  8
0
100
AcDbLine
 10
53.0
 20
734.9534999999999
 30
0.0
 11
53.0
 21
732.9534999999999
 31
0.0
  0
LINE
  5
2DA
330
1E
100
AcDbEntity
  8
0
100
AcDbLine
 10
53.0
 20
734.9534999999999
 30
0.0
 11
53.0
 21
738.1235
 31
0.0
  0
LINE
  5
2DB
330
1E
100
AcDbEntity
  8
0
100
AcDbLine
 10
53.0
 20
738.1235
 30
0.0
 11
53.0
 21
734.9534999999999
 31
0.0
  0
LINE
  5
2DC
330
1E
100
AcDbEntity
  8
0
100
AcDbLine
 10
53.0
 20
738.1235
 30
0.0
 11
53.0
 21
742.3034999999999
 31
0.0
  0
LINE
  5
2DD
330
1E
100
AcDbEntity
  8
0
100
AcDbLine
 10
53.0
 20
742.3034999999999
 30
0.0
 11
53.0
 21
738.1235
 31
0.0
  0
LINE
  5
2DE
330
1E
100
AcDbEntity
  8
0
100
AcDbLine
 10
53.0
 20
742.3034999999999
 30
0.0
 11
53.0
 21
747.1834999999999
 31
0.0
  0
LINE
  5
2DF
330
1E
100
AcDbEntity
  8
0
100
AcDbLine
 10
53.0
 20
747.1834999999999
 30
0.0
 11
53.0
 21
742.3034999999999
 31
0.0
  0
LINE
  5
2E0
330
1E
100
AcDbEntity
  8
0
100
AcDbLine
 10
53.0
 20
747.1834999999999
 30
0.0
 11
53.0
 21
752.3434999999999
 31
0.0
  0
LINE
  5
2E1
330
1E
100
AcDbEntity
  8
0
100
AcDbLine
 10
53.0
 20
752.3434999999999
 30
0.0
 11
53.0
 21
747.1834999999999
 31
0.0
  0
LINE
  5
2E2
330
1E
100
AcDbEntity
  8
0
100
AcDbLine
 10
53.0
 20
752.3434999999999
 30
0.0
 11
53.0
 21
757.4535
 31
0.0
  0
LINE
  5
2E3
330
1E
100
AcDbEntity
  8
0
100
AcDbLine
 10
53.0
 20
772.2335000000001
 30
0.0
 11
53.0
 21
771.5435
 31
0.0
  0
LINE
  5
2E4
330
1E
100
AcDbEntity
  8
0
100
AcDbLine
 10
53.0
 20
772.2335000000001
 30
0.0
 11
63.0
 21
774.2234999999999
 31
0.0
  0
LINE
  5
2E5
330
1E
100
AcDbEntity
  8
0
100
AcDbLine
 10
53.0
 20
771.5435
 30
0.0
 11
53.0
 21
769.5434999999999
 31
0.0
  0
LINE
  5
2E6
330
1E
100
AcDbEntity
  8
0
100
AcDbLine
 10
53.0
 20
771.5435
 30
0.0
 11
53.0
 21
772.2335000000001
 31
0.0
  0
LINE
  5
2E7
330
1E
100
AcDbEntity
  8
0
100
AcDbLine
 10
53.0
 20
769.5434999999999
 30
0.0
 11
53.0
 21
766.3134999999999
 31
0.0
  0
LINE
  5
2E8
330
1E
100
AcDbEntity
  8
0
100
AcDbLine
 10
53.0
 20
769.5434999999999
 30
0.0
 11
53.0
 21
771.5435
 31
0.0
  0
LINE
  5
2E9
330
1E
100
AcDbEntity
  8
0
100
AcDbLine
 10
53.0
 20
766.3134999999999
 30
0.0
 11
53.0
 21
762.1934999999999
 31
0.0
  0
LINE
  5
2EA
330
1E
100
AcDbEntity
  8
0
100
AcDbLine
 10
53.0
 20
766.3134999999999
 30
0.0
 11
53.0
 21
769.5434999999999
 31
0.0
  0
LINE
  5
2EB
330
1E
100
AcDbEntity
  8
0
100
AcDbLine
 10
53.0
 20
762.1934999999999
 30
0.0
 11
53.0
 21
757.4535
 31
0.0
  0
LINE
  5
2EC
330
1E
100
AcDbEntity
  8
0
100
AcDbLine
 10
53.0
 20
762.1934999999999
 30
0.0
 11
53.0
 21
766.3134999999999
 31
0.0
  0
LINE
  5
2ED
330
1E
100
AcDbEntity
  8
0
100
AcDbLine
 10
53.0
 20
757.4535
 30
0.0
 11
53.0
 21
752.3434999999999
 31
0.0
  0
LINE
  5
2EE
330
1E
100
AcDbEntity
  8
0
100
AcDbLine
 10
53.0
 20
757.4535
 30
0.0
 11
53.0
 21
762.1934999999999
 31
0.0
  0
LINE
  5
2EF
330
1E
100
AcDbEntity
  8
0
100
AcDbLine
 10
52.0
 20
757.1934999999999
 30
0.0
 11
52.0
 21
752.2734999999999
 31
0.0
  0
LINE
  5
2F0
330
1E
100
AcDbEntity
  8
0
100
AcDbLine
 10
52.0
 20
757.1934999999999
 30
0.0
 11
52.0
 21
761.7435
 31
0.0
  0
LINE
  5
2F1
330
1E
100
AcDbEntity
  8
0
100
AcDbLine
 10
51.9
 20
784.4935
 30
0.0
 11
83.85413147864792
 21
784.4935
 31
0.0
  0
LINE
  5
2F2
330
1E
100
AcDbEntity
  8
0
100
AcDbLine
 10
51.9
 20
784.4935
 30
0.0
 11
52.0
 21
776.8735
 31
0.0
  0
LINE
  5
2F3
330
1E
100
AcDbEntity
  8
0
100
AcDbLine
 10
48.8414
 20
828.2735
 30
0.0
 11
50.2556
 21
828.2735
 31
0.0
  0
LINE
  5
2F4
330
1E
100
AcDbEntity
  8
0
100
AcDbLine
 10
50.2556
 20
828.2735
 30
0.0
 11
50.52322779579389
 21
829.498737511904
 31
0.0
  0
LINE
  5
2F5
330
1E
100
AcDbEntity
  8
0
100
AcDbLine
 10
48.9043
 20
828.8635000000001
 30
0.0
 11
49.1139921465969
 21
829.8235
 31
0.0
  0
LINE
  5
2F6
330
1E
100
AcDbEntity
  8
0
100
AcDbLine
 10
48.9043
 20
828.8635000000001
 30
0.0
 11
50.2556
 21
828.2735
 31
0.0
  0
LINE
  5
2F7
330
1E
100
AcDbEntity
  8
0
100
AcDbLine
 10
50.5
 20
831.6235
 30
0.0
 11
57.6
 21
831.6235
 31
0.0
  0
LINE
  5
2F8
330
1E
100
AcDbEntity
  8
0
100
AcDbLine
 10
50.5
 20
832.6235
 30
0.0
 11
57.6
 21
832.6235
 31
0.0
  0
LINE
  5
2F9
330
1E
100
AcDbEntity
  8
0
100
AcDbLine
 10
48.50488101983849
 20
826.0726071305169
 30
0.0
 11
52.6
 21
825.3235
 31
0.0
  0
LINE
  5
2FA
330
1E
100
AcDbEntity
  8
0
100
AcDbLine
 10
51.814
 20
826.1035000000001
 30
0.0
 11
52.0253406985492
 21
827.3729691055979
 31
0.0
  0
LINE
  5
2FB
330
1E
100
AcDbEntity
  8
0
100
AcDbLine
 10
51.814
 20
826.1035000000001
 30
0.0
 11
53.0315
 21
826.1035000000001
 31
0.0
  0
LINE
  5
2FC
330
1E
100
AcDbEntity
  8
0
100
AcDbLine
 10
51.814
 20
826.1035000000001
 30
0.0
 11
53.3668
 21
825.6935
 31
0.0
  0
LINE
  5
2FD
330
1E
100
AcDbEntity
  8
0
100
AcDbLine
 10
52.6
 20
825.3235
 30
0.0
 11
54.4222254664225
 21
825.095721816697
 31
0.0
  0
LINE
  5
300
330
1E
100
AcDbEntity
  8
0
100
AcDbLine
 10
50.1067
 20
863.2234999999999
 30
0.0
 11
59.49329999999999
 21
864.3235
 31
0.0
  0
LINE
  5
301
330
1E
100
AcDbEntity
  8
0
100
AcDbLine
 10
53.0315
 20
826.1035000000001
 30
0.0
 11
53.18619590680309
 21
827.0327184411099
 31
0.0
  0
LINE
  5
302
330
1E
100
AcDbEntity
  8
0
100
AcDbLine
 10
53.0315
 20
826.1035000000001
 30
0.0
 11
54.5844
 21
825.6935
 31
0.0
  0
LINE
  5
303
330
1E
100
AcDbEntity
  8
0
100
AcDbLine
 10
53.3668
 20
825.6935
 30
0.0
 11
54.5844
 21
825.6935
 31
0.0
  0
LINE
  5
304
330
1E
100
AcDbEntity
  8
0
100
AcDbLine
 10
54.2973
 20
824.0835
 30
0.0
 11
54.4280531883916
 21
825.142941550893
 31
0.0
  0
LINE
  5
305
330
1E
100
AcDbEntity
  8
0
100
AcDbLine
 10
54.2973
 20
824.0835
 30
0.0
 11
56.2822
 21
823.8434999999999
 31
0.0
  0
LINE
  5
309
330
1E
100
AcDbEntity
  8
0
100
AcDbLine
 10
52.7279
 20
863.2234999999999
 30
0.0
 11
56.5035
 21
863.6435
 31
0.0
  0
LINE
  5
30D
330
1E
100
AcDbEntity
  8
0
100
AcDbLine
 10
52.6
 20
859.9235
 30
0.0
 11
61.4
 21
861.0235000000001
 31
0.0
  0
LINE
  5
30E
330
1E
100
AcDbEntity
  8
0
100
AcDbLine
 10
49.11999999999999
 20
822.7935
 30
0.0
 11
62.24
 21
816.3635000000001
 31
0.0
  0
LINE
  5
311
330
1E
100
AcDbEntity
  8
0
100
AcDbLine
 10
78.0
 20
776.1935
 30
0.0
 11
84.2210399004235
 21
776.7222883915359
 31
0.0
  0
LINE
  5
312
330
1E
100
AcDbEntity
  8
0
100
AcDbLine
 10
63.0
 20
774.2234999999999
 30
0.0
 11
78.0
 21
776.1935
 31
0.0
  0
LINE
  5
313
330
1E
100
AcDbEntity
  8
0
100
AcDbLine
 10
100.198744213593
 20
776.3466067418449
 30
0.0
 11
102.0
 21
776.1935
 31
0.0
  0
LINE
  5
314
330
1E
100
AcDbEntity
  8
0
100
AcDbLine
 10
102.0
 20
776.1935
 30
0.0
 11
117.0
 21
774.2234999999999
 31
0.0
  0
LINE
  5
315
330
1E
100
AcDbEntity
  8
0
100
AcDbLine
 10
117.0
 20
774.2234999999999
 30
0.0
 11
127.0
 21
772.2335000000001
 31
0.0
  0
LINE
  5
317
330
1E
100
AcDbEntity
  8
0
100
AcDbLine
 10
127.0
 20
732.3134999999999
 30
0.0
 11
128.0
 21
733.3334999999999
 31
0.0
  0
LINE
  5
318
330
1E
100
AcDbEntity
  8
0
100
AcDbLine
 10
127.0
 20
732.3134999999999
 30
0.0
 11
127.0
 21
732.9534999999999
 31
0.0
  0
LINE
  5
319
330
1E
100
AcDbEntity
  8
0
100
AcDbLine
 10
127.0
 20
732.9534999999999
 30
0.0
 11
127.0
 21
734.9534999999999
 31
0.0
  0
LINE
  5
31A
330
1E
100
AcDbEntity
  8
0
100
AcDbLine
 10
127.0
 20
732.9534999999999
 30
0.0
 11
127.0
 21
732.3134999999999
 31
0.0
  0
LINE
  5
31B
330
1E
100
AcDbEntity
  8
0
100
AcDbLine
 10
127.0
 20
734.9534999999999
 30
0.0
 11
127.0
 21
738.1235
 31
0.0
  0
LINE
  5
31C
330
1E
100
AcDbEntity
  8
0
100
AcDbLine
 10
127.0
 20
734.9534999999999
 30
0.0
 11
127.0
 21
732.9534999999999
 31
0.0
  0
LINE
  5
31D
330
1E
100
AcDbEntity
  8
0
100
AcDbLine
 10
127.0
 20
738.1235
 30
0.0
 11
127.0
 21
742.3034999999999
 31
0.0
  0
LINE
  5
31E
330
1E
100
AcDbEntity
  8
0
100
AcDbLine
 10
127.0
 20
738.1235
 30
0.0
 11
127.0
 21
734.9534999999999
 31
0.0
  0
LINE
  5
31F
330
1E
100
AcDbEntity
  8
0
100
AcDbLine
 10
128.0
 20
733.9235
 30
0.0
 11
128.0
 21
735.8635
 31
0.0
  0
LINE
  5
320
330
1E
100
AcDbEntity
  8
0
100
AcDbLine
 10
128.0
 20
733.9235
 30
0.0
 11
128.0
 21
733.3334999999999
 31
0.0
  0
LINE
  5
322
330
1E
100
AcDbEntity
  8
0
100
AcDbLine
 10
128.0
 20
735.8635
 30
0.0
 11
128.0
 21
738.7735
 31
0.0
  0
LINE
  5
323
330
1E
100
AcDbEntity
  8
0
100
AcDbLine
 10
128.0
 20
735.8635
 30
0.0
 11
128.0
 21
733.9235
 31
0.0
  0
LINE
  5
324
330
1E
100
AcDbEntity
  8
0
100
AcDbLine
 10
127.0
 20
742.3034999999999
 30
0.0
 11
127.0
 21
747.1834999999999
 31
0.0
  0
LINE
  5
325
330
1E
100
AcDbEntity
  8
0
100
AcDbLine
 10
127.0
 20
742.3034999999999
 30
0.0
 11
127.0
 21
738.1235
 31
0.0
  0
LINE
  5
326
330
1E
100
AcDbEntity
  8
0
100
AcDbLine
 10
128.0
 20
739.2435
 30
0.0
 11
128.3
 21
746.4434999999999
 31
0.0
  0
LINE
  5
327
330
1E
100
AcDbEntity
  8
0
100
AcDbLine
 10
128.0
 20
739.2435
 30
0.0
 11
128.0
 21
733.9235
 31
0.0
  0
LINE
  5
328
330
1E
100
AcDbEntity
  8
0
100
AcDbLine
 10
127.0
 20
747.1834999999999
 30
0.0
 11
127.0
 21
752.3434999999999
 31
0.0
  0
LINE
  5
329
330
1E
100
AcDbEntity
  8
0
100
AcDbLine
 10
127.0
 20
747.1834999999999
 30
0.0
 11
127.0
 21
742.3034999999999
 31
0.0
  0
LINE
  5
32A
330
1E
100
AcDbEntity
  8
0
100
AcDbLine
 10
128.0
 20
738.7735
 30
0.0
 11
128.0
 21
742.7934999999999
 31
0.0
  0
LINE
  5
32B
330
1E
100
AcDbEntity
  8
0
100
AcDbLine
 10
128.0
 20
738.7735
 30
0.0
 11
128.0
 21
735.8635
 31
0.0
  0
LINE
  5
32C
330
1E
100
AcDbEntity
  8
0
100
AcDbLine
 10
128.0
 20
742.7934999999999
 30
0.0
 11
128.0
 21
747.4634999999999
 31
0.0
  0
LINE
  5
32D
330
1E
100
AcDbEntity
  8
0
100
AcDbLine
 10
128.0
 20
742.7934999999999
 30
0.0
 11
128.0
 21
738.7735
 31
0.0
  0
LINE
  5
32E
330
1E
100
AcDbEntity
  8
0
100
AcDbLine
 10
127.0
 20
772.2335000000001
 30
0.0
 11
128.0
 21
771.2134999999999
 31
0.0
  0
LINE
  5
32F
330
1E
100
AcDbEntity
  8
0
100
AcDbLine
 10
127.0
 20
772.2335000000001
 30
0.0
 11
127.0
 21
771.5435
 31
0.0
  0
LINE
  5
330
330
1E
100
AcDbEntity
  8
0
100
AcDbLine
 10
127.0
 20
771.5435
 30
0.0
 11
127.0
 21
772.2335000000001
 31
0.0
  0
LINE
  5
331
330
1E
100
AcDbEntity
  8
0
100
AcDbLine
 10
127.0
 20
771.5435
 30
0.0
 11
127.0
 21
769.5434999999999
 31
0.0
  0
LINE
  5
332
330
1E
100
AcDbEntity
  8
0
100
AcDbLine
 10
127.0
 20
769.5434999999999
 30
0.0
 11
127.0
 21
771.5435
 31
0.0
  0
LINE
  5
333
330
1E
100
AcDbEntity
  8
0
100
AcDbLine
 10
127.0
 20
769.5434999999999
 30
0.0
 11
127.0
 21
766.3134999999999
 31
0.0
  0
LINE
  5
334
330
1E
100
AcDbEntity
  8
0
100
AcDbLine
 10
127.0
 20
766.3134999999999
 30
0.0
 11
127.0
 21
769.5434999999999
 31
0.0
  0
LINE
  5
335
330
1E
100
AcDbEntity
  8
0
100
AcDbLine
 10
127.0
 20
766.3134999999999
 30
0.0
 11
127.0
 21
762.1934999999999
 31
0.0
  0
LINE
  5
336
330
1E
100
AcDbEntity
  8
0
100
AcDbLine
 10
127.0
 20
762.1934999999999
 30
0.0
 11
127.0
 21
766.3134999999999
 31
0.0
  0
LINE
  5
337
330
1E
100
AcDbEntity
  8
0
100
AcDbLine
 10
127.0
 20
762.1934999999999
 30
0.0
 11
127.0
 21
757.4535
 31
0.0
  0
LINE
  5
338
330
1E
100
AcDbEntity
  8
0
100
AcDbLine
 10
127.0
 20
757.4535
 30
0.0
 11
127.0
 21
752.3434999999999
 31
0.0
  0
LINE
  5
339
330
1E
100
AcDbEntity
  8
0
100
AcDbLine
 10
127.0
 20
757.4535
 30
0.0
 11
127.0
 21
762.1934999999999
 31
0.0
  0
LINE
  5
33A
330
1E
100
AcDbEntity
  8
0
100
AcDbLine
 10
128.0
 20
776.8735
 30
0.0
 11
128.0999999999999
 21
784.4935
 31
0.0
  0
LINE
  5
33B
330
1E
100
AcDbEntity
  8
0
100
AcDbLine
 10
128.0
 20
776.8735
 30
0.0
 11
128.0
 21
771.2134999999999
 31
0.0
  0
LINE
  5
33D
330
1E
100
AcDbEntity
  8
0
100
AcDbLine
 10
128.0
 20
771.2134999999999
 30
0.0
 11
128.0
 21
770.6434999999999
 31
0.0
  0
LINE
  5
33E
330
1E
100
AcDbEntity
  8
0
100
AcDbLine
 10
128.0
 20
771.2134999999999
 30
0.0
 11
130.1719663252719
 21
770.3620892004929
 31
0.0
  0
LINE
  5
33F
330
1E
100
AcDbEntity
  8
0
100
AcDbLine
 10
128.0
 20
771.2134999999999
 30
0.0
 11
128.0
 21
776.8735
 31
0.0
  0
LINE
  5
340
330
1E
100
AcDbEntity
  8
0
100
AcDbLine
 10
128.0
 20
770.6434999999999
 30
0.0
 11
128.0
 21
768.6835
 31
0.0
  0
LINE
  5
341
330
1E
100
AcDbEntity
  8
0
100
AcDbLine
 10
128.0
 20
770.6434999999999
 30
0.0
 11
128.0
 21
771.2134999999999
 31
0.0
  0
LINE
  5
342
330
1E
100
AcDbEntity
  8
0
100
AcDbLine
 10
128.0
 20
768.6835
 30
0.0
 11
128.0
 21
765.6235
 31
0.0
  0
LINE
  5
343
330
1E
100
AcDbEntity
  8
0
100
AcDbLine
 10
128.0
 20
768.6835
 30
0.0
 11
128.0
 21
770.6434999999999
 31
0.0
  0
LINE
  5
344
330
1E
100
AcDbEntity
  8
0
100
AcDbLine
 10
128.0
 20
765.6235
 30
0.0
 11
128.0
 21
761.7435
 31
0.0
  0
LINE
  5
345
330
1E
100
AcDbEntity
  8
0
100
AcDbLine
 10
128.0
 20
765.6235
 30
0.0
 11
128.0
 21
768.6835
 31
0.0
  0
LINE
  5
346
330
1E
100
AcDbEntity
  8
0
100
AcDbLine
 10
128.0
 20
761.7435
 30
0.0
 11
128.0
 21
757.1934999999999
 31
0.0
  0
LINE
  5
347
330
1E
100
AcDbEntity
  8
0
100
AcDbLine
 10
128.0
 20
761.7435
 30
0.0
 11
128.0
 21
765.6235
 31
0.0
  0
LINE
  5
348
330
1E
100
AcDbEntity
  8
0
100
AcDbLine
 10
128.0
 20
757.1934999999999
 30
0.0
 11
128.0
 21
752.2734999999999
 31
0.0
  0
LINE
  5
349
330
1E
100
AcDbEntity
  8
0
100
AcDbLine
 10
128.0
 20
757.1934999999999
 30
0.0
 11
128.0
 21
761.7435
 31
0.0
  0
LINE
  5
34A
330
1E
100
AcDbEntity
  8
0
100
AcDbLine
 10
127.0
 20
752.3434999999999
 30
0.0
 11
127.0
 21
757.4535
 31
0.0
  0
LINE
  5
34B
330
1E
100
AcDbEntity
  8
0
100
AcDbLine
 10
127.0
 20
752.3434999999999
 30
0.0
 11
127.0
 21
747.1834999999999
 31
0.0
  0
LINE
  5
34C
330
1E
100
AcDbEntity
  8
0
100
AcDbLine
 10
128.0
 20
747.4634999999999
 30
0.0
 11
128.0
 21
752.2734999999999
 31
0.0
  0
LINE
  5
34D
330
1E
100
AcDbEntity
  8
0
100
AcDbLine
 10
128.0
 20
747.4634999999999
 30
0.0
 11
128.0
 21
742.7934999999999
 31
0.0
  0
LINE
  5
34E
330
1E
100
AcDbEntity
  8
0
100
AcDbLine
 10
128.3
 20
746.4434999999999
 30
0.0
 11
128.6999999999999
 21
755.5335
 31
0.0
  0
LINE
  5
34F
330
1E
100
AcDbEntity
  8
0
100
AcDbLine
 10
128.6999999999999
 20
755.5335
 30
0.0
 11
129.8
 21
768.3735
 31
0.0
  0
LINE
  5
350
330
1E
100
AcDbEntity
  8
0
100
AcDbLine
 10
129.8
 20
768.3735
 30
0.0
 11
132.4
 21
782.2735
 31
0.0
  0
LINE
  5
351
330
1E
100
AcDbEntity
  8
0
100
AcDbLine
 10
128.0
 20
752.2734999999999
 30
0.0
 11
128.0
 21
757.1934999999999
 31
0.0
  0
LINE
  5
352
330
1E
100
AcDbEntity
  8
0
100
AcDbLine
 10
128.0
 20
752.2734999999999
 30
0.0
 11
128.0
 21
747.4634999999999
 31
0.0
  0
LINE
  5
353
330
1E
100
AcDbEntity
  8
0
100
AcDbLine
 10
128.0
 20
733.3334999999999
 30
0.0
 11
128.0
 21
733.9235
 31
0.0
  0
LINE
  5
354
330
1E
100
AcDbEntity
  8
0
100
AcDbLine
 10
128.0
 20
733.3334999999999
 30
0.0
 11
133.0
 21
733.3334999999999
 31
0.0
  0
LINE
  5
35C
330
1E
100
AcDbEntity
  8
0
100
AcDbLine
 10
56.2822
 20
823.8434999999999
 30
0.0
 11
56.2958091724472
 21
823.9532156410641
 31
0.0
  0
LINE
  5
35D
330
1E
100
AcDbEntity
  8
0
100
AcDbLine
 10
57.1723
 20
823.8434999999999
 30
0.0
 11
57.17994756168209
 21
823.9073371506339
 31
0.0
  0
LINE
  5
35E
330
1E
100
AcDbEntity
  8
0
100
AcDbLine
 10
57.1723
 20
823.8434999999999
 30
0.0
 11
57.6899
 21
823.8434999999999
 31
0.0
  0
LINE
  5
35F
330
1E
100
AcDbEntity
  8
0
100
AcDbLine
 10
55.255
 20
824.0835
 30
0.0
 11
55.7727
 21
824.0835
 31
0.0
  0
LINE
  5
360
330
1E
100
AcDbEntity
  8
0
100
AcDbLine
 10
55.255
 20
824.0835
 30
0.0
 11
55.3828135818643
 21
825.1553458824691
 31
0.0
  0
LINE
  5
361
330
1E
100
AcDbEntity
  8
0
100
AcDbLine
 10
55.255
 20
824.0835
 30
0.0
 11
57.1723
 21
823.8434999999999
 31
0.0
  0
LINE
  5
362
330
1E
100
AcDbEntity
  8
0
100
AcDbLine
 10
55.7727
 20
824.0835
 30
0.0
 11
55.9138047133319
 21
825.26730429819
 31
0.0
  0
LINE
  5
363
330
1E
100
AcDbEntity
  8
0
100
AcDbLine
 10
55.7727
 20
824.0835
 30
0.0
 11
57.6899
 21
823.8434999999999
 31
0.0
  0
LINE
  5
364
330
1E
100
AcDbEntity
  8
0
100
AcDbLine
 10
54.5844
 20
825.6935
 30
0.0
 11
54.77246428571429
 21
826.8235
 31
0.0
  0
LINE
  5
365
330
1E
100
AcDbEntity
  8
0
100
AcDbLine
 10
56.5035
 20
863.6435
 30
0.0
 11
62.92609999999999
 21
864.3235
 31
0.0
  0
LINE
  5
366
330
1E
100
AcDbEntity
  8
0
100
AcDbLine
 10
99.81226164621642
 20
784.4935
 30
0.0
 11
128.0999999999999
 21
784.4935
 31
0.0
  0
LINE
  5
368
330
1E
100
AcDbEntity
  8
0
100
AcDbLine
 10
57.6899
 20
823.8434999999999
 30
0.0
 11
57.82930585584811
 21
825.0071745134031
 31
0.0
  0
LINE
  5
369
330
1E
100
AcDbEntity
  8
0
100
AcDbLine
 10
57.6899
 20
823.8434999999999
 30
0.0
 11
57.7894897121389
 21
824.674813785983
 31
0.0
  0
LINE
  5
36A
330
1E
100
AcDbEntity
  8
0
100
AcDbLine
 10
61.2995
 20
823.8434999999999
 30
0.0
 11
61.4120490000756
 21
824.8912057834969
 31
0.0
  0
LINE
  5
36B
330
1E
100
AcDbEntity
  8
0
100
AcDbLine
 10
61.2995
 20
823.8434999999999
 30
0.0
 11
61.3411119624736
 21
824.230861004691
 31
0.0
  0
LINE
  5
36C
330
1E
100
AcDbEntity
  8
0
100
AcDbLine
 10
60.2995
 20
823.8434999999999
 30
0.0
 11
60.30889337230679
 21
823.9309418296539
 31
0.0
  0
LINE
  5
36D
330
1E
100
AcDbEntity
  8
0
100
AcDbLine
 10
60.2995
 20
823.8434999999999
 30
0.0
 11
61.2995
 21
823.8434999999999
 31
0.0
  0
LINE
  5
36E
330
1E
100
AcDbEntity
  8
0
100
AcDbLine
 10
59.58059999999999
 20
824.0835
 30
0.0
 11
59.6878302725551
 21
825.086735742288
 31
0.0
  0
LINE
  5
36F
330
1E
100
AcDbEntity
  8
0
100
AcDbLine
 10
59.58059999999999
 20
824.0835
 30
0.0
 11
61.2995
 21
823.8434999999999
 31
0.0
  0
LINE
  5
370
330
1E
100
AcDbEntity
  8
0
100
AcDbLine
 10
58.5806
 20
824.0835
 30
0.0
 11
59.58059999999999
 21
824.0835
 31
0.0
  0
LINE
  5
371
330
1E
100
AcDbEntity
  8
0
100
AcDbLine
 10
58.5806
 20
824.0835
 30
0.0
 11
58.6961786746556
 21
825.164842560247
 31
0.0
  0
LINE
  5
372
330
1E
100
AcDbEntity
  8
0
100
AcDbLine
 10
58.5806
 20
824.0835
 30
0.0
 11
60.2995
 21
823.8434999999999
 31
0.0
  0
LINE
  5
373
330
1E
100
AcDbEntity
  8
0
100
AcDbLine
 10
58.5806
 20
824.0835
 30
0.0
 11
58.6325386327149
 21
824.5694326709109
 31
0.0
  0
LINE
  5
374
330
1E
100
AcDbEntity
  8
0
100
AcDbLine
 10
61.4
 20
824.2234999999999
 30
0.0
 11
68.39683994272549
 21
823.5390265273421
 31
0.0
  0
LINE
  5
375
330
1E
100
AcDbEntity
  8
0
100
AcDbLine
 10
57.6
 20
831.6235
 30
0.0
 11
65.2
 21
831.6235
 31
0.0
  0
LINE
  5
376
330
1E
100
AcDbEntity
  8
0
100
AcDbLine
 10
57.6
 20
832.6235
 30
0.0
 11
65.2
 21
832.6235
 31
0.0
  0
LINE
  5
377
330
1E
100
AcDbEntity
  8
0
100
AcDbLine
 10
60.5304
 20
828.2735
 30
0.0
 11
62.2625
 21
828.2735
 31
0.0
  0
LINE
  5
378
330
1E
100
AcDbEntity
  8
0
100
AcDbLine
 10
61.307
 20
828.8635000000001
 30
0.0
 11
61.4552722513089
 21
829.8235
 31
0.0
  0
LINE
  5
379
330
1E
100
AcDbEntity
  8
0
100
AcDbLine
 10
61.307
 20
828.8635000000001
 30
0.0
 11
62.2625
 21
828.2735
 31
0.0
  0
LINE
  5
37A
330
1E
100
AcDbEntity
  8
0
100
AcDbLine
 10
59.57489999999999
 20
828.8635000000001
 30
0.0
 11
59.723222513089
 21
829.8235
 31
0.0
  0
LINE
  5
37B
330
1E
100
AcDbEntity
  8
0
100
AcDbLine
 10
59.57489999999999
 20
828.8635000000001
 30
0.0
 11
61.307
 21
828.8635000000001
 31
0.0
  0
LINE
  5
37C
330
1E
100
AcDbEntity
  8
0
100
AcDbLine
 10
59.57489999999999
 20
828.8635000000001
 30
0.0
 11
60.5304
 21
828.2735
 31
0.0
  0
LINE
  5
37D
330
1E
100
AcDbEntity
  8
0
100
AcDbLine
 10
60.37259999999999
 20
826.1035000000001
 30
0.0
 11
60.5047788007622
 21
827.138126395743
 31
0.0
  0
LINE
  5
37E
330
1E
100
AcDbEntity
  8
0
100
AcDbLine
 10
60.37259999999999
 20
826.1035000000001
 30
0.0
 11
61.9593
 21
826.1035000000001
 31
0.0
  0
LINE
  5
37F
330
1E
100
AcDbEntity
  8
0
100
AcDbLine
 10
60.37259999999999
 20
826.1035000000001
 30
0.0
 11
61.56410000000001
 21
825.6935
 31
0.0
  0
LINE
  5
380
330
1E
100
AcDbEntity
  8
0
100
AcDbLine
 10
57.7894897121389
 20
824.674813785983
 30
0.0
 11
58.6325386327149
 21
824.5694326709109
 31
0.0
  0
LINE
  5
381
330
1E
100
AcDbEntity
  8
0
100
AcDbLine
 10
61.3411119624736
 20
824.230861004691
 30
0.0
 11
61.4
 21
824.2234999999999
 31
0.0
  0
LINE
  5
382
330
1E
100
AcDbEntity
  8
0
100
AcDbLine
 10
61.56410000000001
 20
825.6935
 30
0.0
 11
63.1509
 21
825.6935
 31
0.0
  0
LINE
  5
383
330
1E
100
AcDbEntity
  8
0
100
AcDbLine
 10
61.9593
 20
826.1035000000001
 30
0.0
 11
62.0627348123664
 21
826.913133515328
 31
0.0
  0
LINE
  5
384
330
1E
100
AcDbEntity
  8
0
100
AcDbLine
 10
61.9593
 20
826.1035000000001
 30
0.0
 11
63.1509
 21
825.6935
 31
0.0
  0
LINE
  5
38C
330
1E
100
AcDbEntity
  8
0
100
AcDbLine
 10
59.49329999999999
 20
864.3235
 30
0.0
 11
69.3067
 21
865.2234999999999
 31
0.0
  0
LINE
  5
38D
330
1E
100
AcDbEntity
  8
0
100
AcDbLine
 10
61.4
 20
861.0235000000001
 30
0.0
 11
70.59999999999999
 21
861.9234999999999
 31
0.0
  0
LINE
  5
38F
330
1E
100
AcDbEntity
  8
0
100
AcDbLine
 10
90.0
 20
802.7234999999999
 30
0.0
 11
93.59999999999999
 21
803.1235
 31
0.0
  0
LINE
  5
392
330
1E
100
AcDbEntity
  8
0
100
AcDbLine
 10
80.09999999999999
 20
806.2234999999999
 30
0.0
 11
83.0
 21
804.3234999999999
 31
0.0
  0
LINE
  5
393
330
1E
100
AcDbEntity
  8
0
100
AcDbLine
 10
77.9
 20
808.8234999999999
 30
0.0
 11
80.09999999999999
 21
806.2234999999999
 31
0.0
  0
LINE
  5
394
330
1E
100
AcDbEntity
  8
0
100
AcDbLine
 10
76.5
 20
811.7234999999999
 30
0.0
 11
77.9
 21
808.8234999999999
 31
0.0
  0
LINE
  5
395
330
1E
100
AcDbEntity
  8
0
100
AcDbLine
 10
83.0
 20
804.3234999999999
 30
0.0
 11
86.4
 21
803.1235
 31
0.0
  0
LINE
  5
397
330
1E
100
AcDbEntity
  8
0
100
AcDbLine
 10
82.9152605879009
 20
804.379018925168
 30
0.0
 11
89.26199999999999
 21
669.9535
 31
0.0
  0
LINE
  5
39A
330
1E
100
AcDbEntity
  8
0
100
AcDbLine
 10
86.4
 20
803.1235
 30
0.0
 11
90.0
 21
802.7234999999999
 31
0.0
  0
LINE
  5
39E
330
1E
100
AcDbEntity
  8
0
100
AcDbLine
 10
93.59999999999999
 20
803.1235
 30
0.0
 11
97.0
 21
804.3234999999999
 31
0.0
  0
LINE
  5
3A2
330
1E
100
AcDbEntity
  8
0
100
AcDbLine
 10
97.0
 20
804.3234999999999
 30
0.0
 11
99.90000000000001
 21
806.2234999999999
 31
0.0
  0
LINE
  5
3A3
330
1E
100
AcDbEntity
  8
0
100
AcDbLine
 10
99.90000000000001
 20
806.2234999999999
 30
0.0
 11
102.0999999999999
 21
808.8234999999999
 31
0.0
  0
LINE
  5
3A4
330
1E
100
AcDbEntity
  8
0
100
AcDbLine
 10
102.0999999999999
 20
808.8234999999999
 30
0.0
 11
103.4999999999999
 21
811.7234999999999
 31
0.0
  0
LINE
  5
3A5
330
1E
100
AcDbEntity
  8
0
100
AcDbLine
 10
103.4999999999999
 20
811.7234999999999
 30
0.0
 11
104.0
 21
814.8234999999999
 31
0.0
  0
LINE
  5
3A6
330
1E
100
AcDbEntity
  8
0
100
AcDbLine
 10
98.81512544967241
 20
805.5127201221988
 30
0.0
 11
105.2589999999999
 21
669.6785
 31
0.0
  0
LINE
  5
3AB
330
1E
100
AcDbEntity
  8
0
100
AcDbLine
 10
76.0
 20
814.8234999999999
 30
0.0
 11
76.5
 21
811.7234999999999
 31
0.0
  0
LINE
  5
3AC
330
1E
100
AcDbEntity
  8
0
100
AcDbLine
 10
76.0
 20
814.8234999999999
 30
0.0
 11
76.0
 21
819.7234999999999
 31
0.0
  0
LINE
  5
3AD
330
1E
100
AcDbEntity
  8
0
100
AcDbLine
 10
78.77600000000001
 20
821.5735
 30
0.0
 11
79.0074
 21
821.5735
 31
0.0
  0
LINE
  5
3AE
330
1E
100
AcDbEntity
  8
0
100
AcDbLine
 10
78.6644
 20
821.5735
 30
0.0
 11
78.7431
 21
821.5735
 31
0.0
  0
LINE
  5
3AF
330
1E
100
AcDbEntity
  8
0
100
AcDbLine
 10
78.6644
 20
821.5735
 30
0.0
 11
78.77600000000001
 21
821.5735
 31
0.0
  0
LINE
  5
3B0
330
1E
100
AcDbEntity
  8
0
100
AcDbLine
 10
78.7431
 20
821.5735
 30
0.0
 11
79.0065
 21
821.5735
 31
0.0
  0
LINE
  5
3B1
330
1E
100
AcDbEntity
  8
0
100
AcDbLine
 10
79.94410000000001
 20
821.5735
 30
0.0
 11
80.57689999999999
 21
821.5735
 31
0.0
  0
LINE
  5
3B2
330
1E
100
AcDbEntity
  8
0
100
AcDbLine
 10
79.3993
 20
821.5735
 30
0.0
 11
79.94410000000001
 21
821.5735
 31
0.0
  0
LINE
  5
3B3
330
1E
100
AcDbEntity
  8
0
100
AcDbLine
 10
79.0074
 20
821.5735
 30
0.0
 11
79.3993
 21
821.5735
 31
0.0
  0
LINE
  5
3B4
330
1E
100
AcDbEntity
  8
0
100
AcDbLine
 10
80.57689999999999
 20
821.5735
 30
0.0
 11
81.2241
 21
821.5735
 31
0.0
  0
LINE
  5
3B5
330
1E
100
AcDbEntity
  8
0
100
AcDbLine
 10
81.2241
 20
821.5735
 30
0.0
 11
81.87949999999998
 21
821.5735
 31
0.0
  0
LINE
  5
3B6
330
1E
100
AcDbEntity
  8
0
100
AcDbLine
 10
81.87949999999998
 20
821.5735
 30
0.0
 11
82.50299999999999
 21
821.5735
 31
0.0
  0
LINE
  5
3B7
330
1E
100
AcDbEntity
  8
0
100
AcDbLine
 10
82.50299999999999
 20
821.5735
 30
0.0
 11
83.02429999999999
 21
821.5735
 31
0.0
  0
LINE
  5
3B8
330
1E
100
AcDbEntity
  8
0
100
AcDbLine
 10
83.02429999999999
 20
821.5735
 30
0.0
 11
83.44089999999999
 21
821.5735
 31
0.0
  0
LINE
  5
3B9
330
1E
100
AcDbEntity
  8
0
100
AcDbLine
 10
81.8712
 20
821.5735
 30
0.0
 11
82.50399999999999
 21
821.5735
 31
0.0
  0
LINE
  5
3BA
330
1E
100
AcDbEntity
  8
0
100
AcDbLine
 10
81.22329999999999
 20
821.5735
 30
0.0
 11
81.8712
 21
821.5735
 31
0.0
  0
LINE
  5
3BB
330
1E
100
AcDbEntity
  8
0
100
AcDbLine
 10
80.568
 20
821.5735
 30
0.0
 11
81.22329999999999
 21
821.5735
 31
0.0
  0
LINE
  5
3BC
330
1E
100
AcDbEntity
  8
0
100
AcDbLine
 10
79.9444
 20
821.5735
 30
0.0
 11
80.568
 21
821.5735
 31
0.0
  0
LINE
  5
3BD
330
1E
100
AcDbEntity
  8
0
100
AcDbLine
 10
79.4231
 20
821.5735
 30
0.0
 11
79.9444
 21
821.5735
 31
0.0
  0
LINE
  5
3BE
330
1E
100
AcDbEntity
  8
0
100
AcDbLine
 10
79.0065
 20
821.5735
 30
0.0
 11
79.4231
 21
821.5735
 31
0.0
  0
LINE
  5
3BF
330
1E
100
AcDbEntity
  8
0
100
AcDbLine
 10
82.50399999999999
 20
821.5735
 30
0.0
 11
83.0488
 21
821.5735
 31
0.0
  0
LINE
  5
3C0
330
1E
100
AcDbEntity
  8
0
100
AcDbLine
 10
83.0488
 20
821.5735
 30
0.0
 11
83.4401
 21
821.5735
 31
0.0
  0
LINE
  5
3C1
330
1E
100
AcDbEntity
  8
0
100
AcDbLine
 10
83.4401
 20
821.5735
 30
0.0
 11
83.6715
 21
821.5735
 31
0.0
  0
LINE
  5
3C2
330
1E
100
AcDbEntity
  8
0
100
AcDbLine
 10
83.6715
 20
821.5735
 30
0.0
 11
83.78289999999999
 21
821.5735
 31
0.0
  0
LINE
  5
3C3
330
1E
100
AcDbEntity
  8
0
100
AcDbLine
 10
83.7043
 20
821.5735
 30
0.0
 11
83.78289999999999
 21
821.5735
 31
0.0
  0
LINE
  5
3C4
330
1E
100
AcDbEntity
  8
0
100
AcDbLine
 10
83.78289999999999
 20
821.5735
 30
0.0
 11
84.3428265091941
 21
822.7566099644899
 31
0.0
  0
LINE
  5
3C5
330
1E
100
AcDbEntity
  8
0
100
AcDbLine
 10
83.44089999999999
 20
821.5735
 30
0.0
 11
83.7043
 21
821.5735
 31
0.0
  0
LINE
  5
3C6
330
1E
100
AcDbEntity
  8
0
100
AcDbLine
 10
87.435
 20
821.5735
 30
0.0
 11
87.52309999999999
 21
821.5735
 31
0.0
  0
LINE
  5
3C7
330
1E
100
AcDbEntity
  8
0
100
AcDbLine
 10
87.7791
 20
821.5735
 30
0.0
 11
88.20299999999999
 21
821.5735
 31
0.0
  0
LINE
  5
3C8
330
1E
100
AcDbEntity
  8
0
100
AcDbLine
 10
87.52309999999999
 20
821.5735
 30
0.0
 11
87.779
 21
821.5735
 31
0.0
  0
LINE
  5
3C9
330
1E
100
AcDbEntity
  8
0
100
AcDbLine
 10
87.52309999999999
 20
821.5735
 30
0.0
 11
87.7791
 21
821.5735
 31
0.0
  0
LINE
  5
3CA
330
1E
100
AcDbEntity
  8
0
100
AcDbLine
 10
87.779
 20
821.5735
 30
0.0
 11
88.20289999999999
 21
821.5735
 31
0.0
  0
LINE
  5
3CB
330
1E
100
AcDbEntity
  8
0
100
AcDbLine
 10
88.20299999999999
 20
821.5735
 30
0.0
 11
88.71500000000001
 21
821.5735
 31
0.0
  0
LINE
  5
3CC
330
1E
100
AcDbEntity
  8
0
100
AcDbLine
 10
88.20289999999999
 20
821.5735
 30
0.0
 11
88.71500000000001
 21
821.5735
 31
0.0
  0
LINE
  5
3CD
330
1E
100
AcDbEntity
  8
0
100
AcDbLine
 10
69.0403
 20
822.5735
 30
0.0
 11
69.04275337144729
 21
822.630291005726
 31
0.0
  0
LINE
  5
3CE
330
1E
100
AcDbEntity
  8
0
100
AcDbLine
 10
69.0403
 20
822.5735
 30
0.0
 11
69.3014
 21
822.5735
 31
0.0
  0
LINE
  5
3CF
330
1E
100
AcDbEntity
  8
0
100
AcDbLine
 10
72.7238
 20
822.5735
 30
0.0
 11
73.9413
 21
822.5735
 31
0.0
  0
LINE
  5
3D0
330
1E
100
AcDbEntity
  8
0
100
AcDbLine
 10
72.7238
 20
822.5735
 30
0.0
 11
72.74617353706808
 21
823.221069813839
 31
0.0
  0
LINE
  5
3D1
330
1E
100
AcDbEntity
  8
0
100
AcDbLine
 10
73.9413
 20
822.5735
 30
0.0
 11
73.9614636279818
 21
823.1571071774748
 31
0.0
  0
LINE
  5
3D2
330
1E
100
AcDbEntity
  8
0
100
AcDbLine
 10
70.973
 20
822.5735
 30
0.0
 11
71.01309010138471
 21
823.569527363594
 31
0.0
  0
LINE
  5
3D3
330
1E
100
AcDbEntity
  8
0
100
AcDbLine
 10
70.2076
 20
822.5735
 30
0.0
 11
70.973
 21
822.5735
 31
0.0
  0
LINE
  5
3D4
330
1E
100
AcDbEntity
  8
0
100
AcDbLine
 10
86.2663
 20
822.5735
 30
0.0
 11
88.2492
 21
822.5735
 31
0.0
  0
LINE
  5
3D5
330
1E
100
AcDbEntity
  8
0
100
AcDbLine
 10
86.2663
 20
822.5735
 30
0.0
 11
86.26681299999999
 21
822.6634999999999
 31
0.0
  0
LINE
  5
3D6
330
1E
100
AcDbEntity
  8
0
100
AcDbLine
 10
76.41719999999999
 20
822.5735
 30
0.0
 11
78.0039
 21
822.5735
 31
0.0
  0
LINE
  5
3D7
330
1E
100
AcDbEntity
  8
0
100
AcDbLine
 10
76.41719999999999
 20
822.5735
 30
0.0
 11
76.4195895
 21
822.6634999999999
 31
0.0
  0
LINE
  5
3D8
330
1E
100
AcDbEntity
  8
0
100
AcDbLine
 10
78.0039
 20
822.5735
 30
0.0
 11
78.0308542192767
 21
823.5887248315131
 31
0.0
  0
LINE
  5
3D9
330
1E
100
AcDbEntity
  8
0
100
AcDbLine
 10
88.2492
 20
822.5735
 30
0.0
 11
88.25589318053619
 21
823.747742199329
 31
0.0
  0
LINE
  5
3DA
330
1E
100
AcDbEntity
  8
0
100
AcDbLine
 10
86.955
 20
822.5735
 30
0.0
 11
87.435
 21
821.5735
 31
0.0
  0
LINE
  5
3DB
330
1E
100
AcDbEntity
  8
0
100
AcDbLine
 10
88.71500000000001
 20
821.5735
 30
0.0
 11
89.31499999999999
 21
821.5735
 31
0.0
  0
LINE
  5
3DC
330
1E
100
AcDbEntity
  8
0
100
AcDbLine
 10
88.71500000000001
 20
821.5735
 30
0.0
 11
89.31510000000001
 21
821.5735
 31
0.0
  0
LINE
  5
3DD
330
1E
100
AcDbEntity
  8
0
100
AcDbLine
 10
91.27489999999999
 20
821.5735
 30
0.0
 11
91.787
 21
821.5735
 31
0.0
  0
LINE
  5
3DE
330
1E
100
AcDbEntity
  8
0
100
AcDbLine
 10
91.787
 20
821.5735
 30
0.0
 11
92.21099999999999
 21
821.5735
 31
0.0
  0
LINE
  5
3DF
330
1E
100
AcDbEntity
  8
0
100
AcDbLine
 10
96.95610000000002
 20
821.5735
 30
0.0
 11
97.50100000000001
 21
821.5735
 31
0.0
  0
LINE
  5
3E0
330
1E
100
AcDbEntity
  8
0
100
AcDbLine
 10
96.56489999999999
 20
821.5735
 30
0.0
 11
96.95610000000002
 21
821.5735
 31
0.0
  0
LINE
  5
3E1
330
1E
100
AcDbEntity
  8
0
100
AcDbLine
 10
96.3335
 20
821.5735
 30
0.0
 11
96.56489999999999
 21
821.5735
 31
0.0
  0
LINE
  5
3E2
330
1E
100
AcDbEntity
  8
0
100
AcDbLine
 10
96.2221
 20
821.5735
 30
0.0
 11
96.30070000000001
 21
821.5735
 31
0.0
  0
LINE
  5
3E3
330
1E
100
AcDbEntity
  8
0
100
AcDbLine
 10
96.2221
 20
821.5735
 30
0.0
 11
96.3335
 21
821.5735
 31
0.0
  0
LINE
  5
3E4
330
1E
100
AcDbEntity
  8
0
100
AcDbLine
 10
96.30070000000001
 20
821.5735
 30
0.0
 11
96.5642
 21
821.5735
 31
0.0
  0
LINE
  5
3E5
330
1E
100
AcDbEntity
  8
0
100
AcDbLine
 10
97.50100000000001
 20
821.5735
 30
0.0
 11
98.1338
 21
821.5735
 31
0.0
  0
LINE
  5
3E6
330
1E
100
AcDbEntity
  8
0
100
AcDbLine
 10
98.1338
 20
821.5735
 30
0.0
 11
98.78160000000001
 21
821.5735
 31
0.0
  0
LINE
  5
3E7
330
1E
100
AcDbEntity
  8
0
100
AcDbLine
 10
98.78160000000001
 20
821.5735
 30
0.0
 11
99.43700000000001
 21
821.5735
 31
0.0
  0
LINE
  5
3E8
330
1E
100
AcDbEntity
  8
0
100
AcDbLine
 10
99.43700000000001
 20
821.5735
 30
0.0
 11
100.0609999999999
 21
821.5735
 31
0.0
  0
LINE
  5
3E9
330
1E
100
AcDbEntity
  8
0
100
AcDbLine
 10
100.582
 20
821.5735
 30
0.0
 11
100.9979999999999
 21
821.5735
 31
0.0
  0
LINE
  5
3EA
330
1E
100
AcDbEntity
  8
0
100
AcDbLine
 10
100.0609999999999
 20
821.5735
 30
0.0
 11
100.606
 21
821.5735
 31
0.0
  0
LINE
  5
3EB
330
1E
100
AcDbEntity
  8
0
100
AcDbLine
 10
100.0609999999999
 20
821.5735
 30
0.0
 11
100.582
 21
821.5735
 31
0.0
  0
LINE
  5
3EC
330
1E
100
AcDbEntity
  8
0
100
AcDbLine
 10
100.606
 20
821.5735
 30
0.0
 11
100.9979999999999
 21
821.5735
 31
0.0
  0
LINE
  5
3ED
330
1E
100
AcDbEntity
  8
0
100
AcDbLine
 10
101.2289999999999
 20
821.5735
 30
0.0
 11
101.341
 21
821.5735
 31
0.0
  0
LINE
  5
3EE
330
1E
100
AcDbEntity
  8
0
100
AcDbLine
 10
101.262
 20
821.5735
 30
0.0
 11
101.341
 21
821.5735
 31
0.0
  0
LINE
  5
3EF
330
1E
100
AcDbEntity
  8
0
100
AcDbLine
 10
101.341
 20
821.5735
 30
0.0
 11
101.9892400280669
 21
822.943986317267
 31
0.0
  0
LINE
  5
3F0
330
1E
100
AcDbEntity
  8
0
100
AcDbLine
 10
100.9979999999999
 20
821.5735
 30
0.0
 11
101.262
 21
821.5735
 31
0.0
  0
LINE
  5
3F1
330
1E
100
AcDbEntity
  8
0
100
AcDbLine
 10
100.9979999999999
 20
821.5735
 30
0.0
 11
101.2289999999999
 21
821.5735
 31
0.0
  0
LINE
  5
3F2
330
1E
100
AcDbEntity
  8
0
100
AcDbLine
 10
99.42810000000001
 20
821.5735
 30
0.0
 11
100.0609999999999
 21
821.5735
 31
0.0
  0
LINE
  5
3F3
330
1E
100
AcDbEntity
  8
0
100
AcDbLine
 10
98.7809
 20
821.5735
 30
0.0
 11
99.42810000000001
 21
821.5735
 31
0.0
  0
LINE
  5
3F4
330
1E
100
AcDbEntity
  8
0
100
AcDbLine
 10
98.12550000000001
 20
821.5735
 30
0.0
 11
98.7809
 21
821.5735
 31
0.0
  0
LINE
  5
3F5
330
1E
100
AcDbEntity
  8
0
100
AcDbLine
 10
97.5021
 20
821.5735
 30
0.0
 11
98.12550000000001
 21
821.5735
 31
0.0
  0
LINE
  5
3F6
330
1E
100
AcDbEntity
  8
0
100
AcDbLine
 10
96.98070000000001
 20
821.5735
 30
0.0
 11
97.5021
 21
821.5735
 31
0.0
  0
LINE
  5
3F7
330
1E
100
AcDbEntity
  8
0
100
AcDbLine
 10
96.5642
 20
821.5735
 30
0.0
 11
96.98070000000001
 21
821.5735
 31
0.0
  0
LINE
  5
3F8
330
1E
100
AcDbEntity
  8
0
100
AcDbLine
 10
92.46689999999999
 20
821.5735
 30
0.0
 11
92.55489999999999
 21
821.5735
 31
0.0
  0
LINE
  5
3F9
330
1E
100
AcDbEntity
  8
0
100
AcDbLine
 10
92.55489999999999
 20
821.5735
 30
0.0
 11
93.2244983370084
 21
822.9683996674021
 31
0.0
  0
LINE
  5
3FA
330
1E
100
AcDbEntity
  8
0
100
AcDbLine
 10
92.21099999999999
 20
821.5735
 30
0.0
 11
92.46689999999999
 21
821.5735
 31
0.0
  0
LINE
  5
3FB
330
1E
100
AcDbEntity
  8
0
100
AcDbLine
 10
91.78690000000001
 20
821.5735
 30
0.0
 11
92.21099999999999
 21
821.5735
 31
0.0
  0
LINE
  5
3FC
330
1E
100
AcDbEntity
  8
0
100
AcDbLine
 10
91.27500000000001
 20
821.5735
 30
0.0
 11
91.78690000000001
 21
821.5735
 31
0.0
  0
LINE
  5
3FD
330
1E
100
AcDbEntity
  8
0
100
AcDbLine
 10
90.675
 20
821.5735
 30
0.0
 11
91.27500000000001
 21
821.5735
 31
0.0
  0
LINE
  5
3FE
330
1E
100
AcDbEntity
  8
0
100
AcDbLine
 10
90.675
 20
821.5735
 30
0.0
 11
91.27489999999999
 21
821.5735
 31
0.0
  0
LINE
  5
3FF
330
1E
100
AcDbEntity
  8
0
100
AcDbLine
 10
89.99500000000001
 20
821.5735
 30
0.0
 11
90.675
 21
821.5735
 31
0.0
  0
LINE
  5
400
330
1E
100
AcDbEntity
  8
0
100
AcDbLine
 10
93.73369999999999
 20
822.5735
 30
0.0
 11
93.99449999999999
 21
822.6634999999999
 31
0.0
  0
LINE
  5
401
330
1E
100
AcDbEntity
  8
0
100
AcDbLine
 10
93.0349333333334
 20
822.5735
 30
0.0
 11
93.73369999999999
 21
822.5735
 31
0.0
  0
LINE
  5
402
330
1E
100
AcDbEntity
  8
0
100
AcDbLine
 10
103.583
 20
822.5735
 30
0.0
 11
104.7989999999999
 21
822.6634999999999
 31
0.0
  0
LINE
  5
403
330
1E
100
AcDbEntity
  8
0
100
AcDbLine
 10
101.996
 20
822.5735
 30
0.0
 11
103.583
 21
822.5735
 31
0.0
  0
LINE
  5
404
330
1E
100
AcDbEntity
  8
0
100
AcDbLine
 10
98.96360000000001
 20
822.5735
 30
0.0
 11
99.72830000000001
 21
822.6634999999999
 31
0.0
  0
LINE
  5
405
330
1E
100
AcDbEntity
  8
0
100
AcDbLine
 10
97.11590000000001
 20
822.5735
 30
0.0
 11
97.8805
 21
822.6634999999999
 31
0.0
  0
LINE
  5
406
330
1E
100
AcDbEntity
  8
0
100
AcDbLine
 10
97.11590000000001
 20
822.5735
 30
0.0
 11
98.96360000000001
 21
822.5735
 31
0.0
  0
LINE
  5
407
330
1E
100
AcDbEntity
  8
0
100
AcDbLine
 10
89.31510000000001
 20
821.5735
 30
0.0
 11
89.99500000000001
 21
821.5735
 31
0.0
  0
LINE
  5
408
330
1E
100
AcDbEntity
  8
0
100
AcDbLine
 10
89.31499999999999
 20
821.5735
 30
0.0
 11
89.99500000000001
 21
821.5735
 31
0.0
  0
LINE
  5
409
330
1E
100
AcDbEntity
  8
0
100
AcDbLine
 10
76.0
 20
819.7234999999999
 30
0.0
 11
76.0
 21
822.6043706733541
 31
0.0
  0
LINE
  5
40A
330
1E
100
AcDbEntity
  8
0
100
AcDbLine
 10
76.0
 20
819.7234999999999
 30
0.0
 11
76.0
 21
814.8234999999999
 31
0.0
  0
LINE
  5
40B
330
1E
100
AcDbEntity
  8
0
100
AcDbLine
 10
104.0
 20
814.8234999999999
 30
0.0
 11
104.0
 21
819.7234999999999
 31
0.0
  0
LINE
  5
40C
330
1E
100
AcDbEntity
  8
0
100
AcDbLine
 10
67.05929999999999
 20
822.6634999999999
 30
0.0
 11
67.103604949403
 21
823.689077532477
 31
0.0
  0
LINE
  5
40D
330
1E
100
AcDbEntity
  8
0
100
AcDbLine
 10
67.05929999999999
 20
822.6634999999999
 30
0.0
 11
69.0403
 21
822.5735
 31
0.0
  0
LINE
  5
40E
330
1E
100
AcDbEntity
  8
0
100
AcDbLine
 10
71.13859999999999
 20
822.6634999999999
 30
0.0
 11
71.1607470100423
 21
823.3045133152609
 31
0.0
  0
LINE
  5
40F
330
1E
100
AcDbEntity
  8
0
100
AcDbLine
 10
71.13859999999999
 20
822.6634999999999
 30
0.0
 11
72.7238
 21
822.5735
 31
0.0
  0
LINE
  5
410
330
1E
100
AcDbEntity
  8
0
100
AcDbLine
 10
69.127
 20
822.6634999999999
 30
0.0
 11
69.1718051697159
 21
823.7766719184071
 31
0.0
  0
LINE
  5
411
330
1E
100
AcDbEntity
  8
0
100
AcDbLine
 10
69.127
 20
822.6634999999999
 30
0.0
 11
70.973
 21
822.5735
 31
0.0
  0
LINE
  5
412
330
1E
100
AcDbEntity
  8
0
100
AcDbLine
 10
68.36159999999999
 20
822.6634999999999
 30
0.0
 11
69.127
 21
822.6634999999999
 31
0.0
  0
LINE
  5
413
330
1E
100
AcDbEntity
  8
0
100
AcDbLine
 10
68.36159999999999
 20
822.6634999999999
 30
0.0
 11
68.40625390129429
 21
823.7729136967541
 31
0.0
  0
LINE
  5
414
330
1E
100
AcDbEntity
  8
0
100
AcDbLine
 10
68.36159999999999
 20
822.6634999999999
 30
0.0
 11
70.2076
 21
822.5735
 31
0.0
  0
LINE
  5
415
330
1E
100
AcDbEntity
  8
0
100
AcDbLine
 10
75.2009
 20
822.6634999999999
 30
0.0
 11
75.2310346115206
 21
823.80065515172
 31
0.0
  0
LINE
  5
416
330
1E
100
AcDbEntity
  8
0
100
AcDbLine
 10
75.2009
 20
822.6634999999999
 30
0.0
 11
76.7876
 21
822.6634999999999
 31
0.0
  0
LINE
  5
417
330
1E
100
AcDbEntity
  8
0
100
AcDbLine
 10
75.2009
 20
822.6634999999999
 30
0.0
 11
76.41719999999999
 21
822.5735
 31
0.0
  0
LINE
  5
418
330
1E
100
AcDbEntity
  8
0
100
AcDbLine
 10
87.9884
 20
822.6634999999999
 30
0.0
 11
87.99494198584129
 21
823.8112168142551
 31
0.0
  0
LINE
  5
419
330
1E
100
AcDbEntity
  8
0
100
AcDbLine
 10
87.9884
 20
822.6634999999999
 30
0.0
 11
88.2492
 21
822.5735
 31
0.0
  0
LINE
  5
41A
330
1E
100
AcDbEntity
  8
0
100
AcDbLine
 10
86.0055
 20
822.6634999999999
 30
0.0
 11
86.01082107915591
 21
823.597022658931
 31
0.0
  0
LINE
  5
41B
330
1E
100
AcDbEntity
  8
0
100
AcDbLine
 10
86.0055
 20
822.6634999999999
 30
0.0
 11
87.9884
 21
822.6634999999999
 31
0.0
  0
LINE
  5
41C
330
1E
100
AcDbEntity
  8
0
100
AcDbLine
 10
86.0055
 20
822.6634999999999
 30
0.0
 11
86.2663
 21
822.5735
 31
0.0
  0
LINE
  5
41D
330
1E
100
AcDbEntity
  8
0
100
AcDbLine
 10
76.7876
 20
822.6634999999999
 30
0.0
 11
76.81588171701941
 21
823.7307346045039
 31
0.0
  0
LINE
  5
41E
330
1E
100
AcDbEntity
  8
0
100
AcDbLine
 10
76.7876
 20
822.6634999999999
 30
0.0
 11
78.0039
 21
822.5735
 31
0.0
  0
LINE
  5
41F
330
1E
100
AcDbEntity
  8
0
100
AcDbLine
 10
98.96210150000001
 20
822.6634999999999
 30
0.0
 11
98.96360000000001
 21
822.5735
 31
0.0
  0
LINE
  5
420
330
1E
100
AcDbEntity
  8
0
100
AcDbLine
 10
97.8805
 20
822.6634999999999
 30
0.0
 11
99.72830000000001
 21
822.6634999999999
 31
0.0
  0
LINE
  5
421
330
1E
100
AcDbEntity
  8
0
100
AcDbLine
 10
93.7329762790765
 20
822.700468583074
 30
0.0
 11
93.73369999999999
 21
822.5735
 31
0.0
  0
LINE
  5
422
330
1E
100
AcDbEntity
  8
0
100
AcDbLine
 10
95.66211842556379
 20
822.756726315896
 30
0.0
 11
96.2221
 21
821.5735
 31
0.0
  0
LINE
  5
423
330
1E
100
AcDbEntity
  8
0
100
AcDbLine
 10
93.08919863918569
 20
822.6865448701879
 30
0.0
 11
97.11265065034019
 21
822.7686561357209
 31
0.0
  0
LINE
  5
424
330
1E
100
AcDbEntity
  8
0
100
AcDbLine
 10
76.0
 20
822.6043706733541
 30
0.0
 11
76.0
 21
819.7234999999999
 31
0.0
  0
LINE
  5
425
330
1E
100
AcDbEntity
  8
0
100
AcDbLine
 10
104.0
 20
822.6043634868421
 30
0.0
 11
104.0
 21
819.7234999999999
 31
0.0
  0
LINE
  5
426
330
1E
100
AcDbEntity
  8
0
100
AcDbLine
 10
109.027
 20
822.5735
 30
0.0
 11
109.792
 21
822.5735
 31
0.0
  0
LINE
  5
427
330
1E
100
AcDbEntity
  8
0
100
AcDbLine
 10
109.792
 20
822.5735
 30
0.0
 11
110.6970805036989
 21
822.6176263517508
 31
0.0
  0
LINE
  5
428
330
1E
100
AcDbEntity
  8
0
100
AcDbLine
 10
110.6989999999999
 20
822.5735
 30
0.0
 11
110.9599999999999
 21
822.5735
 31
0.0
  0
LINE
  5
429
330
1E
100
AcDbEntity
  8
0
100
AcDbLine
 10
110.6989999999999
 20
822.5735
 30
0.0
 11
112.68
 21
822.6634999999999
 31
0.0
  0
LINE
  5
42A
330
1E
100
AcDbEntity
  8
0
100
AcDbLine
 10
110.9599999999999
 20
822.5735
 30
0.0
 11
112.941
 21
822.6634999999999
 31
0.0
  0
LINE
  5
42B
330
1E
100
AcDbEntity
  8
0
100
AcDbLine
 10
107.276
 20
822.5735
 30
0.0
 11
108.861
 21
822.6634999999999
 31
0.0
  0
LINE
  5
42C
330
1E
100
AcDbEntity
  8
0
100
AcDbLine
 10
112.68
 20
822.6634999999999
 30
0.0
 11
112.941
 21
822.6634999999999
 31
0.0
  0
LINE
  5
42D
330
1E
100
AcDbEntity
  8
0
100
AcDbLine
 10
107.273620569799
 20
822.642468991345
 30
0.0
 11
107.276
 21
822.5735
 31
0.0
  0
LINE
  5
42E
330
1E
100
AcDbEntity
  8
0
100
AcDbLine
 10
106.0589999999999
 20
822.5735
 30
0.0
 11
107.6439999999999
 21
822.6634999999999
 31
0.0
  0
LINE
  5
42F
330
1E
100
AcDbEntity
  8
0
100
AcDbLine
 10
106.0589999999999
 20
822.5735
 30
0.0
 11
107.276
 21
822.5735
 31
0.0
  0
LINE
  5
430
330
1E
100
AcDbEntity
  8
0
100
AcDbLine
 10
107.6439999999999
 20
822.6634999999999
 30
0.0
 11
108.861
 21
822.6634999999999
 31
0.0
  0
LINE
  5
431
330
1E
100
AcDbEntity
  8
0
100
AcDbLine
 10
104.0
 20
819.7234999999999
 30
0.0
 11
104.0
 21
822.6043634868421
 31
0.0
  0
LINE
  5
432
330
1E
100
AcDbEntity
  8
0
100
AcDbLine
 10
104.0
 20
819.7234999999999
 30
0.0
 11
104.0
 21
814.8234999999999
 31
0.0
  0
LINE
  5
433
330
1E
100
AcDbEntity
  8
0
100
AcDbLine
 10
103.723862008531
 20
813.111444452894
 30
0.0
 11
117.7599999999999
 21
816.3635000000001
 31
0.0
  0
LINE
  5
434
330
1E
100
AcDbEntity
  8
0
100
AcDbLine
 10
117.7599999999999
 20
816.3635000000001
 30
0.0
 11
130.8799999999999
 21
822.7935
 31
0.0
  0
LINE
  5
435
330
1E
100
AcDbEntity
  8
0
100
AcDbLine
 10
62.2625
 20
828.2735
 30
0.0
 11
62.45794001363321
 21
829.53889127471
 31
0.0
  0
LINE
  5
436
330
1E
100
AcDbEntity
  8
0
100
AcDbLine
 10
64.0473
 20
824.0835
 30
0.0
 11
64.1470066310372
 21
825.2264504364289
 31
0.0
  0
LINE
  5
437
330
1E
100
AcDbEntity
  8
0
100
AcDbLine
 10
64.0473
 20
824.0835
 30
0.0
 11
65.4615
 21
824.0835
 31
0.0
  0
LINE
  5
438
330
1E
100
AcDbEntity
  8
0
100
AcDbLine
 10
64.0473
 20
824.0835
 30
0.0
 11
65.4508
 21
823.8434999999999
 31
0.0
  0
LINE
  5
439
330
1E
100
AcDbEntity
  8
0
100
AcDbLine
 10
63.1509
 20
825.6935
 30
0.0
 11
63.2952056122449
 21
826.8235
 31
0.0
  0
LINE
  5
43A
330
1E
100
AcDbEntity
  8
0
100
AcDbLine
 10
65.2
 20
831.6235
 30
0.0
 11
73.2
 21
831.6235
 31
0.0
  0
LINE
  5
43B
330
1E
100
AcDbEntity
  8
0
100
AcDbLine
 10
65.4508
 20
823.8434999999999
 30
0.0
 11
66.86499999999999
 21
823.8434999999999
 31
0.0
  0
LINE
  5
43C
330
1E
100
AcDbEntity
  8
0
100
AcDbLine
 10
65.4508
 20
823.8434999999999
 30
0.0
 11
65.46128887380191
 21
823.9630622920419
 31
0.0
  0
LINE
  5
43D
330
1E
100
AcDbEntity
  8
0
100
AcDbLine
 10
66.86499999999999
 20
823.8434999999999
 30
0.0
 11
66.95882232427059
 21
824.9129772714779
 31
0.0
  0
LINE
  5
43E
330
1E
100
AcDbEntity
  8
0
100
AcDbLine
 10
65.4615
 20
824.0835
 30
0.0
 11
65.54894318402169
 21
825.0852958330639
 31
0.0
  0
LINE
  5
43F
330
1E
100
AcDbEntity
  8
0
100
AcDbLine
 10
65.4615
 20
824.0835
 30
0.0
 11
66.86499999999999
 21
823.8434999999999
 31
0.0
  0
LINE
  5
440
330
1E
100
AcDbEntity
  8
0
100
AcDbLine
 10
65.2
 20
832.6235
 30
0.0
 11
73.2
 21
832.6235
 31
0.0
  0
LINE
  5
443
330
1E
100
AcDbEntity
  8
0
100
AcDbLine
 10
65.82219999999999
 20
864.5635
 30
0.0
 11
71.90479999999999
 21
865.0335
 31
0.0
  0
LINE
  5
444
330
1E
100
AcDbEntity
  8
0
100
AcDbLine
 10
62.92609999999999
 20
864.3235
 30
0.0
 11
65.82219999999999
 21
864.5635
 31
0.0
  0
LINE
  5
446
330
1E
100
AcDbEntity
  8
0
100
AcDbLine
 10
69.3067
 20
865.2234999999999
 30
0.0
 11
79.5467
 21
865.7235
 31
0.0
  0
LINE
  5
448
330
1E
100
AcDbEntity
  8
0
100
AcDbLine
 10
71.2826
 20
824.0835
 30
0.0
 11
71.35911859296479
 21
825.3235
 31
0.0
  0
LINE
  5
449
330
1E
100
AcDbEntity
  8
0
100
AcDbLine
 10
71.2826
 20
824.0835
 30
0.0
 11
73.01470000000001
 21
824.0835
 31
0.0
  0
LINE
  5
44A
330
1E
100
AcDbEntity
  8
0
100
AcDbLine
 10
71.2826
 20
824.0835
 30
0.0
 11
72.27509999999999
 21
823.8434999999999
 31
0.0
  0
LINE
  5
44B
330
1E
100
AcDbEntity
  8
0
100
AcDbLine
 10
72.27509999999999
 20
823.8434999999999
 30
0.0
 11
74.0071
 21
823.8434999999999
 31
0.0
  0
LINE
  5
44C
330
1E
100
AcDbEntity
  8
0
100
AcDbLine
 10
72.27509999999999
 20
823.8434999999999
 30
0.0
 11
72.2845110754792
 21
823.995242096489
 31
0.0
  0
LINE
  5
44D
330
1E
100
AcDbEntity
  8
0
100
AcDbLine
 10
73.01470000000001
 20
824.0835
 30
0.0
 11
73.0764399265627
 21
825.08400858192
 31
0.0
  0
LINE
  5
44E
330
1E
100
AcDbEntity
  8
0
100
AcDbLine
 10
73.01470000000001
 20
824.0835
 30
0.0
 11
74.0071
 21
823.8434999999999
 31
0.0
  0
LINE
  5
44F
330
1E
100
AcDbEntity
  8
0
100
AcDbLine
 10
71.69929999999999
 20
825.6935
 30
0.0
 11
73.5471
 21
825.6935
 31
0.0
  0
LINE
  5
450
330
1E
100
AcDbEntity
  8
0
100
AcDbLine
 10
72.79810000000001
 20
826.1035000000001
 30
0.0
 11
72.85588367346941
 21
826.8235
 31
0.0
  0
LINE
  5
451
330
1E
100
AcDbEntity
  8
0
100
AcDbLine
 10
72.79810000000001
 20
826.1035000000001
 30
0.0
 11
73.5471
 21
825.6935
 31
0.0
  0
LINE
  5
452
330
1E
100
AcDbEntity
  8
0
100
AcDbLine
 10
70.9503
 20
826.1035000000001
 30
0.0
 11
71.032169936279
 21
827.1229731582391
 31
0.0
  0
LINE
  5
453
330
1E
100
AcDbEntity
  8
0
100
AcDbLine
 10
70.9503
 20
826.1035000000001
 30
0.0
 11
72.79810000000001
 21
826.1035000000001
 31
0.0
  0
LINE
  5
454
330
1E
100
AcDbEntity
  8
0
100
AcDbLine
 10
70.9503
 20
826.1035000000001
 30
0.0
 11
71.69929999999999
 21
825.6935
 31
0.0
  0
LINE
  5
455
330
1E
100
AcDbEntity
  8
0
100
AcDbLine
 10
73.2
 20
831.6235
 30
0.0
 11
81.5
 21
831.6235
 31
0.0
  0
LINE
  5
456
330
1E
100
AcDbEntity
  8
0
100
AcDbLine
 10
74.0071
 20
823.8434999999999
 30
0.0
 11
74.0751876591241
 21
824.9413303344109
 31
0.0
  0
LINE
  5
457
330
1E
100
AcDbEntity
  8
0
100
AcDbLine
 10
74.2278
 20
828.2735
 30
0.0
 11
76.1596
 21
828.2735
 31
0.0
  0
LINE
  5
458
330
1E
100
AcDbEntity
  8
0
100
AcDbLine
 10
76.1596
 20
828.2735
 30
0.0
 11
76.2642333019755
 21
829.5814162746941
 31
0.0
  0
LINE
  5
459
330
1E
100
AcDbEntity
  8
0
100
AcDbLine
 10
75.66500000000001
 20
828.8635000000001
 30
0.0
 11
75.7418
 21
829.8235
 31
0.0
  0
LINE
  5
45A
330
1E
100
AcDbEntity
  8
0
100
AcDbLine
 10
75.66500000000001
 20
828.8635000000001
 30
0.0
 11
76.1596
 21
828.2735
 31
0.0
  0
LINE
  5
45B
330
1E
100
AcDbEntity
  8
0
100
AcDbLine
 10
73.73319999999999
 20
828.8635000000001
 30
0.0
 11
73.80994973821991
 21
829.8235
 31
0.0
  0
LINE
  5
45C
330
1E
100
AcDbEntity
  8
0
100
AcDbLine
 10
73.73319999999999
 20
828.8635000000001
 30
0.0
 11
75.66500000000001
 21
828.8635000000001
 31
0.0
  0
LINE
  5
45D
330
1E
100
AcDbEntity
  8
0
100
AcDbLine
 10
73.73319999999999
 20
828.8635000000001
 30
0.0
 11
74.2278
 21
828.2735
 31
0.0
  0
LINE
  5
45E
330
1E
100
AcDbEntity
  8
0
100
AcDbLine
 10
73.5471
 20
825.6935
 30
0.0
 11
73.6378459183674
 21
826.8235
 31
0.0
  0
LINE
  5
45F
330
1E
100
AcDbEntity
  8
0
100
AcDbLine
 10
73.2
 20
832.6235
 30
0.0
 11
81.5
 21
832.6235
 31
0.0
  0
LINE
  5
460
330
1E
100
AcDbEntity
  8
0
100
AcDbLine
 10
71.00234404438609
 20
823.302544581022
 30
0.0
 11
75.21202444542691
 21
823.083290393467
 31
0.0
  0
LINE
  5
461
330
1E
100
AcDbEntity
  8
0
100
AcDbLine
 10
79.7935
 20
824.0835
 30
0.0
 11
79.83313015075379
 21
825.3235
 31
0.0
  0
LINE
  5
462
330
1E
100
AcDbEntity
  8
0
100
AcDbLine
 10
79.7935
 20
824.0835
 30
0.0
 11
81.72539999999999
 21
824.0835
 31
0.0
  0
LINE
  5
463
330
1E
100
AcDbEntity
  8
0
100
AcDbLine
 10
79.7935
 20
824.0835
 30
0.0
 11
80.3073
 21
823.8434999999999
 31
0.0
  0
LINE
  5
464
330
1E
100
AcDbEntity
  8
0
100
AcDbLine
 10
78.0161573171982
 20
822.943702246463
 30
0.0
 11
78.6644
 21
821.5735
 31
0.0
  0
LINE
  5
465
330
1E
100
AcDbEntity
  8
0
100
AcDbLine
 10
80.20000000000001
 20
822.8234999999999
 30
0.0
 11
86.00573663879909
 21
822.7050155788001
 31
0.0
  0
LINE
  5
466
330
1E
100
AcDbEntity
  8
0
100
AcDbLine
 10
78.01356093526919
 20
822.937377034621
 30
0.0
 11
80.20000000000001
 21
822.8234999999999
 31
0.0
  0
LINE
  5
46C
330
1E
100
AcDbEntity
  8
0
100
AcDbLine
 10
80.3073
 20
823.8434999999999
 30
0.0
 11
82.2391
 21
823.8434999999999
 31
0.0
  0
LINE
  5
46D
330
1E
100
AcDbEntity
  8
0
100
AcDbLine
 10
82.2391
 20
823.8434999999999
 30
0.0
 11
82.27540813617471
 21
824.973847635629
 31
0.0
  0
LINE
  5
46E
330
1E
100
AcDbEntity
  8
0
100
AcDbLine
 10
81.72539999999999
 20
824.0835
 30
0.0
 11
81.75689534622829
 21
825.07051951172
 31
0.0
  0
LINE
  5
46F
330
1E
100
AcDbEntity
  8
0
100
AcDbLine
 10
81.72539999999999
 20
824.0835
 30
0.0
 11
82.2391
 21
823.8434999999999
 31
0.0
  0
LINE
  5
470
330
1E
100
AcDbEntity
  8
0
100
AcDbLine
 10
89.0
 20
823.8434999999999
 30
0.0
 11
89.0
 21
824.0835
 31
0.0
  0
LINE
  5
471
330
1E
100
AcDbEntity
  8
0
100
AcDbLine
 10
89.0
 20
823.8434999999999
 30
0.0
 11
89.0
 21
825.3235
 31
0.0
  0
LINE
  5
472
330
1E
100
AcDbEntity
  8
0
100
AcDbLine
 10
89.0
 20
823.8434999999999
 30
0.0
 11
91.0
 21
823.8434999999999
 31
0.0
  0
LINE
  5
473
330
1E
100
AcDbEntity
  8
0
100
AcDbLine
 10
83.08159999999999
 20
825.6935
 30
0.0
 11
85.06449999999999
 21
825.6935
 31
0.0
  0
LINE
  5
474
330
1E
100
AcDbEntity
  8
0
100
AcDbLine
 10
85.06449999999999
 20
825.6935
 30
0.0
 11
85.09545969387758
 21
826.8235
 31
0.0
  0
LINE
  5
475
330
1E
100
AcDbEntity
  8
0
100
AcDbLine
 10
84.80909999999999
 20
826.1035000000001
 30
0.0
 11
84.82878979591841
 21
826.8235
 31
0.0
  0
LINE
  5
476
330
1E
100
AcDbEntity
  8
0
100
AcDbLine
 10
84.80909999999999
 20
826.1035000000001
 30
0.0
 11
85.06449999999999
 21
825.6935
 31
0.0
  0
LINE
  5
477
330
1E
100
AcDbEntity
  8
0
100
AcDbLine
 10
82.82619999999999
 20
826.1035000000001
 30
0.0
 11
82.85356529432601
 21
827.1023077631109
 31
0.0
  0
LINE
  5
478
330
1E
100
AcDbEntity
  8
0
100
AcDbLine
 10
82.82619999999999
 20
826.1035000000001
 30
0.0
 11
84.80909999999999
 21
826.1035000000001
 31
0.0
  0
LINE
  5
479
330
1E
100
AcDbEntity
  8
0
100
AcDbLine
 10
82.82619999999999
 20
826.1035000000001
 30
0.0
 11
83.08159999999999
 21
825.6935
 31
0.0
  0
LINE
  5
47A
330
1E
100
AcDbEntity
  8
0
100
AcDbLine
 10
89.0
 20
825.3235
 30
0.0
 11
89.0
 21
824.0835
 31
0.0
  0
LINE
  5
47B
330
1E
100
AcDbEntity
  8
0
100
AcDbLine
 10
89.0
 20
825.3235
 30
0.0
 11
89.0
 21
823.8434999999999
 31
0.0
  0
LINE
  5
47C
330
1E
100
AcDbEntity
  8
0
100
AcDbLine
 10
89.0
 20
824.0835
 30
0.0
 11
91.0
 21
824.0835
 31
0.0
  0
LINE
  5
47D
330
1E
100
AcDbEntity
  8
0
100
AcDbLine
 10
89.0
 20
824.0835
 30
0.0
 11
89.0
 21
825.3235
 31
0.0
  0
LINE
  5
47E
330
1E
100
AcDbEntity
  8
0
100
AcDbLine
 10
89.0
 20
824.0835
 30
0.0
 11
89.0
 21
823.8434999999999
 31
0.0
  0
LINE
  5
47F
330
1E
100
AcDbEntity
  8
0
100
AcDbLine
 10
89.0
 20
828.2735
 30
0.0
 11
89.0
 21
828.8635000000001
 31
0.0
  0
LINE
  5
480
330
1E
100
AcDbEntity
  8
0
100
AcDbLine
 10
89.0
 20
828.2735
 30
0.0
 11
89.0
 21
829.8235
 31
0.0
  0
LINE
  5
481
330
1E
100
AcDbEntity
  8
0
100
AcDbLine
 10
89.0
 20
828.2735
 30
0.0
 11
91.0
 21
828.2735
 31
0.0
  0
LINE
  5
482
330
1E
100
AcDbEntity
  8
0
100
AcDbLine
 10
89.0
 20
829.8235
 30
0.0
 11
89.0
 21
828.8635000000001
 31
0.0
  0
LINE
  5
483
330
1E
100
AcDbEntity
  8
0
100
AcDbLine
 10
89.0
 20
829.8235
 30
0.0
 11
89.0
 21
828.2735
 31
0.0
  0
LINE
  5
484
330
1E
100
AcDbEntity
  8
0
100
AcDbLine
 10
89.0
 20
828.8635000000001
 30
0.0
 11
91.0
 21
828.8635000000001
 31
0.0
  0
LINE
  5
485
330
1E
100
AcDbEntity
  8
0
100
AcDbLine
 10
89.0
 20
828.8635000000001
 30
0.0
 11
89.0
 21
829.8235
 31
0.0
  0
LINE
  5
486
330
1E
100
AcDbEntity
  8
0
100
AcDbLine
 10
89.0
 20
828.8635000000001
 30
0.0
 11
89.0
 21
828.2735
 31
0.0
  0
LINE
  5
487
330
1E
100
AcDbEntity
  8
0
100
AcDbLine
 10
90.0
 20
831.6235
 30
0.0
 11
98.50000000000001
 21
831.6235
 31
0.0
  0
LINE
  5
488
330
1E
100
AcDbEntity
  8
0
100
AcDbLine
 10
90.0
 20
832.6235
 30
0.0
 11
98.50000000000001
 21
832.6235
 31
0.0
  0
LINE
  5
489
330
1E
100
AcDbEntity
  8
0
100
AcDbLine
 10
81.5
 20
831.6235
 30
0.0
 11
90.0
 21
831.6235
 31
0.0
  0
LINE
  5
48A
330
1E
100
AcDbEntity
  8
0
100
AcDbLine
 10
81.5
 20
832.6235
 30
0.0
 11
90.0
 21
832.6235
 31
0.0
  0
LINE
  5
48B
330
1E
100
AcDbEntity
  8
0
100
AcDbLine
 10
99.725653338556
 20
822.8219827211949
 30
0.0
 11
99.8
 21
822.8234999999999
 31
0.0
  0
LINE
  5
48C
330
1E
100
AcDbEntity
  8
0
100
AcDbLine
 10
99.725653338556
 20
822.8219827211949
 30
0.0
 11
99.8
 21
822.8234999999999
 31
0.0
  0
LINE
  5
48D
330
1E
100
AcDbEntity
  8
0
100
AcDbLine
 10
91.0
 20
823.8434999999999
 30
0.0
 11
91.0
 21
824.0835
 31
0.0
  0
LINE
  5
48E
330
1E
100
AcDbEntity
  8
0
100
AcDbLine
 10
91.0
 20
825.3235
 30
0.0
 11
91.0
 21
824.0835
 31
0.0
  0
LINE
  5
48F
330
1E
100
AcDbEntity
  8
0
100
AcDbLine
 10
91.0
 20
824.0835
 30
0.0
 11
91.0
 21
825.3235
 31
0.0
  0
LINE
  5
490
330
1E
100
AcDbEntity
  8
0
100
AcDbLine
 10
91.0
 20
824.0835
 30
0.0
 11
91.0
 21
823.8434999999999
 31
0.0
  0
LINE
  5
491
330
1E
100
AcDbEntity
  8
0
100
AcDbLine
 10
94.9045403061225
 20
826.8235
 30
0.0
 11
94.9355
 21
825.6935
 31
0.0
  0
LINE
  5
492
330
1E
100
AcDbEntity
  8
0
100
AcDbLine
 10
94.9355
 20
825.6935
 30
0.0
 11
95.1909
 21
826.1035000000001
 31
0.0
  0
LINE
  5
493
330
1E
100
AcDbEntity
  8
0
100
AcDbLine
 10
94.9355
 20
825.6935
 30
0.0
 11
96.9184
 21
825.6935
 31
0.0
  0
LINE
  5
494
330
1E
100
AcDbEntity
  8
0
100
AcDbLine
 10
97.7245918638253
 20
824.973847635629
 30
0.0
 11
97.76090000000001
 21
823.8434999999999
 31
0.0
  0
LINE
  5
495
330
1E
100
AcDbEntity
  8
0
100
AcDbLine
 10
97.76090000000001
 20
823.8434999999999
 30
0.0
 11
98.27460000000002
 21
824.0835
 31
0.0
  0
LINE
  5
496
330
1E
100
AcDbEntity
  8
0
100
AcDbLine
 10
97.76090000000001
 20
823.8434999999999
 30
0.0
 11
99.69270000000001
 21
823.8434999999999
 31
0.0
  0
LINE
  5
497
330
1E
100
AcDbEntity
  8
0
100
AcDbLine
 10
97.09808372295109
 20
823.6435466696029
 30
0.0
 11
97.11590000000001
 21
822.5735
 31
0.0
  0
LINE
  5
498
330
1E
100
AcDbEntity
  8
0
100
AcDbLine
 10
101.986344344344
 20
822.937864364364
 30
0.0
 11
101.996
 21
822.5735
 31
0.0
  0
LINE
  5
499
330
1E
100
AcDbEntity
  8
0
100
AcDbLine
 10
99.69270000000001
 20
823.8434999999999
 30
0.0
 11
100.2059999999999
 21
824.0835
 31
0.0
  0
LINE
  5
49A
330
1E
100
AcDbEntity
  8
0
100
AcDbLine
 10
98.27460000000002
 20
824.0835
 30
0.0
 11
100.2059999999999
 21
824.0835
 31
0.0
  0
LINE
  5
49B
330
1E
100
AcDbEntity
  8
0
100
AcDbLine
 10
100.166743718593
 20
825.3235
 30
0.0
 11
100.2059999999999
 21
824.0835
 31
0.0
  0
LINE
  5
49C
330
1E
100
AcDbEntity
  8
0
100
AcDbLine
 10
98.2431046537718
 20
825.07051951172
 30
0.0
 11
98.27460000000002
 21
824.0835
 31
0.0
  0
LINE
  5
49D
330
1E
100
AcDbEntity
  8
0
100
AcDbLine
 10
99.71216742993059
 20
823.6295221598441
 30
0.0
 11
99.72830000000001
 21
822.6634999999999
 31
0.0
  0
LINE
  5
49E
330
1E
100
AcDbEntity
  8
0
100
AcDbLine
 10
97.86224139198999
 20
823.7601130936928
 30
0.0
 11
97.8805
 21
822.6634999999999
 31
0.0
  0
LINE
  5
49F
330
1E
100
AcDbEntity
  8
0
100
AcDbLine
 10
96.9184
 20
825.6935
 30
0.0
 11
97.1738
 21
826.1035000000001
 31
0.0
  0
LINE
  5
4A0
330
1E
100
AcDbEntity
  8
0
100
AcDbLine
 10
95.1909
 20
826.1035000000001
 30
0.0
 11
97.1738
 21
826.1035000000001
 31
0.0
  0
LINE
  5
4A1
330
1E
100
AcDbEntity
  8
0
100
AcDbLine
 10
97.146434705674
 20
827.1023077631109
 30
0.0
 11
97.1738
 21
826.1035000000001
 31
0.0
  0
LINE
  5
4A2
330
1E
100
AcDbEntity
  8
0
100
AcDbLine
 10
95.17121020408159
 20
826.8235
 30
0.0
 11
95.1909
 21
826.1035000000001
 31
0.0
  0
LINE
  5
4A3
330
1E
100
AcDbEntity
  8
0
100
AcDbLine
 10
91.0
 20
828.2735
 30
0.0
 11
91.0
 21
828.8635000000001
 31
0.0
  0
LINE
  5
4A4
330
1E
100
AcDbEntity
  8
0
100
AcDbLine
 10
91.0
 20
829.8235
 30
0.0
 11
91.0
 21
828.8635000000001
 31
0.0
  0
LINE
  5
4A5
330
1E
100
AcDbEntity
  8
0
100
AcDbLine
 10
91.0
 20
828.8635000000001
 30
0.0
 11
91.0
 21
829.8235
 31
0.0
  0
LINE
  5
4A6
330
1E
100
AcDbEntity
  8
0
100
AcDbLine
 10
91.0
 20
828.8635000000001
 30
0.0
 11
91.0
 21
828.2735
 31
0.0
  0
LINE
  5
4A7
330
1E
100
AcDbEntity
  8
0
100
AcDbLine
 10
103.5709760071479
 20
823.0272355793241
 30
0.0
 11
103.583
 21
822.5735
 31
0.0
  0
LINE
  5
4A8
330
1E
100
AcDbEntity
  8
0
100
AcDbLine
 10
104.787664047513
 20
823.0912717919739
 30
0.0
 11
104.7989999999999
 21
822.6634999999999
 31
0.0
  0
LINE
  5
4A9
330
1E
100
AcDbEntity
  8
0
100
AcDbLine
 10
103.735912717959
 20
829.5814388730169
 30
0.0
 11
103.8399999999999
 21
828.2735
 31
0.0
  0
LINE
  5
4AA
330
1E
100
AcDbEntity
  8
0
100
AcDbLine
 10
103.8399999999999
 20
828.2735
 30
0.0
 11
104.3349999999999
 21
828.8635000000001
 31
0.0
  0
LINE
  5
4AB
330
1E
100
AcDbEntity
  8
0
100
AcDbLine
 10
103.8399999999999
 20
828.2735
 30
0.0
 11
105.7719999999999
 21
828.2735
 31
0.0
  0
LINE
  5
4AC
330
1E
100
AcDbEntity
  8
0
100
AcDbLine
 10
105.7719999999999
 20
828.2735
 30
0.0
 11
106.267
 21
828.8635000000001
 31
0.0
  0
LINE
  5
4AD
330
1E
100
AcDbEntity
  8
0
100
AcDbLine
 10
104.3349999999999
 20
828.8635000000001
 30
0.0
 11
106.267
 21
828.8635000000001
 31
0.0
  0
LINE
  5
4AE
330
1E
100
AcDbEntity
  8
0
100
AcDbLine
 10
104.25809947644
 20
829.8235
 30
0.0
 11
104.3349999999999
 21
828.8635000000001
 31
0.0
  0
LINE
  5
4AF
330
1E
100
AcDbEntity
  8
0
100
AcDbLine
 10
106.19009947644
 20
829.8235
 30
0.0
 11
106.267
 21
828.8635000000001
 31
0.0
  0
LINE
  5
4B0
330
1E
100
AcDbEntity
  8
0
100
AcDbLine
 10
106.4529999999999
 20
825.6935
 30
0.0
 11
107.202
 21
826.1035000000001
 31
0.0
  0
LINE
  5
4B1
330
1E
100
AcDbEntity
  8
0
100
AcDbLine
 10
106.4529999999999
 20
825.6935
 30
0.0
 11
108.301
 21
825.6935
 31
0.0
  0
LINE
  5
4B2
330
1E
100
AcDbEntity
  8
0
100
AcDbLine
 10
106.362484693878
 20
826.8235
 30
0.0
 11
106.4529999999999
 21
825.6935
 31
0.0
  0
LINE
  5
4B3
330
1E
100
AcDbEntity
  8
0
100
AcDbLine
 10
105.993
 20
823.8434999999999
 30
0.0
 11
106.9849999999999
 21
824.0835
 31
0.0
  0
LINE
  5
4B4
330
1E
100
AcDbEntity
  8
0
100
AcDbLine
 10
105.993
 20
823.8434999999999
 30
0.0
 11
107.725
 21
823.8434999999999
 31
0.0
  0
LINE
  5
4B5
330
1E
100
AcDbEntity
  8
0
100
AcDbLine
 10
105.924801544733
 20
824.9413287921049
 30
0.0
 11
105.993
 21
823.8434999999999
 31
0.0
  0
LINE
  5
4B6
330
1E
100
AcDbEntity
  8
0
100
AcDbLine
 10
106.0251033932929
 20
823.5560103393291
 30
0.0
 11
106.0589999999999
 21
822.5735
 31
0.0
  0
LINE
  5
4B7
330
1E
100
AcDbEntity
  8
0
100
AcDbLine
 10
99.8
 20
822.8234999999999
 30
0.0
 11
106.039164002184
 21
823.1484564584469
 31
0.0
  0
LINE
  5
4B8
330
1E
100
AcDbEntity
  8
0
100
AcDbLine
 10
106.8
 20
831.6235
 30
0.0
 11
114.7999999999999
 21
831.6235
 31
0.0
  0
LINE
  5
4B9
330
1E
100
AcDbEntity
  8
0
100
AcDbLine
 10
98.50000000000001
 20
831.6235
 30
0.0
 11
106.8
 21
831.6235
 31
0.0
  0
LINE
  5
4BA
330
1E
100
AcDbEntity
  8
0
100
AcDbLine
 10
107.725
 20
823.8434999999999
 30
0.0
 11
108.717
 21
824.0835
 31
0.0
  0
LINE
  5
4BB
330
1E
100
AcDbEntity
  8
0
100
AcDbLine
 10
107.7155719596389
 20
823.995268454594
 30
0.0
 11
107.725
 21
823.8434999999999
 31
0.0
  0
LINE
  5
4BC
330
1E
100
AcDbEntity
  8
0
100
AcDbLine
 10
108.301
 20
825.6935
 30
0.0
 11
109.05
 21
826.1035000000001
 31
0.0
  0
LINE
  5
4BD
330
1E
100
AcDbEntity
  8
0
100
AcDbLine
 10
107.202
 20
826.1035000000001
 30
0.0
 11
109.05
 21
826.1035000000001
 31
0.0
  0
LINE
  5
4BE
330
1E
100
AcDbEntity
  8
0
100
AcDbLine
 10
107.1443265306119
 20
826.8235
 30
0.0
 11
107.202
 21
826.1035000000001
 31
0.0
  0
LINE
  5
4BF
330
1E
100
AcDbEntity
  8
0
100
AcDbLine
 10
106.9849999999999
 20
824.0835
 30
0.0
 11
108.717
 21
824.0835
 31
0.0
  0
LINE
  5
4C0
330
1E
100
AcDbEntity
  8
0
100
AcDbLine
 10
106.923661400512
 20
825.084023057216
 30
0.0
 11
106.9849999999999
 21
824.0835
 31
0.0
  0
LINE
  5
4C1
330
1E
100
AcDbEntity
  8
0
100
AcDbLine
 10
107.607748268474
 20
823.7142748268469
 30
0.0
 11
107.6439999999999
 21
822.6634999999999
 31
0.0
  0
LINE
  5
4C2
330
1E
100
AcDbEntity
  8
0
100
AcDbLine
 10
106.8
 20
832.6235
 30
0.0
 11
114.7999999999999
 21
832.6235
 31
0.0
  0
LINE
  5
4C3
330
1E
100
AcDbEntity
  8
0
100
AcDbLine
 10
98.50000000000001
 20
832.6235
 30
0.0
 11
106.8
 21
832.6235
 31
0.0
  0
LINE
  5
4C4
330
1E
100
AcDbEntity
  8
0
100
AcDbLine
 10
108.9974264705879
 20
823.3128382352941
 30
0.0
 11
109.027
 21
822.5735
 31
0.0
  0
LINE
  5
4C5
330
1E
100
AcDbEntity
  8
0
100
AcDbLine
 10
108.823667687439
 20
823.7455960162598
 30
0.0
 11
108.861
 21
822.6634999999999
 31
0.0
  0
LINE
  5
4C6
330
1E
100
AcDbEntity
  8
0
100
AcDbLine
 10
108.8392376199019
 20
823.294293626037
 30
0.0
 11
109.4
 21
823.3235
 31
0.0
  0
LINE
  5
4C7
330
1E
100
AcDbEntity
  8
0
100
AcDbLine
 10
109.759785464098
 20
823.378863397548
 30
0.0
 11
109.792
 21
822.5735
 31
0.0
  0
LINE
  5
4C8
330
1E
100
AcDbEntity
  8
0
100
AcDbLine
 10
110.655254565337
 20
823.579142176165
 30
0.0
 11
110.6989999999999
 21
822.5735
 31
0.0
  0
LINE
  5
4C9
330
1E
100
AcDbEntity
  8
0
100
AcDbLine
 10
112.8938418082259
 20
823.74759636263
 30
0.0
 11
112.941
 21
822.6634999999999
 31
0.0
  0
LINE
  5
4CA
330
1E
100
AcDbEntity
  8
0
100
AcDbLine
 10
112.632190488903
 20
823.7625692206199
 30
0.0
 11
112.68
 21
822.6634999999999
 31
0.0
  0
LINE
  5
4CB
330
1E
100
AcDbEntity
  8
0
100
AcDbLine
 10
113.135
 20
823.8434999999999
 30
0.0
 11
114.538
 21
824.0835
 31
0.0
  0
LINE
  5
4CC
330
1E
100
AcDbEntity
  8
0
100
AcDbLine
 10
113.135
 20
823.8434999999999
 30
0.0
 11
114.5489999999999
 21
823.8434999999999
 31
0.0
  0
LINE
  5
4CD
330
1E
100
AcDbEntity
  8
0
100
AcDbLine
 10
118.701
 20
823.8434999999999
 30
0.0
 11
119.701
 21
823.8434999999999
 31
0.0
  0
LINE
  5
4CE
330
1E
100
AcDbEntity
  8
0
100
AcDbLine
 10
118.701
 20
823.8434999999999
 30
0.0
 11
120.419
 21
824.0835
 31
0.0
  0
LINE
  5
4CF
330
1E
100
AcDbEntity
  8
0
100
AcDbLine
 10
119.701
 20
823.8434999999999
 30
0.0
 11
121.419
 21
824.0835
 31
0.0
  0
LINE
  5
4D0
330
1E
100
AcDbEntity
  8
0
100
AcDbLine
 10
119.69159041813
 20
823.9309693525941
 30
0.0
 11
119.701
 21
823.8434999999999
 31
0.0
  0
LINE
  5
4D1
330
1E
100
AcDbEntity
  8
0
100
AcDbLine
 10
122.31
 20
823.8434999999999
 30
0.0
 11
122.8279999999999
 21
823.8434999999999
 31
0.0
  0
LINE
  5
4D2
330
1E
100
AcDbEntity
  8
0
100
AcDbLine
 10
122.31
 20
823.8434999999999
 30
0.0
 11
124.2269999999999
 21
824.0835
 31
0.0
  0
LINE
  5
4D3
330
1E
100
AcDbEntity
  8
0
100
AcDbLine
 10
114.5489999999999
 20
823.8434999999999
 30
0.0
 11
115.9529999999999
 21
824.0835
 31
0.0
  0
LINE
  5
4D4
330
1E
100
AcDbEntity
  8
0
100
AcDbLine
 10
120.419
 20
824.0835
 30
0.0
 11
121.419
 21
824.0835
 31
0.0
  0
LINE
  5
4D5
330
1E
100
AcDbEntity
  8
0
100
AcDbLine
 10
114.5385556646669
 20
823.9630363234629
 30
0.0
 11
114.5489999999999
 21
823.8434999999999
 31
0.0
  0
LINE
  5
4D6
330
1E
100
AcDbEntity
  8
0
100
AcDbLine
 10
114.538
 20
824.0835
 30
0.0
 11
115.9529999999999
 21
824.0835
 31
0.0
  0
LINE
  5
4D7
330
1E
100
AcDbEntity
  8
0
100
AcDbLine
 10
112.8974070125499
 20
823.6656376425321
 30
0.0
 11
118.5999999999999
 21
824.2234999999999
 31
0.0
  0
LINE
  5
4D8
330
1E
100
AcDbEntity
  8
0
100
AcDbLine
 10
109.4
 20
823.3235
 30
0.0
 11
110.6610088590399
 21
823.4468595622979
 31
0.0
  0
LINE
  5
4D9
330
1E
100
AcDbEntity
  8
0
100
AcDbLine
 10
118.6593234909359
 20
824.230915436367
 30
0.0
 11
118.701
 21
823.8434999999999
 31
0.0
  0
LINE
  5
4DA
330
1E
100
AcDbEntity
  8
0
100
AcDbLine
 10
118.588288143701
 20
824.8912440162959
 30
0.0
 11
118.701
 21
823.8434999999999
 31
0.0
  0
LINE
  5
4DB
330
1E
100
AcDbEntity
  8
0
100
AcDbLine
 10
113.0410173556749
 20
824.912957676805
 30
0.0
 11
113.135
 21
823.8434999999999
 31
0.0
  0
LINE
  5
4DC
330
1E
100
AcDbEntity
  8
0
100
AcDbLine
 10
108.967818163341
 20
827.1229708851331
 30
0.0
 11
109.05
 21
826.1035000000001
 31
0.0
  0
LINE
  5
4DD
330
1E
100
AcDbEntity
  8
0
100
AcDbLine
 10
108.6409798994969
 20
825.3235
 30
0.0
 11
108.717
 21
824.0835
 31
0.0
  0
LINE
  5
4DE
330
1E
100
AcDbEntity
  8
0
100
AcDbLine
 10
116.849
 20
825.6935
 30
0.0
 11
118.0409999999999
 21
826.1035000000001
 31
0.0
  0
LINE
  5
4DF
330
1E
100
AcDbEntity
  8
0
100
AcDbLine
 10
116.849
 20
825.6935
 30
0.0
 11
118.436
 21
825.6935
 31
0.0
  0
LINE
  5
4E0
330
1E
100
AcDbEntity
  8
0
100
AcDbLine
 10
116.7048673469389
 20
826.8235
 30
0.0
 11
116.849
 21
825.6935
 31
0.0
  0
LINE
  5
4E1
330
1E
100
AcDbEntity
  8
0
100
AcDbLine
 10
118.436
 20
825.6935
 30
0.0
 11
119.627
 21
826.1035000000001
 31
0.0
  0
LINE
  5
4E2
330
1E
100
AcDbEntity
  8
0
100
AcDbLine
 10
118.0409999999999
 20
826.1035000000001
 30
0.0
 11
119.627
 21
826.1035000000001
 31
0.0
  0
LINE
  5
4E3
330
1E
100
AcDbEntity
  8
0
100
AcDbLine
 10
119.495036476823
 20
827.138094021711
 30
0.0
 11
119.627
 21
826.1035000000001
 31
0.0
  0
LINE
  5
4E4
330
1E
100
AcDbEntity
  8
0
100
AcDbLine
 10
117.9373149339759
 20
826.913152308391
 30
0.0
 11
118.0409999999999
 21
826.1035000000001
 31
0.0
  0
LINE
  5
4E5
330
1E
100
AcDbEntity
  8
0
100
AcDbLine
 10
119.47
 20
828.2735
 30
0.0
 11
120.425
 21
828.8635000000001
 31
0.0
  0
LINE
  5
4E6
330
1E
100
AcDbEntity
  8
0
100
AcDbLine
 10
117.738
 20
828.2735
 30
0.0
 11
118.693
 21
828.8635000000001
 31
0.0
  0
LINE
  5
4E7
330
1E
100
AcDbEntity
  8
0
100
AcDbLine
 10
117.738
 20
828.2735
 30
0.0
 11
119.47
 21
828.2735
 31
0.0
  0
LINE
  5
4E8
330
1E
100
AcDbEntity
  8
0
100
AcDbLine
 10
117.541900887735
 20
829.5388692717081
 30
0.0
 11
117.738
 21
828.2735
 31
0.0
  0
LINE
  5
4E9
330
1E
100
AcDbEntity
  8
0
100
AcDbLine
 10
118.693
 20
828.8635000000001
 30
0.0
 11
120.425
 21
828.8635000000001
 31
0.0
  0
LINE
  5
4EA
330
1E
100
AcDbEntity
  8
0
100
AcDbLine
 10
121.3038019951549
 20
825.1648397624569
 30
0.0
 11
121.419
 21
824.0835
 31
0.0
  0
LINE
  5
4EB
330
1E
100
AcDbEntity
  8
0
100
AcDbLine
 10
120.3121231867
 20
825.086730464471
 30
0.0
 11
120.419
 21
824.0835
 31
0.0
  0
LINE
  5
4EC
330
1E
100
AcDbEntity
  8
0
100
AcDbLine
 10
120.276727748691
 20
829.8235
 30
0.0
 11
120.425
 21
828.8635000000001
 31
0.0
  0
LINE
  5
4ED
330
1E
100
AcDbEntity
  8
0
100
AcDbLine
 10
118.544727748691
 20
829.8235
 30
0.0
 11
118.693
 21
828.8635000000001
 31
0.0
  0
LINE
  5
4EE
330
1E
100
AcDbEntity
  8
0
100
AcDbLine
 10
115.853062556866
 20
825.2264627117019
 30
0.0
 11
115.9529999999999
 21
824.0835
 31
0.0
  0
LINE
  5
4EF
330
1E
100
AcDbEntity
  8
0
100
AcDbLine
 10
114.450910758385
 20
825.0852779815799
 30
0.0
 11
114.538
 21
824.0835
 31
0.0
  0
LINE
  5
4F0
330
1E
100
AcDbEntity
  8
0
100
AcDbLine
 10
122.2104944952419
 20
824.674811811905
 30
0.0
 11
122.31
 21
823.8434999999999
 31
0.0
  0
LINE
  5
4F1
330
1E
100
AcDbEntity
  8
0
100
AcDbLine
 10
122.170711406431
 20
825.007176857664
 30
0.0
 11
122.31
 21
823.8434999999999
 31
0.0
  0
LINE
  5
4F2
330
1E
100
AcDbEntity
  8
0
100
AcDbLine
 10
121.367235308703
 20
824.5694044135879
 30
0.0
 11
122.2104944952419
 21
824.674811811905
 31
0.0
  0
LINE
  5
4F3
330
1E
100
AcDbEntity
  8
0
100
AcDbLine
 10
121.367235308703
 20
824.5694044135879
 30
0.0
 11
121.419
 21
824.0835
 31
0.0
  0
LINE
  5
4F4
330
1E
100
AcDbEntity
  8
0
100
AcDbLine
 10
118.5999999999999
 20
824.2234999999999
 30
0.0
 11
118.6593234909359
 21
824.230915436367
 31
0.0
  0
LINE
  5
4F5
330
1E
100
AcDbEntity
  8
0
100
AcDbLine
 10
122.3999999999999
 20
831.6235
 30
0.0
 11
129.4999999999999
 21
831.6235
 31
0.0
  0
LINE
  5
4F6
330
1E
100
AcDbEntity
  8
0
100
AcDbLine
 10
114.7999999999999
 20
831.6235
 30
0.0
 11
122.3999999999999
 21
831.6235
 31
0.0
  0
LINE
  5
4F7
330
1E
100
AcDbEntity
  8
0
100
AcDbLine
 10
123.7179999999999
 20
823.8434999999999
 30
0.0
 11
125.7029999999999
 21
824.0835
 31
0.0
  0
LINE
  5
4F8
330
1E
100
AcDbEntity
  8
0
100
AcDbLine
 10
122.8279999999999
 20
823.8434999999999
 30
0.0
 11
124.745
 21
824.0835
 31
0.0
  0
LINE
  5
4F9
330
1E
100
AcDbEntity
  8
0
100
AcDbLine
 10
123.704368433341
 20
823.9532174877419
 30
0.0
 11
123.7179999999999
 21
823.8434999999999
 31
0.0
  0
LINE
  5
4FA
330
1E
100
AcDbEntity
  8
0
100
AcDbLine
 10
122.820320308972
 20
823.9073898665379
 30
0.0
 11
122.8279999999999
 21
823.8434999999999
 31
0.0
  0
LINE
  5
4FB
330
1E
100
AcDbEntity
  8
0
100
AcDbLine
 10
124.2269999999999
 20
824.0835
 30
0.0
 11
124.745
 21
824.0835
 31
0.0
  0
LINE
  5
4FC
330
1E
100
AcDbEntity
  8
0
100
AcDbLine
 10
124.617345849711
 20
825.1553639623379
 30
0.0
 11
124.745
 21
824.0835
 31
0.0
  0
LINE
  5
4FD
330
1E
100
AcDbEntity
  8
0
100
AcDbLine
 10
124.086017143171
 20
825.2672801058631
 30
0.0
 11
124.2269999999999
 21
824.0835
 31
0.0
  0
LINE
  5
4FE
330
1E
100
AcDbEntity
  8
0
100
AcDbLine
 10
125.572032518938
 20
825.1429523874518
 30
0.0
 11
125.7029999999999
 21
824.0835
 31
0.0
  0
LINE
  5
4FF
330
1E
100
AcDbEntity
  8
0
100
AcDbLine
 10
125.4159999999999
 20
825.6935
 30
0.0
 11
126.9679999999999
 21
826.1035000000001
 31
0.0
  0
LINE
  5
500
330
1E
100
AcDbEntity
  8
0
100
AcDbLine
 10
125.4159999999999
 20
825.6935
 30
0.0
 11
126.6329999999999
 21
825.6935
 31
0.0
  0
LINE
  5
501
330
1E
100
AcDbEntity
  8
0
100
AcDbLine
 10
125.227474489796
 20
826.8235
 30
0.0
 11
125.4159999999999
 21
825.6935
 31
0.0
  0
LINE
  5
502
330
1E
100
AcDbEntity
  8
0
100
AcDbLine
 10
125.5778696028699
 20
825.095733700359
 30
0.0
 11
127.4
 21
825.3235
 31
0.0
  0
LINE
  5
503
330
1E
100
AcDbEntity
  8
0
100
AcDbLine
 10
122.3999999999999
 20
832.6235
 30
0.0
 11
129.4999999999999
 21
832.6235
 31
0.0
  0
LINE
  5
504
330
1E
100
AcDbEntity
  8
0
100
AcDbLine
 10
114.7999999999999
 20
832.6235
 30
0.0
 11
122.3999999999999
 21
832.6235
 31
0.0
  0
LINE
  5
507
330
1E
100
AcDbEntity
  8
0
100
AcDbLine
 10
126.6329999999999
 20
825.6935
 30
0.0
 11
128.1859999999999
 21
826.1035000000001
 31
0.0
  0
LINE
  5
508
330
1E
100
AcDbEntity
  8
0
100
AcDbLine
 10
126.9679999999999
 20
826.1035000000001
 30
0.0
 11
128.1859999999999
 21
826.1035000000001
 31
0.0
  0
LINE
  5
509
330
1E
100
AcDbEntity
  8
0
100
AcDbLine
 10
129.4765082253489
 20
829.4987021332939
 30
0.0
 11
129.7439999999999
 21
828.2735
 31
0.0
  0
LINE
  5
50A
330
1E
100
AcDbEntity
  8
0
100
AcDbLine
 10
127.974844575666
 20
827.373023410109
 30
0.0
 11
128.1859999999999
 21
826.1035000000001
 31
0.0
  0
LINE
  5
50B
330
1E
100
AcDbEntity
  8
0
100
AcDbLine
 10
126.813462951469
 20
827.032618451293
 30
0.0
 11
126.9679999999999
 21
826.1035000000001
 31
0.0
  0
LINE
  5
50C
330
1E
100
AcDbEntity
  8
0
100
AcDbLine
 10
127.4
 20
825.3235
 30
0.0
 11
131.4954866001679
 21
826.07267437808
 31
0.0
  0
LINE
  5
50D
330
1E
100
AcDbEntity
  8
0
100
AcDbLine
 10
129.7439999999999
 20
828.2735
 30
0.0
 11
131.096
 21
828.8635000000001
 31
0.0
  0
LINE
  5
50E
330
1E
100
AcDbEntity
  8
0
100
AcDbLine
 10
129.7439999999999
 20
828.2735
 30
0.0
 11
131.159
 21
828.2735
 31
0.0
  0
LINE
  5
50F
330
1E
100
AcDbEntity
  8
0
100
AcDbLine
 10
131.4954866001679
 20
826.07267437808
 30
0.0
 11
131.5689999999999
 21
825.6935
 31
0.0
  0
LINE
  5
510
330
1E
100
AcDbEntity
  8
0
100
AcDbLine
 10
131.3499183673469
 20
826.8235
 30
0.0
 11
131.5689999999999
 21
825.6935
 31
0.0
  0
LINE
  5
511
330
1E
100
AcDbEntity
  8
0
100
AcDbLine
 10
131.159
 20
828.2735
 30
0.0
 11
132.5099999999999
 21
828.8635000000001
 31
0.0
  0
LINE
  5
512
330
1E
100
AcDbEntity
  8
0
100
AcDbLine
 10
131.096
 20
828.8635000000001
 30
0.0
 11
132.5099999999999
 21
828.8635000000001
 31
0.0
  0
LINE
  5
513
330
1E
100
AcDbEntity
  8
0
100
AcDbLine
 10
130.885905759162
 20
829.8235
 30
0.0
 11
131.096
 21
828.8635000000001
 31
0.0
  0
LINE
  5
514
330
1E
100
AcDbEntity
  8
0
100
AcDbLine
 10
129.4999999999999
 20
831.6235
 30
0.0
 11
135.8999999999999
 21
831.6235
 31
0.0
  0
LINE
  5
515
330
1E
100
AcDbEntity
  8
0
100
AcDbLine
 10
129.4999999999999
 20
832.6235
 30
0.0
 11
135.8999999999999
 21
832.6235
 31
0.0
  0
LINE
  5
52F
330
1E
100
AcDbEntity
  8
0
100
AcDbLine
 10
99.8
 20
862.4235
 30
0.0
 11
109.4
 21
861.9234999999999
 31
0.0
  0
LINE
  5
530
330
1E
100
AcDbEntity
  8
0
100
AcDbLine
 10
109.4
 20
861.9234999999999
 30
0.0
 11
118.5999999999999
 21
861.0235000000001
 31
0.0
  0
LINE
  5
531
330
1E
100
AcDbEntity
  8
0
100
AcDbLine
 10
118.5999999999999
 20
861.0235000000001
 30
0.0
 11
127.4
 21
859.9235
 31
0.0
  0
LINE
  5
532
330
1E
100
AcDbEntity
  8
0
100
AcDbLine
 10
127.4
 20
859.9235
 30
0.0
 11
135.5999999999999
 21
858.4234999999999
 31
0.0
  0
LINE
  5
537
330
1E
100
AcDbEntity
  8
0
100
AcDbLine
 10
71.90479999999999
 20
865.0335
 30
0.0
 11
74.71859999999999
 21
865.2234999999999
 31
0.0
  0
LINE
  5
53C
330
1E
100
AcDbEntity
  8
0
100
AcDbLine
 10
76.13330000000001
 20
865.2834999999999
 30
0.0
 11
79.367
 21
865.3835
 31
0.0
  0
LINE
  5
53D
330
1E
100
AcDbEntity
  8
0
100
AcDbLine
 10
79.367
 20
865.3835
 30
0.0
 11
81.9974
 21
865.4534999999999
 31
0.0
  0
LINE
  5
53E
330
1E
100
AcDbEntity
  8
0
100
AcDbLine
 10
81.9974
 20
865.4534999999999
 30
0.0
 11
84.2795
 21
865.5034999999999
 31
0.0
  0
LINE
  5
53F
330
1E
100
AcDbEntity
  8
0
100
AcDbLine
 10
84.2795
 20
865.5034999999999
 30
0.0
 11
86.3011
 21
865.5335
 31
0.0
  0
LINE
  5
540
330
1E
100
AcDbEntity
  8
0
100
AcDbLine
 10
86.3011
 20
865.5335
 30
0.0
 11
88.16869999999999
 21
865.5535
 31
0.0
  0
LINE
  5
541
330
1E
100
AcDbEntity
  8
0
100
AcDbLine
 10
88.16869999999999
 20
865.5535
 30
0.0
 11
90.0
 21
865.5635
 31
0.0
  0
LINE
  5
544
330
1E
100
AcDbEntity
  8
0
100
AcDbLine
 10
74.71859999999999
 20
865.2234999999999
 30
0.0
 11
76.13330000000001
 21
865.2834999999999
 31
0.0
  0
LINE
  5
549
330
1E
100
AcDbEntity
  8
0
100
AcDbLine
 10
79.5467
 20
865.7235
 30
0.0
 11
90.0
 21
865.9235
 31
0.0
  0
LINE
  5
54A
330
1E
100
AcDbEntity
  8
0
100
AcDbLine
 10
90.0
 20
865.9235
 30
0.0
 11
100.4529999999999
 21
865.7235
 31
0.0
  0
LINE
  5
54E
330
1E
100
AcDbEntity
  8
0
100
AcDbLine
 10
90.0
 20
865.5635
 30
0.0
 11
91.8313
 21
865.5535
 31
0.0
  0
LINE
  5
54F
330
1E
100
AcDbEntity
  8
0
100
AcDbLine
 10
127.272
 20
863.2234999999999
 30
0.0
 11
136.4759999999999
 21
861.7234999999999
 31
0.0
  0
LINE
  5
556
330
1E
100
AcDbEntity
  8
0
100
AcDbLine
 10
95.7205
 20
865.5034999999999
 30
0.0
 11
98.00260000000001
 21
865.4534999999999
 31
0.0
  0
LINE
  5
557
330
1E
100
AcDbEntity
  8
0
100
AcDbLine
 10
93.69889999999999
 20
865.5335
 30
0.0
 11
95.7205
 21
865.5034999999999
 31
0.0
  0
LINE
  5
559
330
1E
100
AcDbEntity
  8
0
100
AcDbLine
 10
91.8313
 20
865.5535
 30
0.0
 11
93.69889999999999
 21
865.5335
 31
0.0
  0
LINE
  5
55A
330
1E
100
AcDbEntity
  8
0
100
AcDbLine
 10
98.00260000000001
 20
865.4534999999999
 30
0.0
 11
100.6329999999999
 21
865.3835
 31
0.0
  0
LINE
  5
55F
330
1E
100
AcDbEntity
  8
0
100
AcDbLine
 10
105.281
 20
865.2234999999999
 30
0.0
 11
108.095
 21
865.0335
 31
0.0
  0
LINE
  5
563
330
1E
100
AcDbEntity
  8
0
100
AcDbLine
 10
100.6329999999999
 20
865.3835
 30
0.0
 11
103.8669999999999
 21
865.2834999999999
 31
0.0
  0
LINE
  5
564
330
1E
100
AcDbEntity
  8
0
100
AcDbLine
 10
103.8669999999999
 20
865.2834999999999
 30
0.0
 11
105.281
 21
865.2234999999999
 31
0.0
  0
LINE
  5
567
330
1E
100
AcDbEntity
  8
0
100
AcDbLine
 10
100.4529999999999
 20
865.7235
 30
0.0
 11
110.6929999999999
 21
865.2234999999999
 31
0.0
  0
LINE
  5
568
330
1E
100
AcDbEntity
  8
0
100
AcDbLine
 10
108.095
 20
865.0335
 30
0.0
 11
114.178
 21
864.5635
 31
0.0
  0
LINE
  5
569
330
1E
100
AcDbEntity
  8
0
100
AcDbLine
 10
114.178
 20
864.5635
 30
0.0
 11
117.074
 21
864.3235
 31
0.0
  0
LINE
  5
56A
330
1E
100
AcDbEntity
  8
0
100
AcDbLine
 10
110.6929999999999
 20
865.2234999999999
 30
0.0
 11
120.507
 21
864.3235
 31
0.0
  0
LINE
  5
56B
330
1E
100
AcDbEntity
  8
0
100
AcDbLine
 10
117.074
 20
864.3235
 30
0.0
 11
123.496
 21
863.6435
 31
0.0
  0
LINE
  5
56C
330
1E
100
AcDbEntity
  8
0
100
AcDbLine
 10
123.496
 20
863.6435
 30
0.0
 11
127.272
 21
863.2234999999999
 31
0.0
  0
LINE
  5
56D
330
1E
100
AcDbEntity
  8
0
100
AcDbLine
 10
120.507
 20
864.3235
 30
0.0
 11
129.893
 21
863.2234999999999
 31
0.0
  0
LINE
  5
56E
330
1E
100
AcDbEntity
  8
0
100
AcDbLine
 10
129.893
 20
863.2234999999999
 30
0.0
 11
138.6399999999999
 21
861.7234999999999
 31
0.0
  0
LINE
  5
56F
330
1E
100
AcDbEntity
  8
0
100
AcDbLine
 10
90.0
 20
862.6235000000001
 30
0.0
 11
99.8
 21
862.4235
 31
0.0
  0
LINE
  5
570
330
1E
100
AcDbEntity
  8
0
100
AcDbLine
 10
80.20000000000001
 20
862.4235
 30
0.0
 11
90.0
 21
862.6235000000001
 31
0.0
  0
LINE
  5
571
330
1E
100
AcDbEntity
  8
0
100
AcDbLine
 10
70.59999999999999
 20
861.9234999999999
 30
0.0
 11
80.20000000000001
 21
862.4235
 31
0.0
  0
LINE
  5
572
330
1E
100
AcDbEntity
  8
0
100
AcDbLine
 10
130.8799999999999
 20
822.7935
 30
0.0
 11
134.856061090677
 21
825.8517359369459
 31
0.0
  0
LINE
  5
573
330
1E
100
AcDbEntity
  8
0
100
AcDbLine
 10
62.24
 20
816.3635000000001
 30
0.0
 11
76.27613799146859
 21
813.111444452894
 31
0.0
  0
LINE
  5
57C
330
1E
100
AcDbEntity
  8
0
100
AcDbLine
 10
133.0
 20
733.3334999999999
 30
0.0
 11
136.0
 21
734.3735
 31
0.0
  0
LINE
  5
57D
330
1E
100
AcDbEntity
  8
0
100
AcDbLine
 10
136.0
 20
734.3735
 30
0.0
 11
138.0
 21
737.2535
 31
0.0
  0
LINE
  5
585
330
1E
100
AcDbEntity
  8
0
100
AcDbLine
 10
138.0
 20
739.2735
 30
0.0
 11
138.0
 21
737.7835
 31
0.0
  0
LINE
  5
586
330
1E
100
AcDbEntity
  8
0
100
AcDbLine
 10
138.0
 20
737.7835
 30
0.0
 11
138.0
 21
737.2535
 31
0.0
  0
LINE
  5
587
330
1E
100
AcDbEntity
  8
0
100
AcDbLine
 10
138.0
 20
737.7835
 30
0.0
 11
138.0
 21
739.2735
 31
0.0
  0
LINE
  5
588
330
1E
100
AcDbEntity
  8
0
100
AcDbLine
 10
138.0
 20
737.2535
 30
0.0
 11
140.0
 21
739.3434999999999
 31
0.0
  0
LINE
  5
589
330
1E
100
AcDbEntity
  8
0
100
AcDbLine
 10
138.0
 20
737.2535
 30
0.0
 11
138.0
 21
737.7835
 31
0.0
  0
LINE
  5
58C
330
1E
100
AcDbEntity
  8
0
100
AcDbLine
 10
138.0
 20
743.1035
 30
0.0
 11
138.3
 21
750.3034999999999
 31
0.0
  0
LINE
  5
58D
330
1E
100
AcDbEntity
  8
0
100
AcDbLine
 10
138.0
 20
743.1035
 30
0.0
 11
138.0
 21
737.7835
 31
0.0
  0
LINE
  5
58E
330
1E
100
AcDbEntity
  8
0
100
AcDbLine
 10
140.0
 20
741.0535
 30
0.0
 11
140.0
 21
743.0435
 31
0.0
  0
LINE
  5
58F
330
1E
100
AcDbEntity
  8
0
100
AcDbLine
 10
140.0
 20
741.0535
 30
0.0
 11
140.0
 21
739.7134999999999
 31
0.0
  0
LINE
  5
590
330
1E
100
AcDbEntity
  8
0
100
AcDbLine
 10
140.0
 20
743.0435
 30
0.0
 11
140.0
 21
745.7635
 31
0.0
  0
LINE
  5
591
330
1E
100
AcDbEntity
  8
0
100
AcDbLine
 10
140.0
 20
743.0435
 30
0.0
 11
140.0
 21
741.0535
 31
0.0
  0
LINE
  5
594
330
1E
100
AcDbEntity
  8
0
100
AcDbLine
 10
138.3
 20
750.3034999999999
 30
0.0
 11
138.7
 21
759.4034999999999
 31
0.0
  0
LINE
  5
595
330
1E
100
AcDbEntity
  8
0
100
AcDbLine
 10
140.0
 20
745.7635
 30
0.0
 11
140.0
 21
748.9234999999999
 31
0.0
  0
LINE
  5
596
330
1E
100
AcDbEntity
  8
0
100
AcDbLine
 10
140.0
 20
745.7635
 30
0.0
 11
140.0
 21
743.0435
 31
0.0
  0
LINE
  5
597
330
1E
100
AcDbEntity
  8
0
100
AcDbLine
 10
140.0
 20
748.9234999999999
 30
0.0
 11
140.0
 21
752.3234999999999
 31
0.0
  0
LINE
  5
598
330
1E
100
AcDbEntity
  8
0
100
AcDbLine
 10
140.0
 20
748.9234999999999
 30
0.0
 11
140.0
 21
745.7635
 31
0.0
  0
LINE
  5
59B
330
1E
100
AcDbEntity
  8
0
100
AcDbLine
 10
138.7
 20
759.4034999999999
 30
0.0
 11
139.8
 21
772.2435
 31
0.0
  0
LINE
  5
59C
330
1E
100
AcDbEntity
  8
0
100
AcDbLine
 10
132.4
 20
782.2735
 30
0.0
 11
136.0999999999999
 21
794.8134999999999
 31
0.0
  0
LINE
  5
59D
330
1E
100
AcDbEntity
  8
0
100
AcDbLine
 10
133.1126281850339
 20
784.68873174063
 30
0.0
 11
133.6
 21
792.2234999999999
 31
0.0
  0
LINE
  5
59F
330
1E
100
AcDbEntity
  8
0
100
AcDbLine
 10
133.6
 20
792.2234999999999
 30
0.0
 11
134.4
 21
800.2034999999999
 31
0.0
  0
LINE
  5
5A0
330
1E
100
AcDbEntity
  8
0
100
AcDbLine
 10
134.4
 20
800.2034999999999
 30
0.0
 11
136.0
 21
808.4035
 31
0.0
  0
LINE
  5
5A3
330
1E
100
AcDbEntity
  8
0
100
AcDbLine
 10
136.0999999999999
 20
794.8134999999999
 30
0.0
 11
141.9
 21
805.6535
 31
0.0
  0
LINE
  5
5A4
330
1E
100
AcDbEntity
  8
0
100
AcDbLine
 10
136.0
 20
808.4035
 30
0.0
 11
138.5
 21
816.3635000000001
 31
0.0
  0
LINE
  5
5A5
330
1E
100
AcDbEntity
  8
0
100
AcDbLine
 10
131.5689999999999
 20
825.6935
 30
0.0
 11
132.3339999999999
 21
825.6935
 31
0.0
  0
LINE
  5
5A6
330
1E
100
AcDbEntity
  8
0
100
AcDbLine
 10
131.5689999999999
 20
825.6935
 30
0.0
 11
133.377
 21
826.1035000000001
 31
0.0
  0
LINE
  5
5A7
330
1E
100
AcDbEntity
  8
0
100
AcDbLine
 10
132.3339999999999
 20
825.6935
 30
0.0
 11
134.142
 21
826.1035000000001
 31
0.0
  0
LINE
  5
5A8
330
1E
100
AcDbEntity
  8
0
100
AcDbLine
 10
132.3110744852739
 20
825.811747391746
 30
0.0
 11
132.3339999999999
 21
825.6935
 31
0.0
  0
LINE
  5
5A9
330
1E
100
AcDbEntity
  8
0
100
AcDbLine
 10
133.909839416058
 20
827.300959854015
 30
0.0
 11
134.142
 21
826.1035000000001
 31
0.0
  0
LINE
  5
5AA
330
1E
100
AcDbEntity
  8
0
100
AcDbLine
 10
133.377
 20
826.1035000000001
 30
0.0
 11
134.142
 21
826.1035000000001
 31
0.0
  0
LINE
  5
5AB
330
1E
100
AcDbEntity
  8
0
100
AcDbLine
 10
133.109487972873
 20
827.483298876762
 30
0.0
 11
133.377
 21
826.1035000000001
 31
0.0
  0
LINE
  5
5AC
330
1E
100
AcDbEntity
  8
0
100
AcDbLine
 10
132.3004083769629
 20
829.8235
 30
0.0
 11
132.5099999999999
 21
828.8635000000001
 31
0.0
  0
LINE
  5
5AE
330
1E
100
AcDbEntity
  8
0
100
AcDbLine
 10
134.889
 20
825.6935
 30
0.0
 11
135.15
 21
825.6935
 31
0.0
  0
LINE
  5
5AF
330
1E
100
AcDbEntity
  8
0
100
AcDbLine
 10
134.889
 20
825.6935
 30
0.0
 11
136.829
 21
826.1035000000001
 31
0.0
  0
LINE
  5
5B0
330
1E
100
AcDbEntity
  8
0
100
AcDbLine
 10
134.6537755102039
 20
826.8235
 30
0.0
 11
134.889
 21
825.6935
 31
0.0
  0
LINE
  5
5B1
330
1E
100
AcDbEntity
  8
0
100
AcDbLine
 10
134.057126787646
 20
826.541267095301
 30
0.0
 11
134.6884847758329
 21
826.6567594102129
 31
0.0
  0
LINE
  5
5B2
330
1E
100
AcDbEntity
  8
0
100
AcDbLine
 10
134.057126787646
 20
826.541267095301
 30
0.0
 11
134.142
 21
826.1035000000001
 31
0.0
  0
LINE
  5
5B5
330
1E
100
AcDbEntity
  8
0
100
AcDbLine
 10
135.15
 20
825.6935
 30
0.0
 11
137.09
 21
826.1035000000001
 31
0.0
  0
LINE
  5
5B6
330
1E
100
AcDbEntity
  8
0
100
AcDbLine
 10
135.1390016122209
 20
825.7463353922739
 30
0.0
 11
135.15
 21
825.6935
 31
0.0
  0
LINE
  5
5B7
330
1E
100
AcDbEntity
  8
0
100
AcDbLine
 10
135.8999999999999
 20
831.6235
 30
0.0
 11
141.5
 21
831.6235
 31
0.0
  0
LINE
  5
5B8
330
1E
100
AcDbEntity
  8
0
100
AcDbLine
 10
136.829
 20
826.1035000000001
 30
0.0
 11
137.09
 21
826.1035000000001
 31
0.0
  0
LINE
  5
5B9
330
1E
100
AcDbEntity
  8
0
100
AcDbLine
 10
138.726203526979
 20
829.457612061587
 30
0.0
 11
139.043
 21
828.2735
 31
0.0
  0
LINE
  5
5BA
330
1E
100
AcDbEntity
  8
0
100
AcDbLine
 10
139.043
 20
828.2735
 30
0.0
 11
140.043
 21
828.2735
 31
0.0
  0
LINE
  5
5BB
330
1E
100
AcDbEntity
  8
0
100
AcDbLine
 10
139.043
 20
828.2735
 30
0.0
 11
140.6979999999999
 21
828.8635000000001
 31
0.0
  0
LINE
  5
5BC
330
1E
100
AcDbEntity
  8
0
100
AcDbLine
 10
136.855593570624
 20
827.232336858912
 30
0.0
 11
137.09
 21
826.1035000000001
 31
0.0
  0
LINE
  5
5BD
330
1E
100
AcDbEntity
  8
0
100
AcDbLine
 10
136.5714255737089
 20
827.3439075565839
 30
0.0
 11
136.829
 21
826.1035000000001
 31
0.0
  0
LINE
  5
5BE
330
1E
100
AcDbEntity
  8
0
100
AcDbLine
 10
136.878657057714
 20
827.1212694517959
 30
0.0
 11
142.9
 21
828.5235
 31
0.0
  0
LINE
  5
5BF
330
1E
100
AcDbEntity
  8
0
100
AcDbLine
 10
136.878657057714
 20
827.1212694517959
 30
0.0
 11
137.09
 21
826.1035000000001
 31
0.0
  0
LINE
  5
5C0
330
1E
100
AcDbEntity
  8
0
100
AcDbLine
 10
135.8999999999999
 20
832.6235
 30
0.0
 11
141.5
 21
832.6235
 31
0.0
  0
LINE
  5
5C6
330
1E
100
AcDbEntity
  8
0
100
AcDbLine
 10
136.4759999999999
 20
861.7234999999999
 30
0.0
 11
142.204
 21
860.5235
 31
0.0
  0
LINE
  5
5C8
330
1E
100
AcDbEntity
  8
0
100
AcDbLine
 10
138.6399999999999
 20
861.7234999999999
 30
0.0
 11
146.427
 21
860.0234999999999
 31
0.0
  0
LINE
  5
5C9
330
1E
100
AcDbEntity
  8
0
100
AcDbLine
 10
135.5999999999999
 20
858.4234999999999
 30
0.0
 11
140.5749999999999
 21
857.2649383561639
 31
0.0
  0
LINE
  5
5CC
330
1E
100
AcDbEntity
  8
0
100
AcDbLine
 10
138.5
 20
816.3635000000001
 30
0.0
 11
142.3
 21
824.1635
 31
0.0
  0
LINE
  5
5CD
330
1E
100
AcDbEntity
  8
0
100
AcDbLine
 10
139.8
 20
772.2435
 30
0.0
 11
142.4
 21
786.1335
 31
0.0
  0
LINE
  5
5CE
330
1E
100
AcDbEntity
  8
0
100
AcDbLine
 10
139.2628757282249
 20
765.9737948640049
 30
0.0
 11
140.0
 21
765.2034999999999
 31
0.0
  0
LINE
  5
5CF
330
1E
100
AcDbEntity
  8
0
100
AcDbLine
 10
140.0
 20
765.2034999999999
 30
0.0
 11
140.0
 21
764.8735
 31
0.0
  0
LINE
  5
5D0
330
1E
100
AcDbEntity
  8
0
100
AcDbLine
 10
140.0
 20
764.8735
 30
0.0
 11
140.0
 21
765.2034999999999
 31
0.0
  0
LINE
  5
5D1
330
1E
100
AcDbEntity
  8
0
100
AcDbLine
 10
140.0
 20
764.8735
 30
0.0
 11
140.0
 21
763.5435
 31
0.0
  0
LINE
  5
5D2
330
1E
100
AcDbEntity
  8
0
100
AcDbLine
 10
140.0
 20
763.5435
 30
0.0
 11
140.0
 21
764.8735
 31
0.0
  0
LINE
  5
5D3
330
1E
100
AcDbEntity
  8
0
100
AcDbLine
 10
140.0
 20
763.5435
 30
0.0
 11
140.0
 21
761.4734999999999
 31
0.0
  0
LINE
  5
5D4
330
1E
100
AcDbEntity
  8
0
100
AcDbLine
 10
140.0
 20
761.4734999999999
 30
0.0
 11
140.0
 21
763.5435
 31
0.0
  0
LINE
  5
5D5
330
1E
100
AcDbEntity
  8
0
100
AcDbLine
 10
140.0
 20
761.4734999999999
 30
0.0
 11
140.0
 21
758.6934999999999
 31
0.0
  0
LINE
  5
5D6
330
1E
100
AcDbEntity
  8
0
100
AcDbLine
 10
140.0
 20
758.6934999999999
 30
0.0
 11
140.0
 21
761.4734999999999
 31
0.0
  0
LINE
  5
5D7
330
1E
100
AcDbEntity
  8
0
100
AcDbLine
 10
140.0
 20
758.6934999999999
 30
0.0
 11
140.0
 21
755.6335
 31
0.0
  0
LINE
  5
5D8
330
1E
100
AcDbEntity
  8
0
100
AcDbLine
 10
140.0
 20
755.6335
 30
0.0
 11
140.0
 21
752.3234999999999
 31
0.0
  0
LINE
  5
5D9
330
1E
100
AcDbEntity
  8
0
100
AcDbLine
 10
140.0
 20
755.6335
 30
0.0
 11
140.0
 21
758.6934999999999
 31
0.0
  0
LINE
  5
5DA
330
1E
100
AcDbEntity
  8
0
100
AcDbLine
 10
140.0
 20
752.3234999999999
 30
0.0
 11
140.0
 21
755.6335
 31
0.0
  0
LINE
  5
5DB
330
1E
100
AcDbEntity
  8
0
100
AcDbLine
 10
140.0
 20
752.3234999999999
 30
0.0
 11
140.0
 21
748.9234999999999
 31
0.0
  0
LINE
  5
5DF
330
1E
100
AcDbEntity
  8
0
100
AcDbLine
 10
142.4
 20
786.1335
 30
0.0
 11
146.1
 21
798.6735
 31
0.0
  0
LINE
  5
5E0
330
1E
100
AcDbEntity
  8
0
100
AcDbLine
 10
140.043
 20
828.2735
 30
0.0
 11
141.6979999999999
 21
828.8635000000001
 31
0.0
  0
LINE
  5
5E1
330
1E
100
AcDbEntity
  8
0
100
AcDbLine
 10
140.6979999999999
 20
828.8635000000001
 30
0.0
 11
141.6979999999999
 21
828.8635000000001
 31
0.0
  0
LINE
  5
5E2
330
1E
100
AcDbEntity
  8
0
100
AcDbLine
 10
140.441162303665
 20
829.8235
 30
0.0
 11
140.6979999999999
 21
828.8635000000001
 31
0.0
  0
LINE
  5
5E9
330
1E
100
AcDbEntity
  8
0
100
AcDbLine
 10
141.441162303665
 20
829.8235
 30
0.0
 11
141.6979999999999
 21
828.8635000000001
 31
0.0
  0
LINE
  5
5EA
330
1E
100
AcDbEntity
  8
0
100
AcDbLine
 10
141.5
 20
831.6235
 30
0.0
 11
146.3
 21
831.6235
 31
0.0
  0
LINE
  5
5EB
330
1E
100
AcDbEntity
  8
0
100
AcDbLine
 10
141.5
 20
832.6235
 30
0.0
 11
146.3
 21
832.6235
 31
0.0
  0
LINE
  5
5ED
330
1E
100
AcDbEntity
  8
0
100
AcDbLine
 10
141.9
 20
805.6535
 30
0.0
 11
149.3999999999999
 21
814.5735
 31
0.0
  0
LINE
  5
5EE
330
1E
100
AcDbEntity
  8
0
100
AcDbLine
 10
151.134859475691
 20
808.0921595364211
 30
0.0
 11
157.4
 21
815.5435
 31
0.0
  0
LINE
  5
5F1
330
1E
100
AcDbEntity
  8
0
100
AcDbLine
 10
157.4
 20
815.5435
 30
0.0
 11
163.3
 21
821.1534999999999
 31
0.0
  0
LINE
  5
5F2
330
1E
100
AcDbEntity
  8
0
100
AcDbLine
 10
149.3999999999999
 20
814.5735
 30
0.0
 11
155.3
 21
820.1834999999999
 31
0.0
  0
LINE
  5
5F4
330
1E
100
AcDbEntity
  8
0
100
AcDbLine
 10
163.3
 20
821.1534999999999
 30
0.0
 11
167.9
 21
826.0835
 31
0.0
  0
LINE
  5
5F5
330
1E
100
AcDbEntity
  8
0
100
AcDbLine
 10
155.3
 20
820.1834999999999
 30
0.0
 11
159.9
 21
825.1235000000001
 31
0.0
  0
LINE
  5
5F7
330
1E
100
AcDbEntity
  8
0
100
AcDbLine
 10
144.9989999999999
 20
828.2735
 30
0.0
 11
145.517
 21
828.2735
 31
0.0
  0
LINE
  5
5F8
330
1E
100
AcDbEntity
  8
0
100
AcDbLine
 10
144.9989999999999
 20
828.2735
 30
0.0
 11
146.8449999999999
 21
828.8635000000001
 31
0.0
  0
LINE
  5
5F9
330
1E
100
AcDbEntity
  8
0
100
AcDbLine
 10
145.517
 20
828.2735
 30
0.0
 11
147.3629999999999
 21
828.8635000000001
 31
0.0
  0
LINE
  5
5FA
330
1E
100
AcDbEntity
  8
0
100
AcDbLine
 10
145.517
 20
828.2735
 30
0.0
 11
147.055142727338
 21
828.765105747091
 31
0.0
  0
LINE
  5
5FB
330
1E
100
AcDbEntity
  8
0
100
AcDbLine
 10
144.81037055336
 20
828.905574110672
 30
0.0
 11
144.9989999999999
 21
828.2735
 31
0.0
  0
LINE
  5
5FC
330
1E
100
AcDbEntity
  8
0
100
AcDbLine
 10
144.657063795947
 20
829.419286227616
 30
0.0
 11
144.9989999999999
 21
828.2735
 31
0.0
  0
LINE
  5
5FD
330
1E
100
AcDbEntity
  8
0
100
AcDbLine
 10
145.4810931745379
 20
828.393819362512
 30
0.0
 11
145.517
 21
828.2735
 31
0.0
  0
LINE
  5
5FE
330
1E
100
AcDbEntity
  8
0
100
AcDbLine
 10
142.9
 20
828.5235
 30
0.0
 11
144.81037055336
 21
828.905574110672
 31
0.0
  0
LINE
  5
5FF
330
1E
100
AcDbEntity
  8
0
100
AcDbLine
 10
146.3
 20
831.6235
 30
0.0
 11
149.9
 21
831.6235
 31
0.0
  0
LINE
  5
600
330
1E
100
AcDbEntity
  8
0
100
AcDbLine
 10
147.2069999999999
 20
828.2735
 30
0.0
 11
149.1179999999999
 21
828.8635000000001
 31
0.0
  0
LINE
  5
601
330
1E
100
AcDbEntity
  8
0
100
AcDbLine
 10
147.086263254006
 20
829.7908108506129
 30
0.0
 11
147.3629999999999
 21
828.8635000000001
 31
0.0
  0
LINE
  5
602
330
1E
100
AcDbEntity
  8
0
100
AcDbLine
 10
146.8449999999999
 20
828.8635000000001
 30
0.0
 11
147.3629999999999
 21
828.8635000000001
 31
0.0
  0
LINE
  5
603
330
1E
100
AcDbEntity
  8
0
100
AcDbLine
 10
146.558507853403
 20
829.8235
 30
0.0
 11
146.8449999999999
 21
828.8635000000001
 31
0.0
  0
LINE
  5
604
330
1E
100
AcDbEntity
  8
0
100
AcDbLine
 10
147.055142727338
 20
828.765105747091
 30
0.0
 11
147.2069999999999
 21
828.2735
 31
0.0
  0
LINE
  5
605
330
1E
100
AcDbEntity
  8
0
100
AcDbLine
 10
146.3
 20
832.6235
 30
0.0
 11
149.9
 21
832.6235
 31
0.0
  0
LINE
  5
609
330
1E
100
AcDbEntity
  8
0
100
AcDbLine
 10
148.821455497382
 20
829.8235
 30
0.0
 11
149.1179999999999
 21
828.8635000000001
 31
0.0
  0
LINE
  5
60A
330
1E
100
AcDbEntity
  8
0
100
AcDbLine
 10
148.8551183431949
 20
829.7145236686391
 30
0.0
 11
149.3999999999999
 21
829.8235
 31
0.0
  0
LINE
  5
60B
330
1E
100
AcDbEntity
  8
0
100
AcDbLine
 10
149.3999999999999
 20
829.8235
 30
0.0
 11
155.0
 21
831.6235
 31
0.0
  0
LINE
  5
60C
330
1E
100
AcDbEntity
  8
0
100
AcDbLine
 10
149.9
 20
831.6235
 30
0.0
 11
152.6999999999999
 21
831.6235
 31
0.0
  0
LINE
  5
60D
330
1E
100
AcDbEntity
  8
0
100
AcDbLine
 10
149.9
 20
832.6235
 30
0.0
 11
152.6999999999999
 21
832.6235
 31
0.0
  0
LINE
  5
60F
330
1E
100
AcDbEntity
  8
0
100
AcDbLine
 10
152.6999999999999
 20
831.6235
 30
0.0
 11
154.3
 21
831.6235
 31
0.0
  0
LINE
  5
610
330
1E
100
AcDbEntity
  8
0
100
AcDbLine
 10
154.3
 20
831.6235
 30
0.0
 11
155.0
 21
831.6235
 31
0.0
  0
LINE
  5
611
330
1E
100
AcDbEntity
  8
0
100
AcDbLine
 10
152.6999999999999
 20
832.6235
 30
0.0
 11
154.3
 21
832.6235
 31
0.0
  0
LINE
  5
612
330
1E
100
AcDbEntity
  8
0
100
AcDbLine
 10
155.0
 20
831.6235
 30
0.0
 11
155.0
 21
832.6235
 31
0.0
  0
LINE
  5
613
330
1E
100
AcDbEntity
  8
0
100
AcDbLine
 10
154.3
 20
832.6235
 30
0.0
 11
155.0
 21
832.6235
 31
0.0
  0
LINE
  5
614
330
1E
100
AcDbEntity
  8
0
100
AcDbLine
 10
155.0
 20
832.6235
 30
0.0
 11
159.0
 21
834.964963414634
 31
0.0
  0
LINE
  5
615
330
1E
100
AcDbEntity
  8
0
100
AcDbLine
 10
155.0
 20
832.6235
 30
0.0
 11
155.0
 21
831.6235
 31
0.0
  0
LINE
  5
61B
330
1E
100
AcDbEntity
  8
0
100
AcDbLine
 10
159.0
 20
831.9435
 30
0.0
 11
160.366
 21
830.1135
 31
0.0
  0
LINE
  5
61C
330
1E
100
AcDbEntity
  8
0
100
AcDbLine
 10
159.0
 20
831.9435
 30
0.0
 11
159.0
 21
832.5734999999999
 31
0.0
  0
LINE
  5
61E
330
1E
100
AcDbEntity
  8
0
100
AcDbLine
 10
159.0
 20
832.5734999999999
 30
0.0
 11
159.0
 21
831.9435
 31
0.0
  0
LINE
  5
620
330
1E
100
AcDbEntity
  8
0
100
AcDbLine
 10
159.0
 20
832.5734999999999
 30
0.0
 11
159.0
 21
834.964963414634
 31
0.0
  0
LINE
  5
621
330
1E
100
AcDbEntity
  8
0
100
AcDbLine
 10
159.0
 20
835.7134999999999
 30
0.0
 11
159.0
 21
832.5734999999999
 31
0.0
  0
LINE
  5
622
330
1E
100
AcDbEntity
  8
0
100
AcDbLine
 10
159.0
 20
836.2235
 30
0.0
 11
159.0
 21
835.7134999999999
 31
0.0
  0
LINE
  5
623
330
1E
100
AcDbEntity
  8
0
100
AcDbLine
 10
162.143
 20
828.9835
 30
0.0
 11
163.3479999999999
 21
828.6834999999999
 31
0.0
  0
LINE
  5
624
330
1E
100
AcDbEntity
  8
0
100
AcDbLine
 10
160.454
 20
830.0035000000001
 30
0.0
 11
162.143
 21
828.9835
 31
0.0
  0
LINE
  5
626
330
1E
100
AcDbEntity
  8
0
100
AcDbLine
 10
160.366
 20
830.1135
 30
0.0
 11
160.454
 21
830.0035000000001
 31
0.0
  0
LINE
  5
631
330
1E
100
AcDbEntity
  8
0
100
AcDbLine
 10
153.2813999999999
 20
858.1435
 30
0.0
 11
159.0
 21
858.1435
 31
0.0
  0
LINE
  5
632
330
1E
100
AcDbEntity
  8
0
100
AcDbLine
 10
156.595552199681
 20
850.9832674948709
 30
0.0
 11
159.0
 21
850.5734999999999
 31
0.0
  0
LINE
  5
633
330
1E
100
AcDbEntity
  8
0
100
AcDbLine
 10
151.6039999999999
 20
858.1235000000001
 30
0.0
 11
157.66
 21
855.6535
 31
0.0
  0
LINE
  5
636
330
1E
100
AcDbEntity
  8
0
100
AcDbLine
 10
157.66
 20
855.6535
 30
0.0
 11
162.087
 21
853.5235
 31
0.0
  0
LINE
  5
639
330
1E
100
AcDbEntity
  8
0
100
AcDbLine
 10
159.0
 20
858.1435
 30
0.0
 11
169.8249999999999
 21
858.1435
 31
0.0
  0
LINE
  5
63C
330
1E
100
AcDbEntity
  8
0
100
AcDbLine
 10
159.0
 20
850.5734999999999
 30
0.0
 11
169.8249999999999
 21
850.5734999999999
 31
0.0
  0
LINE
  5
63F
330
1E
100
AcDbEntity
  8
0
100
AcDbLine
 10
162.087
 20
853.5235
 30
0.0
 11
165.58
 21
851.1235
 31
0.0
  0
LINE
  5
644
330
1E
100
AcDbEntity
  8
0
100
AcDbLine
 10
165.5299999999999
 20
828.1435
 30
0.0
 11
169.8249999999999
 21
828.1435
 31
0.0
  0
LINE
  5
645
330
1E
100
AcDbEntity
  8
0
100
AcDbLine
 10
163.3479999999999
 20
828.6834999999999
 30
0.0
 11
165.5299999999999
 21
828.1435
 31
0.0
  0
LINE
  5
646
330
1E
100
AcDbEntity
  8
0
100
AcDbLine
 10
165.58
 20
851.1235
 30
0.0
 11
166.014923076923
 21
850.5734999999999
 31
0.0
  0
LINE
  5
648
330
1E
100
AcDbEntity
  8
0
100
AcDbLine
 10
159.9
 20
825.1235000000001
 30
0.0
 11
162.850465891369
 21
828.8073674129369
 31
0.0
  0
LINE
  5
649
330
1E
100
AcDbEntity
  8
0
100
AcDbLine
 10
142.3
 20
824.1635
 30
0.0
 11
145.017355371901
 21
828.2735
 31
0.0
  0
LINE
  5
64A
330
1E
100
AcDbEntity
  8
0
100
AcDbLine
 10
144.5129999999999
 20
860.0234999999999
 30
0.0
 11
151.6039999999999
 21
858.1235000000001
 31
0.0
  0
LINE
  5
64B
330
1E
100
AcDbEntity
  8
0
100
AcDbLine
 10
146.427
 20
860.0234999999999
 30
0.0
 11
153.36
 21
858.1235000000001
 31
0.0
  0
LINE
  5
64C
330
1E
100
AcDbEntity
  8
0
100
AcDbLine
 10
166.3771587743729
 20
858.1435
 30
0.0
 11
166.8
 21
858.8034999999999
 31
0.0
  0
LINE
  5
64E
330
1E
100
AcDbEntity
  8
0
100
AcDbLine
 10
169.8249999999999
 20
828.1435
 30
0.0
 11
170.0
 21
828.222833333333
 31
0.0
  0
LINE
  5
652
330
1E
100
AcDbEntity
  8
0
100
AcDbLine
 10
170.0
 20
839.2535
 30
0.0
 11
170.0
 21
835.6435000000001
 31
0.0
  0
LINE
  5
653
330
1E
100
AcDbEntity
  8
0
100
AcDbLine
 10
170.0
 20
843.1235
 30
0.0
 11
170.0
 21
839.2535
 31
0.0
  0
LINE
  5
654
330
1E
100
AcDbEntity
  8
0
100
AcDbLine
 10
170.0
 20
847.0235
 30
0.0
 11
170.0
 21
843.1235
 31
0.0
  0
LINE
  5
655
330
1E
100
AcDbEntity
  8
0
100
AcDbLine
 10
170.0
 20
835.6435000000001
 30
0.0
 11
170.0
 21
832.5235000000001
 31
0.0
  0
LINE
  5
656
330
1E
100
AcDbEntity
  8
0
100
AcDbLine
 10
170.0
 20
832.5235000000001
 30
0.0
 11
170.0
 21
830.1434999999999
 31
0.0
  0
LINE
  5
657
330
1E
100
AcDbEntity
  8
0
100
AcDbLine
 10
170.0
 20
830.1434999999999
 30
0.0
 11
170.0
 21
828.6535
 31
0.0
  0
LINE
  5
658
330
1E
100
AcDbEntity
  8
0
100
AcDbLine
 10
170.0
 20
856.1234999999999
 30
0.0
 11
170.0
 21
853.7435
 31
0.0
  0
LINE
  5
659
330
1E
100
AcDbEntity
  8
0
100
AcDbLine
 10
170.0
 20
853.7435
 30
0.0
 11
170.0
 21
850.6534999999999
 31
0.0
  0
LINE
  5
65A
330
1E
100
AcDbEntity
  8
0
100
AcDbLine
 10
170.0
 20
850.6534999999999
 30
0.0
 11
170.0
 21
847.0235
 31
0.0
  0
LINE
  5
65B
330
1E
100
AcDbEntity
  8
0
100
AcDbLine
 10
170.0
 20
828.1235
 30
0.0
 11
175.0
 21
828.1235
 31
0.0
  0
LINE
  5
65C
330
1E
100
AcDbEntity
  8
0
100
AcDbLine
 10
170.0
 20
828.1235
 30
0.0
 11
170.0
 21
828.222833333333
 31
0.0
  0
LINE
  5
671
330
1E
100
AcDbEntity
  8
0
100
AcDbLine
 10
175.0
 20
828.1235
 30
0.0
 11
178.0
 21
829.1634999999999
 31
0.0
  0
LINE
  5
672
330
1E
100
AcDbEntity
  8
0
100
AcDbLine
 10
170.0
 20
828.6535
 30
0.0
 11
170.0
 21
828.1235
 31
0.0
  0
LINE
  5
673
330
1E
100
AcDbEntity
  8
0
100
AcDbLine
 10
169.8249999999999
 20
858.1435
 30
0.0
 11
170.0
 21
858.064166666667
 31
0.0
  0
LINE
  5
674
330
1E
100
AcDbEntity
  8
0
100
AcDbLine
 10
170.0
 20
857.6335
 30
0.0
 11
170.0
 21
856.1234999999999
 31
0.0
  0
LINE
  5
677
330
1E
100
AcDbEntity
  8
0
100
AcDbLine
 10
167.9
 20
826.0835
 30
0.0
 11
169.5498855835239
 21
828.1435
 31
0.0
  0
LINE
  5
679
330
1E
100
AcDbEntity
  8
0
100
AcDbLine
 10
166.8
 20
858.8034999999999
 30
0.0
 11
168.4
 21
861.4535
 31
0.0
  0
LINE
  5
67A
330
1E
100
AcDbEntity
  8
0
100
AcDbLine
 10
142.204
 20
860.5235
 30
0.0
 11
144.5129999999999
 21
860.0234999999999
 31
0.0
  0
LINE
  5
67B
330
1E
100
AcDbEntity
  8
0
100
AcDbLine
 10
168.4
 20
861.4535
 30
0.0
 11
169.4
 21
862.8035
 31
0.0
  0
LINE
  5
67C
330
1E
100
AcDbEntity
  8
0
100
AcDbLine
 10
169.4
 20
862.8035
 30
0.0
 11
169.8
 21
863.1334999999999
 31
0.0
  0
LINE
  5
67D
330
1E
100
AcDbEntity
  8
0
100
AcDbLine
 10
169.8
 20
863.1334999999999
 30
0.0
 11
170.0
 21
861.6235000000001
 31
0.0
  0
LINE
  5
67E
330
1E
100
AcDbEntity
  8
0
100
AcDbLine
 10
169.8
 20
863.1334999999999
 30
0.0
 11
174.8
 21
863.1334999999999
 31
0.0
  0
LINE
  5
681
330
1E
100
AcDbEntity
  8
0
100
AcDbLine
 10
174.8
 20
863.1334999999999
 30
0.0
 11
177.8
 21
862.1634999999999
 31
0.0
  0
LINE
  5
682
330
1E
100
AcDbEntity
  8
0
100
AcDbLine
 10
170.0
 20
861.6235000000001
 30
0.0
 11
170.0
 21
860.2935
 31
0.0
  0
LINE
  5
684
330
1E
100
AcDbEntity
  8
0
100
AcDbLine
 10
170.0
 20
860.2935
 30
0.0
 11
170.0
 21
857.6335
 31
0.0
  0
LINE
  5
686
330
1E
100
AcDbEntity
  8
0
100
AcDbLine
 10
178.0
 20
829.1634999999999
 30
0.0
 11
180.0
 21
832.1735
 31
0.0
  0
LINE
  5
69A
330
1E
100
AcDbEntity
  8
0
100
AcDbLine
 10
180.0
 20
840.2834999999999
 30
0.0
 11
180.0
 21
843.1734999999999
 31
0.0
  0
LINE
  5
69B
330
1E
100
AcDbEntity
  8
0
100
AcDbLine
 10
180.0
 20
840.2834999999999
 30
0.0
 11
180.0
 21
837.6235000000001
 31
0.0
  0
LINE
  5
69C
330
1E
100
AcDbEntity
  8
0
100
AcDbLine
 10
180.0
 20
843.1734999999999
 30
0.0
 11
180.0
 21
845.9834999999999
 31
0.0
  0
LINE
  5
69D
330
1E
100
AcDbEntity
  8
0
100
AcDbLine
 10
180.0
 20
843.1734999999999
 30
0.0
 11
180.0
 21
840.2834999999999
 31
0.0
  0
LINE
  5
69E
330
1E
100
AcDbEntity
  8
0
100
AcDbLine
 10
180.0
 20
837.6235000000001
 30
0.0
 11
180.0
 21
835.3835
 31
0.0
  0
LINE
  5
69F
330
1E
100
AcDbEntity
  8
0
100
AcDbLine
 10
180.0
 20
837.6235000000001
 30
0.0
 11
180.0
 21
840.2834999999999
 31
0.0
  0
LINE
  5
6A0
330
1E
100
AcDbEntity
  8
0
100
AcDbLine
 10
180.0
 20
835.3835
 30
0.0
 11
180.0
 21
833.6235
 31
0.0
  0
LINE
  5
6A1
330
1E
100
AcDbEntity
  8
0
100
AcDbLine
 10
180.0
 20
833.6235
 30
0.0
 11
180.0
 21
832.5134999999999
 31
0.0
  0
LINE
  5
6A2
330
1E
100
AcDbEntity
  8
0
100
AcDbLine
 10
180.0
 20
850.9135
 30
0.0
 11
180.0
 21
852.6934999999999
 31
0.0
  0
LINE
  5
6A3
330
1E
100
AcDbEntity
  8
0
100
AcDbLine
 10
180.0
 20
850.9135
 30
0.0
 11
180.0
 21
848.5834999999999
 31
0.0
  0
LINE
  5
6A4
330
1E
100
AcDbEntity
  8
0
100
AcDbLine
 10
180.0
 20
848.5834999999999
 30
0.0
 11
180.0
 21
850.9135
 31
0.0
  0
LINE
  5
6A5
330
1E
100
AcDbEntity
  8
0
100
AcDbLine
 10
180.0
 20
848.5834999999999
 30
0.0
 11
180.0
 21
845.9834999999999
 31
0.0
  0
LINE
  5
6A6
330
1E
100
AcDbEntity
  8
0
100
AcDbLine
 10
180.0
 20
845.9834999999999
 30
0.0
 11
180.0
 21
848.5834999999999
 31
0.0
  0
LINE
  5
6A7
330
1E
100
AcDbEntity
  8
0
100
AcDbLine
 10
180.0
 20
845.9834999999999
 30
0.0
 11
180.0
 21
843.1734999999999
 31
0.0
  0
LINE
  5
6A8
330
1E
100
AcDbEntity
  8
0
100
AcDbLine
 10
180.0
 20
832.5134999999999
 30
0.0
 11
180.0
 21
832.1735
 31
0.0
  0
LINE
  5
6A9
330
1E
100
AcDbEntity
  8
0
100
AcDbLine
 10
180.0
 20
852.6934999999999
 30
0.0
 11
180.0
 21
853.7335
 31
0.0
  0
LINE
  5
6AA
330
1E
100
AcDbEntity
  8
0
100
AcDbLine
 10
180.0
 20
852.6934999999999
 30
0.0
 11
180.0
 21
850.9135
 31
0.0
  0
LINE
  5
6AD
330
1E
100
AcDbEntity
  8
0
100
AcDbLine
 10
180.0
 20
856.4334999999999
 30
0.0
 11
180.0
 21
858.4635
 31
0.0
  0
LINE
  5
6AE
330
1E
100
AcDbEntity
  8
0
100
AcDbLine
 10
180.0
 20
856.4334999999999
 30
0.0
 11
180.0
 21
853.7335
 31
0.0
  0
LINE
  5
6AF
330
1E
100
AcDbEntity
  8
0
100
AcDbLine
 10
180.0
 20
853.7335
 30
0.0
 11
180.0
 21
856.4334999999999
 31
0.0
  0
LINE
  5
6B0
330
1E
100
AcDbEntity
  8
0
100
AcDbLine
 10
180.0
 20
853.7335
 30
0.0
 11
180.0
 21
852.6934999999999
 31
0.0
  0
LINE
  5
6B3
330
1E
100
AcDbEntity
  8
0
100
AcDbLine
 10
177.8
 20
862.1634999999999
 30
0.0
 11
179.8
 21
859.2634999999999
 31
0.0
  0
LINE
  5
6B4
330
1E
100
AcDbEntity
  8
0
100
AcDbLine
 10
180.0
 20
858.4635
 30
0.0
 11
180.0
 21
856.4334999999999
 31
0.0
  0
LINE
  5
6B5
330
1E
100
AcDbEntity
  8
0
100
AcDbLine
 10
179.8
 20
859.2634999999999
 30
0.0
 11
180.0
 21
858.4635
 31
0.0
  0
LINE
  5
6BC
330
1E
100
AcDbEntity
  8
0
100
AcDbLine
 10
146.1
 20
798.6735
 30
0.0
 11
151.134859475691
 21
808.0921595364211
 31
0.0
  0
LINE
  5
6BD
330
1E
100
AcDbEntity
  8
0
100
AcDbLine
 10
140.0
 20
739.7134999999999
 30
0.0
 11
140.0
 21
739.3434999999999
 31
0.0
  0
LINE
  5
6BE
330
1E
100
AcDbEntity
  8
0
100
AcDbLine
 10
140.0
 20
739.7134999999999
 30
0.0
 11
140.0
 21
741.0535
 31
0.0
  0
LINE
  5
6BF
330
1E
100
AcDbEntity
  8
0
100
AcDbLine
 10
140.0
 20
739.3434999999999
 30
0.0
 11
140.0
 21
739.7134999999999
 31
0.0
  0
LINE
  5
6C0
330
1E
100
AcDbEntity
  8
0
100
AcDbLine
 10
131.4999999999999
 20
733.3334999999999
 30
0.0
 11
131.4999999999999
 21
731.2734999999999
 31
0.0
  0
LINE
  5
6C2
330
1E
100
AcDbEntity
  8
0
100
AcDbLine
 10
49.5
 20
728.2735
 30
0.0
 11
52.5
 21
727.2734999999999
 31
0.0
  0
LINE
  5
6C3
330
1E
100
AcDbEntity
  8
0
100
AcDbLine
 10
48.5
 20
731.2734999999999
 30
0.0
 11
48.5
 21
733.3334999999999
 31
0.0
  0
LINE
  5
6C4
330
1E
100
AcDbEntity
  8
0
100
AcDbLine
 10
48.5
 20
731.2734999999999
 30
0.0
 11
49.5
 21
728.2735
 31
0.0
  0
LINE
  5
6C9
330
1E
100
AcDbEntity
  8
0
100
AcDbLine
 10
28.86514052430939
 20
808.0921595364211
 30
0.0
 11
22.6
 21
815.5435
 31
0.0
  0
LINE
  5
6CA
330
1E
100
AcDbEntity
  8
0
100
AcDbLine
 10
52.0
 20
771.2134999999999
 30
0.0
 11
51.30958770431821
 21
770.9428583800929
 31
0.0
  0
LINE
  5
6CB
330
1E
100
AcDbEntity
  8
0
100
AcDbLine
 10
23.4044478003192
 20
850.9832674948709
 30
0.0
 11
39.42499999999999
 21
857.1485
 31
0.0
  0
LINE
  5
6CC
330
1E
100
AcDbEntity
  8
0
100
AcDbLine
 10
140.5749999999999
 20
857.2649383561639
 30
0.0
 11
156.595552199681
 21
850.9832674948709
 31
0.0
  0
ENDSEC
  0
SECTION
  2
OBJECTS
  0
DICTIONARY
  5
C
330
0
100
AcDbDictionary
281
     1
  3
ACAD_GROUP
350
D
  3
ACAD_LAYOUT
350
19
  3
ACAD_MLINESTYLE
350
16
  3
ACAD_PLOTSETTINGS
350
18
  3
ACAD_PLOTSTYLENAME
350
E
  3
AcDbVariableDictionary
350
6CD
  0
DICTIONARY
  5
D
102
{ACAD_REACTORS
330
C
102
}
330
C
100
AcDbDictionary
281
     1
  0
DICTIONARY
  5
19
102
{ACAD_REACTORS
330
C
102
}
330
C
100
AcDbDictionary
281
     1
  3
Layout1
350
1D
  3
Model
350
21
  0
DICTIONARY
  5
16
102
{ACAD_REACTORS
330
C
102
}
330
C
100
AcDbDictionary
281
     1
  3
Standard
350
17
  0
DICTIONARY
  5
18
102
{ACAD_REACTORS
330
C
102
}
330
C
100
AcDbDictionary
281
     1
  0
ACDBDICTIONARYWDFLT
  5
E
102
{ACAD_REACTORS
330
C
102
}
330
C
100
AcDbDictionary
281
     1
  3
Normal
350
F
100
AcDbDictionaryWithDefault
340
F
  0
DICTIONARY
  5
6CD
102
{ACAD_REACTORS
330
C
102
}
330
C
100
AcDbDictionary
281
     1
  3
DIMASSOC
350
6CE
  0
LAYOUT
  5
1D
102
{ACAD_REACTORS
330
19
102
}
330
19
100
AcDbPlotSettings
  1

  2
hp deskjet 980c series
  4

  6

 40
0.0
 41
0.0
 42
0.0
 43
0.0
 44
0.0
 45
0.0
 46
0.0
 47
0.0
 48
0.0
 49
0.0
140
0.0
141
0.0
142
1.0
143
1.0
 70
   688
 72
     0
 73
     0
 74
     5
  7

 75
    16
147
1.0
148
0.0
149
0.0
100
AcDbLayout
  1
Layout1
 70
     1
 71
     1
 10
0.0
 20
0.0
 11
12.0
 21
9.0
 12
0.0
 22
0.0
 32
0.0
 14
1.000000000000000E+20
 24
1.000000000000000E+20
 34
1.000000000000000E+20
 15
-1.000000000000000E+20
 25
-1.000000000000000E+20
 35
-1.000000000000000E+20
146
0.0
 13
0.0
 23
0.0
 33
0.0
 16
1.0
 26
0.0
 36
0.0
 17
0.0
 27
1.0
 37
0.0
 76
     0
330
1A
  0
LAYOUT
  5
21
102
{ACAD_REACTORS
330
19
102
}
330
19
100
AcDbPlotSettings
  1

  2
hp deskjet 980c series
  4

  6

 40
0.0
 41
0.0
 42
0.0
 43
0.0
 44
0.0
 45
0.0
 46
0.0
 47
0.0
 48
0.0
 49
0.0
140
0.0
141
0.0
142
1.0
143
1.0
 70
  1712
 72
     0
 73
     0
 74
     0
  7

 75
     0
147
1.0
148
0.0
149
0.0
100
AcDbLayout
  1
Model
 70
     1
 71
     0
 10
0.0
 20
0.0
 11
12.0
 21
9.0
 12
0.0
 22
0.0
 32
0.0
 14
0.0
 24
0.0
 34
0.0
 15
0.0
 25
0.0
 35
0.0
146
0.0
 13
0.0
 23
0.0
 33
0.0
 16
1.0
 26
0.0
 36
0.0
 17
0.0
 27
1.0
 37
0.0
 76
     0
330
1E
  0
MLINESTYLE
  5
17
102
{ACAD_REACTORS
330
16
102
}
330
16
100
AcDbMlineStyle
  2
STANDARD
 70
     0
  3

 62
   256
 51
90.0
 52
90.0
 71
     2
 49
0.5
 62
   256
  6
BYLAYER
 49
-0.5
 62
   256
  6
BYLAYER
  0
ACDBPLACEHOLDER
  5
F
102
{ACAD_REACTORS
330
E
102
}
330
E
  0
DICTIONARYVAR
  5
6CE
102
{ACAD_REACTORS
330
6CD
102
}
330
6CD
100
DictionaryVariables
280
     0
  1
1
  0
ENDSEC
  0
EOF
