  0
SECTION
  2
HEADER
  9
$ACADVER
  1
AC1015
  9
$ACADMAINTVER
 70
    13
  9
$DWGCODEPAGE
  3
ANSI_1252
  9
$INSBASE
 10
0.0
 20
0.0
 30
0.0
  9
$EXTMIN
 10
-0.0000000000000048
 20
-0.0000000000000349
 30
0.0
  9
$EXTMAX
 10
150.0
 20
968.0
 30
0.0
  9
$LIMMIN
 10
0.0
 20
0.0
  9
$LIMMAX
 10
12.0
 20
9.0
  9
$ORTHOMODE
 70
     0
  9
$REGENMODE
 70
     1
  9
$FILLMODE
 70
     1
  9
$QTEXTMODE
 70
     0
  9
$MIRRTEXT
 70
     1
  9
$LTSCALE
 40
1.0
  9
$ATTMODE
 70
     1
  9
$TEXTSIZE
 40
0.2
  9
$TRACEWID
 40
0.05
  9
$TEXTSTYLE
  7
Standard
  9
$CLAYER
  8
0
  9
$CELTYPE
  6
Continuous
  9
$CECOLOR
 62
   256
  9
$CELTSCALE
 40
1.0
  9
$DISPSILH
 70
     0
  9
$DIMSCALE
 40
1.0
  9
$DIMASZ
 40
0.18
  9
$DIMEXO
 40
0.0625
  9
$DIMDLI
 40
0.38
  9
$DIMRND
 40
0.0
  9
$DIMDLE
 40
0.0
  9
$DIMEXE
 40
0.18
  9
$DIMTP
 40
0.0
  9
$DIMTM
 40
0.0
  9
$DIMTXT
 40
0.18
  9
$DIMCEN
 40
0.09
  9
$DIMTSZ
 40
0.0
  9
$DIMTOL
 70
     0
  9
$DIMLIM
 70
     0
  9
$DIMTIH
 70
     1
  9
$DIMTOH
 70
     1
  9
$DIMSE1
 70
     0
  9
$DIMSE2
 70
     0
  9
$DIMTAD
 70
     0
  9
$DIMZIN
 70
     0
  9
$DIMBLK
  1

  9
$DIMASO
 70
     1
  9
$DIMSHO
 70
     1
  9
$DIMPOST
  1

  9
$DIMAPOST
  1

  9
$DIMALT
 70
     0
  9
$DIMALTD
 70
     2
  9
$DIMALTF
 40
25.4
  9
$DIMLFAC
 40
1.0
  9
$DIMTOFL
 70
     0
  9
$DIMTVP
 40
0.0
  9
$DIMTIX
 70
     0
  9
$DIMSOXD
 70
     0
  9
$DIMSAH
 70
     0
  9
$DIMBLK1
  1

  9
$DIMBLK2
  1

  9
$DIMSTYLE
  2
Standard
  9
$DIMCLRD
 70
     0
  9
$DIMCLRE
 70
     0
  9
$DIMCLRT
 70
     0
  9
$DIMTFAC
 40
1.0
  9
$DIMGAP
 40
0.09
  9
$DIMJUST
 70
     0
  9
$DIMSD1
 70
     0
  9
$DIMSD2
 70
     0
  9
$DIMTOLJ
 70
     1
  9
$DIMTZIN
 70
     0
  9
$DIMALTZ
 70
     0
  9
$DIMALTTZ
 70
     0
  9
$DIMUPT
 70
     0
  9
$DIMDEC
 70
     4
  9
$DIMTDEC
 70
     4
  9
$DIMALTU
 70
     2
  9
$DIMALTTD
 70
     2
  9
$DIMTXSTY
  7
Standard
  9
$DIMAUNIT
 70
     0
  9
$DIMADEC
 70
     0
  9
$DIMALTRND
 40
0.0
  9
$DIMAZIN
 70
     0
  9
$DIMDSEP
 70
    46
  9
$DIMATFIT
 70
     3
  9
$DIMFRAC
 70
     0
  9
$DIMLDRBLK
  1

  9
$DIMLUNIT
 70
     2
  9
$DIMLWD
 70
    -2
  9
$DIMLWE
 70
    -2
  9
$DIMTMOVE
 70
     0
  9
$LUNITS
 70
     2
  9
$LUPREC
 70
     4
  9
$SKETCHINC
 40
0.1
  9
$FILLETRAD
 40
0.0
  9
$AUNITS
 70
     0
  9
$AUPREC
 70
     0
  9
$MENU
  1
.
  9
$ELEVATION
 40
0.0
  9
$PELEVATION
 40
0.0
  9
$THICKNESS
 40
0.0
  9
$LIMCHECK
 70
     0
  9
$CHAMFERA
 40
0.0
  9
$CHAMFERB
 40
0.0
  9
$CHAMFERC
 40
0.0
  9
$CHAMFERD
 40
0.0
  9
$SKPOLY
 70
     0
  9
$TDCREATE
 40
2454740.415898438
  9
$TDUCREATE
 40
2454740.332565104
  9
$TDUPDATE
 40
2454740.464022708
  9
$TDUUPDATE
 40
2454740.380689375
  9
$TDINDWG
 40
0.0481242708
  9
$TDUSRTIMER
 40
0.0481242708
  9
$USRTIMER
 70
     1
  9
$ANGBASE
 50
0.0
  9
$ANGDIR
 70
     0
  9
$PDMODE
 70
     0
  9
$PDSIZE
 40
0.0
  9
$PLINEWID
 40
0.0
  9
$SPLFRAME
 70
     0
  9
$SPLINETYPE
 70
     6
  9
$SPLINESEGS
 70
     8
  9
$HANDSEED
  5
511
  9
$SURFTAB1
 70
     6
  9
$SURFTAB2
 70
     6
  9
$SURFTYPE
 70
     6
  9
$SURFU
 70
     6
  9
$SURFV
 70
     6
  9
$UCSBASE
  2

  9
$UCSNAME
  2

  9
$UCSORG
 10
0.0
 20
0.0
 30
0.0
  9
$UCSXDIR
 10
1.0
 20
0.0
 30
0.0
  9
$UCSYDIR
 10
0.0
 20
1.0
 30
0.0
  9
$UCSORTHOREF
  2

  9
$UCSORTHOVIEW
 70
     1
  9
$UCSORGTOP
 10
0.0
 20
0.0
 30
0.0
  9
$UCSORGBOTTOM
 10
0.0
 20
0.0
 30
0.0
  9
$UCSORGLEFT
 10
0.0
 20
0.0
 30
0.0
  9
$UCSORGRIGHT
 10
0.0
 20
0.0
 30
0.0
  9
$UCSORGFRONT
 10
0.0
 20
0.0
 30
0.0
  9
$UCSORGBACK
 10
0.0
 20
0.0
 30
0.0
  9
$PUCSBASE
  2

  9
$PUCSNAME
  2

  9
$PUCSORG
 10
0.0
 20
0.0
 30
0.0
  9
$PUCSXDIR
 10
1.0
 20
0.0
 30
0.0
  9
$PUCSYDIR
 10
0.0
 20
1.0
 30
0.0
  9
$PUCSORTHOREF
  2

  9
$PUCSORTHOVIEW
 70
     0
  9
$PUCSORGTOP
 10
0.0
 20
0.0
 30
0.0
  9
$PUCSORGBOTTOM
 10
0.0
 20
0.0
 30
0.0
  9
$PUCSORGLEFT
 10
0.0
 20
0.0
 30
0.0
  9
$PUCSORGRIGHT
 10
0.0
 20
0.0
 30
0.0
  9
$PUCSORGFRONT
 10
0.0
 20
0.0
 30
0.0
  9
$PUCSORGBACK
 10
0.0
 20
0.0
 30
0.0
  9
$USERI1
 70
     0
  9
$USERI2
 70
     0
  9
$USERI3
 70
     0
  9
$USERI4
 70
     0
  9
$USERI5
 70
     0
  9
$USERR1
 40
0.0
  9
$USERR2
 40
0.0
  9
$USERR3
 40
0.0
  9
$USERR4
 40
0.0
  9
$USERR5
 40
0.0
  9
$WORLDVIEW
 70
     1
  9
$SHADEDGE
 70
     3
  9
$SHADEDIF
 70
    70
  9
$TILEMODE
 70
     1
  9
$MAXACTVP
 70
    64
  9
$PINSBASE
 10
0.0
 20
0.0
 30
0.0
  9
$PLIMCHECK
 70
     0
  9
$PEXTMIN
 10
1.000000000000000E+20
 20
1.000000000000000E+20
 30
1.000000000000000E+20
  9
$PEXTMAX
 10
-1.000000000000000E+20
 20
-1.000000000000000E+20
 30
-1.000000000000000E+20
  9
$PLIMMIN
 10
0.0
 20
0.0
  9
$PLIMMAX
 10
12.0
 20
9.0
  9
$UNITMODE
 70
     0
  9
$VISRETAIN
 70
     1
  9
$PLINEGEN
 70
     0
  9
$PSLTSCALE
 70
     1
  9
$TREEDEPTH
 70
  3020
  9
$CMLSTYLE
  2
Standard
  9
$CMLJUST
 70
     0
  9
$CMLSCALE
 40
1.0
  9
$PROXYGRAPHICS
 70
     1
  9
$MEASUREMENT
 70
     0
  9
$CELWEIGHT
370
    -1
  9
$ENDCAPS
280
     0
  9
$JOINSTYLE
280
     0
  9
$LWDISPLAY
290
     0
  9
$INSUNITS
 70
     0
  9
$HYPERLINKBASE
  1

  9
$STYLESHEET
  1

  9
$XEDIT
290
     1
  9
$CEPSNTYPE
380
     0
  9
$PSTYLEMODE
290
     1
  9
$FINGERPRINTGUID
  2
{538C4F90-6617-4F3A-9174-0A6793A5EC3E}
  9
$VERSIONGUID
  2
{94A08B22-6C3A-4647-B011-A80A3626F052}
  9
$EXTNAMES
290
     1
  9
$PSVPSCALE
 40
0.0
  9
$OLESTARTUP
290
     0
  0
ENDSEC
  0
SECTION
  2
CLASSES
  0
CLASS
  1
ACDBDICTIONARYWDFLT
  2
AcDbDictionaryWithDefault
  3
AutoCAD 2000
 90
        0
280
     0
281
     0
  0
CLASS
  1
ACDBPLACEHOLDER
  2
AcDbPlaceHolder
  3
AutoCAD 2000
 90
        0
280
     0
281
     0
  0
CLASS
  1
LAYOUT
  2
AcDbLayout
  3
AutoCAD 2000
 90
        0
280
     0
281
     0
  0
CLASS
  1
DICTIONARYVAR
  2
AcDbDictionaryVar
  3
AutoCAD 2000
 90
        0
280
     0
281
     0
  0
ENDSEC
  0
SECTION
  2
TABLES
  0
TABLE
  2
VPORT
  5
8
330
0
100
AcDbSymbolTable
 70
     2
  0
VPORT
  5
510
330
8
100
AcDbSymbolTableRecord
100
AcDbViewportTableRecord
  2
*Active
 70
     0
 10
0.0
 20
0.0
 11
1.0
 21
1.0
 12
75.0
 22
483.9999999999999
 13
0.0
 23
0.0
 14
1.0
 24
1.0
 15
0.0
 25
0.0
 16
0.0
 26
0.0
 36
1.0
 17
0.0
 27
0.0
 37
0.0
 40
975.4271099744245
 41
2.078104993597951
 42
50.0
 43
0.0
 44
0.0
 50
0.0
 51
0.0
 71
     0
 72
   100
 73
     1
 74
     3
 75
     0
 76
     0
 77
     0
 78
     0
281
     0
 65
     1
110
0.0
120
0.0
130
0.0
111
1.0
121
0.0
131
0.0
112
0.0
122
1.0
132
0.0
 79
     1
146
0.0
  0
ENDTAB
  0
TABLE
  2
LTYPE
  5
5
330
0
100
AcDbSymbolTable
 70
     1
  0
LTYPE
  5
13
330
5
100
AcDbSymbolTableRecord
100
AcDbLinetypeTableRecord
  2
ByBlock
 70
     0
  3

 72
    65
 73
     0
 40
0.0
  0
LTYPE
  5
14
330
5
100
AcDbSymbolTableRecord
100
AcDbLinetypeTableRecord
  2
ByLayer
 70
     0
  3

 72
    65
 73
     0
 40
0.0
  0
LTYPE
  5
15
330
5
100
AcDbSymbolTableRecord
100
AcDbLinetypeTableRecord
  2
Continuous
 70
     0
  3
Solid line
 72
    65
 73
     0
 40
0.0
  0
ENDTAB
  0
TABLE
  2
LAYER
  5
2
330
0
100
AcDbSymbolTable
 70
     1
  0
LAYER
  5
10
330
2
100
AcDbSymbolTableRecord
100
AcDbLayerTableRecord
  2
0
 70
     0
 62
     7
  6
Continuous
370
    -3
390
F
  0
ENDTAB
  0
TABLE
  2
STYLE
  5
3
330
0
100
AcDbSymbolTable
 70
     1
  0
STYLE
  5
11
330
3
100
AcDbSymbolTableRecord
100
AcDbTextStyleTableRecord
  2
Standard
 70
     0
 40
0.0
 41
1.0
 50
0.0
 71
     0
 42
0.2
  3
txt
  4

  0
ENDTAB
  0
TABLE
  2
VIEW
  5
6
330
0
100
AcDbSymbolTable
 70
     0
  0
ENDTAB
  0
TABLE
  2
UCS
  5
7
330
0
100
AcDbSymbolTable
 70
     0
  0
ENDTAB
  0
TABLE
  2
APPID
  5
9
330
0
100
AcDbSymbolTable
 70
     1
  0
APPID
  5
12
330
9
100
AcDbSymbolTableRecord
100
AcDbRegAppTableRecord
  2
ACAD
 70
     0
  0
ENDTAB
  0
TABLE
  2
DIMSTYLE
  5
A
330
0
100
AcDbSymbolTable
 70
     1
100
AcDbDimStyleTable
 71
     0
  0
DIMSTYLE
105
50A
330
A
100
AcDbSymbolTableRecord
100
AcDbDimStyleTableRecord
  2
Standard
 70
     0
340
11
  0
ENDTAB
  0
TABLE
  2
BLOCK_RECORD
  5
1
330
0
100
AcDbSymbolTable
 70
     0
  0
BLOCK_RECORD
  5
1E
330
1
100
AcDbSymbolTableRecord
100
AcDbBlockTableRecord
  2
*Model_Space
340
21
  0
BLOCK_RECORD
  5
1A
330
1
100
AcDbSymbolTableRecord
100
AcDbBlockTableRecord
  2
*Paper_Space
340
1D
  0
ENDTAB
  0
ENDSEC
  0
SECTION
  2
BLOCKS
  0
BLOCK
  5
1F
330
1E
100
AcDbEntity
  8
0
100
AcDbBlockBegin
  2
*Model_Space
 70
     0
 10
0.0
 20
0.0
 30
0.0
  3
*Model_Space
  1

  0
ENDBLK
  5
20
330
1E
100
AcDbEntity
  8
0
100
AcDbBlockEnd
  0
BLOCK
  5
1B
330
1A
100
AcDbEntity
 67
     1
  8
0
100
AcDbBlockBegin
  2
*Paper_Space
 70
     0
 10
0.0
 20
0.0
 30
0.0
  3
*Paper_Space
  1

  0
ENDBLK
  5
1C
330
1A
100
AcDbEntity
 67
     1
  8
0
100
AcDbBlockEnd
  0
ENDSEC
  0
SECTION
  2
ENTITIES
  0
LINE
  5
22
330
1E
100
AcDbEntity
  8
0
100
AcDbLine
 10
50.0
 20
-0.0000000000000342
 30
0.0
 11
50.5
 21
-0.0000000000000343
 31
0.0
  0
LINE
  5
23
330
1E
100
AcDbEntity
  8
0
100
AcDbLine
 10
50.0
 20
-0.0000000000000342
 30
0.0
 11
50.0
 21
20.0
 31
0.0
  0
LINE
  5
24
330
1E
100
AcDbEntity
  8
0
100
AcDbLine
 10
50.0
 20
-0.0000000000000342
 30
0.0
 11
50.5
 21
-0.000000000000034
 31
0.0
  0
LINE
  5
25
330
1E
100
AcDbEntity
  8
0
100
AcDbLine
 10
50.5
 20
-0.000000000000034
 30
0.0
 11
52.5
 21
-0.0000000000000338
 31
0.0
  0
LINE
  5
26
330
1E
100
AcDbEntity
  8
0
100
AcDbLine
 10
52.5
 20
-0.0000000000000338
 30
0.0
 11
56.0
 21
-0.0000000000000336
 31
0.0
  0
LINE
  5
27
330
1E
100
AcDbEntity
  8
0
100
AcDbLine
 10
50.5
 20
-0.0000000000000343
 30
0.0
 11
52.5
 21
-0.0000000000000345
 31
0.0
  0
LINE
  5
28
330
1E
100
AcDbEntity
  8
0
100
AcDbLine
 10
52.5
 20
-0.0000000000000345
 30
0.0
 11
56.0
 21
-0.0000000000000347
 31
0.0
  0
LINE
  5
29
330
1E
100
AcDbEntity
  8
0
100
AcDbLine
 10
50.0
 20
20.0
 30
0.0
 11
50.0
 21
820.3558684210518
 31
0.0
  0
LINE
  5
2A
330
1E
100
AcDbEntity
  8
0
100
AcDbLine
 10
50.0
 20
20.0
 30
0.0
 11
50.0
 21
-0.0000000000000336
 31
0.0
  0
LINE
  5
2B
330
1E
100
AcDbEntity
  8
0
100
AcDbLine
 10
52.37709999999999
 20
740.5
 30
0.0
 11
52.4701
 21
738.6
 31
0.0
  0
LINE
  5
2C
330
1E
100
AcDbEntity
  8
0
100
AcDbLine
 10
52.3172
 20
742.7
 30
0.0
 11
52.37709999999999
 21
740.5
 31
0.0
  0
LINE
  5
2D
330
1E
100
AcDbEntity
  8
0
100
AcDbLine
 10
52.29729999999999
 20
745.0
 30
0.0
 11
52.3172
 21
747.2999999999999
 31
0.0
  0
LINE
  5
2E
330
1E
100
AcDbEntity
  8
0
100
AcDbLine
 10
52.29729999999999
 20
745.0
 30
0.0
 11
52.3172
 21
742.7
 31
0.0
  0
LINE
  5
2F
330
1E
100
AcDbEntity
  8
0
100
AcDbLine
 10
52.3172
 20
747.2999999999999
 30
0.0
 11
52.37709999999999
 21
749.5
 31
0.0
  0
LINE
  5
30
330
1E
100
AcDbEntity
  8
0
100
AcDbLine
 10
52.4701
 20
738.6
 30
0.0
 11
52.5964
 21
737.2
 31
0.0
  0
LINE
  5
31
330
1E
100
AcDbEntity
  8
0
100
AcDbLine
 10
52.37709999999999
 20
749.5
 30
0.0
 11
52.4701
 21
751.2999999999999
 31
0.0
  0
LINE
  5
32
330
1E
100
AcDbEntity
  8
0
100
AcDbLine
 10
46.307
 20
822.0148
 30
0.0
 11
47.2625
 21
822.3313
 31
0.0
  0
LINE
  5
33
330
1E
100
AcDbEntity
  8
0
100
AcDbLine
 10
35.2556
 20
826.7734
 30
0.0
 11
35.4140157904576
 21
827.48103103331
 31
0.0
  0
LINE
  5
34
330
1E
100
AcDbEntity
  8
0
100
AcDbLine
 10
33.9043
 20
826.6087999999999
 30
0.0
 11
35.2556
 21
826.7734
 31
0.0
  0
LINE
  5
35
330
1E
100
AcDbEntity
  8
0
100
AcDbLine
 10
33.8414
 20
827.4805
 30
0.0
 11
35.2556
 21
826.7734
 31
0.0
  0
LINE
  5
36
330
1E
100
AcDbEntity
  8
0
100
AcDbLine
 10
33.8414
 20
827.4805
 30
0.0
 11
33.9491323712815
 21
827.9617321359539
 31
0.0
  0
LINE
  5
37
330
1E
100
AcDbEntity
  8
0
100
AcDbLine
 10
32.4901
 20
827.3159000000001
 30
0.0
 11
32.6451009104136
 21
828.0082770293549
 31
0.0
  0
LINE
  5
38
330
1E
100
AcDbEntity
  8
0
100
AcDbLine
 10
32.4901
 20
827.3159000000001
 30
0.0
 11
33.9043
 21
826.6087999999999
 31
0.0
  0
LINE
  5
39
330
1E
100
AcDbEntity
  8
0
100
AcDbLine
 10
32.4901
 20
827.3159000000001
 30
0.0
 11
33.8414
 21
827.4805
 31
0.0
  0
LINE
  5
3A
330
1E
100
AcDbEntity
  8
0
100
AcDbLine
 10
29.1
 20
827.3085
 30
0.0
 11
35.5
 21
824.5084999999999
 31
0.0
  0
LINE
  5
3B
330
1E
100
AcDbEntity
  8
0
100
AcDbLine
 10
45.5304
 20
822.8312999999999
 30
0.0
 11
47.2625
 21
822.3313
 31
0.0
  0
LINE
  5
3C
330
1E
100
AcDbEntity
  8
0
100
AcDbLine
 10
45.5304
 20
822.8312999999999
 30
0.0
 11
45.8254
 21
824.7417999999999
 31
0.0
  0
LINE
  5
3D
330
1E
100
AcDbEntity
  8
0
100
AcDbLine
 10
44.57489999999999
 20
822.5148
 30
0.0
 11
44.68705725622021
 21
823.2409146662449
 31
0.0
  0
LINE
  5
3E
330
1E
100
AcDbEntity
  8
0
100
AcDbLine
 10
44.57489999999999
 20
822.5148
 30
0.0
 11
46.307
 21
822.0148
 31
0.0
  0
LINE
  5
3F
330
1E
100
AcDbEntity
  8
0
100
AcDbLine
 10
44.57489999999999
 20
822.5148
 30
0.0
 11
45.5304
 21
822.8312999999999
 31
0.0
  0
LINE
  5
40
330
1E
100
AcDbEntity
  8
0
100
AcDbLine
 10
47.2625
 20
822.3313
 30
0.0
 11
47.3713330856877
 21
823.036132576971
 31
0.0
  0
LINE
  5
41
330
1E
100
AcDbEntity
  8
0
100
AcDbLine
 10
48.1509
 20
826.8076
 30
0.0
 11
48.32684052600701
 21
828.11376334569
 31
0.0
  0
LINE
  5
42
330
1E
100
AcDbEntity
  8
0
100
AcDbLine
 10
46.95929999999999
 20
826.3873
 30
0.0
 11
48.1509
 21
826.8076
 31
0.0
  0
LINE
  5
43
330
1E
100
AcDbEntity
  8
0
100
AcDbLine
 10
46.5641
 20
827.4163999999998
 30
0.0
 11
48.1509
 21
826.8076
 31
0.0
  0
LINE
  5
44
330
1E
100
AcDbEntity
  8
0
100
AcDbLine
 10
46.5641
 20
827.4163999999998
 30
0.0
 11
46.6855803855033
 21
828.3178484996151
 31
0.0
  0
LINE
  5
45
330
1E
100
AcDbEntity
  8
0
100
AcDbLine
 10
45.37259999999999
 20
826.9961
 30
0.0
 11
45.53499307570489
 21
828.2012070817689
 31
0.0
  0
LINE
  5
46
330
1E
100
AcDbEntity
  8
0
100
AcDbLine
 10
45.37259999999999
 20
826.9961
 30
0.0
 11
46.95929999999999
 21
826.3873
 31
0.0
  0
LINE
  5
47
330
1E
100
AcDbEntity
  8
0
100
AcDbLine
 10
45.37259999999999
 20
826.9961
 30
0.0
 11
46.5641
 21
827.4163999999998
 31
0.0
  0
LINE
  5
48
330
1E
100
AcDbEntity
  8
0
100
AcDbLine
 10
35.5
 20
824.5084999999999
 30
0.0
 11
42.6
 21
822.1085
 31
0.0
  0
LINE
  5
49
330
1E
100
AcDbEntity
  8
0
100
AcDbLine
 10
42.6
 20
822.1085
 30
0.0
 11
50.2
 21
820.3084999999999
 31
0.0
  0
LINE
  5
4A
330
1E
100
AcDbEntity
  8
0
100
AcDbLine
 10
26.2
 20
828.803
 30
0.0
 11
27.3819541984729
 21
828.290240458015
 31
0.0
  0
LINE
  5
4B
330
1E
100
AcDbEntity
  8
0
100
AcDbLine
 10
3.399999999999999
 20
850.581
 30
0.0
 11
5.29999999999999
 21
845.9813999999999
 31
0.0
  0
LINE
  5
4C
330
1E
100
AcDbEntity
  8
0
100
AcDbLine
 10
5.5
 20
845.9813999999999
 30
0.0
 11
8.499999999999991
 21
841.5314
 31
0.0
  0
LINE
  5
4D
330
1E
100
AcDbEntity
  8
0
100
AcDbLine
 10
23.5
 20
830.5085
 30
0.0
 11
29.1
 21
827.3085
 31
0.0
  0
LINE
  5
4E
330
1E
100
AcDbEntity
  8
0
100
AcDbLine
 10
23.3022
 20
833.5172
 30
0.0
 11
24.3022
 21
832.6512000000001
 31
0.0
  0
LINE
  5
4F
330
1E
100
AcDbEntity
  8
0
100
AcDbLine
 10
23.3022
 20
833.5172
 30
0.0
 11
23.4529396606728
 21
834.0489186660718
 31
0.0
  0
LINE
  5
50
330
1E
100
AcDbEntity
  8
0
100
AcDbLine
 10
23.3022
 20
833.5172
 30
0.0
 11
24.9572
 21
833.4839999999999
 31
0.0
  0
LINE
  5
51
330
1E
100
AcDbEntity
  8
0
100
AcDbLine
 10
18.1551
 20
839.7303
 30
0.0
 11
20.00099999999999
 21
839.4665999999999
 31
0.0
  0
LINE
  5
52
330
1E
100
AcDbEntity
  8
0
100
AcDbLine
 10
20.00099999999999
 20
839.4665999999999
 30
0.0
 11
20.48919472970829
 21
840.9496874461201
 31
0.0
  0
LINE
  5
53
330
1E
100
AcDbEntity
  8
0
100
AcDbLine
 10
19.4833
 20
840.4325
 30
0.0
 11
19.66332452004819
 21
840.97930079221
 31
0.0
  0
LINE
  5
54
330
1E
100
AcDbEntity
  8
0
100
AcDbLine
 10
19.4833
 20
840.4325
 30
0.0
 11
20.00099999999999
 21
839.4665999999999
 31
0.0
  0
LINE
  5
55
330
1E
100
AcDbEntity
  8
0
100
AcDbLine
 10
17.63749999999999
 20
840.6962999999999
 30
0.0
 11
18.1551
 21
839.7303
 31
0.0
  0
LINE
  5
56
330
1E
100
AcDbEntity
  8
0
100
AcDbLine
 10
17.63749999999999
 20
840.6962999999999
 30
0.0
 11
17.75320234553739
 21
841.0477923158961
 31
0.0
  0
LINE
  5
57
330
1E
100
AcDbEntity
  8
0
100
AcDbLine
 10
17.63749999999999
 20
840.6962999999999
 30
0.0
 11
19.4833
 21
840.4325
 31
0.0
  0
LINE
  5
58
330
1E
100
AcDbEntity
  8
0
100
AcDbLine
 10
18.7
 20
834.0585
 30
0.0
 11
23.5
 21
830.5085
 31
0.0
  0
LINE
  5
59
330
1E
100
AcDbEntity
  8
0
100
AcDbLine
 10
15.09999999999999
 20
837.8585000000001
 30
0.0
 11
18.7
 21
834.0585
 31
0.0
  0
LINE
  5
5A
330
1E
100
AcDbEntity
  8
0
100
AcDbLine
 10
17.9
 20
833.3814
 30
0.0
 11
24.1
 21
829.8314000000001
 31
0.0
  0
LINE
  5
5B
330
1E
100
AcDbEntity
  8
0
100
AcDbLine
 10
12.6
 20
837.3314
 30
0.0
 11
17.9
 21
833.3814
 31
0.0
  0
LINE
  5
5C
330
1E
100
AcDbEntity
  8
0
100
AcDbLine
 10
17.7
 20
833.2813999999999
 30
0.0
 11
24.0
 21
829.7813999999998
 31
0.0
  0
LINE
  5
5D
330
1E
100
AcDbEntity
  8
0
100
AcDbLine
 10
12.4
 20
837.2813999999999
 30
0.0
 11
17.7
 21
833.2813999999999
 31
0.0
  0
LINE
  5
5E
330
1E
100
AcDbEntity
  8
0
100
AcDbLine
 10
12.3
 20
841.8585
 30
0.0
 11
15.09999999999999
 21
837.8585000000001
 31
0.0
  0
LINE
  5
5F
330
1E
100
AcDbEntity
  8
0
100
AcDbLine
 10
8.499999999999991
 20
841.5314
 30
0.0
 11
12.6
 21
837.3314
 31
0.0
  0
LINE
  5
60
330
1E
100
AcDbEntity
  8
0
100
AcDbLine
 10
8.29999999999999
 20
841.4813999999999
 30
0.0
 11
12.4
 21
837.2813999999999
 31
0.0
  0
LINE
  5
61
330
1E
100
AcDbEntity
  8
0
100
AcDbLine
 10
6.59999999999999
 20
843.3830999999999
 30
0.0
 11
8.29999999999999
 21
841.4813999999999
 31
0.0
  0
LINE
  5
62
330
1E
100
AcDbEntity
  8
0
100
AcDbLine
 10
17.7929
 20
847.8526999999999
 30
0.0
 11
17.7929
 21
846.8526999999999
 31
0.0
  0
LINE
  5
63
330
1E
100
AcDbEntity
  8
0
100
AcDbLine
 10
17.7929
 20
847.8526999999999
 30
0.0
 11
17.9497532258761
 21
848.292686591229
 31
0.0
  0
LINE
  5
64
330
1E
100
AcDbEntity
  8
0
100
AcDbLine
 10
17.7929
 20
846.8526999999999
 30
0.0
 11
18.2855152230637
 21
848.2345274477459
 31
0.0
  0
LINE
  5
65
330
1E
100
AcDbEntity
  8
0
100
AcDbLine
 10
17.7929
 20
846.8526999999999
 30
0.0
 11
17.7929
 21
847.8526999999999
 31
0.0
  0
LINE
  5
66
330
1E
100
AcDbEntity
  8
0
100
AcDbLine
 10
15.88189999999999
 20
847.3637
 30
0.0
 11
15.88189999999999
 21
848.3636999999999
 31
0.0
  0
LINE
  5
67
330
1E
100
AcDbEntity
  8
0
100
AcDbLine
 10
15.88189999999999
 20
847.3637
 30
0.0
 11
17.7929
 21
846.8526999999999
 31
0.0
  0
LINE
  5
68
330
1E
100
AcDbEntity
  8
0
100
AcDbLine
 10
15.88189999999999
 20
848.3636999999999
 30
0.0
 11
16.05564775401419
 21
848.850994582094
 31
0.0
  0
LINE
  5
69
330
1E
100
AcDbEntity
  8
0
100
AcDbLine
 10
15.88189999999999
 20
848.3636999999999
 30
0.0
 11
17.7929
 21
847.8526999999999
 31
0.0
  0
LINE
  5
6A
330
1E
100
AcDbEntity
  8
0
100
AcDbLine
 10
15.88189999999999
 20
848.3636999999999
 30
0.0
 11
15.88189999999999
 21
847.3637
 31
0.0
  0
LINE
  5
6B
330
1E
100
AcDbEntity
  8
0
100
AcDbLine
 10
10.7
 20
846.0085000000001
 30
0.0
 11
12.3
 21
841.8585
 31
0.0
  0
LINE
  5
6C
330
1E
100
AcDbEntity
  8
0
100
AcDbLine
 10
10.0
 20
851.125
 30
0.0
 11
10.7
 21
855.375
 31
0.0
  0
LINE
  5
6D
330
1E
100
AcDbEntity
  8
0
100
AcDbLine
 10
10.0
 20
851.125
 30
0.0
 11
10.0
 21
850.258
 31
0.0
  0
LINE
  5
6E
330
1E
100
AcDbEntity
  8
0
100
AcDbLine
 10
10.0
 20
850.258
 30
0.0
 11
10.7
 21
846.0085000000001
 31
0.0
  0
LINE
  5
6F
330
1E
100
AcDbEntity
  8
0
100
AcDbLine
 10
10.0
 20
850.258
 30
0.0
 11
10.0
 21
851.125
 31
0.0
  0
LINE
  5
70
330
1E
100
AcDbEntity
  8
0
100
AcDbLine
 10
10.0
 20
850.258
 30
0.0
 11
10.7
 21
854.508
 31
0.0
  0
LINE
  5
71
330
1E
100
AcDbEntity
  8
0
100
AcDbLine
 10
3.59999999999999
 20
850.581
 30
0.0
 11
5.5
 21
845.9813999999999
 31
0.0
  0
LINE
  5
72
330
1E
100
AcDbEntity
  8
0
100
AcDbLine
 10
5.29999999999999
 20
845.9813999999999
 30
0.0
 11
8.29999999999999
 21
841.4813999999999
 31
0.0
  0
LINE
  5
73
330
1E
100
AcDbEntity
  8
0
100
AcDbLine
 10
3.5
 20
847.9831
 30
0.0
 11
6.59999999999999
 21
843.3830999999999
 31
0.0
  0
LINE
  5
74
330
1E
100
AcDbEntity
  8
0
100
AcDbLine
 10
19.4833
 20
854.2729000000001
 30
0.0
 11
20.00099999999999
 21
855.2388
 31
0.0
  0
LINE
  5
75
330
1E
100
AcDbEntity
  8
0
100
AcDbLine
 10
20.00099999999999
 20
855.2388
 30
0.0
 11
20.56331815247339
 21
856.7960039098679
 31
0.0
  0
LINE
  5
76
330
1E
100
AcDbEntity
  8
0
100
AcDbLine
 10
17.63749999999999
 20
855.0311999999999
 30
0.0
 11
18.1551
 21
855.9971
 31
0.0
  0
LINE
  5
77
330
1E
100
AcDbEntity
  8
0
100
AcDbLine
 10
17.63749999999999
 20
855.0311999999999
 30
0.0
 11
18.0705347434741
 21
856.2308407317019
 31
0.0
  0
LINE
  5
78
330
1E
100
AcDbEntity
  8
0
100
AcDbLine
 10
17.63749999999999
 20
855.0311999999999
 30
0.0
 11
19.4833
 21
854.2729000000001
 31
0.0
  0
LINE
  5
79
330
1E
100
AcDbEntity
  8
0
100
AcDbLine
 10
10.7
 20
854.508
 30
0.0
 11
12.3
 21
858.6589999999999
 31
0.0
  0
LINE
  5
7A
330
1E
100
AcDbEntity
  8
0
100
AcDbLine
 10
18.1551
 20
855.9971
 30
0.0
 11
18.3172080239413
 21
856.4461392263169
 31
0.0
  0
LINE
  5
7B
330
1E
100
AcDbEntity
  8
0
100
AcDbLine
 10
18.1551
 20
855.9971
 30
0.0
 11
20.00099999999999
 21
855.2388
 31
0.0
  0
LINE
  5
7C
330
1E
100
AcDbEntity
  8
0
100
AcDbLine
 10
12.3
 20
858.6589999999999
 30
0.0
 11
15.09999999999999
 21
862.659
 31
0.0
  0
LINE
  5
7D
330
1E
100
AcDbEntity
  8
0
100
AcDbLine
 10
12.3
 20
859.525
 30
0.0
 11
15.09999999999999
 21
863.5249999999999
 31
0.0
  0
LINE
  5
7E
330
1E
100
AcDbEntity
  8
0
100
AcDbLine
 10
10.7
 20
855.375
 30
0.0
 11
12.3
 21
859.525
 31
0.0
  0
LINE
  5
7F
330
1E
100
AcDbEntity
  8
0
100
AcDbLine
 10
2.9
 20
855.281
 30
0.0
 11
3.59999999999999
 21
850.581
 31
0.0
  0
LINE
  5
80
330
1E
100
AcDbEntity
  8
0
100
AcDbLine
 10
2.9
 20
855.281
 30
0.0
 11
3.59999999999999
 21
859.9810000000001
 31
0.0
  0
LINE
  5
81
330
1E
100
AcDbEntity
  8
0
100
AcDbLine
 10
2.7
 20
855.281
 30
0.0
 11
3.399999999999999
 21
850.581
 31
0.0
  0
LINE
  5
82
330
1E
100
AcDbEntity
  8
0
100
AcDbLine
 10
2.7
 20
855.281
 30
0.0
 11
3.399999999999999
 21
859.9810000000001
 31
0.0
  0
LINE
  5
83
330
1E
100
AcDbEntity
  8
0
100
AcDbLine
 10
1.5
 20
852.733
 30
0.0
 11
3.5
 21
847.9831
 31
0.0
  0
LINE
  5
84
330
1E
100
AcDbEntity
  8
0
100
AcDbLine
 10
0.799999999999992
 20
854.8849999999999
 30
0.0
 11
1.5
 21
852.733
 31
0.0
  0
LINE
  5
85
330
1E
100
AcDbEntity
  8
0
100
AcDbLine
 10
3.59999999999999
 20
859.9810000000001
 30
0.0
 11
5.5
 21
864.581
 31
0.0
  0
LINE
  5
86
330
1E
100
AcDbEntity
  8
0
100
AcDbLine
 10
3.5
 20
871.5860000000001
 30
0.0
 11
6.59999999999999
 21
876.186
 31
0.0
  0
LINE
  5
87
330
1E
100
AcDbEntity
  8
0
100
AcDbLine
 10
1.5
 20
866.8359999999999
 30
0.0
 11
3.5
 21
871.5860000000001
 31
0.0
  0
LINE
  5
88
330
1E
100
AcDbEntity
  8
0
100
AcDbLine
 10
0.799999999999992
 20
864.6849999999998
 30
0.0
 11
1.5
 21
866.8359999999999
 31
0.0
  0
LINE
  5
89
330
1E
100
AcDbEntity
  8
0
100
AcDbLine
 10
15.09999999999999
 20
862.659
 30
0.0
 11
18.7
 21
866.458
 31
0.0
  0
LINE
  5
8A
330
1E
100
AcDbEntity
  8
0
100
AcDbLine
 10
15.09999999999999
 20
863.5249999999999
 30
0.0
 11
18.7
 21
867.3250000000001
 31
0.0
  0
LINE
  5
8B
330
1E
100
AcDbEntity
  8
0
100
AcDbLine
 10
8.499999999999991
 20
869.031
 30
0.0
 11
12.6
 21
873.2310000000001
 31
0.0
  0
LINE
  5
8C
330
1E
100
AcDbEntity
  8
0
100
AcDbLine
 10
5.5
 20
864.581
 30
0.0
 11
8.499999999999991
 21
869.031
 31
0.0
  0
LINE
  5
8D
330
1E
100
AcDbEntity
  8
0
100
AcDbLine
 10
12.4
 20
882.2879999999999
 30
0.0
 11
17.7
 21
886.288
 31
0.0
  0
LINE
  5
8E
330
1E
100
AcDbEntity
  8
0
100
AcDbLine
 10
8.29999999999999
 20
878.0880000000001
 30
0.0
 11
12.4
 21
882.2879999999999
 31
0.0
  0
LINE
  5
8F
330
1E
100
AcDbEntity
  8
0
100
AcDbLine
 10
6.59999999999999
 20
876.186
 30
0.0
 11
8.29999999999999
 21
878.0880000000001
 31
0.0
  0
LINE
  5
90
330
1E
100
AcDbEntity
  8
0
100
AcDbLine
 10
12.6
 20
873.2310000000001
 30
0.0
 11
17.9
 21
877.181
 31
0.0
  0
LINE
  5
91
330
1E
100
AcDbEntity
  8
0
100
AcDbLine
 10
12.4
 20
873.281
 30
0.0
 11
17.7
 21
877.2810000000001
 31
0.0
  0
LINE
  5
92
330
1E
100
AcDbEntity
  8
0
100
AcDbLine
 10
8.29999999999999
 20
869.081
 30
0.0
 11
12.4
 21
873.281
 31
0.0
  0
LINE
  5
93
330
1E
100
AcDbEntity
  8
0
100
AcDbLine
 10
5.29999999999999
 20
864.581
 30
0.0
 11
8.29999999999999
 21
869.081
 31
0.0
  0
LINE
  5
94
330
1E
100
AcDbEntity
  8
0
100
AcDbLine
 10
3.399999999999999
 20
859.9810000000001
 30
0.0
 11
5.29999999999999
 21
864.581
 31
0.0
  0
LINE
  5
95
330
1E
100
AcDbEntity
  8
0
100
AcDbLine
 10
23.3022
 20
862.2100000000001
 30
0.0
 11
24.3022
 21
863.076
 31
0.0
  0
LINE
  5
96
330
1E
100
AcDbEntity
  8
0
100
AcDbLine
 10
23.3022
 20
862.2100000000001
 30
0.0
 11
23.7192905280728
 21
863.4408659810841
 31
0.0
  0
LINE
  5
97
330
1E
100
AcDbEntity
  8
0
100
AcDbLine
 10
23.3022
 20
862.2100000000001
 30
0.0
 11
24.9572
 21
861.2210000000001
 31
0.0
  0
LINE
  5
98
330
1E
100
AcDbEntity
  8
0
100
AcDbLine
 10
18.7
 20
866.458
 30
0.0
 11
23.5
 21
870.0079999999999
 31
0.0
  0
LINE
  5
99
330
1E
100
AcDbEntity
  8
0
100
AcDbLine
 10
23.5
 20
870.0079999999999
 30
0.0
 11
29.1
 21
873.2080000000001
 31
0.0
  0
LINE
  5
9A
330
1E
100
AcDbEntity
  8
0
100
AcDbLine
 10
23.5
 20
870.875
 30
0.0
 11
29.1
 21
874.075
 31
0.0
  0
LINE
  5
9B
330
1E
100
AcDbEntity
  8
0
100
AcDbLine
 10
18.7
 20
867.3250000000001
 30
0.0
 11
23.5
 21
870.875
 31
0.0
  0
LINE
  5
9C
330
1E
100
AcDbEntity
  8
0
100
AcDbLine
 10
17.9
 20
877.181
 30
0.0
 11
24.1
 21
880.7310000000001
 31
0.0
  0
LINE
  5
9D
330
1E
100
AcDbEntity
  8
0
100
AcDbLine
 10
24.1
 20
880.7310000000001
 30
0.0
 11
31.2
 21
883.8309999999999
 31
0.0
  0
LINE
  5
9E
330
1E
100
AcDbEntity
  8
0
100
AcDbLine
 10
24.0
 20
880.7810000000001
 30
0.0
 11
31.0
 21
883.9310000000001
 31
0.0
  0
LINE
  5
9F
330
1E
100
AcDbEntity
  8
0
100
AcDbLine
 10
24.0
 20
889.788
 30
0.0
 11
31.0
 21
892.938
 31
0.0
  0
LINE
  5
A1
330
1E
100
AcDbEntity
  8
0
100
AcDbLine
 10
17.7
 20
886.288
 30
0.0
 11
24.0
 21
889.788
 31
0.0
  0
LINE
  5
A2
330
1E
100
AcDbEntity
  8
0
100
AcDbLine
 10
17.7
 20
877.2810000000001
 30
0.0
 11
24.0
 21
880.7810000000001
 31
0.0
  0
LINE
  5
A4
330
1E
100
AcDbEntity
  8
0
100
AcDbLine
 10
-0.0000000000000048
 20
859.7849999999999
 30
0.0
 11
0.799999999999992
 21
854.8849999999999
 31
0.0
  0
LINE
  5
A5
330
1E
100
AcDbEntity
  8
0
100
AcDbLine
 10
-0.0000000000000048
 20
859.7849999999999
 30
0.0
 11
0.799999999999992
 21
864.6849999999998
 31
0.0
  0
LINE
  5
A6
330
1E
100
AcDbEntity
  8
0
100
AcDbLine
 10
24.3022
 20
832.6512000000001
 30
0.0
 11
25.9572
 21
832.6178999999999
 31
0.0
  0
LINE
  5
A7
330
1E
100
AcDbEntity
  8
0
100
AcDbLine
 10
24.9572
 20
833.4839999999999
 30
0.0
 11
25.11526076351639
 21
834.041512172528
 31
0.0
  0
LINE
  5
A8
330
1E
100
AcDbEntity
  8
0
100
AcDbLine
 10
24.9572
 20
833.4839999999999
 30
0.0
 11
25.9572
 21
832.6178999999999
 31
0.0
  0
LINE
  5
A9
330
1E
100
AcDbEntity
  8
0
100
AcDbLine
 10
25.9572
 20
832.6178999999999
 30
0.0
 11
26.39473426965539
 21
834.1612571840581
 31
0.0
  0
LINE
  5
AA
330
1E
100
AcDbEntity
  8
0
100
AcDbLine
 10
28.1707
 20
841.8934
 30
0.0
 11
30.1112
 21
841.665
 31
0.0
  0
LINE
  5
AB
330
1E
100
AcDbEntity
  8
0
100
AcDbLine
 10
27.9096
 20
842.8848999999999
 30
0.0
 11
28.1707
 21
841.8934
 31
0.0
  0
LINE
  5
AC
330
1E
100
AcDbEntity
  8
0
100
AcDbLine
 10
27.9096
 20
842.8848999999999
 30
0.0
 11
28.2009177709456
 21
844.114892491452
 31
0.0
  0
LINE
  5
AD
330
1E
100
AcDbEntity
  8
0
100
AcDbLine
 10
27.9096
 20
842.8848999999999
 30
0.0
 11
29.8502
 21
842.6563999999999
 31
0.0
  0
LINE
  5
AE
330
1E
100
AcDbEntity
  8
0
100
AcDbLine
 10
27.9096
 20
848.0757999999999
 30
0.0
 11
28.1707
 21
849.0671999999999
 31
0.0
  0
LINE
  5
AF
330
1E
100
AcDbEntity
  8
0
100
AcDbLine
 10
27.9096
 20
848.0757999999999
 30
0.0
 11
28.0630617893118
 21
848.7035708605439
 31
0.0
  0
LINE
  5
B0
330
1E
100
AcDbEntity
  8
0
100
AcDbLine
 10
27.9096
 20
848.0757999999999
 30
0.0
 11
29.8502
 21
847.5919000000001
 31
0.0
  0
LINE
  5
B1
330
1E
100
AcDbEntity
  8
0
100
AcDbLine
 10
28.1707
 20
849.0671999999999
 30
0.0
 11
28.27424202639569
 21
849.4908664420739
 31
0.0
  0
LINE
  5
B2
330
1E
100
AcDbEntity
  8
0
100
AcDbLine
 10
28.1707
 20
849.0671999999999
 30
0.0
 11
30.1112
 21
848.5834
 31
0.0
  0
LINE
  5
B3
330
1E
100
AcDbEntity
  8
0
100
AcDbLine
 10
25.9572
 20
862.0880000000001
 30
0.0
 11
26.4537102358756
 21
863.552267955899
 31
0.0
  0
LINE
  5
B4
330
1E
100
AcDbEntity
  8
0
100
AcDbLine
 10
24.9572
 20
861.2210000000001
 30
0.0
 11
25.9572
 21
862.0880000000001
 31
0.0
  0
LINE
  5
B5
330
1E
100
AcDbEntity
  8
0
100
AcDbLine
 10
24.3022
 20
863.076
 30
0.0
 11
24.4511590925278
 21
863.515589650747
 31
0.0
  0
LINE
  5
B6
330
1E
100
AcDbEntity
  8
0
100
AcDbLine
 10
24.3022
 20
863.076
 30
0.0
 11
25.9572
 21
862.0880000000001
 31
0.0
  0
LINE
  5
B7
330
1E
100
AcDbEntity
  8
0
100
AcDbLine
 10
29.8502
 20
842.6563999999999
 30
0.0
 11
29.9659105679081
 21
843.1450976376771
 31
0.0
  0
LINE
  5
B8
330
1E
100
AcDbEntity
  8
0
100
AcDbLine
 10
29.8502
 20
842.6563999999999
 30
0.0
 11
30.1112
 21
841.665
 31
0.0
  0
LINE
  5
B9
330
1E
100
AcDbEntity
  8
0
100
AcDbLine
 10
30.8577
 20
836.8794000000001
 30
0.0
 11
31.6231
 21
835.9555
 31
0.0
  0
LINE
  5
BA
330
1E
100
AcDbEntity
  8
0
100
AcDbLine
 10
30.8577
 20
836.8794000000001
 30
0.0
 11
31.12252379264839
 21
838.1154998974221
 31
0.0
  0
LINE
  5
BB
330
1E
100
AcDbEntity
  8
0
100
AcDbLine
 10
30.8577
 20
836.8794000000001
 30
0.0
 11
32.66599999999999
 21
836.8976999999999
 31
0.0
  0
LINE
  5
BC
330
1E
100
AcDbEntity
  8
0
100
AcDbLine
 10
30.1112
 20
841.665
 30
0.0
 11
30.420098629687
 21
842.9696174894729
 31
0.0
  0
LINE
  5
BD
330
1E
100
AcDbEntity
  8
0
100
AcDbLine
 10
30.1112
 20
848.5834
 30
0.0
 11
30.2305710557706
 21
849.0718346216251
 31
0.0
  0
LINE
  5
BE
330
1E
100
AcDbEntity
  8
0
100
AcDbLine
 10
29.8502
 20
847.5919000000001
 30
0.0
 11
30.1112
 21
848.5834
 31
0.0
  0
LINE
  5
BF
330
1E
100
AcDbEntity
  8
0
100
AcDbLine
 10
30.8577
 20
854.0812999999999
 30
0.0
 11
31.6231
 21
855.0051999999999
 31
0.0
  0
LINE
  5
C0
330
1E
100
AcDbEntity
  8
0
100
AcDbLine
 10
30.8577
 20
854.0812999999999
 30
0.0
 11
31.0021941147478
 21
854.6958943096498
 31
0.0
  0
LINE
  5
C1
330
1E
100
AcDbEntity
  8
0
100
AcDbLine
 10
30.8577
 20
854.0812999999999
 30
0.0
 11
32.66599999999999
 21
853.3506
 31
0.0
  0
LINE
  5
C2
330
1E
100
AcDbEntity
  8
0
100
AcDbLine
 10
29.1
 20
873.2080000000001
 30
0.0
 11
35.5
 21
876.008
 31
0.0
  0
LINE
  5
C3
330
1E
100
AcDbEntity
  8
0
100
AcDbLine
 10
29.1
 20
874.075
 30
0.0
 11
35.5
 21
876.875
 31
0.0
  0
LINE
  5
C4
330
1E
100
AcDbEntity
  8
0
100
AcDbLine
 10
31.6231
 20
835.9555
 30
0.0
 11
33.4314
 21
835.9738
 31
0.0
  0
LINE
  5
C5
330
1E
100
AcDbEntity
  8
0
100
AcDbLine
 10
32.66599999999999
 20
836.8976999999999
 30
0.0
 11
32.82607948177449
 21
837.645088725516
 31
0.0
  0
LINE
  5
C6
330
1E
100
AcDbEntity
  8
0
100
AcDbLine
 10
32.66599999999999
 20
836.8976999999999
 30
0.0
 11
33.4314
 21
835.9738
 31
0.0
  0
LINE
  5
C7
330
1E
100
AcDbEntity
  8
0
100
AcDbLine
 10
33.4314
 20
835.9738
 30
0.0
 11
33.7072319265583
 21
837.261693317529
 31
0.0
  0
LINE
  5
C8
330
1E
100
AcDbEntity
  8
0
100
AcDbLine
 10
33.4314
 20
854.2745
 30
0.0
 11
33.73964552370999
 21
855.5860242551331
 31
0.0
  0
LINE
  5
C9
330
1E
100
AcDbEntity
  8
0
100
AcDbLine
 10
32.66599999999999
 20
853.3506
 30
0.0
 11
33.4314
 21
854.2745
 31
0.0
  0
LINE
  5
CA
330
1E
100
AcDbEntity
  8
0
100
AcDbLine
 10
33.8414
 20
867.225
 30
0.0
 11
35.2556
 21
867.932
 31
0.0
  0
LINE
  5
CB
330
1E
100
AcDbEntity
  8
0
100
AcDbLine
 10
35.2556
 20
867.932
 30
0.0
 11
35.66535816664929
 21
869.3522068767371
 31
0.0
  0
LINE
  5
CC
330
1E
100
AcDbEntity
  8
0
100
AcDbLine
 10
33.9043
 20
869.1189999999998
 30
0.0
 11
34.19660816557279
 21
870.1321294521049
 31
0.0
  0
LINE
  5
CD
330
1E
100
AcDbEntity
  8
0
100
AcDbLine
 10
33.9043
 20
869.1189999999998
 30
0.0
 11
35.2556
 21
867.932
 31
0.0
  0
LINE
  5
CE
330
1E
100
AcDbEntity
  8
0
100
AcDbLine
 10
32.4901
 20
868.412
 30
0.0
 11
33.9043
 21
869.1189999999998
 31
0.0
  0
LINE
  5
CF
330
1E
100
AcDbEntity
  8
0
100
AcDbLine
 10
32.4901
 20
868.412
 30
0.0
 11
32.7976908634942
 21
869.4780987263008
 31
0.0
  0
LINE
  5
D0
330
1E
100
AcDbEntity
  8
0
100
AcDbLine
 10
32.4901
 20
868.412
 30
0.0
 11
33.8414
 21
867.225
 31
0.0
  0
LINE
  5
D1
330
1E
100
AcDbEntity
  8
0
100
AcDbLine
 10
31.6231
 20
855.0051999999999
 30
0.0
 11
32.003
 21
856.6219999999999
 31
0.0
  0
LINE
  5
D2
330
1E
100
AcDbEntity
  8
0
100
AcDbLine
 10
31.6231
 20
855.0051999999999
 30
0.0
 11
33.4314
 21
854.2745
 31
0.0
  0
LINE
  5
D3
330
1E
100
AcDbEntity
  8
0
100
AcDbLine
 10
38.0315
 20
830.6665999999999
 30
0.0
 11
39.5844
 21
830.9063
 31
0.0
  0
LINE
  5
D4
330
1E
100
AcDbEntity
  8
0
100
AcDbLine
 10
38.36679999999999
 20
831.6995999999999
 30
0.0
 11
39.5844
 21
830.9063
 31
0.0
  0
LINE
  5
D5
330
1E
100
AcDbEntity
  8
0
100
AcDbLine
 10
38.36679999999999
 20
831.6995999999999
 30
0.0
 11
38.51632790448329
 21
832.533711834939
 31
0.0
  0
LINE
  5
D6
330
1E
100
AcDbEntity
  8
0
100
AcDbLine
 10
36.814
 20
831.46
 30
0.0
 11
37.0309394750302
 21
832.6701539456021
 31
0.0
  0
LINE
  5
D7
330
1E
100
AcDbEntity
  8
0
100
AcDbLine
 10
36.814
 20
831.46
 30
0.0
 11
38.0315
 21
830.6665999999999
 31
0.0
  0
LINE
  5
D8
330
1E
100
AcDbEntity
  8
0
100
AcDbLine
 10
36.814
 20
831.46
 30
0.0
 11
38.36679999999999
 21
831.6995999999999
 31
0.0
  0
LINE
  5
D9
330
1E
100
AcDbEntity
  8
0
100
AcDbLine
 10
38.36679999999999
 20
858.549
 30
0.0
 11
39.5844
 21
859.342
 31
0.0
  0
LINE
  5
DA
330
1E
100
AcDbEntity
  8
0
100
AcDbLine
 10
38.0315
 20
860.294
 30
0.0
 11
38.35779999999999
 21
861.8639999999999
 31
0.0
  0
LINE
  5
DB
330
1E
100
AcDbEntity
  8
0
100
AcDbLine
 10
38.0315
 20
860.294
 30
0.0
 11
39.5844
 21
859.342
 31
0.0
  0
LINE
  5
DC
330
1E
100
AcDbEntity
  8
0
100
AcDbLine
 10
36.814
 20
859.501
 30
0.0
 11
38.0315
 21
860.294
 31
0.0
  0
LINE
  5
DD
330
1E
100
AcDbEntity
  8
0
100
AcDbLine
 10
36.814
 20
859.501
 30
0.0
 11
36.94015126158399
 21
860.1079797140259
 31
0.0
  0
LINE
  5
DE
330
1E
100
AcDbEntity
  8
0
100
AcDbLine
 10
36.814
 20
859.501
 30
0.0
 11
38.36679999999999
 21
858.549
 31
0.0
  0
LINE
  5
DF
330
1E
100
AcDbEntity
  8
0
100
AcDbLine
 10
35.5
 20
876.008
 30
0.0
 11
42.6
 21
878.4080000000001
 31
0.0
  0
LINE
  5
E0
330
1E
100
AcDbEntity
  8
0
100
AcDbLine
 10
35.5
 20
876.875
 30
0.0
 11
42.6
 21
879.2749999999999
 31
0.0
  0
LINE
  5
E1
330
1E
100
AcDbEntity
  8
0
100
AcDbLine
 10
31.2
 20
883.8309999999999
 30
0.0
 11
39.1
 21
886.4810000000002
 31
0.0
  0
LINE
  5
E2
330
1E
100
AcDbEntity
  8
0
100
AcDbLine
 10
31.0
 20
883.9310000000001
 30
0.0
 11
39.0
 21
886.5809999999999
 31
0.0
  0
LINE
  5
E3
330
1E
100
AcDbEntity
  8
0
100
AcDbLine
 10
39.5844
 20
830.9063
 30
0.0
 11
39.8145253413986
 21
832.1904022268968
 31
0.0
  0
LINE
  5
E4
330
1E
100
AcDbEntity
  8
0
100
AcDbLine
 10
39.2973
 20
844.2311
 30
0.0
 11
39.40436701852979
 21
844.98043834752
 31
0.0
  0
LINE
  5
E5
330
1E
100
AcDbEntity
  8
0
100
AcDbLine
 10
39.2973
 20
844.2311
 30
0.0
 11
41.2822
 21
844.0184
 31
0.0
  0
LINE
  5
E6
330
1E
100
AcDbEntity
  8
0
100
AcDbLine
 10
39.2973
 20
844.2311
 30
0.0
 11
39.2973
 21
843.2311
 31
0.0
  0
LINE
  5
E7
330
1E
100
AcDbEntity
  8
0
100
AcDbLine
 10
39.2973
 20
843.2311
 30
0.0
 11
39.2973
 21
844.2311
 31
0.0
  0
LINE
  5
E8
330
1E
100
AcDbEntity
  8
0
100
AcDbLine
 10
39.2973
 20
843.2311
 30
0.0
 11
41.2822
 21
843.0184
 31
0.0
  0
LINE
  5
E9
330
1E
100
AcDbEntity
  8
0
100
AcDbLine
 10
40.255
 20
839.5937999999999
 30
0.0
 11
40.7727
 21
838.6279
 31
0.0
  0
LINE
  5
EA
330
1E
100
AcDbEntity
  8
0
100
AcDbLine
 10
40.255
 20
839.5937999999999
 30
0.0
 11
40.31372054408261
 21
840.027015577435
 31
0.0
  0
LINE
  5
EB
330
1E
100
AcDbEntity
  8
0
100
AcDbLine
 10
40.255
 20
839.5937999999999
 30
0.0
 11
42.17229999999999
 21
839.6378999999999
 31
0.0
  0
LINE
  5
EC
330
1E
100
AcDbEntity
  8
0
100
AcDbLine
 10
40.255
 20
847.8683999999999
 30
0.0
 11
40.7727
 21
848.8343
 31
0.0
  0
LINE
  5
ED
330
1E
100
AcDbEntity
  8
0
100
AcDbLine
 10
40.255
 20
847.8683999999999
 30
0.0
 11
40.4463865007729
 21
849.229074949237
 31
0.0
  0
LINE
  5
EE
330
1E
100
AcDbEntity
  8
0
100
AcDbLine
 10
40.255
 20
847.8683999999999
 30
0.0
 11
42.17229999999999
 21
847.3988
 31
0.0
  0
LINE
  5
EF
330
1E
100
AcDbEntity
  8
0
100
AcDbLine
 10
39.5844
 20
859.342
 30
0.0
 11
39.8216116013026
 21
860.4836990007511
 31
0.0
  0
LINE
  5
F0
330
1E
100
AcDbEntity
  8
0
100
AcDbLine
 10
39.1
 20
886.4810000000002
 30
0.0
 11
47.5
 21
888.531
 31
0.0
  0
LINE
  5
F1
330
1E
100
AcDbEntity
  8
0
100
AcDbLine
 10
39.0
 20
886.5809999999999
 30
0.0
 11
47.4
 21
888.6310000000001
 31
0.0
  0
LINE
  5
F2
330
1E
100
AcDbEntity
  8
0
100
AcDbLine
 10
33.0
 20
893.717
 30
0.0
 11
40.6
 21
896.2669999999999
 31
0.0
  0
LINE
  5
F3
330
1E
100
AcDbEntity
  8
0
100
AcDbLine
 10
31.0
 20
892.938
 30
0.0
 11
33.0
 21
893.717
 31
0.0
  0
LINE
  5
F4
330
1E
100
AcDbEntity
  8
0
100
AcDbLine
 10
40.7727
 20
838.6279
 30
0.0
 11
42.6899
 21
838.672
 31
0.0
  0
LINE
  5
F5
330
1E
100
AcDbEntity
  8
0
100
AcDbLine
 10
42.17229999999999
 20
839.6378999999999
 30
0.0
 11
42.2295187111076
 21
840.060237771531
 31
0.0
  0
LINE
  5
F6
330
1E
100
AcDbEntity
  8
0
100
AcDbLine
 10
42.17229999999999
 20
839.6378999999999
 30
0.0
 11
42.6899
 21
838.672
 31
0.0
  0
LINE
  5
F7
330
1E
100
AcDbEntity
  8
0
100
AcDbLine
 10
41.2822
 20
844.0184
 30
0.0
 11
41.2822
 21
843.0184
 31
0.0
  0
LINE
  5
F8
330
1E
100
AcDbEntity
  8
0
100
AcDbLine
 10
41.2822
 20
844.0184
 30
0.0
 11
41.44846006512829
 21
845.182017369499
 31
0.0
  0
LINE
  5
F9
330
1E
100
AcDbEntity
  8
0
100
AcDbLine
 10
41.2822
 20
843.0184
 30
0.0
 11
41.3711674269797
 21
843.641063315291
 31
0.0
  0
LINE
  5
FA
330
1E
100
AcDbEntity
  8
0
100
AcDbLine
 10
41.2822
 20
843.0184
 30
0.0
 11
41.2822
 21
844.0184
 31
0.0
  0
LINE
  5
FB
330
1E
100
AcDbEntity
  8
0
100
AcDbLine
 10
42.17229999999999
 20
847.3988
 30
0.0
 11
42.6899
 21
848.3647999999998
 31
0.0
  0
LINE
  5
FC
330
1E
100
AcDbEntity
  8
0
100
AcDbLine
 10
40.7727
 20
848.8343
 30
0.0
 11
40.8720507180678
 21
849.540980149764
 31
0.0
  0
LINE
  5
FD
330
1E
100
AcDbEntity
  8
0
100
AcDbLine
 10
40.7727
 20
848.8343
 30
0.0
 11
42.6899
 21
848.3647999999998
 31
0.0
  0
LINE
  5
FE
330
1E
100
AcDbEntity
  8
0
100
AcDbLine
 10
42.6899
 20
838.672
 30
0.0
 11
42.7832414528818
 21
839.3609244585171
 31
0.0
  0
LINE
  5
FF
330
1E
100
AcDbEntity
  8
0
100
AcDbLine
 10
42.6899
 20
848.3647999999998
 30
0.0
 11
42.84660611656679
 21
849.4793821638269
 31
0.0
  0
LINE
  5
100
330
1E
100
AcDbEntity
  8
0
100
AcDbLine
 10
43.5806
 20
835.2383999999998
 30
0.0
 11
44.58059999999999
 21
834.3723999999999
 31
0.0
  0
LINE
  5
101
330
1E
100
AcDbEntity
  8
0
100
AcDbLine
 10
43.5806
 20
835.2383999999998
 30
0.0
 11
43.63239498497949
 21
835.6719486189819
 31
0.0
  0
LINE
  5
102
330
1E
100
AcDbEntity
  8
0
100
AcDbLine
 10
43.5806
 20
835.2383999999998
 30
0.0
 11
45.2995
 21
835.5218999999999
 31
0.0
  0
LINE
  5
103
330
1E
100
AcDbEntity
  8
0
100
AcDbLine
 10
44.58059999999999
 20
834.3723999999999
 30
0.0
 11
46.2995
 21
834.6558999999999
 31
0.0
  0
LINE
  5
104
330
1E
100
AcDbEntity
  8
0
100
AcDbLine
 10
46.2995
 20
834.6558999999999
 30
0.0
 11
46.384207512922
 21
835.3649421062829
 31
0.0
  0
LINE
  5
105
330
1E
100
AcDbEntity
  8
0
100
AcDbLine
 10
45.2995
 20
835.5218999999999
 30
0.0
 11
45.35112752562489
 21
835.954046904666
 31
0.0
  0
LINE
  5
106
330
1E
100
AcDbEntity
  8
0
100
AcDbLine
 10
45.2995
 20
835.5218999999999
 30
0.0
 11
46.2995
 21
834.6558999999999
 31
0.0
  0
LINE
  5
107
330
1E
100
AcDbEntity
  8
0
100
AcDbLine
 10
46.2995
 20
852.3808999999999
 30
0.0
 11
46.4415635547114
 21
853.487953793766
 31
0.0
  0
LINE
  5
108
330
1E
100
AcDbEntity
  8
0
100
AcDbLine
 10
45.2995
 20
851.5147999999999
 30
0.0
 11
46.2995
 21
852.3808999999999
 31
0.0
  0
LINE
  5
109
330
1E
100
AcDbEntity
  8
0
100
AcDbLine
 10
43.5806
 20
852.2237
 30
0.0
 11
44.58059999999999
 21
853.0898
 31
0.0
  0
LINE
  5
10A
330
1E
100
AcDbEntity
  8
0
100
AcDbLine
 10
43.5806
 20
852.2237
 30
0.0
 11
43.7599956208747
 21
853.6217544483399
 31
0.0
  0
LINE
  5
10B
330
1E
100
AcDbEntity
  8
0
100
AcDbLine
 10
43.5806
 20
852.2237
 30
0.0
 11
45.2995
 21
851.5147999999999
 31
0.0
  0
LINE
  5
10C
330
1E
100
AcDbEntity
  8
0
100
AcDbLine
 10
44.57489999999999
 20
873.2130000000001
 30
0.0
 11
46.307
 21
873.713
 31
0.0
  0
LINE
  5
10D
330
1E
100
AcDbEntity
  8
0
100
AcDbLine
 10
44.57489999999999
 20
873.2130000000001
 30
0.0
 11
44.7810955108073
 21
874.190524634427
 31
0.0
  0
LINE
  5
10E
330
1E
100
AcDbEntity
  8
0
100
AcDbLine
 10
44.57489999999999
 20
873.2130000000001
 30
0.0
 11
45.5304
 21
871.8739999999998
 31
0.0
  0
LINE
  5
10F
330
1E
100
AcDbEntity
  8
0
100
AcDbLine
 10
46.5641
 20
862.832
 30
0.0
 11
48.1509
 21
863.441
 31
0.0
  0
LINE
  5
110
330
1E
100
AcDbEntity
  8
0
100
AcDbLine
 10
45.5304
 20
871.8739999999998
 30
0.0
 11
47.2625
 21
872.3739999999999
 31
0.0
  0
LINE
  5
111
330
1E
100
AcDbEntity
  8
0
100
AcDbLine
 10
47.2625
 20
872.3739999999999
 30
0.0
 11
47.55749999999999
 21
873.7739999999998
 31
0.0
  0
LINE
  5
112
330
1E
100
AcDbEntity
  8
0
100
AcDbLine
 10
46.307
 20
873.713
 30
0.0
 11
46.50950546352549
 21
874.6733564185499
 31
0.0
  0
LINE
  5
113
330
1E
100
AcDbEntity
  8
0
100
AcDbLine
 10
46.307
 20
873.713
 30
0.0
 11
47.2625
 21
872.3739999999999
 31
0.0
  0
LINE
  5
114
330
1E
100
AcDbEntity
  8
0
100
AcDbLine
 10
46.95929999999999
 20
864.573
 30
0.0
 11
47.2097
 21
866.1050000000001
 31
0.0
  0
LINE
  5
115
330
1E
100
AcDbEntity
  8
0
100
AcDbLine
 10
46.95929999999999
 20
864.573
 30
0.0
 11
48.1509
 21
863.441
 31
0.0
  0
LINE
  5
116
330
1E
100
AcDbEntity
  8
0
100
AcDbLine
 10
45.37259999999999
 20
863.9650000000001
 30
0.0
 11
46.95929999999999
 21
864.573
 31
0.0
  0
LINE
  5
117
330
1E
100
AcDbEntity
  8
0
100
AcDbLine
 10
45.37259999999999
 20
863.9650000000001
 30
0.0
 11
45.46870697874779
 21
864.552618947536
 31
0.0
  0
LINE
  5
118
330
1E
100
AcDbEntity
  8
0
100
AcDbLine
 10
45.37259999999999
 20
863.9650000000001
 30
0.0
 11
46.5641
 21
862.832
 31
0.0
  0
LINE
  5
119
330
1E
100
AcDbEntity
  8
0
100
AcDbLine
 10
44.58059999999999
 20
853.0898
 30
0.0
 11
44.66812924047739
 21
853.771886112324
 31
0.0
  0
LINE
  5
11A
330
1E
100
AcDbEntity
  8
0
100
AcDbLine
 10
44.58059999999999
 20
853.0898
 30
0.0
 11
46.2995
 21
852.3808999999999
 31
0.0
  0
LINE
  5
11B
330
1E
100
AcDbEntity
  8
0
100
AcDbLine
 10
42.6
 20
878.4080000000001
 30
0.0
 11
50.2
 21
880.2080000000001
 31
0.0
  0
LINE
  5
11C
330
1E
100
AcDbEntity
  8
0
100
AcDbLine
 10
42.6
 20
879.2749999999999
 30
0.0
 11
50.2
 21
881.075
 31
0.0
  0
LINE
  5
11D
330
1E
100
AcDbEntity
  8
0
100
AcDbLine
 10
49.0473
 20
856.0
 30
0.0
 11
50.4615
 21
856.7069999999999
 31
0.0
  0
LINE
  5
11E
330
1E
100
AcDbEntity
  8
0
100
AcDbLine
 10
49.0473
 20
856.0
 30
0.0
 11
49.2174301225333
 21
857.59937995377
 31
0.0
  0
LINE
  5
11F
330
1E
100
AcDbEntity
  8
0
100
AcDbLine
 10
49.0473
 20
856.0
 30
0.0
 11
50.4508
 21
855.0859
 31
0.0
  0
LINE
  5
120
330
1E
100
AcDbEntity
  8
0
100
AcDbLine
 10
48.1509
 20
863.441
 30
0.0
 11
48.3239437057761
 21
864.500140859964
 31
0.0
  0
LINE
  5
121
330
1E
100
AcDbEntity
  8
0
100
AcDbLine
 10
49.0473
 20
831.4618000000001
 30
0.0
 11
49.0766986459318
 21
831.767606882625
 31
0.0
  0
LINE
  5
122
330
1E
100
AcDbEntity
  8
0
100
AcDbLine
 10
49.0473
 20
831.4618000000001
 30
0.0
 11
50.4615
 21
830.7546999999999
 31
0.0
  0
LINE
  5
123
330
1E
100
AcDbEntity
  8
0
100
AcDbLine
 10
49.0473
 20
831.4618000000001
 30
0.0
 11
50.4508
 21
831.9509
 31
0.0
  0
LINE
  5
124
330
1E
100
AcDbEntity
  8
0
100
AcDbLine
 10
47.5
 20
888.531
 30
0.0
 11
56.4
 21
890.0310000000001
 31
0.0
  0
LINE
  5
125
330
1E
100
AcDbEntity
  8
0
100
AcDbLine
 10
47.4
 20
888.6310000000001
 30
0.0
 11
56.4
 21
890.131
 31
0.0
  0
LINE
  5
126
330
1E
100
AcDbEntity
  8
0
100
AcDbLine
 10
40.6
 20
896.2669999999999
 30
0.0
 11
48.6
 21
898.2169999999999
 31
0.0
  0
LINE
  5
127
330
1E
100
AcDbEntity
  8
0
100
AcDbLine
 10
48.6
 20
898.2169999999999
 30
0.0
 11
57.2
 21
899.6669999999999
 31
0.0
  0
LINE
  5
128
330
1E
100
AcDbEntity
  8
0
100
AcDbLine
 10
24.1
 20
829.8314000000001
 30
0.0
 11
25.2304026774334
 21
829.3378439014018
 31
0.0
  0
LINE
  5
129
330
1E
100
AcDbEntity
  8
0
100
AcDbLine
 10
24.1
 20
829.8314000000001
 30
0.0
 11
26.2
 21
828.803
 31
0.0
  0
LINE
  5
12A
330
1E
100
AcDbEntity
  8
0
100
AcDbLine
 10
24.0
 20
829.7813999999998
 30
0.0
 11
27.6349411764701
 21
828.1456764705881
 31
0.0
  0
LINE
  5
12B
330
1E
100
AcDbEntity
  8
0
100
AcDbLine
 10
50.0
 20
820.3558684210518
 30
0.0
 11
50.0
 21
19.99999999999989
 31
0.0
  0
LINE
  5
12C
330
1E
100
AcDbEntity
  8
0
100
AcDbLine
 10
50.0
 20
968.0
 30
0.0
 11
50.5
 21
968.0
 31
0.0
  0
LINE
  5
12D
330
1E
100
AcDbEntity
  8
0
100
AcDbLine
 10
50.0
 20
968.0
 30
0.0
 11
50.0
 21
948.0
 31
0.0
  0
LINE
  5
12E
330
1E
100
AcDbEntity
  8
0
100
AcDbLine
 10
50.0
 20
948.0
 30
0.0
 11
50.0
 21
898.4530465116279
 31
0.0
  0
LINE
  5
12F
330
1E
100
AcDbEntity
  8
0
100
AcDbLine
 10
50.0
 20
948.0
 30
0.0
 11
50.0
 21
968.0
 31
0.0
  0
LINE
  5
130
330
1E
100
AcDbEntity
  8
0
100
AcDbLine
 10
50.2
 20
880.2080000000001
 30
0.0
 11
58.2
 21
881.6080000000001
 31
0.0
  0
LINE
  5
131
330
1E
100
AcDbEntity
  8
0
100
AcDbLine
 10
50.4508
 20
855.0859
 30
0.0
 11
51.865
 21
855.793
 31
0.0
  0
LINE
  5
132
330
1E
100
AcDbEntity
  8
0
100
AcDbLine
 10
50.4615
 20
856.7069999999999
 30
0.0
 11
50.5352431770557
 21
857.400279263857
 31
0.0
  0
LINE
  5
133
330
1E
100
AcDbEntity
  8
0
100
AcDbLine
 10
50.4615
 20
856.7069999999999
 30
0.0
 11
51.865
 21
855.793
 31
0.0
  0
LINE
  5
134
330
1E
100
AcDbEntity
  8
0
100
AcDbLine
 10
50.4508
 20
831.9509
 30
0.0
 11
51.865
 21
831.2438
 31
0.0
  0
LINE
  5
135
330
1E
100
AcDbEntity
  8
0
100
AcDbLine
 10
50.4508
 20
831.9509
 30
0.0
 11
50.61109786537389
 21
833.6173702665069
 31
0.0
  0
LINE
  5
136
330
1E
100
AcDbEntity
  8
0
100
AcDbLine
 10
50.4615
 20
830.7546999999999
 30
0.0
 11
51.865
 21
831.2438
 31
0.0
  0
LINE
  5
137
330
1E
100
AcDbEntity
  8
0
100
AcDbLine
 10
50.2
 20
881.075
 30
0.0
 11
58.2
 21
882.4749999999999
 31
0.0
  0
LINE
  5
138
330
1E
100
AcDbEntity
  8
0
100
AcDbLine
 10
50.2
 20
820.3084999999999
 30
0.0
 11
58.2
 21
818.9085
 31
0.0
  0
LINE
  5
139
330
1E
100
AcDbEntity
  8
0
100
AcDbLine
 10
51.865
 20
855.793
 30
0.0
 11
51.9879153754951
 21
856.9478525780541
 31
0.0
  0
LINE
  5
13A
330
1E
100
AcDbEntity
  8
0
100
AcDbLine
 10
52.3204
 20
840.5018999999999
 30
0.0
 11
54.3014
 21
840.5567999999998
 31
0.0
  0
LINE
  5
13B
330
1E
100
AcDbEntity
  8
0
100
AcDbLine
 10
52.0593
 20
841.4932999999999
 30
0.0
 11
52.3204
 21
840.5018999999999
 31
0.0
  0
LINE
  5
13C
330
1E
100
AcDbEntity
  8
0
100
AcDbLine
 10
52.0593
 20
841.4932999999999
 30
0.0
 11
52.1151746019669
 21
842.616030283273
 31
0.0
  0
LINE
  5
13D
330
1E
100
AcDbEntity
  8
0
100
AcDbLine
 10
52.0593
 20
841.4932999999999
 30
0.0
 11
54.0403
 21
841.5483
 31
0.0
  0
LINE
  5
13E
330
1E
100
AcDbEntity
  8
0
100
AcDbLine
 10
51.865
 20
831.2438
 30
0.0
 11
51.9314560913949
 21
831.934683188491
 31
0.0
  0
LINE
  5
13F
330
1E
100
AcDbEntity
  8
0
100
AcDbLine
 10
50.5
 20
968.0
 30
0.0
 11
52.5
 21
968.0
 31
0.0
  0
LINE
  5
140
330
1E
100
AcDbEntity
  8
0
100
AcDbLine
 10
52.5
 20
968.0
 30
0.0
 11
56.0
 21
968.0
 31
0.0
  0
LINE
  5
141
330
1E
100
AcDbEntity
  8
0
100
AcDbLine
 10
50.0
 20
898.4530465116279
 30
0.0
 11
50.0
 21
948.0
 31
0.0
  0
LINE
  5
142
330
1E
100
AcDbEntity
  8
0
100
AcDbLine
 10
52.4701
 20
751.2999999999999
 30
0.0
 11
52.5964
 21
752.7999999999999
 31
0.0
  0
LINE
  5
143
330
1E
100
AcDbEntity
  8
0
100
AcDbLine
 10
52.5964
 20
752.7999999999999
 30
0.0
 11
52.9689774266368
 21
754.147479307751
 31
0.0
  0
LINE
  5
144
330
1E
100
AcDbEntity
  8
0
100
AcDbLine
 10
52.5964
 20
737.2
 30
0.0
 11
54.6299
 21
728.2999999999999
 31
0.0
  0
LINE
  5
145
330
1E
100
AcDbEntity
  8
0
100
AcDbLine
 10
56.0
 20
-0.0000000000000336
 30
0.0
 11
60.0
 21
-0.0000000000000335
 31
0.0
  0
LINE
  5
146
330
1E
100
AcDbEntity
  8
0
100
AcDbLine
 10
56.0
 20
-0.0000000000000347
 30
0.0
 11
60.0
 21
-0.0000000000000348
 31
0.0
  0
LINE
  5
147
330
1E
100
AcDbEntity
  8
0
100
AcDbLine
 10
60.0
 20
-0.0000000000000335
 30
0.0
 11
66.0
 21
-0.0000000000000335
 31
0.0
  0
LINE
  5
148
330
1E
100
AcDbEntity
  8
0
100
AcDbLine
 10
60.0
 20
-0.0000000000000348
 30
0.0
 11
66.0
 21
-0.0000000000000349
 31
0.0
  0
LINE
  5
149
330
1E
100
AcDbEntity
  8
0
100
AcDbLine
 10
60.0
 20
20.0
 30
0.0
 11
60.0
 21
666.830340003254
 31
0.0
  0
LINE
  5
14A
330
1E
100
AcDbEntity
  8
0
100
AcDbLine
 10
60.0
 20
20.0
 30
0.0
 11
66.0
 21
20.0
 31
0.0
  0
LINE
  5
14B
330
1E
100
AcDbEntity
  8
0
100
AcDbLine
 10
66.0
 20
20.0
 30
0.0
 11
75.0
 21
20.0
 31
0.0
  0
LINE
  5
14C
330
1E
100
AcDbEntity
  8
0
100
AcDbLine
 10
66.0
 20
-0.0000000000000335
 30
0.0
 11
75.0
 21
-0.0000000000000335
 31
0.0
  0
LINE
  5
14D
330
1E
100
AcDbEntity
  8
0
100
AcDbLine
 10
66.0
 20
-0.0000000000000349
 30
0.0
 11
75.0
 21
-0.0000000000000349
 31
0.0
  0
LINE
  5
14E
330
1E
100
AcDbEntity
  8
0
100
AcDbLine
 10
66.1898
 20
53.64859999999989
 30
0.0
 11
67.07559999999999
 21
578.994
 31
0.0
  0
LINE
  5
14F
330
1E
100
AcDbEntity
  8
0
100
AcDbLine
 10
66.1898
 20
53.6486
 30
0.0
 11
66.4529
 21
53.7775
 31
0.0
  0
LINE
  5
150
330
1E
100
AcDbEntity
  8
0
100
AcDbLine
 10
66.1898
 20
53.6486
 30
0.0
 11
67.07559999999999
 21
578.994
 31
0.0
  0
LINE
  5
151
330
1E
100
AcDbEntity
  8
0
100
AcDbLine
 10
67.2258
 20
54.1569
 30
0.0
 11
69.1637
 21
55.1079
 31
0.0
  0
LINE
  5
152
330
1E
100
AcDbEntity
  8
0
100
AcDbLine
 10
66.89919009518189
 20
53.996653074692
 30
0.0
 11
67.2258
 21
54.1569
 31
0.0
  0
LINE
  5
153
330
1E
100
AcDbEntity
  8
0
100
AcDbLine
 10
66.4529
 20
53.7775
 30
0.0
 11
67.88389999999999
 21
54.4802
 31
0.0
  0
LINE
  5
154
330
1E
100
AcDbEntity
  8
0
100
AcDbLine
 10
69.1637
 20
55.1079
 30
0.0
 11
69.62007514913721
 21
55.3319932803934
 31
0.0
  0
LINE
  5
155
330
1E
100
AcDbEntity
  8
0
100
AcDbLine
 10
67.88389999999999
 20
54.4802
 30
0.0
 11
70.2813
 21
55.6564
 31
0.0
  0
LINE
  5
156
330
1E
100
AcDbEntity
  8
0
100
AcDbLine
 10
84.0
 20
-0.0000000000000349
 30
0.0
 11
90.0
 21
-0.0000000000000348
 31
0.0
  0
LINE
  5
157
330
1E
100
AcDbEntity
  8
0
100
AcDbLine
 10
90.0
 20
-0.0000000000000335
 30
0.0
 11
94.0
 21
-0.0000000000000336
 31
0.0
  0
LINE
  5
158
330
1E
100
AcDbEntity
  8
0
100
AcDbLine
 10
84.0
 20
-0.0000000000000335
 30
0.0
 11
90.0
 21
-0.0000000000000335
 31
0.0
  0
LINE
  5
159
330
1E
100
AcDbEntity
  8
0
100
AcDbLine
 10
84.0
 20
20.0
 30
0.0
 11
90.0
 21
20.0
 31
0.0
  0
LINE
  5
15A
330
1E
100
AcDbEntity
  8
0
100
AcDbLine
 10
75.0
 20
20.0
 30
0.0
 11
84.0
 21
20.0
 31
0.0
  0
LINE
  5
15B
330
1E
100
AcDbEntity
  8
0
100
AcDbLine
 10
75.0
 20
-0.0000000000000335
 30
0.0
 11
84.0
 21
-0.0000000000000335
 31
0.0
  0
LINE
  5
15C
330
1E
100
AcDbEntity
  8
0
100
AcDbLine
 10
97.5
 20
-0.0000000000000338
 30
0.0
 11
99.50000000000001
 21
-0.000000000000034
 31
0.0
  0
LINE
  5
15D
330
1E
100
AcDbEntity
  8
0
100
AcDbLine
 10
94.0
 20
-0.0000000000000336
 30
0.0
 11
97.5
 21
-0.0000000000000338
 31
0.0
  0
LINE
  5
15E
330
1E
100
AcDbEntity
  8
0
100
AcDbLine
 10
100.0
 20
-0.0000000000000342
 30
0.0
 11
100.0
 21
20.0
 31
0.0
  0
LINE
  5
15F
330
1E
100
AcDbEntity
  8
0
100
AcDbLine
 10
99.50000000000001
 20
-0.000000000000034
 30
0.0
 11
100.0
 21
-0.0000000000000342
 31
0.0
  0
LINE
  5
160
330
1E
100
AcDbEntity
  8
0
100
AcDbLine
 10
100.0
 20
20.0
 30
0.0
 11
100.0
 21
-0.0000000000000336
 31
0.0
  0
LINE
  5
161
330
1E
100
AcDbEntity
  8
0
100
AcDbLine
 10
100.0
 20
20.0
 30
0.0
 11
100.0
 21
820.3558684210518
 31
0.0
  0
LINE
  5
162
330
1E
100
AcDbEntity
  8
0
100
AcDbLine
 10
99.50000000000001
 20
-0.0000000000000343
 30
0.0
 11
100.0
 21
-0.0000000000000342
 31
0.0
  0
LINE
  5
163
330
1E
100
AcDbEntity
  8
0
100
AcDbLine
 10
97.5
 20
-0.0000000000000345
 30
0.0
 11
99.50000000000001
 21
-0.0000000000000343
 31
0.0
  0
LINE
  5
164
330
1E
100
AcDbEntity
  8
0
100
AcDbLine
 10
94.0
 20
-0.0000000000000347
 30
0.0
 11
97.5
 21
-0.0000000000000345
 31
0.0
  0
LINE
  5
165
330
1E
100
AcDbEntity
  8
0
100
AcDbLine
 10
90.0
 20
-0.0000000000000348
 30
0.0
 11
94.0
 21
-0.0000000000000347
 31
0.0
  0
LINE
  5
166
330
1E
100
AcDbEntity
  8
0
100
AcDbLine
 10
75.0
 20
-0.0000000000000349
 30
0.0
 11
84.0
 21
-0.0000000000000349
 31
0.0
  0
LINE
  5
167
330
1E
100
AcDbEntity
  8
0
100
AcDbLine
 10
73.1939
 20
57.0861
 30
0.0
 11
76.3436
 21
58.6311
 31
0.0
  0
LINE
  5
168
330
1E
100
AcDbEntity
  8
0
100
AcDbLine
 10
75.1053
 20
58.0235
 30
0.0
 11
76.13965404022
 21
58.5310598349493
 31
0.0
  0
LINE
  5
169
330
1E
100
AcDbEntity
  8
0
100
AcDbLine
 10
76.79966284741841
 20
58.8549276289742
 30
0.0
 11
78.0146
 21
59.45109999999999
 31
0.0
  0
LINE
  5
16A
330
1E
100
AcDbEntity
  8
0
100
AcDbLine
 10
78.0146
 20
59.45109999999999
 30
0.0
 11
80.41059999999999
 21
60.6272
 31
0.0
  0
LINE
  5
16B
330
1E
100
AcDbEntity
  8
0
100
AcDbLine
 10
80.41059999999999
 20
60.6272
 30
0.0
 11
81.8453
 21
61.331
 31
0.0
  0
LINE
  5
16C
330
1E
100
AcDbEntity
  8
0
100
AcDbLine
 10
81.8453
 20
61.331
 30
0.0
 11
82.11200000000001
 21
61.46209999999999
 31
0.0
  0
LINE
  5
16D
330
1E
100
AcDbEntity
  8
0
100
AcDbLine
 10
82.11200000000001
 20
61.46209999999999
 30
0.0
 11
83.07579999999999
 21
578.993
 31
0.0
  0
LINE
  5
16E
330
1E
100
AcDbEntity
  8
0
100
AcDbLine
 10
82.11200000000001
 20
61.46209999999999
 30
0.0
 11
83.07579999999999
 21
578.993
 31
0.0
  0
LINE
  5
16F
330
1E
100
AcDbEntity
  8
0
100
AcDbLine
 10
81.0819
 20
60.9569
 30
0.0
 11
82.11200000000001
 21
61.46209999999999
 31
0.0
  0
LINE
  5
170
330
1E
100
AcDbEntity
  8
0
100
AcDbLine
 10
79.1426
 20
60.0048
 30
0.0
 11
81.0819
 21
60.9569
 31
0.0
  0
LINE
  5
171
330
1E
100
AcDbEntity
  8
0
100
AcDbLine
 10
76.3436
 20
58.6311
 30
0.0
 11
79.1426
 21
60.0048
 31
0.0
  0
LINE
  5
172
330
1E
100
AcDbEntity
  8
0
100
AcDbLine
 10
73.1991302135367
 20
57.0886655395479
 30
0.0
 11
75.1053
 21
58.0235
 31
0.0
  0
LINE
  5
173
330
1E
100
AcDbEntity
  8
0
100
AcDbLine
 10
70.2813
 20
55.6564
 30
0.0
 11
73.1939
 21
57.0861
 31
0.0
  0
LINE
  5
174
330
1E
100
AcDbEntity
  8
0
100
AcDbLine
 10
83.06542987233349
 20
600.1179742667759
 30
0.0
 11
86.0045
 21
606.5
 31
0.0
  0
LINE
  5
175
330
1E
100
AcDbEntity
  8
0
100
AcDbLine
 10
83.0596
 20
611.994
 30
0.0
 11
83.07579999999999
 21
578.993
 31
0.0
  0
LINE
  5
176
330
1E
100
AcDbEntity
  8
0
100
AcDbLine
 10
67.0597
 20
611.995
 30
0.0
 11
67.07559999999999
 21
578.994
 31
0.0
  0
LINE
  5
178
330
1E
100
AcDbEntity
  8
0
100
AcDbLine
 10
88.0
 20
619.2
 30
0.0
 11
88.4121
 21
632.6
 31
0.0
  0
LINE
  5
179
330
1E
100
AcDbEntity
  8
0
100
AcDbLine
 10
86.0045
 20
606.5
 30
0.0
 11
88.0
 21
619.2
 31
0.0
  0
LINE
  5
17A
330
1E
100
AcDbEntity
  8
0
100
AcDbLine
 10
66.9889
 20
600.0
 30
0.0
 11
67.06547923396261
 21
600.0
 31
0.0
  0
LINE
  5
17B
330
1E
100
AcDbEntity
  8
0
100
AcDbLine
 10
63.9955
 20
606.5
 30
0.0
 11
66.9889
 21
600.0
 31
0.0
  0
LINE
  5
17D
330
1E
100
AcDbEntity
  8
0
100
AcDbLine
 10
83.0306
 20
635.001
 30
0.0
 11
83.0596
 21
611.994
 31
0.0
  0
LINE
  5
17E
330
1E
100
AcDbEntity
  8
0
100
AcDbLine
 10
67.0316
 20
634.992
 30
0.0
 11
67.0597
 21
611.995
 31
0.0
  0
LINE
  5
17F
330
1E
100
AcDbEntity
  8
0
100
AcDbLine
 10
82.98959999999999
 20
659.7979999999999
 30
0.0
 11
83.0306
 21
635.001
 31
0.0
  0
LINE
  5
180
330
1E
100
AcDbEntity
  8
0
100
AcDbLine
 10
66.9897
 20
659.7889999999999
 30
0.0
 11
67.0316
 21
634.992
 31
0.0
  0
LINE
  5
183
330
1E
100
AcDbEntity
  8
0
100
AcDbLine
 10
88.4121
 20
632.6
 30
0.0
 11
89.4754
 21
657.3999999999999
 31
0.0
  0
LINE
  5
184
330
1E
100
AcDbEntity
  8
0
100
AcDbLine
 10
90.0
 20
666.830340003254
 30
0.0
 11
90.0
 21
19.99999999999989
 31
0.0
  0
LINE
  5
185
330
1E
100
AcDbEntity
  8
0
100
AcDbLine
 10
89.4754
 20
657.3999999999999
 30
0.0
 11
90.70480000000001
 21
679.4999999999999
 31
0.0
  0
LINE
  5
188
330
1E
100
AcDbEntity
  8
0
100
AcDbLine
 10
90.70480000000001
 20
679.4999999999999
 30
0.0
 11
92.1203
 21
699.0
 31
0.0
  0
LINE
  5
18A
330
1E
100
AcDbEntity
  8
0
100
AcDbLine
 10
61.58789999999999
 20
632.6
 30
0.0
 11
62.0
 21
619.2
 31
0.0
  0
LINE
  5
18B
330
1E
100
AcDbEntity
  8
0
100
AcDbLine
 10
62.0
 20
619.2
 30
0.0
 11
63.9955
 21
606.5
 31
0.0
  0
LINE
  5
18C
330
1E
100
AcDbEntity
  8
0
100
AcDbLine
 10
60.52459999999999
 20
657.3999999999999
 30
0.0
 11
61.58789999999999
 21
632.6
 31
0.0
  0
LINE
  5
18D
330
1E
100
AcDbEntity
  8
0
100
AcDbLine
 10
82.93470000000001
 20
684.895
 30
0.0
 11
82.98959999999999
 21
659.7979999999999
 31
0.0
  0
LINE
  5
18E
330
1E
100
AcDbEntity
  8
0
100
AcDbLine
 10
66.9358
 20
684.8860000000001
 30
0.0
 11
66.9897
 21
659.7889999999999
 31
0.0
  0
LINE
  5
190
330
1E
100
AcDbEntity
  8
0
100
AcDbLine
 10
66.8656
 20
707.9919999999999
 30
0.0
 11
67.1997964809077
 21
727.091508559404
 31
0.0
  0
LINE
  5
191
330
1E
100
AcDbEntity
  8
0
100
AcDbLine
 10
66.8656
 20
707.9919999999999
 30
0.0
 11
66.9358
 21
684.8860000000001
 31
0.0
  0
LINE
  5
197
330
1E
100
AcDbEntity
  8
0
100
AcDbLine
 10
82.8648
 20
707.991
 30
0.0
 11
83.2055434263958
 21
727.3575128735719
 31
0.0
  0
LINE
  5
198
330
1E
100
AcDbEntity
  8
0
100
AcDbLine
 10
82.8648
 20
707.991
 30
0.0
 11
82.93470000000001
 21
684.895
 31
0.0
  0
LINE
  5
19B
330
1E
100
AcDbEntity
  8
0
100
AcDbLine
 10
82.89874504060549
 20
696.775053536139
 30
0.0
 11
84.1229
 21
709.7
 31
0.0
  0
LINE
  5
19C
330
1E
100
AcDbEntity
  8
0
100
AcDbLine
 10
84.1229
 20
709.7
 30
0.0
 11
85.79089999999998
 21
722.2999999999999
 31
0.0
  0
LINE
  5
19E
330
1E
100
AcDbEntity
  8
0
100
AcDbLine
 10
92.1203
 20
699.0
 30
0.0
 11
93.70200000000002
 21
715.6
 31
0.0
  0
LINE
  5
19F
330
1E
100
AcDbEntity
  8
0
100
AcDbLine
 10
93.70200000000002
 20
715.6
 30
0.0
 11
95.3701
 21
728.2999999999999
 31
0.0
  0
LINE
  5
1A0
330
1E
100
AcDbEntity
  8
0
100
AcDbLine
 10
65.8771
 20
709.7
 30
0.0
 11
66.89299860395729
 21
698.9738783043009
 31
0.0
  0
LINE
  5
1A3
330
1E
100
AcDbEntity
  8
0
100
AcDbLine
 10
59.2952
 20
679.4999999999999
 30
0.0
 11
60.52459999999999
 21
657.3999999999999
 31
0.0
  0
LINE
  5
1A4
330
1E
100
AcDbEntity
  8
0
100
AcDbLine
 10
57.8797
 20
699.0
 30
0.0
 11
59.2952
 21
679.4999999999999
 31
0.0
  0
LINE
  5
1A5
330
1E
100
AcDbEntity
  8
0
100
AcDbLine
 10
85.79089999999998
 20
722.2999999999999
 30
0.0
 11
87.6251
 21
732.0
 31
0.0
  0
LINE
  5
1A7
330
1E
100
AcDbEntity
  8
0
100
AcDbLine
 10
64.20910000000001
 20
722.2999999999999
 30
0.0
 11
65.8771
 21
709.7
 31
0.0
  0
LINE
  5
1A8
330
1E
100
AcDbEntity
  8
0
100
AcDbLine
 10
62.0094
 20
737.5
 30
0.0
 11
62.1689
 21
734.4
 31
0.0
  0
LINE
  5
1A9
330
1E
100
AcDbEntity
  8
0
100
AcDbLine
 10
61.9097
 20
741.1
 30
0.0
 11
62.0094
 21
737.5
 31
0.0
  0
LINE
  5
1AA
330
1E
100
AcDbEntity
  8
0
100
AcDbLine
 10
61.8765
 20
745.0
 30
0.0
 11
61.9097
 21
748.8999999999999
 31
0.0
  0
LINE
  5
1AB
330
1E
100
AcDbEntity
  8
0
100
AcDbLine
 10
61.8765
 20
745.0
 30
0.0
 11
61.9097
 21
741.1
 31
0.0
  0
LINE
  5
1AC
330
1E
100
AcDbEntity
  8
0
100
AcDbLine
 10
61.9097
 20
748.8999999999999
 30
0.0
 11
62.0094
 21
752.5
 31
0.0
  0
LINE
  5
1AD
330
1E
100
AcDbEntity
  8
0
100
AcDbLine
 10
62.2845
 20
752.5349999999999
 30
0.0
 11
62.5722
 21
755.028
 31
0.0
  0
LINE
  5
1AE
330
1E
100
AcDbEntity
  8
0
100
AcDbLine
 10
62.2845
 20
752.5349999999999
 30
0.0
 11
62.2845
 21
745.035
 31
0.0
  0
LINE
  5
1AF
330
1E
100
AcDbEntity
  8
0
100
AcDbLine
 10
62.2845
 20
752.5349999999999
 30
0.0
 11
62.5722
 21
750.0419999999999
 31
0.0
  0
LINE
  5
1B0
330
1E
100
AcDbEntity
  8
0
100
AcDbLine
 10
62.2845
 20
745.035
 30
0.0
 11
62.2845
 21
737.535
 31
0.0
  0
LINE
  5
1B1
330
1E
100
AcDbEntity
  8
0
100
AcDbLine
 10
62.2845
 20
745.035
 30
0.0
 11
62.2845
 21
752.5349999999999
 31
0.0
  0
LINE
  5
1B2
330
1E
100
AcDbEntity
  8
0
100
AcDbLine
 10
62.2845
 20
737.535
 30
0.0
 11
62.5722
 21
735.0419999999999
 31
0.0
  0
LINE
  5
1B3
330
1E
100
AcDbEntity
  8
0
100
AcDbLine
 10
62.2845
 20
737.535
 30
0.0
 11
62.2845
 21
745.035
 31
0.0
  0
LINE
  5
1B4
330
1E
100
AcDbEntity
  8
0
100
AcDbLine
 10
62.1689
 20
734.4
 30
0.0
 11
62.3749
 21
732.0
 31
0.0
  0
LINE
  5
1B5
330
1E
100
AcDbEntity
  8
0
100
AcDbLine
 10
62.0094
 20
752.5
 30
0.0
 11
62.1689
 21
755.6
 31
0.0
  0
LINE
  5
1B6
330
1E
100
AcDbEntity
  8
0
100
AcDbLine
 10
62.1689
 20
755.6
 30
0.0
 11
62.3110185036355
 21
757.255749556918
 31
0.0
  0
LINE
  5
1B7
330
1E
100
AcDbEntity
  8
0
100
AcDbLine
 10
67.9
 20
726.6319999999999
 30
0.0
 11
70.0
 21
725.832
 31
0.0
  0
LINE
  5
1B8
330
1E
100
AcDbEntity
  8
0
100
AcDbLine
 10
66.29999999999999
 20
727.682
 30
0.0
 11
67.9
 21
726.6319999999999
 31
0.0
  0
LINE
  5
1B9
330
1E
100
AcDbEntity
  8
0
100
AcDbLine
 10
65.4
 20
728.8819999999999
 30
0.0
 11
66.29999999999999
 21
727.682
 31
0.0
  0
LINE
  5
1BA
330
1E
100
AcDbEntity
  8
0
100
AcDbLine
 10
65.0
 20
730.182
 30
0.0
 11
65.4
 21
728.8819999999999
 31
0.0
  0
LINE
  5
1BD
330
1E
100
AcDbEntity
  8
0
100
AcDbLine
 10
75.0
 20
725.182
 30
0.0
 11
77.59999999999999
 21
725.3819999999999
 31
0.0
  0
LINE
  5
1BE
330
1E
100
AcDbEntity
  8
0
100
AcDbLine
 10
77.59999999999999
 20
725.3819999999999
 30
0.0
 11
80.0
 21
725.832
 31
0.0
  0
LINE
  5
1BF
330
1E
100
AcDbEntity
  8
0
100
AcDbLine
 10
80.0
 20
725.832
 30
0.0
 11
82.09999999999999
 21
726.6319999999999
 31
0.0
  0
LINE
  5
1C0
330
1E
100
AcDbEntity
  8
0
100
AcDbLine
 10
72.40000000000001
 20
725.3819999999999
 30
0.0
 11
75.0
 21
725.182
 31
0.0
  0
LINE
  5
1C1
330
1E
100
AcDbEntity
  8
0
100
AcDbLine
 10
70.0
 20
725.832
 30
0.0
 11
72.40000000000001
 21
725.3819999999999
 31
0.0
  0
LINE
  5
1C2
330
1E
100
AcDbEntity
  8
0
100
AcDbLine
 10
82.09999999999999
 20
726.6319999999999
 30
0.0
 11
83.7
 21
727.682
 31
0.0
  0
LINE
  5
1C3
330
1E
100
AcDbEntity
  8
0
100
AcDbLine
 10
83.7
 20
727.682
 30
0.0
 11
84.59999999999999
 21
728.8819999999999
 31
0.0
  0
LINE
  5
1C4
330
1E
100
AcDbEntity
  8
0
100
AcDbLine
 10
85.0
 20
730.182
 30
0.0
 11
85.0331236838738
 21
730.755724287151
 31
0.0
  0
LINE
  5
1C5
330
1E
100
AcDbEntity
  8
0
100
AcDbLine
 10
84.59999999999999
 20
728.8819999999999
 30
0.0
 11
85.0
 21
730.182
 31
0.0
  0
LINE
  5
1C6
330
1E
100
AcDbEntity
  8
0
100
AcDbLine
 10
81.38670000000001
 20
730.682
 30
0.0
 11
84.0717
 21
730.682
 31
0.0
  0
LINE
  5
1C7
330
1E
100
AcDbEntity
  8
0
100
AcDbLine
 10
84.0717
 20
730.682
 30
0.0
 11
85.7018
 21
730.807
 31
0.0
  0
LINE
  5
1C8
330
1E
100
AcDbEntity
  8
0
100
AcDbLine
 10
68.61329999999999
 20
730.682
 30
0.0
 11
69.28449999999999
 21
732.045
 31
0.0
  0
LINE
  5
1C9
330
1E
100
AcDbEntity
  8
0
100
AcDbLine
 10
64.9668763161262
 20
730.755724287151
 30
0.0
 11
65.0
 21
730.182
 31
0.0
  0
LINE
  5
1CA
330
1E
100
AcDbEntity
  8
0
100
AcDbLine
 10
80.7155
 20
732.045
 30
0.0
 11
81.38670000000001
 21
730.682
 31
0.0
  0
LINE
  5
1CB
330
1E
100
AcDbEntity
  8
0
100
AcDbLine
 10
80.7155
 20
732.045
 30
0.0
 11
81.38670000000001
 21
734.982
 31
0.0
  0
LINE
  5
1CC
330
1E
100
AcDbEntity
  8
0
100
AcDbLine
 10
83.78399999999999
 20
732.045
 30
0.0
 11
84.0717
 21
730.682
 31
0.0
  0
LINE
  5
1CD
330
1E
100
AcDbEntity
  8
0
100
AcDbLine
 10
83.78399999999999
 20
732.045
 30
0.0
 11
84.0717
 21
734.982
 31
0.0
  0
LINE
  5
1CE
330
1E
100
AcDbEntity
  8
0
100
AcDbLine
 10
85.7018
 20
730.807
 30
0.0
 11
86.94840000000001
 21
732.743
 31
0.0
  0
LINE
  5
1CF
330
1E
100
AcDbEntity
  8
0
100
AcDbLine
 10
86.94840000000001
 20
732.743
 30
0.0
 11
87.42780000000001
 21
735.0419999999999
 31
0.0
  0
LINE
  5
1D0
330
1E
100
AcDbEntity
  8
0
100
AcDbLine
 10
65.92829999999999
 20
730.682
 30
0.0
 11
66.216
 21
732.045
 31
0.0
  0
LINE
  5
1D1
330
1E
100
AcDbEntity
  8
0
100
AcDbLine
 10
65.92829999999999
 20
730.682
 30
0.0
 11
68.61329999999999
 21
730.682
 31
0.0
  0
LINE
  5
1D2
330
1E
100
AcDbEntity
  8
0
100
AcDbLine
 10
64.29819999999999
 20
730.807
 30
0.0
 11
65.92829999999999
 21
730.682
 31
0.0
  0
LINE
  5
1D3
330
1E
100
AcDbEntity
  8
0
100
AcDbLine
 10
63.0516
 20
732.743
 30
0.0
 11
64.29819999999999
 21
730.807
 31
0.0
  0
LINE
  5
1D4
330
1E
100
AcDbEntity
  8
0
100
AcDbLine
 10
87.6251
 20
732.0
 30
0.0
 11
87.8311
 21
734.4
 31
0.0
  0
LINE
  5
1D5
330
1E
100
AcDbEntity
  8
0
100
AcDbLine
 10
62.5722
 20
750.0419999999999
 30
0.0
 11
63.0516
 21
746.043
 31
0.0
  0
LINE
  5
1D6
330
1E
100
AcDbEntity
  8
0
100
AcDbLine
 10
62.5722
 20
755.028
 30
0.0
 11
62.8528786640458
 21
756.3746018508659
 31
0.0
  0
LINE
  5
1D7
330
1E
100
AcDbEntity
  8
0
100
AcDbLine
 10
81.38670000000001
 20
734.982
 30
0.0
 11
83.3045
 21
740.1069999999999
 31
0.0
  0
LINE
  5
1D8
330
1E
100
AcDbEntity
  8
0
100
AcDbLine
 10
84.0717
 20
734.982
 30
0.0
 11
85.7018
 21
740.1069999999999
 31
0.0
  0
LINE
  5
1D9
330
1E
100
AcDbEntity
  8
0
100
AcDbLine
 10
83.3045
 20
740.1069999999999
 30
0.0
 11
84.9347
 21
746.043
 31
0.0
  0
LINE
  5
1DA
330
1E
100
AcDbEntity
  8
0
100
AcDbLine
 10
85.7018
 20
740.1069999999999
 30
0.0
 11
86.94840000000001
 21
746.043
 31
0.0
  0
LINE
  5
1DB
330
1E
100
AcDbEntity
  8
0
100
AcDbLine
 10
87.71550000000001
 20
737.535
 30
0.0
 11
87.71550000000001
 21
745.035
 31
0.0
  0
LINE
  5
1DC
330
1E
100
AcDbEntity
  8
0
100
AcDbLine
 10
87.42780000000001
 20
735.0419999999999
 30
0.0
 11
87.71550000000001
 21
737.535
 31
0.0
  0
LINE
  5
1DD
330
1E
100
AcDbEntity
  8
0
100
AcDbLine
 10
68.61329999999999
 20
734.982
 30
0.0
 11
69.28449999999999
 21
732.045
 31
0.0
  0
LINE
  5
1DE
330
1E
100
AcDbEntity
  8
0
100
AcDbLine
 10
66.6955
 20
740.1069999999999
 30
0.0
 11
68.61329999999999
 21
734.982
 31
0.0
  0
LINE
  5
1DF
330
1E
100
AcDbEntity
  8
0
100
AcDbLine
 10
65.92829999999999
 20
734.982
 30
0.0
 11
66.216
 21
732.045
 31
0.0
  0
LINE
  5
1E0
330
1E
100
AcDbEntity
  8
0
100
AcDbLine
 10
84.9347
 20
746.043
 30
0.0
 11
85.51
 21
750.0419999999999
 31
0.0
  0
LINE
  5
1E1
330
1E
100
AcDbEntity
  8
0
100
AcDbLine
 10
86.94840000000001
 20
746.043
 30
0.0
 11
87.42780000000001
 21
750.0419999999999
 31
0.0
  0
LINE
  5
1E2
330
1E
100
AcDbEntity
  8
0
100
AcDbLine
 10
87.71550000000001
 20
745.035
 30
0.0
 11
87.71550000000001
 21
737.535
 31
0.0
  0
LINE
  5
1E3
330
1E
100
AcDbEntity
  8
0
100
AcDbLine
 10
87.71550000000001
 20
745.035
 30
0.0
 11
87.71550000000001
 21
752.5349999999999
 31
0.0
  0
LINE
  5
1E4
330
1E
100
AcDbEntity
  8
0
100
AcDbLine
 10
85.51
 20
750.0419999999999
 30
0.0
 11
85.79770000000001
 21
752.5349999999999
 31
0.0
  0
LINE
  5
1E5
330
1E
100
AcDbEntity
  8
0
100
AcDbLine
 10
75.0
 20
751.00979
 30
0.0
 11
77.59999999999999
 21
751.25619
 31
0.0
  0
LINE
  5
1E6
330
1E
100
AcDbEntity
  8
0
100
AcDbLine
 10
75.0
 20
750.4129999999999
 30
0.0
 11
78.0
 21
750.613
 31
0.0
  0
LINE
  5
1E7
330
1E
100
AcDbEntity
  8
0
100
AcDbLine
 10
78.0
 20
750.613
 30
0.0
 11
80.7
 21
751.163
 31
0.0
  0
LINE
  5
1E8
330
1E
100
AcDbEntity
  8
0
100
AcDbLine
 10
80.7
 20
751.163
 30
0.0
 11
83.1
 21
752.113
 31
0.0
  0
LINE
  5
1E9
330
1E
100
AcDbEntity
  8
0
100
AcDbLine
 10
72.0
 20
750.613
 30
0.0
 11
75.0
 21
750.4129999999999
 31
0.0
  0
LINE
  5
1EA
330
1E
100
AcDbEntity
  8
0
100
AcDbLine
 10
72.40000000000001
 20
751.25619
 30
0.0
 11
75.0
 21
751.00979
 31
0.0
  0
LINE
  5
1EB
330
1E
100
AcDbEntity
  8
0
100
AcDbLine
 10
70.0
 20
751.69902
 30
0.0
 11
72.40000000000001
 21
751.25619
 31
0.0
  0
LINE
  5
1EC
330
1E
100
AcDbEntity
  8
0
100
AcDbLine
 10
67.9
 20
752.5114499999999
 30
0.0
 11
70.0
 21
751.69902
 31
0.0
  0
LINE
  5
1ED
330
1E
100
AcDbEntity
  8
0
100
AcDbLine
 10
77.59999999999999
 20
751.25619
 30
0.0
 11
80.0
 21
751.69902
 31
0.0
  0
LINE
  5
1EE
330
1E
100
AcDbEntity
  8
0
100
AcDbLine
 10
80.0
 20
751.69902
 30
0.0
 11
82.09999999999999
 21
752.5114499999999
 31
0.0
  0
LINE
  5
1EF
330
1E
100
AcDbEntity
  8
0
100
AcDbLine
 10
82.09999999999999
 20
752.5114499999999
 30
0.0
 11
83.8
 21
753.37844
 31
0.0
  0
LINE
  5
1F0
330
1E
100
AcDbEntity
  8
0
100
AcDbLine
 10
82.09999999999999
 20
752.5114499999999
 30
0.0
 11
82.62618502152539
 21
752.8596693812759
 31
0.0
  0
LINE
  5
1F1
330
1E
100
AcDbEntity
  8
0
100
AcDbLine
 10
83.1
 20
752.113
 30
0.0
 11
85.0
 21
753.3129999999999
 31
0.0
  0
LINE
  5
1F2
330
1E
100
AcDbEntity
  8
0
100
AcDbLine
 10
69.29999999999999
 20
751.163
 30
0.0
 11
72.0
 21
750.613
 31
0.0
  0
LINE
  5
1F3
330
1E
100
AcDbEntity
  8
0
100
AcDbLine
 10
66.90000000000001
 20
752.113
 30
0.0
 11
69.29999999999999
 21
751.163
 31
0.0
  0
LINE
  5
1F4
330
1E
100
AcDbEntity
  8
0
100
AcDbLine
 10
87.42780000000001
 20
750.0419999999999
 30
0.0
 11
87.71550000000001
 21
752.5349999999999
 31
0.0
  0
LINE
  5
1F5
330
1E
100
AcDbEntity
  8
0
100
AcDbLine
 10
87.71550000000001
 20
752.5349999999999
 30
0.0
 11
87.71550000000001
 21
745.035
 31
0.0
  0
LINE
  5
1F6
330
1E
100
AcDbEntity
  8
0
100
AcDbLine
 10
65.06529999999999
 20
746.043
 30
0.0
 11
66.6955
 21
740.1069999999999
 31
0.0
  0
LINE
  5
1F7
330
1E
100
AcDbEntity
  8
0
100
AcDbLine
 10
64.48999999999999
 20
750.0419999999999
 30
0.0
 11
65.06529999999999
 21
746.043
 31
0.0
  0
LINE
  5
1F8
330
1E
100
AcDbEntity
  8
0
100
AcDbLine
 10
64.29819999999999
 20
740.1069999999999
 30
0.0
 11
65.92829999999999
 21
734.982
 31
0.0
  0
LINE
  5
1F9
330
1E
100
AcDbEntity
  8
0
100
AcDbLine
 10
63.0516
 20
746.043
 30
0.0
 11
64.29819999999999
 21
740.1069999999999
 31
0.0
  0
LINE
  5
1FA
330
1E
100
AcDbEntity
  8
0
100
AcDbLine
 10
67.3738149784746
 20
752.8596693812759
 30
0.0
 11
67.9
 21
752.5114499999999
 31
0.0
  0
LINE
  5
1FB
330
1E
100
AcDbEntity
  8
0
100
AcDbLine
 10
66.2
 20
753.37844
 30
0.0
 11
67.9
 21
752.5114499999999
 31
0.0
  0
LINE
  5
1FC
330
1E
100
AcDbEntity
  8
0
100
AcDbLine
 10
83.8
 20
753.37844
 30
0.0
 11
85.8
 21
754.6337
 31
0.0
  0
LINE
  5
1FD
330
1E
100
AcDbEntity
  8
0
100
AcDbLine
 10
85.0
 20
753.3129999999999
 30
0.0
 11
85.6200920402658
 21
754.074022049417
 31
0.0
  0
LINE
  5
1FE
330
1E
100
AcDbEntity
  8
0
100
AcDbLine
 10
65.0
 20
753.3129999999999
 30
0.0
 11
66.90000000000001
 21
752.113
 31
0.0
  0
LINE
  5
1FF
330
1E
100
AcDbEntity
  8
0
100
AcDbLine
 10
64.2
 20
754.6337
 30
0.0
 11
66.2
 21
753.37844
 31
0.0
  0
LINE
  5
200
330
1E
100
AcDbEntity
  8
0
100
AcDbLine
 10
63.0
 20
756.13536
 30
0.0
 11
64.2
 21
754.6337
 31
0.0
  0
LINE
  5
201
330
1E
100
AcDbEntity
  8
0
100
AcDbLine
 10
64.37990795973419
 20
754.074022049417
 30
0.0
 11
65.0
 21
753.3129999999999
 31
0.0
  0
LINE
  5
202
330
1E
100
AcDbEntity
  8
0
100
AcDbLine
 10
85.8
 20
754.6337
 30
0.0
 11
87.0
 21
756.13536
 31
0.0
  0
LINE
  5
203
330
1E
100
AcDbEntity
  8
0
100
AcDbLine
 10
87.0
 20
756.13536
 30
0.0
 11
88.49999999999999
 21
758.57459
 31
0.0
  0
LINE
  5
204
330
1E
100
AcDbEntity
  8
0
100
AcDbLine
 10
85.5720164111813
 20
754.49061066015
 30
0.0
 11
85.79770000000001
 21
752.5349999999999
 31
0.0
  0
LINE
  5
205
330
1E
100
AcDbEntity
  8
0
100
AcDbLine
 10
87.14712133595421
 20
756.3746018508659
 30
0.0
 11
87.42780000000001
 21
755.028
 31
0.0
  0
LINE
  5
206
330
1E
100
AcDbEntity
  8
0
100
AcDbLine
 10
87.42780000000001
 20
755.028
 30
0.0
 11
87.71550000000001
 21
752.5349999999999
 31
0.0
  0
LINE
  5
207
330
1E
100
AcDbEntity
  8
0
100
AcDbLine
 10
64.2023
 20
752.5349999999999
 30
0.0
 11
64.4279835888187
 21
754.49061066015
 31
0.0
  0
LINE
  5
208
330
1E
100
AcDbEntity
  8
0
100
AcDbLine
 10
64.2023
 20
752.5349999999999
 30
0.0
 11
64.48999999999999
 21
750.0419999999999
 31
0.0
  0
LINE
  5
209
330
1E
100
AcDbEntity
  8
0
100
AcDbLine
 10
62.5722
 20
735.0419999999999
 30
0.0
 11
63.0516
 21
732.743
 31
0.0
  0
LINE
  5
20A
330
1E
100
AcDbEntity
  8
0
100
AcDbLine
 10
87.8311
 20
734.4
 30
0.0
 11
87.9906
 21
737.5
 31
0.0
  0
LINE
  5
20B
330
1E
100
AcDbEntity
  8
0
100
AcDbLine
 10
87.9906
 20
737.5
 30
0.0
 11
88.09029999999999
 21
741.1
 31
0.0
  0
LINE
  5
20C
330
1E
100
AcDbEntity
  8
0
100
AcDbLine
 10
88.09029999999999
 20
741.1
 30
0.0
 11
88.1235
 21
745.0
 31
0.0
  0
LINE
  5
20D
330
1E
100
AcDbEntity
  8
0
100
AcDbLine
 10
88.09029999999999
 20
748.8999999999999
 30
0.0
 11
88.1235
 21
745.0
 31
0.0
  0
LINE
  5
20E
330
1E
100
AcDbEntity
  8
0
100
AcDbLine
 10
87.9906
 20
752.5
 30
0.0
 11
88.09029999999999
 21
748.8999999999999
 31
0.0
  0
LINE
  5
20F
330
1E
100
AcDbEntity
  8
0
100
AcDbLine
 10
87.8311
 20
755.6
 30
0.0
 11
87.9906
 21
752.5
 31
0.0
  0
LINE
  5
210
330
1E
100
AcDbEntity
  8
0
100
AcDbLine
 10
87.6889814963645
 20
757.255749556918
 30
0.0
 11
87.8311
 21
755.6
 31
0.0
  0
LINE
  5
211
330
1E
100
AcDbEntity
  8
0
100
AcDbLine
 10
97.4036
 20
737.2
 30
0.0
 11
97.5299
 21
738.6
 31
0.0
  0
LINE
  5
212
330
1E
100
AcDbEntity
  8
0
100
AcDbLine
 10
97.5299
 20
738.6
 30
0.0
 11
97.6229
 21
740.5
 31
0.0
  0
LINE
  5
213
330
1E
100
AcDbEntity
  8
0
100
AcDbLine
 10
97.6229
 20
740.5
 30
0.0
 11
97.6828
 21
742.7
 31
0.0
  0
LINE
  5
214
330
1E
100
AcDbEntity
  8
0
100
AcDbLine
 10
97.6828
 20
742.7
 30
0.0
 11
97.7027
 21
745.0
 31
0.0
  0
LINE
  5
215
330
1E
100
AcDbEntity
  8
0
100
AcDbLine
 10
97.0310225733637
 20
754.1474793077498
 30
0.0
 11
97.4036
 21
752.7999999999999
 31
0.0
  0
LINE
  5
216
330
1E
100
AcDbEntity
  8
0
100
AcDbLine
 10
97.4036
 20
752.7999999999999
 30
0.0
 11
97.5299
 21
751.2999999999999
 31
0.0
  0
LINE
  5
217
330
1E
100
AcDbEntity
  8
0
100
AcDbLine
 10
97.5299
 20
751.2999999999999
 30
0.0
 11
97.6229
 21
749.5
 31
0.0
  0
LINE
  5
218
330
1E
100
AcDbEntity
  8
0
100
AcDbLine
 10
97.6229
 20
749.5
 30
0.0
 11
97.6828
 21
747.2999999999999
 31
0.0
  0
LINE
  5
219
330
1E
100
AcDbEntity
  8
0
100
AcDbLine
 10
97.6828
 20
747.2999999999999
 30
0.0
 11
97.7027
 21
745.0
 31
0.0
  0
LINE
  5
21A
330
1E
100
AcDbEntity
  8
0
100
AcDbLine
 10
95.3701
 20
728.2999999999999
 30
0.0
 11
97.4036
 21
737.2
 31
0.0
  0
LINE
  5
21B
330
1E
100
AcDbEntity
  8
0
100
AcDbLine
 10
95.10899999999999
 20
758.0
 30
0.0
 11
97.0310225733637
 21
754.1474793077498
 31
0.0
  0
LINE
  5
21C
330
1E
100
AcDbEntity
  8
0
100
AcDbLine
 10
62.3749
 20
732.0
 30
0.0
 11
64.20910000000001
 21
722.2999999999999
 31
0.0
  0
LINE
  5
21F
330
1E
100
AcDbEntity
  8
0
100
AcDbLine
 10
56.298
 20
715.6
 30
0.0
 11
57.8797
 21
699.0
 31
0.0
  0
LINE
  5
220
330
1E
100
AcDbEntity
  8
0
100
AcDbLine
 10
54.6299
 20
728.2999999999999
 30
0.0
 11
56.298
 21
715.6
 31
0.0
  0
LINE
  5
221
330
1E
100
AcDbEntity
  8
0
100
AcDbLine
 10
55.9503
 20
823.7919000000001
 30
0.0
 11
56.0534543275195
 21
825.0272615462151
 31
0.0
  0
LINE
  5
222
330
1E
100
AcDbEntity
  8
0
100
AcDbLine
 10
55.9503
 20
823.7919000000001
 30
0.0
 11
57.7981
 21
823.4092
 31
0.0
  0
LINE
  5
223
330
1E
100
AcDbEntity
  8
0
100
AcDbLine
 10
55.9503
 20
823.7919000000001
 30
0.0
 11
56.6993
 21
824.3399
 31
0.0
  0
LINE
  5
224
330
1E
100
AcDbEntity
  8
0
100
AcDbLine
 10
56.2826
 20
828.5213999999999
 30
0.0
 11
56.4054
 21
830.3466
 31
0.0
  0
LINE
  5
225
330
1E
100
AcDbEntity
  8
0
100
AcDbLine
 10
56.2826
 20
828.5213999999999
 30
0.0
 11
58.0147
 21
828.0213999999999
 31
0.0
  0
LINE
  5
226
330
1E
100
AcDbEntity
  8
0
100
AcDbLine
 10
56.2826
 20
828.5213999999999
 30
0.0
 11
57.2751
 21
829.1681
 31
0.0
  0
LINE
  5
227
330
1E
100
AcDbEntity
  8
0
100
AcDbLine
 10
56.13859999999999
 20
835.8928999999999
 30
0.0
 11
56.1828351718818
 21
837.01760005035
 31
0.0
  0
LINE
  5
228
330
1E
100
AcDbEntity
  8
0
100
AcDbLine
 10
56.13859999999999
 20
835.8928999999999
 30
0.0
 11
57.3561
 21
835.0995000000001
 31
0.0
  0
LINE
  5
229
330
1E
100
AcDbEntity
  8
0
100
AcDbLine
 10
56.13859999999999
 20
835.8928999999999
 30
0.0
 11
57.7238
 21
836.4256000000001
 31
0.0
  0
LINE
  5
22A
330
1E
100
AcDbEntity
  8
0
100
AcDbLine
 10
54.3014
 20
840.5567999999998
 30
0.0
 11
54.36562307294471
 21
841.8487777165619
 31
0.0
  0
LINE
  5
22B
330
1E
100
AcDbEntity
  8
0
100
AcDbLine
 10
54.0403
 20
841.5483
 30
0.0
 11
54.07240829348699
 21
842.193476022255
 31
0.0
  0
LINE
  5
22C
330
1E
100
AcDbEntity
  8
0
100
AcDbLine
 10
54.0403
 20
841.5483
 30
0.0
 11
54.3014
 21
840.5567999999998
 31
0.0
  0
LINE
  5
22D
330
1E
100
AcDbEntity
  8
0
100
AcDbLine
 10
55.973
 20
846.9054999999999
 30
0.0
 11
56.03528999381779
 21
848.2315417690129
 31
0.0
  0
LINE
  5
22E
330
1E
100
AcDbEntity
  8
0
100
AcDbLine
 10
55.2076
 20
845.9816
 30
0.0
 11
55.973
 21
846.9054999999999
 31
0.0
  0
LINE
  5
22F
330
1E
100
AcDbEntity
  8
0
100
AcDbLine
 10
53.3616
 20
846.4392999999999
 30
0.0
 11
54.127
 21
847.3632
 31
0.0
  0
LINE
  5
230
330
1E
100
AcDbEntity
  8
0
100
AcDbLine
 10
53.3616
 20
846.4392999999999
 30
0.0
 11
53.39115491478409
 21
847.068507614373
 31
0.0
  0
LINE
  5
231
330
1E
100
AcDbEntity
  8
0
100
AcDbLine
 10
53.3616
 20
846.4392999999999
 30
0.0
 11
55.2076
 21
845.9816
 31
0.0
  0
LINE
  5
232
330
1E
100
AcDbEntity
  8
0
100
AcDbLine
 10
56.2826
 20
858.941
 30
0.0
 11
58.0147
 21
859.4409999999999
 31
0.0
  0
LINE
  5
233
330
1E
100
AcDbEntity
  8
0
100
AcDbLine
 10
56.2826
 20
858.941
 30
0.0
 11
56.4054
 21
860.5529999999999
 31
0.0
  0
LINE
  5
234
330
1E
100
AcDbEntity
  8
0
100
AcDbLine
 10
56.2826
 20
858.941
 30
0.0
 11
57.2751
 21
857.8689999999999
 31
0.0
  0
LINE
  5
235
330
1E
100
AcDbEntity
  8
0
100
AcDbLine
 10
55.9503
 20
867.1689999999999
 30
0.0
 11
57.7981
 21
867.551
 31
0.0
  0
LINE
  5
236
330
1E
100
AcDbEntity
  8
0
100
AcDbLine
 10
55.9503
 20
867.1689999999999
 30
0.0
 11
56.006437241125
 21
867.705763328419
 31
0.0
  0
LINE
  5
237
330
1E
100
AcDbEntity
  8
0
100
AcDbLine
 10
55.9503
 20
867.1689999999999
 30
0.0
 11
56.6993
 21
865.9080000000001
 31
0.0
  0
LINE
  5
238
330
1E
100
AcDbEntity
  8
0
100
AcDbLine
 10
54.127
 20
847.3632
 30
0.0
 11
54.180307158954
 21
848.4980796150979
 31
0.0
  0
LINE
  5
239
330
1E
100
AcDbEntity
  8
0
100
AcDbLine
 10
54.127
 20
847.3632
 30
0.0
 11
55.973
 21
846.9054999999999
 31
0.0
  0
LINE
  5
23A
330
1E
100
AcDbEntity
  8
0
100
AcDbLine
 10
56.6993
 20
824.3399
 30
0.0
 11
58.5471
 21
823.9571999999999
 31
0.0
  0
LINE
  5
23B
330
1E
100
AcDbEntity
  8
0
100
AcDbLine
 10
56.6993
 20
824.3399
 30
0.0
 11
56.7790701145059
 21
825.2952155390319
 31
0.0
  0
LINE
  5
23C
330
1E
100
AcDbEntity
  8
0
100
AcDbLine
 10
56.6993
 20
865.9080000000001
 30
0.0
 11
58.5471
 21
866.291
 31
0.0
  0
LINE
  5
23D
330
1E
100
AcDbEntity
  8
0
100
AcDbLine
 10
56.4
 20
890.0310000000001
 30
0.0
 11
65.59999999999999
 21
890.9810000000002
 31
0.0
  0
LINE
  5
23E
330
1E
100
AcDbEntity
  8
0
100
AcDbLine
 10
56.4
 20
890.131
 30
0.0
 11
65.59999999999999
 21
891.0809999999999
 31
0.0
  0
LINE
  5
23F
330
1E
100
AcDbEntity
  8
0
100
AcDbLine
 10
57.2751
 20
829.1681
 30
0.0
 11
59.0071
 21
828.6680999999999
 31
0.0
  0
LINE
  5
240
330
1E
100
AcDbEntity
  8
0
100
AcDbLine
 10
57.2751
 20
829.1681
 30
0.0
 11
57.38954149322601
 21
830.869159100858
 31
0.0
  0
LINE
  5
241
330
1E
100
AcDbEntity
  8
0
100
AcDbLine
 10
57.7981
 20
823.4092
 30
0.0
 11
58.5471
 21
823.9571999999999
 31
0.0
  0
LINE
  5
242
330
1E
100
AcDbEntity
  8
0
100
AcDbLine
 10
57.2751
 20
857.8689999999999
 30
0.0
 11
59.0071
 21
858.3689999999998
 31
0.0
  0
LINE
  5
243
330
1E
100
AcDbEntity
  8
0
100
AcDbLine
 10
57.7981
 20
867.551
 30
0.0
 11
57.95539999999999
 21
869.0570000000001
 31
0.0
  0
LINE
  5
244
330
1E
100
AcDbEntity
  8
0
100
AcDbLine
 10
57.7981
 20
867.551
 30
0.0
 11
58.5471
 21
866.291
 31
0.0
  0
LINE
  5
245
330
1E
100
AcDbEntity
  8
0
100
AcDbLine
 10
57.7238
 20
836.4256000000001
 30
0.0
 11
58.9413
 21
835.6322999999999
 31
0.0
  0
LINE
  5
246
330
1E
100
AcDbEntity
  8
0
100
AcDbLine
 10
57.7238
 20
836.4256000000001
 30
0.0
 11
57.74984141579121
 21
837.087715244626
 31
0.0
  0
LINE
  5
247
330
1E
100
AcDbEntity
  8
0
100
AcDbLine
 10
57.3561
 20
835.0995000000001
 30
0.0
 11
58.9413
 21
835.6322999999999
 31
0.0
  0
LINE
  5
248
330
1E
100
AcDbEntity
  8
0
100
AcDbLine
 10
57.2
 20
899.6669999999999
 30
0.0
 11
58.2
 21
899.7949999999999
 31
0.0
  0
LINE
  5
249
330
1E
100
AcDbEntity
  8
0
100
AcDbLine
 10
56.0
 20
968.0
 30
0.0
 11
60.0
 21
968.0
 31
0.0
  0
LINE
  5
24A
330
1E
100
AcDbEntity
  8
0
100
AcDbLine
 10
61.5
 20
758.57459
 30
0.0
 11
63.0
 21
756.13536
 31
0.0
  0
LINE
  5
24B
330
1E
100
AcDbEntity
  8
0
100
AcDbLine
 10
88.49999999999999
 20
758.57459
 30
0.0
 11
89.0
 21
760.3593
 31
0.0
  0
LINE
  5
24C
330
1E
100
AcDbEntity
  8
0
100
AcDbLine
 10
60.0
 20
760.0
 30
0.0
 11
60.0
 21
818.7350060240961
 31
0.0
  0
LINE
  5
24D
330
1E
100
AcDbEntity
  8
0
100
AcDbLine
 10
88.8993393884721
 20
760.0
 30
0.0
 11
92.1156
 21
760.0
 31
0.0
  0
LINE
  5
24E
330
1E
100
AcDbEntity
  8
0
100
AcDbLine
 10
58.0147
 20
828.0213999999999
 30
0.0
 11
59.0071
 21
828.6680999999999
 31
0.0
  0
LINE
  5
24F
330
1E
100
AcDbEntity
  8
0
100
AcDbLine
 10
58.0147
 20
859.4409999999999
 30
0.0
 11
58.0684410997436
 21
860.1464613419111
 31
0.0
  0
LINE
  5
250
330
1E
100
AcDbEntity
  8
0
100
AcDbLine
 10
58.0147
 20
859.4409999999999
 30
0.0
 11
59.0071
 21
858.3689999999998
 31
0.0
  0
LINE
  5
251
330
1E
100
AcDbEntity
  8
0
100
AcDbLine
 10
58.2
 20
881.6080000000001
 30
0.0
 11
66.5
 21
882.408
 31
0.0
  0
LINE
  5
252
330
1E
100
AcDbEntity
  8
0
100
AcDbLine
 10
58.2
 20
882.4749999999999
 30
0.0
 11
66.5
 21
883.275
 31
0.0
  0
LINE
  5
253
330
1E
100
AcDbEntity
  8
0
100
AcDbLine
 10
59.0071
 20
828.6680999999999
 30
0.0
 11
59.05009308025539
 21
829.3071494250019
 31
0.0
  0
LINE
  5
254
330
1E
100
AcDbEntity
  8
0
100
AcDbLine
 10
59.2278
 20
819.8532
 30
0.0
 11
61.1596
 21
819.5943999999999
 31
0.0
  0
LINE
  5
255
330
1E
100
AcDbEntity
  8
0
100
AcDbLine
 10
59.2278
 20
819.8532
 30
0.0
 11
59.3805
 21
821.7931
 31
0.0
  0
LINE
  5
256
330
1E
100
AcDbEntity
  8
0
100
AcDbLine
 10
58.73319999999999
 20
819.4412999999999
 30
0.0
 11
58.79314841805061
 21
820.2028843888429
 31
0.0
  0
LINE
  5
257
330
1E
100
AcDbEntity
  8
0
100
AcDbLine
 10
58.73319999999999
 20
819.4412999999999
 30
0.0
 11
60.665
 21
819.1824999999999
 31
0.0
  0
LINE
  5
258
330
1E
100
AcDbEntity
  8
0
100
AcDbLine
 10
58.73319999999999
 20
819.4412999999999
 30
0.0
 11
59.2278
 21
819.8532
 31
0.0
  0
LINE
  5
259
330
1E
100
AcDbEntity
  8
0
100
AcDbLine
 10
58.5471
 20
823.9571999999999
 30
0.0
 11
58.62734029682449
 21
824.918146375567
 31
0.0
  0
LINE
  5
25A
330
1E
100
AcDbEntity
  8
0
100
AcDbLine
 10
59.0071
 20
858.3689999999998
 30
0.0
 11
59.10208069135109
 21
859.615814938583
 31
0.0
  0
LINE
  5
25B
330
1E
100
AcDbEntity
  8
0
100
AcDbLine
 10
59.2278
 20
874.8519999999999
 30
0.0
 11
61.1596
 21
875.111
 31
0.0
  0
LINE
  5
25C
330
1E
100
AcDbEntity
  8
0
100
AcDbLine
 10
58.73319999999999
 20
876.2860000000001
 30
0.0
 11
60.665
 21
876.5449999999999
 31
0.0
  0
LINE
  5
25D
330
1E
100
AcDbEntity
  8
0
100
AcDbLine
 10
58.73319999999999
 20
876.2860000000001
 30
0.0
 11
58.83551707855279
 21
877.2039724794851
 31
0.0
  0
LINE
  5
25E
330
1E
100
AcDbEntity
  8
0
100
AcDbLine
 10
58.73319999999999
 20
876.2860000000001
 30
0.0
 11
59.2278
 21
874.8519999999999
 31
0.0
  0
LINE
  5
25F
330
1E
100
AcDbEntity
  8
0
100
AcDbLine
 10
58.5471
 20
866.291
 30
0.0
 11
58.6515569172732
 21
867.2897780209419
 31
0.0
  0
LINE
  5
260
330
1E
100
AcDbEntity
  8
0
100
AcDbLine
 10
58.9413
 20
835.6322999999999
 30
0.0
 11
58.9952143873592
 21
837.0030986563151
 31
0.0
  0
LINE
  5
261
330
1E
100
AcDbEntity
  8
0
100
AcDbLine
 10
58.2
 20
818.9085
 30
0.0
 11
66.5
 21
818.1085000000001
 31
0.0
  0
LINE
  5
262
330
1E
100
AcDbEntity
  8
0
100
AcDbLine
 10
58.2
 20
899.7949999999999
 30
0.0
 11
62.5700465116241
 21
900.2162093023249
 31
0.0
  0
LINE
  5
263
330
1E
100
AcDbEntity
  8
0
100
AcDbLine
 10
60.0
 20
948.0
 30
0.0
 11
66.0
 21
948.0
 31
0.0
  0
LINE
  5
264
330
1E
100
AcDbEntity
  8
0
100
AcDbLine
 10
60.0
 20
968.0
 30
0.0
 11
66.0
 21
968.0
 31
0.0
  0
LINE
  5
265
330
1E
100
AcDbEntity
  8
0
100
AcDbLine
 10
61.0
 20
760.3593
 30
0.0
 11
61.0
 21
768.9027999999999
 31
0.0
  0
LINE
  5
266
330
1E
100
AcDbEntity
  8
0
100
AcDbLine
 10
61.0
 20
760.3593
 30
0.0
 11
61.5
 21
758.57459
 31
0.0
  0
LINE
  5
267
330
1E
100
AcDbEntity
  8
0
100
AcDbLine
 10
61.0
 20
768.9027999999999
 30
0.0
 11
61.0
 21
776.0436999999999
 31
0.0
  0
LINE
  5
268
330
1E
100
AcDbEntity
  8
0
100
AcDbLine
 10
61.0
 20
768.9027999999999
 30
0.0
 11
61.0
 21
760.3593
 31
0.0
  0
LINE
  5
269
330
1E
100
AcDbEntity
  8
0
100
AcDbLine
 10
61.0
 20
776.0436999999999
 30
0.0
 11
61.0
 21
785.5238
 31
0.0
  0
LINE
  5
26A
330
1E
100
AcDbEntity
  8
0
100
AcDbLine
 10
61.0
 20
776.0436999999999
 30
0.0
 11
61.0
 21
768.9027999999999
 31
0.0
  0
LINE
  5
26B
330
1E
100
AcDbEntity
  8
0
100
AcDbLine
 10
61.0
 20
785.5238
 30
0.0
 11
61.0
 21
793.6977
 31
0.0
  0
LINE
  5
26C
330
1E
100
AcDbEntity
  8
0
100
AcDbLine
 10
61.0
 20
785.5238
 30
0.0
 11
61.0
 21
776.0436999999999
 31
0.0
  0
LINE
  5
26D
330
1E
100
AcDbEntity
  8
0
100
AcDbLine
 10
61.0
 20
793.6977
 30
0.0
 11
61.0
 21
801.4117999999999
 31
0.0
  0
LINE
  5
26E
330
1E
100
AcDbEntity
  8
0
100
AcDbLine
 10
61.0
 20
793.6977
 30
0.0
 11
61.0
 21
785.5238
 31
0.0
  0
LINE
  5
26F
330
1E
100
AcDbEntity
  8
0
100
AcDbLine
 10
61.0
 20
801.4117999999999
 30
0.0
 11
61.0
 21
808.5295
 31
0.0
  0
LINE
  5
270
330
1E
100
AcDbEntity
  8
0
100
AcDbLine
 10
61.0
 20
801.4117999999999
 30
0.0
 11
61.0
 21
793.6977
 31
0.0
  0
LINE
  5
271
330
1E
100
AcDbEntity
  8
0
100
AcDbLine
 10
61.0
 20
808.5295
 30
0.0
 11
61.0
 21
815.0141999999998
 31
0.0
  0
LINE
  5
272
330
1E
100
AcDbEntity
  8
0
100
AcDbLine
 10
61.0
 20
808.5295
 30
0.0
 11
61.0
 21
801.4117999999999
 31
0.0
  0
LINE
  5
273
330
1E
100
AcDbEntity
  8
0
100
AcDbLine
 10
60.665
 20
819.1824999999999
 30
0.0
 11
61.1596
 21
819.5943999999999
 31
0.0
  0
LINE
  5
274
330
1E
100
AcDbEntity
  8
0
100
AcDbLine
 10
60.665
 20
876.5449999999999
 30
0.0
 11
60.7665226562045
 21
877.455248946336
 31
0.0
  0
LINE
  5
275
330
1E
100
AcDbEntity
  8
0
100
AcDbLine
 10
60.665
 20
876.5449999999999
 30
0.0
 11
61.1596
 21
875.111
 31
0.0
  0
LINE
  5
276
330
1E
100
AcDbEntity
  8
0
100
AcDbLine
 10
60.20089999999999
 20
851.321
 30
0.0
 11
61.7876
 21
851.9298
 31
0.0
  0
LINE
  5
277
330
1E
100
AcDbEntity
  8
0
100
AcDbLine
 10
60.20089999999999
 20
851.321
 30
0.0
 11
60.2189492097321
 21
851.898540656316
 31
0.0
  0
LINE
  5
278
330
1E
100
AcDbEntity
  8
0
100
AcDbLine
 10
60.20089999999999
 20
851.321
 30
0.0
 11
61.4172
 21
850.4529999999999
 31
0.0
  0
LINE
  5
279
330
1E
100
AcDbEntity
  8
0
100
AcDbLine
 10
61.1596
 20
819.5943999999999
 30
0.0
 11
61.21426385568829
 21
820.288394853728
 31
0.0
  0
LINE
  5
27A
330
1E
100
AcDbEntity
  8
0
100
AcDbLine
 10
65.30726
 20
827.3633
 30
0.0
 11
67.23911
 21
827.1045
 31
0.0
  0
LINE
  5
27B
330
1E
100
AcDbEntity
  8
0
100
AcDbLine
 10
65.30726
 20
827.3633
 30
0.0
 11
65.37081999999999
 21
829.2009
 31
0.0
  0
LINE
  5
27C
330
1E
100
AcDbEntity
  8
0
100
AcDbLine
 10
64.7935
 20
826.6173999999999
 30
0.0
 11
64.80170051705879
 21
826.854338209862
 31
0.0
  0
LINE
  5
27D
330
1E
100
AcDbEntity
  8
0
100
AcDbLine
 10
64.7935
 20
826.6173999999999
 30
0.0
 11
66.72539
 21
826.3586
 31
0.0
  0
LINE
  5
27E
330
1E
100
AcDbEntity
  8
0
100
AcDbLine
 10
64.7935
 20
826.6173999999999
 30
0.0
 11
65.30726
 21
827.3633
 31
0.0
  0
LINE
  5
27F
330
1E
100
AcDbEntity
  8
0
100
AcDbLine
 10
65.27172
 20
832.0626
 30
0.0
 11
65.29340575300451
 21
833.214619029996
 31
0.0
  0
LINE
  5
280
330
1E
100
AcDbEntity
  8
0
100
AcDbLine
 10
65.27172
 20
832.0626
 30
0.0
 11
67.11948000000001
 21
831.6798999999999
 31
0.0
  0
LINE
  5
281
330
1E
100
AcDbEntity
  8
0
100
AcDbLine
 10
65.27172
 20
832.0626
 30
0.0
 11
66.03636
 21
832.9101000000001
 31
0.0
  0
LINE
  5
282
330
1E
100
AcDbEntity
  8
0
100
AcDbLine
 10
65.56801
 20
837.7938
 30
0.0
 11
66.22332
 21
837.7382
 31
0.0
  0
LINE
  5
283
330
1E
100
AcDbEntity
  8
0
100
AcDbLine
 10
64.9444
 20
837.9093000000001
 30
0.0
 11
65.56801
 21
837.7938
 31
0.0
  0
LINE
  5
284
330
1E
100
AcDbEntity
  8
0
100
AcDbLine
 10
64.4231
 20
838.1053000000001
 30
0.0
 11
64.9444
 21
837.9093000000001
 31
0.0
  0
LINE
  5
285
330
1E
100
AcDbEntity
  8
0
100
AcDbLine
 10
61.4172
 20
850.4529999999999
 30
0.0
 11
63.0039
 21
851.0617999999999
 31
0.0
  0
LINE
  5
286
330
1E
100
AcDbEntity
  8
0
100
AcDbLine
 10
63.0039
 20
851.0617999999999
 30
0.0
 11
63.0507984745909
 21
852.559548271399
 31
0.0
  0
LINE
  5
287
330
1E
100
AcDbEntity
  8
0
100
AcDbLine
 10
61.1596
 20
875.111
 30
0.0
 11
61.3124
 21
876.481
 31
0.0
  0
LINE
  5
288
330
1E
100
AcDbEntity
  8
0
100
AcDbLine
 10
61.7876
 20
851.9298
 30
0.0
 11
61.82582551214079
 21
853.1529442648981
 31
0.0
  0
LINE
  5
289
330
1E
100
AcDbEntity
  8
0
100
AcDbLine
 10
61.7876
 20
851.9298
 30
0.0
 11
63.0039
 21
851.0617999999999
 31
0.0
  0
LINE
  5
28A
330
1E
100
AcDbEntity
  8
0
100
AcDbLine
 10
65.30726
 20
859.673
 30
0.0
 11
67.23911
 21
859.932
 31
0.0
  0
LINE
  5
28B
330
1E
100
AcDbEntity
  8
0
100
AcDbLine
 10
64.7935
 20
860.8450000000001
 30
0.0
 11
66.72539
 21
861.1039999999999
 31
0.0
  0
LINE
  5
28C
330
1E
100
AcDbEntity
  8
0
100
AcDbLine
 10
64.7935
 20
860.8450000000001
 30
0.0
 11
64.8571
 21
862.4450000000001
 31
0.0
  0
LINE
  5
28D
330
1E
100
AcDbEntity
  8
0
100
AcDbLine
 10
64.7935
 20
860.8450000000001
 30
0.0
 11
65.30726
 21
859.673
 31
0.0
  0
LINE
  5
28E
330
1E
100
AcDbEntity
  8
0
100
AcDbLine
 10
64.94410000000001
 20
840.1262
 30
0.0
 11
65.57692
 21
840.2580999999999
 31
0.0
  0
LINE
  5
28F
330
1E
100
AcDbEntity
  8
0
100
AcDbLine
 10
65.57692
 20
840.2580999999999
 30
0.0
 11
66.22410000000001
 21
840.2972
 31
0.0
  0
LINE
  5
290
330
1E
100
AcDbEntity
  8
0
100
AcDbLine
 10
64.3993
 20
839.9181999999999
 30
0.0
 11
64.94410000000001
 21
840.1262
 31
0.0
  0
LINE
  5
291
330
1E
100
AcDbEntity
  8
0
100
AcDbLine
 10
64.0074
 20
839.6572
 30
0.0
 11
64.3993
 21
839.9181999999999
 31
0.0
  0
LINE
  5
292
330
1E
100
AcDbEntity
  8
0
100
AcDbLine
 10
63.77600000000001
 20
839.3456
 30
0.0
 11
64.0074
 21
839.6572
 31
0.0
  0
LINE
  5
293
330
1E
100
AcDbEntity
  8
0
100
AcDbLine
 10
63.6644
 20
839.0178999999999
 30
0.0
 11
63.7431
 21
838.6942000000001
 31
0.0
  0
LINE
  5
294
330
1E
100
AcDbEntity
  8
0
100
AcDbLine
 10
63.6644
 20
839.0178999999999
 30
0.0
 11
63.77600000000001
 21
839.3456
 31
0.0
  0
LINE
  5
295
330
1E
100
AcDbEntity
  8
0
100
AcDbLine
 10
63.7431
 20
838.6942000000001
 30
0.0
 11
64.0065
 21
838.3776000000001
 31
0.0
  0
LINE
  5
296
330
1E
100
AcDbEntity
  8
0
100
AcDbLine
 10
63.06691683871211
 20
839.8891139422579
 30
0.0
 11
63.7431
 21
838.6942000000001
 31
0.0
  0
LINE
  5
297
330
1E
100
AcDbEntity
  8
0
100
AcDbLine
 10
64.0065
 20
838.3776000000001
 30
0.0
 11
64.4231
 21
838.1053000000001
 31
0.0
  0
LINE
  5
298
330
1E
100
AcDbEntity
  8
0
100
AcDbLine
 10
61.0
 20
818.638620481928
 30
0.0
 11
61.0
 21
815.0141999999998
 31
0.0
  0
LINE
  5
299
330
1E
100
AcDbEntity
  8
0
100
AcDbLine
 10
61.0
 20
815.0141999999998
 30
0.0
 11
61.0
 21
818.638620481928
 31
0.0
  0
LINE
  5
29A
330
1E
100
AcDbEntity
  8
0
100
AcDbLine
 10
61.0
 20
815.0141999999998
 30
0.0
 11
61.0
 21
808.5295
 31
0.0
  0
LINE
  5
29B
330
1E
100
AcDbEntity
  8
0
100
AcDbLine
 10
65.59999999999999
 20
890.9810000000002
 30
0.0
 11
75.0
 21
891.331
 31
0.0
  0
LINE
  5
29C
330
1E
100
AcDbEntity
  8
0
100
AcDbLine
 10
65.59999999999999
 20
891.0809999999999
 30
0.0
 11
75.0
 21
891.431
 31
0.0
  0
LINE
  5
29D
330
1E
100
AcDbEntity
  8
0
100
AcDbLine
 10
66.03636
 20
832.9101000000001
 30
0.0
 11
67.88412
 21
832.5275000000001
 31
0.0
  0
LINE
  5
29E
330
1E
100
AcDbEntity
  8
0
100
AcDbLine
 10
66.03636
 20
832.9101000000001
 30
0.0
 11
66.047667850042
 21
833.5108443765179
 31
0.0
  0
LINE
  5
29F
330
1E
100
AcDbEntity
  8
0
100
AcDbLine
 10
66.22410000000001
 20
840.2972
 30
0.0
 11
66.87948
 21
840.2415999999998
 31
0.0
  0
LINE
  5
2A0
330
1E
100
AcDbEntity
  8
0
100
AcDbLine
 10
66.22332
 20
837.7382
 30
0.0
 11
66.87119
 21
837.7773999999998
 31
0.0
  0
LINE
  5
2A1
330
1E
100
AcDbEntity
  8
0
100
AcDbLine
 10
66.5
 20
882.408
 30
0.0
 11
75.0
 21
882.7580000000001
 31
0.0
  0
LINE
  5
2A2
330
1E
100
AcDbEntity
  8
0
100
AcDbLine
 10
66.5
 20
883.275
 30
0.0
 11
75.0
 21
883.6249999999999
 31
0.0
  0
LINE
  5
2A3
330
1E
100
AcDbEntity
  8
0
100
AcDbLine
 10
74.0
 20
812.6011
 30
0.0
 11
74.0
 21
813.3784
 31
0.0
  0
LINE
  5
2A4
330
1E
100
AcDbEntity
  8
0
100
AcDbLine
 10
74.0
 20
812.6011
 30
0.0
 11
74.0
 21
812.3022999999999
 31
0.0
  0
LINE
  5
2A5
330
1E
100
AcDbEntity
  8
0
100
AcDbLine
 10
74.0
 20
812.3022999999999
 30
0.0
 11
74.0
 21
812.6011
 31
0.0
  0
LINE
  5
2A6
330
1E
100
AcDbEntity
  8
0
100
AcDbLine
 10
74.0
 20
812.3022999999999
 30
0.0
 11
76.0
 21
812.3022999999999
 31
0.0
  0
LINE
  5
2A7
330
1E
100
AcDbEntity
  8
0
100
AcDbLine
 10
74.0
 20
812.3022999999999
 30
0.0
 11
74.0
 21
812.5503
 31
0.0
  0
LINE
  5
2A8
330
1E
100
AcDbEntity
  8
0
100
AcDbLine
 10
74.0
 20
812.5503
 30
0.0
 11
74.0
 21
812.3022999999999
 31
0.0
  0
LINE
  5
2A9
330
1E
100
AcDbEntity
  8
0
100
AcDbLine
 10
74.0
 20
812.5503
 30
0.0
 11
74.0
 21
813.1399999999999
 31
0.0
  0
LINE
  5
2AA
330
1E
100
AcDbEntity
  8
0
100
AcDbLine
 10
74.0
 20
818.7492
 30
0.0
 11
74.0
 21
818.3047
 31
0.0
  0
LINE
  5
2AB
330
1E
100
AcDbEntity
  8
0
100
AcDbLine
 10
74.0
 20
818.7492
 30
0.0
 11
74.0
 21
820.6991999999999
 31
0.0
  0
LINE
  5
2AC
330
1E
100
AcDbEntity
  8
0
100
AcDbLine
 10
74.0
 20
818.7492
 30
0.0
 11
76.0
 21
818.7492
 31
0.0
  0
LINE
  5
2AD
330
1E
100
AcDbEntity
  8
0
100
AcDbLine
 10
74.0
 20
818.3047
 30
0.0
 11
74.0
 21
819.0385740259738
 31
0.0
  0
LINE
  5
2AE
330
1E
100
AcDbEntity
  8
0
100
AcDbLine
 10
74.0
 20
818.3047
 30
0.0
 11
74.0
 21
818.7492
 31
0.0
  0
LINE
  5
2AF
330
1E
100
AcDbEntity
  8
0
100
AcDbLine
 10
74.0
 20
819.0385740259738
 30
0.0
 11
74.0
 21
818.3047
 31
0.0
  0
LINE
  5
2B0
330
1E
100
AcDbEntity
  8
0
100
AcDbLine
 10
74.0
 20
814.3864999999999
 30
0.0
 11
74.0
 21
818.0092
 31
0.0
  0
LINE
  5
2B1
330
1E
100
AcDbEntity
  8
0
100
AcDbLine
 10
74.0
 20
814.3864999999999
 30
0.0
 11
74.0
 21
813.3784
 31
0.0
  0
LINE
  5
2B2
330
1E
100
AcDbEntity
  8
0
100
AcDbLine
 10
74.0
 20
813.3784
 30
0.0
 11
74.0
 21
814.3864999999999
 31
0.0
  0
LINE
  5
2B3
330
1E
100
AcDbEntity
  8
0
100
AcDbLine
 10
74.0
 20
813.3784
 30
0.0
 11
74.0
 21
812.6011
 31
0.0
  0
LINE
  5
2B4
330
1E
100
AcDbEntity
  8
0
100
AcDbLine
 10
74.0
 20
813.1399999999999
 30
0.0
 11
74.0
 21
812.5503
 31
0.0
  0
LINE
  5
2B5
330
1E
100
AcDbEntity
  8
0
100
AcDbLine
 10
74.0
 20
813.1399999999999
 30
0.0
 11
74.0
 21
814.9441000000001
 31
0.0
  0
LINE
  5
2B6
330
1E
100
AcDbEntity
  8
0
100
AcDbLine
 10
74.0
 20
814.9441000000001
 30
0.0
 11
74.0
 21
813.1399999999999
 31
0.0
  0
LINE
  5
2B7
330
1E
100
AcDbEntity
  8
0
100
AcDbLine
 10
74.0
 20
814.9441000000001
 30
0.0
 11
74.0
 21
820.6941
 31
0.0
  0
LINE
  5
2B8
330
1E
100
AcDbEntity
  8
0
100
AcDbLine
 10
66.72539
 20
826.3586
 30
0.0
 11
67.23911
 21
827.1045
 31
0.0
  0
LINE
  5
2B9
330
1E
100
AcDbEntity
  8
0
100
AcDbLine
 10
67.23911
 20
827.1045
 30
0.0
 11
67.25906076561599
 21
827.681211135691
 31
0.0
  0
LINE
  5
2BA
330
1E
100
AcDbEntity
  8
0
100
AcDbLine
 10
67.82618000000001
 20
822.0656999999999
 30
0.0
 11
67.86136980480449
 21
823.3107516180968
 31
0.0
  0
LINE
  5
2BB
330
1E
100
AcDbEntity
  8
0
100
AcDbLine
 10
67.82618000000001
 20
822.0656999999999
 30
0.0
 11
69.80906999999999
 21
821.9350999999999
 31
0.0
  0
LINE
  5
2BC
330
1E
100
AcDbEntity
  8
0
100
AcDbLine
 10
67.82618000000001
 20
822.0656999999999
 30
0.0
 11
68.08164999999999
 21
822.6798
 31
0.0
  0
LINE
  5
2BD
330
1E
100
AcDbEntity
  8
0
100
AcDbLine
 10
67.88412
 20
832.5275000000001
 30
0.0
 11
67.91312445253931
 21
834.0683125912441
 31
0.0
  0
LINE
  5
2BE
330
1E
100
AcDbEntity
  8
0
100
AcDbLine
 10
67.11948000000001
 20
831.6798999999999
 30
0.0
 11
67.88412
 21
832.5275000000001
 31
0.0
  0
LINE
  5
2BF
330
1E
100
AcDbEntity
  8
0
100
AcDbLine
 10
66.87119
 20
837.7773999999998
 30
0.0
 11
67.50404
 21
837.9093000000001
 31
0.0
  0
LINE
  5
2C0
330
1E
100
AcDbEntity
  8
0
100
AcDbLine
 10
67.50404
 20
837.9093000000001
 30
0.0
 11
68.04884
 21
838.1173999999999
 31
0.0
  0
LINE
  5
2C1
330
1E
100
AcDbEntity
  8
0
100
AcDbLine
 10
68.08164999999999
 20
822.6798
 30
0.0
 11
70.06454000000001
 21
822.5493
 31
0.0
  0
LINE
  5
2C2
330
1E
100
AcDbEntity
  8
0
100
AcDbLine
 10
68.08164999999999
 20
822.6798
 30
0.0
 11
68.10890668657279
 21
823.6439900546409
 31
0.0
  0
LINE
  5
2C3
330
1E
100
AcDbEntity
  8
0
100
AcDbLine
 10
68.04884
 20
838.1173999999999
 30
0.0
 11
68.44011
 21
838.3781
 31
0.0
  0
LINE
  5
2C4
330
1E
100
AcDbEntity
  8
0
100
AcDbLine
 10
66.87948
 20
840.2415999999998
 30
0.0
 11
67.50295
 21
840.1258999999999
 31
0.0
  0
LINE
  5
2C5
330
1E
100
AcDbEntity
  8
0
100
AcDbLine
 10
67.50295
 20
840.1258999999999
 30
0.0
 11
68.02431999999999
 21
839.9301000000001
 31
0.0
  0
LINE
  5
2C6
330
1E
100
AcDbEntity
  8
0
100
AcDbLine
 10
68.02431999999999
 20
839.9301000000001
 30
0.0
 11
68.44088000000001
 21
839.6577
 31
0.0
  0
LINE
  5
2C7
330
1E
100
AcDbEntity
  8
0
100
AcDbLine
 10
68.44011
 20
838.3781
 30
0.0
 11
68.67149999999999
 21
838.6896
 31
0.0
  0
LINE
  5
2C8
330
1E
100
AcDbEntity
  8
0
100
AcDbLine
 10
68.67149999999999
 20
838.6896
 30
0.0
 11
68.78293000000001
 21
839.0174
 31
0.0
  0
LINE
  5
2C9
330
1E
100
AcDbEntity
  8
0
100
AcDbLine
 10
68.67149999999999
 20
838.6896
 30
0.0
 11
69.2719049088558
 21
839.7419818929691
 31
0.0
  0
LINE
  5
2CA
330
1E
100
AcDbEntity
  8
0
100
AcDbLine
 10
68.70430999999999
 20
839.3411999999999
 30
0.0
 11
68.78293000000001
 21
839.0174
 31
0.0
  0
LINE
  5
2CB
330
1E
100
AcDbEntity
  8
0
100
AcDbLine
 10
68.44088000000001
 20
839.6577
 30
0.0
 11
68.70430999999999
 21
839.3411999999999
 31
0.0
  0
LINE
  5
2CC
330
1E
100
AcDbEntity
  8
0
100
AcDbLine
 10
67.23911
 20
859.932
 30
0.0
 11
67.2932582535189
 21
861.2957148636729
 31
0.0
  0
LINE
  5
2CD
330
1E
100
AcDbEntity
  8
0
100
AcDbLine
 10
66.72539
 20
861.1039999999999
 30
0.0
 11
66.7507331496907
 21
861.7419647499239
 31
0.0
  0
LINE
  5
2CE
330
1E
100
AcDbEntity
  8
0
100
AcDbLine
 10
66.72539
 20
861.1039999999999
 30
0.0
 11
67.23911
 21
859.932
 31
0.0
  0
LINE
  5
2CF
330
1E
100
AcDbEntity
  8
0
100
AcDbLine
 10
68.08164999999999
 20
867.5689999999999
 30
0.0
 11
70.06454000000001
 21
867.6989999999999
 31
0.0
  0
LINE
  5
2D0
330
1E
100
AcDbEntity
  8
0
100
AcDbLine
 10
67.82618000000001
 20
868.895
 30
0.0
 11
69.80906999999999
 21
869.025
 31
0.0
  0
LINE
  5
2D1
330
1E
100
AcDbEntity
  8
0
100
AcDbLine
 10
67.82618000000001
 20
868.895
 30
0.0
 11
67.84374397192459
 21
869.3829426521249
 31
0.0
  0
LINE
  5
2D2
330
1E
100
AcDbEntity
  8
0
100
AcDbLine
 10
67.82618000000001
 20
868.895
 30
0.0
 11
68.08164999999999
 21
867.5689999999999
 31
0.0
  0
LINE
  5
2D3
330
1E
100
AcDbEntity
  8
0
100
AcDbLine
 10
69.0
 20
842.570340816327
 30
0.0
 11
69.0
 21
841.9869999999999
 31
0.0
  0
LINE
  5
2D4
330
1E
100
AcDbEntity
  8
0
100
AcDbLine
 10
70.06454000000001
 20
822.5493
 30
0.0
 11
70.09168613631359
 21
823.5095794010039
 31
0.0
  0
LINE
  5
2D5
330
1E
100
AcDbEntity
  8
0
100
AcDbLine
 10
69.80906999999999
 20
821.9350999999999
 30
0.0
 11
70.06454000000001
 21
822.5493
 31
0.0
  0
LINE
  5
2D6
330
1E
100
AcDbEntity
  8
0
100
AcDbLine
 10
74.0
 20
828.5012
 30
0.0
 11
74.0
 21
826.6595
 31
0.0
  0
LINE
  5
2D7
330
1E
100
AcDbEntity
  8
0
100
AcDbLine
 10
74.0
 20
826.6595
 30
0.0
 11
74.0
 21
825.8796999999999
 31
0.0
  0
LINE
  5
2D8
330
1E
100
AcDbEntity
  8
0
100
AcDbLine
 10
74.0
 20
826.6595
 30
0.0
 11
74.0
 21
828.5012
 31
0.0
  0
LINE
  5
2D9
330
1E
100
AcDbEntity
  8
0
100
AcDbLine
 10
74.0
 20
826.6595
 30
0.0
 11
76.0
 21
826.6595
 31
0.0
  0
LINE
  5
2DA
330
1E
100
AcDbEntity
  8
0
100
AcDbLine
 10
74.0
 20
826.143316326531
 30
0.0
 11
74.0
 21
825.8796999999999
 31
0.0
  0
LINE
  5
2DB
330
1E
100
AcDbEntity
  8
0
100
AcDbLine
 10
74.0
 20
825.8796999999999
 30
0.0
 11
76.0
 21
825.8796999999999
 31
0.0
  0
LINE
  5
2DC
330
1E
100
AcDbEntity
  8
0
100
AcDbLine
 10
74.0
 20
825.8796999999999
 30
0.0
 11
74.0
 21
826.143316326531
 31
0.0
  0
LINE
  5
2DD
330
1E
100
AcDbEntity
  8
0
100
AcDbLine
 10
74.0
 20
825.8796999999999
 30
0.0
 11
74.0
 21
826.6595
 31
0.0
  0
LINE
  5
2DE
330
1E
100
AcDbEntity
  8
0
100
AcDbLine
 10
74.0
 20
820.6991999999999
 30
0.0
 11
74.0
 21
818.7492
 31
0.0
  0
LINE
  5
2DF
330
1E
100
AcDbEntity
  8
0
100
AcDbLine
 10
73.464
 20
839.095
 30
0.0
 11
75.0
 21
838.987
 31
0.0
  0
LINE
  5
2E0
330
1E
100
AcDbEntity
  8
0
100
AcDbLine
 10
72.024
 20
839.3830000000001
 30
0.0
 11
73.464
 21
839.095
 31
0.0
  0
LINE
  5
2E1
330
1E
100
AcDbEntity
  8
0
100
AcDbLine
 10
70.75199999999999
 20
839.8630999999999
 30
0.0
 11
72.024
 21
839.3830000000001
 31
0.0
  0
LINE
  5
2E2
330
1E
100
AcDbEntity
  8
0
100
AcDbLine
 10
69.792
 20
840.4989999999999
 30
0.0
 11
70.75199999999999
 21
839.8630999999999
 31
0.0
  0
LINE
  5
2E3
330
1E
100
AcDbEntity
  8
0
100
AcDbLine
 10
69.21600000000001
 20
841.2189999999998
 30
0.0
 11
69.792
 21
840.4989999999999
 31
0.0
  0
LINE
  5
2E4
330
1E
100
AcDbEntity
  8
0
100
AcDbLine
 10
75.0
 20
838.987
 30
0.0
 11
76.536
 21
839.095
 31
0.0
  0
LINE
  5
2E5
330
1E
100
AcDbEntity
  8
0
100
AcDbLine
 10
71.26634
 20
852.773
 30
0.0
 11
73.24923000000001
 21
852.9035
 31
0.0
  0
LINE
  5
2E6
330
1E
100
AcDbEntity
  8
0
100
AcDbLine
 10
71.00553999999999
 20
853.8389
 30
0.0
 11
72.98843000000001
 21
853.9693999999999
 31
0.0
  0
LINE
  5
2E7
330
1E
100
AcDbEntity
  8
0
100
AcDbLine
 10
71.00553999999999
 20
853.8389
 30
0.0
 11
71.00788232499259
 21
854.1864787799049
 31
0.0
  0
LINE
  5
2E8
330
1E
100
AcDbEntity
  8
0
100
AcDbLine
 10
71.00553999999999
 20
853.8389
 30
0.0
 11
71.26634
 21
852.773
 31
0.0
  0
LINE
  5
2E9
330
1E
100
AcDbEntity
  8
0
100
AcDbLine
 10
70.06454000000001
 20
867.6989999999999
 30
0.0
 11
70.1003766687008
 21
868.6943888418941
 31
0.0
  0
LINE
  5
2EA
330
1E
100
AcDbEntity
  8
0
100
AcDbLine
 10
69.80906999999999
 20
869.025
 30
0.0
 11
69.86274
 21
870.5169999999998
 31
0.0
  0
LINE
  5
2EB
330
1E
100
AcDbEntity
  8
0
100
AcDbLine
 10
69.80906999999999
 20
869.025
 30
0.0
 11
70.06454000000001
 21
867.6989999999999
 31
0.0
  0
LINE
  5
2EC
330
1E
100
AcDbEntity
  8
0
100
AcDbLine
 10
71.9755036017571
 20
847.2500839336259
 30
0.0
 11
72.52309
 21
846.2823
 31
0.0
  0
LINE
  5
2ED
330
1E
100
AcDbEntity
  8
0
100
AcDbLine
 10
74.99496399999999
 20
845.3424
 30
0.0
 11
75.67501400000001
 21
845.3866000000001
 31
0.0
  0
LINE
  5
2EE
330
1E
100
AcDbEntity
  8
0
100
AcDbLine
 10
72.52311999999999
 20
846.9622000000001
 30
0.0
 11
72.77905
 21
847.2623999999999
 31
0.0
  0
LINE
  5
2EF
330
1E
100
AcDbEntity
  8
0
100
AcDbLine
 10
72.43503
 20
846.6222999999999
 30
0.0
 11
72.52309
 21
846.2823
 31
0.0
  0
LINE
  5
2F0
330
1E
100
AcDbEntity
  8
0
100
AcDbLine
 10
72.43503
 20
846.6222999999999
 30
0.0
 11
72.52311999999999
 21
846.9622000000001
 31
0.0
  0
LINE
  5
2F1
330
1E
100
AcDbEntity
  8
0
100
AcDbLine
 10
72.52309
 20
846.2823
 30
0.0
 11
72.77900999999999
 21
845.9825
 31
0.0
  0
LINE
  5
2F2
330
1E
100
AcDbEntity
  8
0
100
AcDbLine
 10
72.77905
 20
847.2623999999999
 30
0.0
 11
73.20299
 21
847.5182999999999
 31
0.0
  0
LINE
  5
2F3
330
1E
100
AcDbEntity
  8
0
100
AcDbLine
 10
73.20299
 20
847.5182999999999
 30
0.0
 11
73.71495999999999
 21
847.7306
 31
0.0
  0
LINE
  5
2F4
330
1E
100
AcDbEntity
  8
0
100
AcDbLine
 10
72.98843000000001
 20
853.9693999999999
 30
0.0
 11
72.99940357014659
 21
855.597870088685
 31
0.0
  0
LINE
  5
2F5
330
1E
100
AcDbEntity
  8
0
100
AcDbLine
 10
72.98843000000001
 20
853.9693999999999
 30
0.0
 11
73.24923000000001
 21
852.9035
 31
0.0
  0
LINE
  5
2F6
330
1E
100
AcDbEntity
  8
0
100
AcDbLine
 10
73.71495999999999
 20
847.7306
 30
0.0
 11
74.315054
 21
847.8583
 31
0.0
  0
LINE
  5
2F7
330
1E
100
AcDbEntity
  8
0
100
AcDbLine
 10
72.77900999999999
 20
845.9825
 30
0.0
 11
73.20295
 21
845.7266
 31
0.0
  0
LINE
  5
2F8
330
1E
100
AcDbEntity
  8
0
100
AcDbLine
 10
73.20295
 20
845.7266
 30
0.0
 11
73.71499
 21
845.5144
 31
0.0
  0
LINE
  5
2F9
330
1E
100
AcDbEntity
  8
0
100
AcDbLine
 10
74.0
 20
861.973
 30
0.0
 11
74.0
 21
860.3769999999999
 31
0.0
  0
LINE
  5
2FA
330
1E
100
AcDbEntity
  8
0
100
AcDbLine
 10
74.0
 20
860.3769999999999
 30
0.0
 11
74.0
 21
861.5819999999999
 31
0.0
  0
LINE
  5
2FB
330
1E
100
AcDbEntity
  8
0
100
AcDbLine
 10
74.0
 20
860.3769999999999
 30
0.0
 11
74.0
 21
861.973
 31
0.0
  0
LINE
  5
2FC
330
1E
100
AcDbEntity
  8
0
100
AcDbLine
 10
74.0
 20
860.3769999999999
 30
0.0
 11
76.0
 21
860.3769999999999
 31
0.0
  0
LINE
  5
2FD
330
1E
100
AcDbEntity
  8
0
100
AcDbLine
 10
74.0
 20
863.179
 30
0.0
 11
74.0
 21
861.5819999999999
 31
0.0
  0
LINE
  5
2FE
330
1E
100
AcDbEntity
  8
0
100
AcDbLine
 10
74.0
 20
861.5819999999999
 30
0.0
 11
76.0
 21
861.5819999999999
 31
0.0
  0
LINE
  5
2FF
330
1E
100
AcDbEntity
  8
0
100
AcDbLine
 10
74.0
 20
861.5819999999999
 30
0.0
 11
74.0
 21
863.179
 31
0.0
  0
LINE
  5
300
330
1E
100
AcDbEntity
  8
0
100
AcDbLine
 10
74.0
 20
861.5819999999999
 30
0.0
 11
74.0
 21
860.3769999999999
 31
0.0
  0
LINE
  5
301
330
1E
100
AcDbEntity
  8
0
100
AcDbLine
 10
74.0
 20
877.316
 30
0.0
 11
74.0
 21
875.956
 31
0.0
  0
LINE
  5
302
330
1E
100
AcDbEntity
  8
0
100
AcDbLine
 10
74.0
 20
875.956
 30
0.0
 11
74.0
 21
877.4230000000001
 31
0.0
  0
LINE
  5
303
330
1E
100
AcDbEntity
  8
0
100
AcDbLine
 10
74.0
 20
875.956
 30
0.0
 11
74.0
 21
877.316
 31
0.0
  0
LINE
  5
304
330
1E
100
AcDbEntity
  8
0
100
AcDbLine
 10
74.0
 20
875.956
 30
0.0
 11
76.0
 21
875.956
 31
0.0
  0
LINE
  5
305
330
1E
100
AcDbEntity
  8
0
100
AcDbLine
 10
74.0
 20
878.3610389610389
 30
0.0
 11
74.0
 21
877.4230000000001
 31
0.0
  0
LINE
  5
306
330
1E
100
AcDbEntity
  8
0
100
AcDbLine
 10
74.0
 20
877.4230000000001
 30
0.0
 11
76.0
 21
877.4230000000001
 31
0.0
  0
LINE
  5
307
330
1E
100
AcDbEntity
  8
0
100
AcDbLine
 10
74.0
 20
877.4230000000001
 30
0.0
 11
74.0
 21
878.3610389610389
 31
0.0
  0
LINE
  5
308
330
1E
100
AcDbEntity
  8
0
100
AcDbLine
 10
74.0
 20
877.4230000000001
 30
0.0
 11
74.0
 21
875.956
 31
0.0
  0
LINE
  5
309
330
1E
100
AcDbEntity
  8
0
100
AcDbLine
 10
74.99496399999999
 20
847.9026000000001
 30
0.0
 11
75.67499399999999
 21
847.8583
 31
0.0
  0
LINE
  5
30A
330
1E
100
AcDbEntity
  8
0
100
AcDbLine
 10
74.315054
 20
847.8583
 30
0.0
 11
74.99496399999999
 21
847.9026000000001
 31
0.0
  0
LINE
  5
30B
330
1E
100
AcDbEntity
  8
0
100
AcDbLine
 10
73.71499
 20
845.5144
 30
0.0
 11
74.315034
 21
845.3866000000001
 31
0.0
  0
LINE
  5
30C
330
1E
100
AcDbEntity
  8
0
100
AcDbLine
 10
74.315034
 20
845.3866000000001
 30
0.0
 11
74.99496399999999
 21
845.3424
 31
0.0
  0
LINE
  5
30D
330
1E
100
AcDbEntity
  8
0
100
AcDbLine
 10
75.0
 20
844.987
 30
0.0
 11
76.536
 21
844.8790999999999
 31
0.0
  0
LINE
  5
30E
330
1E
100
AcDbEntity
  8
0
100
AcDbLine
 10
73.464
 20
844.8790999999999
 30
0.0
 11
75.0
 21
844.987
 31
0.0
  0
LINE
  5
30F
330
1E
100
AcDbEntity
  8
0
100
AcDbLine
 10
72.024
 20
844.5909999999999
 30
0.0
 11
73.464
 21
844.8790999999999
 31
0.0
  0
LINE
  5
310
330
1E
100
AcDbEntity
  8
0
100
AcDbLine
 10
70.75199999999999
 20
844.1110000000001
 30
0.0
 11
72.024
 21
844.5909999999999
 31
0.0
  0
LINE
  5
311
330
1E
100
AcDbEntity
  8
0
100
AcDbLine
 10
69.792
 20
843.4751
 30
0.0
 11
70.75199999999999
 21
844.1110000000001
 31
0.0
  0
LINE
  5
312
330
1E
100
AcDbEntity
  8
0
100
AcDbLine
 10
69.21600000000001
 20
842.7550999999999
 30
0.0
 11
69.792
 21
843.4751
 31
0.0
  0
LINE
  5
313
330
1E
100
AcDbEntity
  8
0
100
AcDbLine
 10
69.0
 20
841.9869999999999
 30
0.0
 11
69.21600000000001
 21
842.7550999999999
 31
0.0
  0
LINE
  5
314
330
1E
100
AcDbEntity
  8
0
100
AcDbLine
 10
69.0
 20
841.9869999999999
 30
0.0
 11
69.21600000000001
 21
841.2189999999998
 31
0.0
  0
LINE
  5
315
330
1E
100
AcDbEntity
  8
0
100
AcDbLine
 10
69.0
 20
841.9869999999999
 30
0.0
 11
69.0
 21
842.570340816327
 31
0.0
  0
LINE
  5
316
330
1E
100
AcDbEntity
  8
0
100
AcDbLine
 10
74.0
 20
820.6941
 30
0.0
 11
74.0
 21
814.9441000000001
 31
0.0
  0
LINE
  5
317
330
1E
100
AcDbEntity
  8
0
100
AcDbLine
 10
75.0
 20
882.7580000000001
 30
0.0
 11
83.49999999999999
 21
882.408
 31
0.0
  0
LINE
  5
318
330
1E
100
AcDbEntity
  8
0
100
AcDbLine
 10
75.0
 20
883.6249999999999
 30
0.0
 11
83.49999999999999
 21
883.275
 31
0.0
  0
LINE
  5
319
330
1E
100
AcDbEntity
  8
0
100
AcDbLine
 10
66.5
 20
818.1085000000001
 30
0.0
 11
74.0
 21
817.7996764705881
 31
0.0
  0
LINE
  5
31A
330
1E
100
AcDbEntity
  8
0
100
AcDbLine
 10
75.0
 20
891.331
 30
0.0
 11
84.40000000000001
 21
890.9810000000002
 31
0.0
  0
LINE
  5
31B
330
1E
100
AcDbEntity
  8
0
100
AcDbLine
 10
76.0
 20
812.3022999999999
 30
0.0
 11
76.0
 21
812.5503
 31
0.0
  0
LINE
  5
31C
330
1E
100
AcDbEntity
  8
0
100
AcDbLine
 10
76.0
 20
812.5503
 30
0.0
 11
76.0
 21
813.1399999999999
 31
0.0
  0
LINE
  5
31D
330
1E
100
AcDbEntity
  8
0
100
AcDbLine
 10
76.0
 20
812.5503
 30
0.0
 11
76.0
 21
812.3022999999999
 31
0.0
  0
LINE
  5
31E
330
1E
100
AcDbEntity
  8
0
100
AcDbLine
 10
76.0
 20
813.1399999999999
 30
0.0
 11
76.0
 21
814.9951999999998
 31
0.0
  0
LINE
  5
31F
330
1E
100
AcDbEntity
  8
0
100
AcDbLine
 10
76.0
 20
813.1399999999999
 30
0.0
 11
76.0
 21
812.5503
 31
0.0
  0
LINE
  5
320
330
1E
100
AcDbEntity
  8
0
100
AcDbLine
 10
76.0
 20
814.9951999999998
 30
0.0
 11
76.0
 21
818.3047
 31
0.0
  0
LINE
  5
321
330
1E
100
AcDbEntity
  8
0
100
AcDbLine
 10
76.0
 20
814.9951999999998
 30
0.0
 11
76.0
 21
813.1399999999999
 31
0.0
  0
LINE
  5
322
330
1E
100
AcDbEntity
  8
0
100
AcDbLine
 10
76.0
 20
818.7492
 30
0.0
 11
76.0
 21
820.6991999999999
 31
0.0
  0
LINE
  5
323
330
1E
100
AcDbEntity
  8
0
100
AcDbLine
 10
76.0
 20
818.7492
 30
0.0
 11
76.0
 21
818.3047
 31
0.0
  0
LINE
  5
324
330
1E
100
AcDbEntity
  8
0
100
AcDbLine
 10
76.0
 20
826.6595
 30
0.0
 11
76.0
 21
828.5012
 31
0.0
  0
LINE
  5
325
330
1E
100
AcDbEntity
  8
0
100
AcDbLine
 10
76.0
 20
826.6595
 30
0.0
 11
76.0
 21
825.8796999999999
 31
0.0
  0
LINE
  5
326
330
1E
100
AcDbEntity
  8
0
100
AcDbLine
 10
76.0
 20
825.8796999999999
 30
0.0
 11
76.0
 21
826.6595
 31
0.0
  0
LINE
  5
327
330
1E
100
AcDbEntity
  8
0
100
AcDbLine
 10
76.0
 20
828.5012
 30
0.0
 11
76.0
 21
826.6595
 31
0.0
  0
LINE
  5
328
330
1E
100
AcDbEntity
  8
0
100
AcDbLine
 10
76.0
 20
820.6991999999999
 30
0.0
 11
76.0
 21
818.7492
 31
0.0
  0
LINE
  5
329
330
1E
100
AcDbEntity
  8
0
100
AcDbLine
 10
76.75076999999999
 20
831.9437999999999
 30
0.0
 11
77.01156999999999
 21
831.0286999999998
 31
0.0
  0
LINE
  5
32A
330
1E
100
AcDbEntity
  8
0
100
AcDbLine
 10
76.75076999999999
 20
831.9437999999999
 30
0.0
 11
78.73366
 21
832.0743
 31
0.0
  0
LINE
  5
32B
330
1E
100
AcDbEntity
  8
0
100
AcDbLine
 10
78.73366
 20
832.0743
 30
0.0
 11
78.99446000000001
 21
831.1593
 31
0.0
  0
LINE
  5
32C
330
1E
100
AcDbEntity
  8
0
100
AcDbLine
 10
77.01156999999999
 20
831.0286999999998
 30
0.0
 11
78.99446000000001
 21
831.1593
 31
0.0
  0
LINE
  5
32D
330
1E
100
AcDbEntity
  8
0
100
AcDbLine
 10
78.7302148334542
 20
832.6117096205479
 30
0.0
 11
78.73366
 21
832.0743
 31
0.0
  0
LINE
  5
32E
330
1E
100
AcDbEntity
  8
0
100
AcDbLine
 10
76.7411773824574
 20
833.4401470952979
 30
0.0
 11
76.75076999999999
 21
831.9437999999999
 31
0.0
  0
LINE
  5
32F
330
1E
100
AcDbEntity
  8
0
100
AcDbLine
 10
78.9862945959255
 20
832.432945041873
 30
0.0
 11
78.99446000000001
 21
831.1593
 31
0.0
  0
LINE
  5
330
330
1E
100
AcDbEntity
  8
0
100
AcDbLine
 10
76.536
 20
839.095
 30
0.0
 11
77.976
 21
839.3830000000001
 31
0.0
  0
LINE
  5
331
330
1E
100
AcDbEntity
  8
0
100
AcDbLine
 10
77.976
 20
839.3830000000001
 30
0.0
 11
79.24800000000001
 21
839.8630999999999
 31
0.0
  0
LINE
  5
332
330
1E
100
AcDbEntity
  8
0
100
AcDbLine
 10
79.9083138636864
 20
823.5095794010039
 30
0.0
 11
79.93545999999999
 21
822.5493
 31
0.0
  0
LINE
  5
333
330
1E
100
AcDbEntity
  8
0
100
AcDbLine
 10
79.93545999999999
 20
822.5493
 30
0.0
 11
80.19093000000001
 21
821.9350999999999
 31
0.0
  0
LINE
  5
334
330
1E
100
AcDbEntity
  8
0
100
AcDbLine
 10
79.93545999999999
 20
822.5493
 30
0.0
 11
81.91835000000001
 21
822.6798
 31
0.0
  0
LINE
  5
335
330
1E
100
AcDbEntity
  8
0
100
AcDbLine
 10
80.19093000000001
 20
821.9350999999999
 30
0.0
 11
82.17381999999998
 21
822.0656999999999
 31
0.0
  0
LINE
  5
336
330
1E
100
AcDbEntity
  8
0
100
AcDbLine
 10
80.73837697941629
 20
839.7370953521249
 30
0.0
 11
81.33353000000001
 21
838.6939999999999
 31
0.0
  0
LINE
  5
337
330
1E
100
AcDbEntity
  8
0
100
AcDbLine
 10
79.24800000000001
 20
839.8630999999999
 30
0.0
 11
80.20799999999999
 21
840.4989999999999
 31
0.0
  0
LINE
  5
338
330
1E
100
AcDbEntity
  8
0
100
AcDbLine
 10
80.20799999999999
 20
840.4989999999999
 30
0.0
 11
80.784
 21
841.2189999999998
 31
0.0
  0
LINE
  5
339
330
1E
100
AcDbEntity
  8
0
100
AcDbLine
 10
80.784
 20
841.2189999999998
 30
0.0
 11
81.0
 21
841.9869999999999
 31
0.0
  0
LINE
  5
33A
330
1E
100
AcDbEntity
  8
0
100
AcDbLine
 10
76.27495
 20
845.5144
 30
0.0
 11
76.78699
 21
845.7266
 31
0.0
  0
LINE
  5
33B
330
1E
100
AcDbEntity
  8
0
100
AcDbLine
 10
75.67501400000001
 20
845.3866000000001
 30
0.0
 11
76.27495
 21
845.5144
 31
0.0
  0
LINE
  5
33C
330
1E
100
AcDbEntity
  8
0
100
AcDbLine
 10
76.27498
 20
847.7306
 30
0.0
 11
76.78695000000001
 21
847.5182999999999
 31
0.0
  0
LINE
  5
33D
330
1E
100
AcDbEntity
  8
0
100
AcDbLine
 10
76.0
 20
860.3769999999999
 30
0.0
 11
76.0
 21
861.5819999999999
 31
0.0
  0
LINE
  5
33E
330
1E
100
AcDbEntity
  8
0
100
AcDbLine
 10
76.0
 20
863.179
 30
0.0
 11
76.0
 21
861.5819999999999
 31
0.0
  0
LINE
  5
33F
330
1E
100
AcDbEntity
  8
0
100
AcDbLine
 10
76.0
 20
861.5819999999999
 30
0.0
 11
76.0
 21
863.179
 31
0.0
  0
LINE
  5
340
330
1E
100
AcDbEntity
  8
0
100
AcDbLine
 10
76.0
 20
861.5819999999999
 30
0.0
 11
76.0
 21
860.3769999999999
 31
0.0
  0
LINE
  5
341
330
1E
100
AcDbEntity
  8
0
100
AcDbLine
 10
76.0
 20
875.956
 30
0.0
 11
76.0
 21
877.4230000000001
 31
0.0
  0
LINE
  5
342
330
1E
100
AcDbEntity
  8
0
100
AcDbLine
 10
76.0
 20
878.3610389610389
 30
0.0
 11
76.0
 21
877.4230000000001
 31
0.0
  0
LINE
  5
343
330
1E
100
AcDbEntity
  8
0
100
AcDbLine
 10
76.0
 20
877.4230000000001
 30
0.0
 11
76.0
 21
878.3610389610389
 31
0.0
  0
LINE
  5
344
330
1E
100
AcDbEntity
  8
0
100
AcDbLine
 10
76.0
 20
877.4230000000001
 30
0.0
 11
76.0
 21
875.956
 31
0.0
  0
LINE
  5
345
330
1E
100
AcDbEntity
  8
0
100
AcDbLine
 10
75.67499399999999
 20
847.8583
 30
0.0
 11
76.27498
 21
847.7306
 31
0.0
  0
LINE
  5
346
330
1E
100
AcDbEntity
  8
0
100
AcDbLine
 10
76.78699
 20
845.7266
 30
0.0
 11
77.21103000000001
 21
845.9825
 31
0.0
  0
LINE
  5
347
330
1E
100
AcDbEntity
  8
0
100
AcDbLine
 10
77.46694000000001
 20
846.2823
 30
0.0
 11
78.01534893890419
 21
847.2516085101828
 31
0.0
  0
LINE
  5
348
330
1E
100
AcDbEntity
  8
0
100
AcDbLine
 10
77.46694000000001
 20
846.2823
 30
0.0
 11
77.55490999999999
 21
846.6222999999999
 31
0.0
  0
LINE
  5
349
330
1E
100
AcDbEntity
  8
0
100
AcDbLine
 10
77.21103000000001
 20
845.9825
 30
0.0
 11
77.46694000000001
 21
846.2823
 31
0.0
  0
LINE
  5
34A
330
1E
100
AcDbEntity
  8
0
100
AcDbLine
 10
77.46691
 20
846.9622000000001
 30
0.0
 11
77.55490999999999
 21
846.6222999999999
 31
0.0
  0
LINE
  5
34B
330
1E
100
AcDbEntity
  8
0
100
AcDbLine
 10
77.21098999999999
 20
847.2623999999999
 30
0.0
 11
77.46691
 21
846.9622000000001
 31
0.0
  0
LINE
  5
34C
330
1E
100
AcDbEntity
  8
0
100
AcDbLine
 10
76.78695000000001
 20
847.5182999999999
 30
0.0
 11
77.21098999999999
 21
847.2623999999999
 31
0.0
  0
LINE
  5
34D
330
1E
100
AcDbEntity
  8
0
100
AcDbLine
 10
76.536
 20
844.8790999999999
 30
0.0
 11
77.976
 21
844.5909999999999
 31
0.0
  0
LINE
  5
34E
330
1E
100
AcDbEntity
  8
0
100
AcDbLine
 10
77.976
 20
844.5909999999999
 30
0.0
 11
79.24800000000001
 21
844.1110000000001
 31
0.0
  0
LINE
  5
34F
330
1E
100
AcDbEntity
  8
0
100
AcDbLine
 10
79.8996233312992
 20
868.6943888418941
 30
0.0
 11
79.93545999999999
 21
867.6989999999999
 31
0.0
  0
LINE
  5
350
330
1E
100
AcDbEntity
  8
0
100
AcDbLine
 10
79.93545999999999
 20
867.6989999999999
 30
0.0
 11
80.19093000000001
 21
869.025
 31
0.0
  0
LINE
  5
351
330
1E
100
AcDbEntity
  8
0
100
AcDbLine
 10
79.93545999999999
 20
867.6989999999999
 30
0.0
 11
81.91835000000001
 21
867.5689999999999
 31
0.0
  0
LINE
  5
352
330
1E
100
AcDbEntity
  8
0
100
AcDbLine
 10
80.13726
 20
870.5169999999998
 30
0.0
 11
80.19093000000001
 21
869.025
 31
0.0
  0
LINE
  5
353
330
1E
100
AcDbEntity
  8
0
100
AcDbLine
 10
80.19093000000001
 20
869.025
 30
0.0
 11
82.17381999999998
 21
868.895
 31
0.0
  0
LINE
  5
354
330
1E
100
AcDbEntity
  8
0
100
AcDbLine
 10
79.24800000000001
 20
844.1110000000001
 30
0.0
 11
80.20799999999999
 21
843.4751
 31
0.0
  0
LINE
  5
355
330
1E
100
AcDbEntity
  8
0
100
AcDbLine
 10
80.20799999999999
 20
843.4751
 30
0.0
 11
80.784
 21
842.7550999999999
 31
0.0
  0
LINE
  5
356
330
1E
100
AcDbEntity
  8
0
100
AcDbLine
 10
81.33353000000001
 20
838.6939999999999
 30
0.0
 11
81.56487
 21
838.3824
 31
0.0
  0
LINE
  5
357
330
1E
100
AcDbEntity
  8
0
100
AcDbLine
 10
81.22209000000001
 20
839.0218
 30
0.0
 11
81.30065999999999
 21
839.3454999999999
 31
0.0
  0
LINE
  5
358
330
1E
100
AcDbEntity
  8
0
100
AcDbLine
 10
81.22209000000001
 20
839.0218
 30
0.0
 11
81.33353000000001
 21
838.6939999999999
 31
0.0
  0
LINE
  5
359
330
1E
100
AcDbEntity
  8
0
100
AcDbLine
 10
81.30065999999999
 20
839.3454999999999
 30
0.0
 11
81.56416
 21
839.6619999999998
 31
0.0
  0
LINE
  5
35A
330
1E
100
AcDbEntity
  8
0
100
AcDbLine
 10
81.91835000000001
 20
822.6798
 30
0.0
 11
82.17381999999998
 21
822.0656999999999
 31
0.0
  0
LINE
  5
35B
330
1E
100
AcDbEntity
  8
0
100
AcDbLine
 10
81.8910933134272
 20
823.6439900546409
 30
0.0
 11
81.91835000000001
 21
822.6798
 31
0.0
  0
LINE
  5
35C
330
1E
100
AcDbEntity
  8
0
100
AcDbLine
 10
82.740939234384
 20
827.681211135691
 30
0.0
 11
82.76089
 21
827.1045
 31
0.0
  0
LINE
  5
35D
330
1E
100
AcDbEntity
  8
0
100
AcDbLine
 10
82.76089
 20
827.1045
 30
0.0
 11
83.27460999999999
 21
826.3586
 31
0.0
  0
LINE
  5
35E
330
1E
100
AcDbEntity
  8
0
100
AcDbLine
 10
82.76089
 20
827.1045
 30
0.0
 11
84.69274
 21
827.3633
 31
0.0
  0
LINE
  5
35F
330
1E
100
AcDbEntity
  8
0
100
AcDbLine
 10
82.1386301951955
 20
823.3107516180968
 30
0.0
 11
82.17381999999998
 21
822.0656999999999
 31
0.0
  0
LINE
  5
360
330
1E
100
AcDbEntity
  8
0
100
AcDbLine
 10
81.95614
 20
838.1217000000001
 30
0.0
 11
82.50099
 21
837.9135999999999
 31
0.0
  0
LINE
  5
361
330
1E
100
AcDbEntity
  8
0
100
AcDbLine
 10
81.56487
 20
838.3824
 30
0.0
 11
81.95614
 21
838.1217000000001
 31
0.0
  0
LINE
  5
362
330
1E
100
AcDbEntity
  8
0
100
AcDbLine
 10
82.50099
 20
837.9135999999999
 30
0.0
 11
83.13379000000001
 21
837.7817
 31
0.0
  0
LINE
  5
363
330
1E
100
AcDbEntity
  8
0
100
AcDbLine
 10
83.27460999999999
 20
826.3586
 30
0.0
 11
85.20650000000001
 21
826.6173999999999
 31
0.0
  0
LINE
  5
364
330
1E
100
AcDbEntity
  8
0
100
AcDbLine
 10
83.13379000000001
 20
837.7817
 30
0.0
 11
83.78165
 21
837.7424999999998
 31
0.0
  0
LINE
  5
365
330
1E
100
AcDbEntity
  8
0
100
AcDbLine
 10
83.12555000000001
 20
840.2459
 30
0.0
 11
83.78088000000001
 21
840.3014999999999
 31
0.0
  0
LINE
  5
366
330
1E
100
AcDbEntity
  8
0
100
AcDbLine
 10
82.50206999999999
 20
840.1303
 30
0.0
 11
83.12555000000001
 21
840.2459
 31
0.0
  0
LINE
  5
367
330
1E
100
AcDbEntity
  8
0
100
AcDbLine
 10
81.98064999999999
 20
839.9343999999999
 30
0.0
 11
82.50206999999999
 21
840.1303
 31
0.0
  0
LINE
  5
368
330
1E
100
AcDbEntity
  8
0
100
AcDbLine
 10
81.56416
 20
839.6619999999998
 30
0.0
 11
81.98064999999999
 21
839.9343999999999
 31
0.0
  0
LINE
  5
369
330
1E
100
AcDbEntity
  8
0
100
AcDbLine
 10
82.11588
 20
852.3198
 30
0.0
 11
82.88051999999998
 21
853.3183000000001
 31
0.0
  0
LINE
  5
36A
330
1E
100
AcDbEntity
  8
0
100
AcDbLine
 10
82.11588
 20
852.3198
 30
0.0
 11
83.96364
 21
851.9372
 31
0.0
  0
LINE
  5
36B
330
1E
100
AcDbEntity
  8
0
100
AcDbLine
 10
82.7067417464811
 20
861.2957148636729
 30
0.0
 11
82.76089
 21
859.932
 31
0.0
  0
LINE
  5
36C
330
1E
100
AcDbEntity
  8
0
100
AcDbLine
 10
82.76089
 20
859.932
 30
0.0
 11
83.27460999999999
 21
861.1039999999999
 31
0.0
  0
LINE
  5
36D
330
1E
100
AcDbEntity
  8
0
100
AcDbLine
 10
82.76089
 20
859.932
 30
0.0
 11
84.69274
 21
859.673
 31
0.0
  0
LINE
  5
36E
330
1E
100
AcDbEntity
  8
0
100
AcDbLine
 10
83.24926685030929
 20
861.7419647499239
 30
0.0
 11
83.27460999999999
 21
861.1039999999999
 31
0.0
  0
LINE
  5
36F
330
1E
100
AcDbEntity
  8
0
100
AcDbLine
 10
83.27460999999999
 20
861.1039999999999
 30
0.0
 11
85.20650000000001
 21
860.8450000000001
 31
0.0
  0
LINE
  5
370
330
1E
100
AcDbEntity
  8
0
100
AcDbLine
 10
82.8540662933444
 20
854.659716430201
 30
0.0
 11
82.88051999999998
 21
853.3183000000001
 31
0.0
  0
LINE
  5
371
330
1E
100
AcDbEntity
  8
0
100
AcDbLine
 10
82.88051999999998
 20
853.3183000000001
 30
0.0
 11
84.72827999999999
 21
852.9355999999999
 31
0.0
  0
LINE
  5
372
330
1E
100
AcDbEntity
  8
0
100
AcDbLine
 10
81.91835000000001
 20
867.5689999999999
 30
0.0
 11
82.17381999999998
 21
868.895
 31
0.0
  0
LINE
  5
373
330
1E
100
AcDbEntity
  8
0
100
AcDbLine
 10
82.1562560280754
 20
869.3829426521249
 30
0.0
 11
82.17381999999998
 21
868.895
 31
0.0
  0
LINE
  5
374
330
1E
100
AcDbEntity
  8
0
100
AcDbLine
 10
81.0
 20
842.570340816327
 30
0.0
 11
81.0
 21
841.9869999999999
 31
0.0
  0
LINE
  5
375
330
1E
100
AcDbEntity
  8
0
100
AcDbLine
 10
81.0
 20
841.9869999999999
 30
0.0
 11
81.0
 21
842.570340816327
 31
0.0
  0
LINE
  5
376
330
1E
100
AcDbEntity
  8
0
100
AcDbLine
 10
80.784
 20
842.7550999999999
 30
0.0
 11
81.0
 21
841.9869999999999
 31
0.0
  0
LINE
  5
377
330
1E
100
AcDbEntity
  8
0
100
AcDbLine
 10
76.0
 20
818.3047
 30
0.0
 11
76.0
 21
814.9951999999998
 31
0.0
  0
LINE
  5
378
330
1E
100
AcDbEntity
  8
0
100
AcDbLine
 10
76.0
 20
818.3047
 30
0.0
 11
76.0
 21
818.7492
 31
0.0
  0
LINE
  5
379
330
1E
100
AcDbEntity
  8
0
100
AcDbLine
 10
83.49999999999999
 20
818.1085000000001
 30
0.0
 11
91.79999999999999
 21
818.9085
 31
0.0
  0
LINE
  5
37A
330
1E
100
AcDbEntity
  8
0
100
AcDbLine
 10
76.0
 20
817.7996764705881
 30
0.0
 11
83.49999999999999
 21
818.1085000000001
 31
0.0
  0
LINE
  5
37B
330
1E
100
AcDbEntity
  8
0
100
AcDbLine
 10
83.78165
 20
837.7424999999998
 30
0.0
 11
84.43702
 21
837.7981
 31
0.0
  0
LINE
  5
37C
330
1E
100
AcDbEntity
  8
0
100
AcDbLine
 10
83.96364
 20
851.9372
 30
0.0
 11
84.72827999999999
 21
852.9355999999999
 31
0.0
  0
LINE
  5
37D
330
1E
100
AcDbEntity
  8
0
100
AcDbLine
 10
83.78088000000001
 20
840.3014999999999
 30
0.0
 11
84.42806
 21
840.2623999999999
 31
0.0
  0
LINE
  5
37E
330
1E
100
AcDbEntity
  8
0
100
AcDbLine
 10
83.49999999999999
 20
882.408
 30
0.0
 11
91.79999999999999
 21
881.6080000000001
 31
0.0
  0
LINE
  5
37F
330
1E
100
AcDbEntity
  8
0
100
AcDbLine
 10
83.49999999999999
 20
883.275
 30
0.0
 11
91.79999999999999
 21
882.4749999999999
 31
0.0
  0
LINE
  5
380
330
1E
100
AcDbEntity
  8
0
100
AcDbLine
 10
75.0
 20
891.431
 30
0.0
 11
84.40000000000001
 21
891.0809999999999
 31
0.0
  0
LINE
  5
381
330
1E
100
AcDbEntity
  8
0
100
AcDbLine
 10
83.49999999999999
 20
900.595
 30
0.0
 11
87.42995348837601
 21
900.2162093023249
 31
0.0
  0
LINE
  5
382
330
1E
100
AcDbEntity
  8
0
100
AcDbLine
 10
62.5700465116241
 20
900.2162093023249
 30
0.0
 11
66.5
 21
900.595
 31
0.0
  0
LINE
  5
383
330
1E
100
AcDbEntity
  8
0
100
AcDbLine
 10
75.0
 20
900.9450000000001
 30
0.0
 11
83.49999999999999
 21
900.595
 31
0.0
  0
LINE
  5
384
330
1E
100
AcDbEntity
  8
0
100
AcDbLine
 10
66.5
 20
900.595
 30
0.0
 11
75.0
 21
900.9450000000001
 31
0.0
  0
LINE
  5
385
330
1E
100
AcDbEntity
  8
0
100
AcDbLine
 10
84.40000000000001
 20
890.9810000000002
 30
0.0
 11
93.59999999999999
 21
890.0310000000001
 31
0.0
  0
LINE
  5
386
330
1E
100
AcDbEntity
  8
0
100
AcDbLine
 10
89.0
 20
760.3593
 30
0.0
 11
89.0
 21
768.9027999999999
 31
0.0
  0
LINE
  5
387
330
1E
100
AcDbEntity
  8
0
100
AcDbLine
 10
89.0
 20
768.9027999999999
 30
0.0
 11
89.0
 21
776.0436999999999
 31
0.0
  0
LINE
  5
388
330
1E
100
AcDbEntity
  8
0
100
AcDbLine
 10
89.0
 20
768.9027999999999
 30
0.0
 11
89.0
 21
760.3593
 31
0.0
  0
LINE
  5
389
330
1E
100
AcDbEntity
  8
0
100
AcDbLine
 10
89.0
 20
776.0436999999999
 30
0.0
 11
89.0
 21
785.5238
 31
0.0
  0
LINE
  5
38A
330
1E
100
AcDbEntity
  8
0
100
AcDbLine
 10
89.0
 20
776.0436999999999
 30
0.0
 11
89.0
 21
768.9027999999999
 31
0.0
  0
LINE
  5
38B
330
1E
100
AcDbEntity
  8
0
100
AcDbLine
 10
89.0
 20
785.5238
 30
0.0
 11
89.0
 21
793.6977
 31
0.0
  0
LINE
  5
38C
330
1E
100
AcDbEntity
  8
0
100
AcDbLine
 10
89.0
 20
785.5238
 30
0.0
 11
89.0
 21
776.0436999999999
 31
0.0
  0
LINE
  5
38D
330
1E
100
AcDbEntity
  8
0
100
AcDbLine
 10
89.0
 20
793.6977
 30
0.0
 11
89.0
 21
801.4117999999999
 31
0.0
  0
LINE
  5
38E
330
1E
100
AcDbEntity
  8
0
100
AcDbLine
 10
89.0
 20
793.6977
 30
0.0
 11
89.0
 21
785.5238
 31
0.0
  0
LINE
  5
38F
330
1E
100
AcDbEntity
  8
0
100
AcDbLine
 10
89.0
 20
801.4117999999999
 30
0.0
 11
89.0
 21
808.5295
 31
0.0
  0
LINE
  5
390
330
1E
100
AcDbEntity
  8
0
100
AcDbLine
 10
89.0
 20
801.4117999999999
 30
0.0
 11
89.0
 21
793.6977
 31
0.0
  0
LINE
  5
391
330
1E
100
AcDbEntity
  8
0
100
AcDbLine
 10
89.0
 20
808.5295
 30
0.0
 11
89.0
 21
815.0141999999998
 31
0.0
  0
LINE
  5
392
330
1E
100
AcDbEntity
  8
0
100
AcDbLine
 10
89.0
 20
808.5295
 30
0.0
 11
89.0
 21
801.4117999999999
 31
0.0
  0
LINE
  5
393
330
1E
100
AcDbEntity
  8
0
100
AcDbLine
 10
89.0
 20
815.0141999999998
 30
0.0
 11
89.0
 21
818.638620481928
 31
0.0
  0
LINE
  5
394
330
1E
100
AcDbEntity
  8
0
100
AcDbLine
 10
89.0
 20
815.0141999999998
 30
0.0
 11
89.0
 21
808.5295
 31
0.0
  0
LINE
  5
395
330
1E
100
AcDbEntity
  8
0
100
AcDbLine
 10
84.69274
 20
827.3633
 30
0.0
 11
85.20650000000001
 21
826.6173999999999
 31
0.0
  0
LINE
  5
396
330
1E
100
AcDbEntity
  8
0
100
AcDbLine
 10
84.62918
 20
829.2009
 30
0.0
 11
84.69274
 21
827.3633
 31
0.0
  0
LINE
  5
397
330
1E
100
AcDbEntity
  8
0
100
AcDbLine
 10
85.19829948294121
 20
826.854338209862
 30
0.0
 11
85.20650000000001
 21
826.6173999999999
 31
0.0
  0
LINE
  5
398
330
1E
100
AcDbEntity
  8
0
100
AcDbLine
 10
84.43702
 20
837.7981
 30
0.0
 11
85.06059999999999
 21
837.9137
 31
0.0
  0
LINE
  5
399
330
1E
100
AcDbEntity
  8
0
100
AcDbLine
 10
85.06059999999999
 20
837.9137
 30
0.0
 11
85.58190000000001
 21
838.1095999999999
 31
0.0
  0
LINE
  5
39A
330
1E
100
AcDbEntity
  8
0
100
AcDbLine
 10
86.99609999999999
 20
833.7854999999999
 30
0.0
 11
88.21240000000001
 21
833.0683999999999
 31
0.0
  0
LINE
  5
39B
330
1E
100
AcDbEntity
  8
0
100
AcDbLine
 10
86.99609999999999
 20
833.7854999999999
 30
0.0
 11
88.5828
 21
834.3943000000001
 31
0.0
  0
LINE
  5
39C
330
1E
100
AcDbEntity
  8
0
100
AcDbLine
 10
88.7857361443117
 20
820.288394853728
 30
0.0
 11
88.8404
 21
819.5943999999999
 31
0.0
  0
LINE
  5
39D
330
1E
100
AcDbEntity
  8
0
100
AcDbLine
 10
88.8404
 20
819.5943999999999
 30
0.0
 11
89.335
 21
819.1824999999999
 31
0.0
  0
LINE
  5
39E
330
1E
100
AcDbEntity
  8
0
100
AcDbLine
 10
88.8404
 20
819.5943999999999
 30
0.0
 11
90.7722
 21
819.8532
 31
0.0
  0
LINE
  5
39F
330
1E
100
AcDbEntity
  8
0
100
AcDbLine
 10
89.335
 20
819.1824999999999
 30
0.0
 11
91.2668
 21
819.4412999999999
 31
0.0
  0
LINE
  5
3A0
330
1E
100
AcDbEntity
  8
0
100
AcDbLine
 10
88.5828
 20
834.3943000000001
 30
0.0
 11
89.7991
 21
833.6771
 31
0.0
  0
LINE
  5
3A1
330
1E
100
AcDbEntity
  8
0
100
AcDbLine
 10
88.21240000000001
 20
833.0683999999999
 30
0.0
 11
89.7991
 21
833.6771
 31
0.0
  0
LINE
  5
3A2
330
1E
100
AcDbEntity
  8
0
100
AcDbLine
 10
88.56366781161119
 20
835.030238088631
 30
0.0
 11
88.5828
 21
834.3943000000001
 31
0.0
  0
LINE
  5
3A3
330
1E
100
AcDbEntity
  8
0
100
AcDbLine
 10
86.95073997599122
 20
835.293229611593
 30
0.0
 11
86.99609999999999
 21
833.7854999999999
 31
0.0
  0
LINE
  5
3A4
330
1E
100
AcDbEntity
  8
0
100
AcDbLine
 10
89.76542971916581
 20
834.7983838806099
 30
0.0
 11
89.7991
 21
833.6771
 31
0.0
  0
LINE
  5
3A5
330
1E
100
AcDbEntity
  8
0
100
AcDbLine
 10
85.58190000000001
 20
838.1095999999999
 30
0.0
 11
85.99850000000001
 21
838.382
 31
0.0
  0
LINE
  5
3A6
330
1E
100
AcDbEntity
  8
0
100
AcDbLine
 10
84.69274
 20
859.673
 30
0.0
 11
85.20650000000001
 21
860.8450000000001
 31
0.0
  0
LINE
  5
3A7
330
1E
100
AcDbEntity
  8
0
100
AcDbLine
 10
84.7179021578858
 20
853.4618714893909
 30
0.0
 11
84.72827999999999
 21
852.9355999999999
 31
0.0
  0
LINE
  5
3A8
330
1E
100
AcDbEntity
  8
0
100
AcDbLine
 10
85.1429
 20
862.4450000000001
 30
0.0
 11
85.20650000000001
 21
860.8450000000001
 31
0.0
  0
LINE
  5
3A9
330
1E
100
AcDbEntity
  8
0
100
AcDbLine
 10
85.0609
 20
840.1305999999999
 30
0.0
 11
85.6057
 21
839.9224999999999
 31
0.0
  0
LINE
  5
3AA
330
1E
100
AcDbEntity
  8
0
100
AcDbLine
 10
85.6057
 20
839.9224999999999
 30
0.0
 11
85.99760000000001
 21
839.6615999999999
 31
0.0
  0
LINE
  5
3AB
330
1E
100
AcDbEntity
  8
0
100
AcDbLine
 10
85.99760000000001
 20
839.6615999999999
 30
0.0
 11
86.22899999999999
 21
839.3499999999999
 31
0.0
  0
LINE
  5
3AC
330
1E
100
AcDbEntity
  8
0
100
AcDbLine
 10
86.22899999999999
 20
839.3499999999999
 30
0.0
 11
86.34059999999999
 21
839.0221999999999
 31
0.0
  0
LINE
  5
3AD
330
1E
100
AcDbEntity
  8
0
100
AcDbLine
 10
88.68759999999999
 20
876.481
 30
0.0
 11
88.8404
 21
875.111
 31
0.0
  0
LINE
  5
3AE
330
1E
100
AcDbEntity
  8
0
100
AcDbLine
 10
88.8404
 20
875.111
 30
0.0
 11
89.335
 21
876.5449999999999
 31
0.0
  0
LINE
  5
3AF
330
1E
100
AcDbEntity
  8
0
100
AcDbLine
 10
88.8404
 20
875.111
 30
0.0
 11
90.7722
 21
874.8519999999999
 31
0.0
  0
LINE
  5
3B0
330
1E
100
AcDbEntity
  8
0
100
AcDbLine
 10
89.23347734379552
 20
877.455248946336
 30
0.0
 11
89.335
 21
876.5449999999999
 31
0.0
  0
LINE
  5
3B1
330
1E
100
AcDbEntity
  8
0
100
AcDbLine
 10
89.335
 20
876.5449999999999
 30
0.0
 11
91.2668
 21
876.2860000000001
 31
0.0
  0
LINE
  5
3B2
330
1E
100
AcDbEntity
  8
0
100
AcDbLine
 10
86.26179999999999
 20
838.6984999999999
 30
0.0
 11
86.93548126795851
 21
839.888905511072
 31
0.0
  0
LINE
  5
3B3
330
1E
100
AcDbEntity
  8
0
100
AcDbLine
 10
86.26179999999999
 20
838.6984999999999
 30
0.0
 11
86.34059999999999
 21
839.0221999999999
 31
0.0
  0
LINE
  5
3B4
330
1E
100
AcDbEntity
  8
0
100
AcDbLine
 10
85.99850000000001
 20
838.382
 30
0.0
 11
86.26179999999999
 21
838.6984999999999
 31
0.0
  0
LINE
  5
3B5
330
1E
100
AcDbEntity
  8
0
100
AcDbLine
 10
84.42806
 20
840.2623999999999
 30
0.0
 11
85.0609
 21
840.1305999999999
 31
0.0
  0
LINE
  5
3B6
330
1E
100
AcDbEntity
  8
0
100
AcDbLine
 10
89.0
 20
818.638620481928
 30
0.0
 11
89.0
 21
815.0141999999998
 31
0.0
  0
LINE
  5
3B7
330
1E
100
AcDbEntity
  8
0
100
AcDbLine
 10
84.40000000000001
 20
891.0809999999999
 30
0.0
 11
93.59999999999999
 21
890.131
 31
0.0
  0
LINE
  5
3B8
330
1E
100
AcDbEntity
  8
0
100
AcDbLine
 10
87.42995348837601
 20
900.2162093023249
 30
0.0
 11
91.79999999999999
 21
899.7949999999999
 31
0.0
  0
LINE
  5
3B9
330
1E
100
AcDbEntity
  8
0
100
AcDbLine
 10
90.7722
 20
819.8532
 30
0.0
 11
91.2668
 21
819.4412999999999
 31
0.0
  0
LINE
  5
3BA
330
1E
100
AcDbEntity
  8
0
100
AcDbLine
 10
90.61950000000001
 20
821.7931
 30
0.0
 11
90.7722
 21
819.8532
 31
0.0
  0
LINE
  5
3BB
330
1E
100
AcDbEntity
  8
0
100
AcDbLine
 10
91.2068515819495
 20
820.2028843888429
 30
0.0
 11
91.2668
 21
819.4412999999999
 31
0.0
  0
LINE
  5
3BC
330
1E
100
AcDbEntity
  8
0
100
AcDbLine
 10
90.94990691974459
 20
829.3071494250019
 30
0.0
 11
90.99290000000001
 21
828.6680999999999
 31
0.0
  0
LINE
  5
3BD
330
1E
100
AcDbEntity
  8
0
100
AcDbLine
 10
90.99290000000001
 20
828.6680999999999
 30
0.0
 11
91.98529999999999
 21
828.0213999999999
 31
0.0
  0
LINE
  5
3BE
330
1E
100
AcDbEntity
  8
0
100
AcDbLine
 10
90.99290000000001
 20
828.6680999999999
 30
0.0
 11
92.72490000000001
 21
829.1681
 31
0.0
  0
LINE
  5
3BF
330
1E
100
AcDbEntity
  8
0
100
AcDbLine
 10
91.37265970317541
 20
824.918146375567
 30
0.0
 11
91.45290000000001
 21
823.9571999999999
 31
0.0
  0
LINE
  5
3C0
330
1E
100
AcDbEntity
  8
0
100
AcDbLine
 10
91.45290000000001
 20
823.9571999999999
 30
0.0
 11
92.2019
 21
823.4092
 31
0.0
  0
LINE
  5
3C1
330
1E
100
AcDbEntity
  8
0
100
AcDbLine
 10
91.45290000000001
 20
823.9571999999999
 30
0.0
 11
93.3007
 21
824.3399
 31
0.0
  0
LINE
  5
3C2
330
1E
100
AcDbEntity
  8
0
100
AcDbLine
 10
90.7722
 20
874.8519999999999
 30
0.0
 11
91.2668
 21
876.2860000000001
 31
0.0
  0
LINE
  5
3C3
330
1E
100
AcDbEntity
  8
0
100
AcDbLine
 10
90.8979193086489
 20
859.615814938583
 30
0.0
 11
90.99290000000001
 21
858.3689999999998
 31
0.0
  0
LINE
  5
3C4
330
1E
100
AcDbEntity
  8
0
100
AcDbLine
 10
90.99290000000001
 20
858.3689999999998
 30
0.0
 11
91.98529999999999
 21
859.4409999999999
 31
0.0
  0
LINE
  5
3C5
330
1E
100
AcDbEntity
  8
0
100
AcDbLine
 10
90.99290000000001
 20
858.3689999999998
 30
0.0
 11
92.72490000000001
 21
857.8689999999999
 31
0.0
  0
LINE
  5
3C6
330
1E
100
AcDbEntity
  8
0
100
AcDbLine
 10
91.16448292144708
 20
877.2039724794851
 30
0.0
 11
91.2668
 21
876.2860000000001
 31
0.0
  0
LINE
  5
3C7
330
1E
100
AcDbEntity
  8
0
100
AcDbLine
 10
91.34844308272681
 20
867.2897780209419
 30
0.0
 11
91.45290000000001
 21
866.291
 31
0.0
  0
LINE
  5
3C8
330
1E
100
AcDbEntity
  8
0
100
AcDbLine
 10
91.45290000000001
 20
866.291
 30
0.0
 11
92.2019
 21
867.551
 31
0.0
  0
LINE
  5
3C9
330
1E
100
AcDbEntity
  8
0
100
AcDbLine
 10
91.45290000000001
 20
866.291
 30
0.0
 11
93.3007
 21
865.9080000000001
 31
0.0
  0
LINE
  5
3CA
330
1E
100
AcDbEntity
  8
0
100
AcDbLine
 10
91.00280428241301
 20
850.593302651178
 30
0.0
 11
91.05870000000001
 21
849.215
 31
0.0
  0
LINE
  5
3CB
330
1E
100
AcDbEntity
  8
0
100
AcDbLine
 10
91.05870000000001
 20
849.215
 30
0.0
 11
92.6439
 21
849.8986999999999
 31
0.0
  0
LINE
  5
3CC
330
1E
100
AcDbEntity
  8
0
100
AcDbLine
 10
91.05870000000001
 20
849.215
 30
0.0
 11
92.27619999999999
 21
848.4216999999999
 31
0.0
  0
LINE
  5
3CD
330
1E
100
AcDbEntity
  8
0
100
AcDbLine
 10
91.79999999999999
 20
818.9085
 30
0.0
 11
99.8
 21
820.3084999999999
 31
0.0
  0
LINE
  5
3CE
330
1E
100
AcDbEntity
  8
0
100
AcDbLine
 10
91.79999999999999
 20
881.6080000000001
 30
0.0
 11
99.8
 21
880.2080000000001
 31
0.0
  0
LINE
  5
3CF
330
1E
100
AcDbEntity
  8
0
100
AcDbLine
 10
91.98529999999999
 20
828.0213999999999
 30
0.0
 11
93.7174
 21
828.5213999999999
 31
0.0
  0
LINE
  5
3D0
330
1E
100
AcDbEntity
  8
0
100
AcDbLine
 10
92.2019
 20
823.4092
 30
0.0
 11
94.0497
 21
823.7919000000001
 31
0.0
  0
LINE
  5
3D1
330
1E
100
AcDbEntity
  8
0
100
AcDbLine
 10
93.3007
 20
824.3399
 30
0.0
 11
94.0497
 21
823.7919000000001
 31
0.0
  0
LINE
  5
3D2
330
1E
100
AcDbEntity
  8
0
100
AcDbLine
 10
92.72490000000001
 20
829.1681
 30
0.0
 11
93.7174
 21
828.5213999999999
 31
0.0
  0
LINE
  5
3D3
330
1E
100
AcDbEntity
  8
0
100
AcDbLine
 10
92.61045850677401
 20
830.869159100858
 30
0.0
 11
92.72490000000001
 21
829.1681
 31
0.0
  0
LINE
  5
3D4
330
1E
100
AcDbEntity
  8
0
100
AcDbLine
 10
93.5946
 20
830.3466
 30
0.0
 11
93.7174
 21
828.5213999999999
 31
0.0
  0
LINE
  5
3D5
330
1E
100
AcDbEntity
  8
0
100
AcDbLine
 10
93.2209298854941
 20
825.2952155390319
 30
0.0
 11
93.3007
 21
824.3399
 31
0.0
  0
LINE
  5
3D6
330
1E
100
AcDbEntity
  8
0
100
AcDbLine
 10
92.27619999999999
 20
848.4216999999999
 30
0.0
 11
93.86140000000001
 21
849.1053
 31
0.0
  0
LINE
  5
3D7
330
1E
100
AcDbEntity
  8
0
100
AcDbLine
 10
92.0446
 20
869.0570000000001
 30
0.0
 11
92.2019
 21
867.551
 31
0.0
  0
LINE
  5
3D8
330
1E
100
AcDbEntity
  8
0
100
AcDbLine
 10
92.2019
 20
867.551
 30
0.0
 11
94.0497
 21
867.1689999999999
 31
0.0
  0
LINE
  5
3D9
330
1E
100
AcDbEntity
  8
0
100
AcDbLine
 10
91.93155890025641
 20
860.1464613419111
 30
0.0
 11
91.98529999999999
 21
859.4409999999999
 31
0.0
  0
LINE
  5
3DA
330
1E
100
AcDbEntity
  8
0
100
AcDbLine
 10
91.98529999999999
 20
859.4409999999999
 30
0.0
 11
93.7174
 21
858.941
 31
0.0
  0
LINE
  5
3DB
330
1E
100
AcDbEntity
  8
0
100
AcDbLine
 10
92.72490000000001
 20
857.8689999999999
 30
0.0
 11
93.7174
 21
858.941
 31
0.0
  0
LINE
  5
3DC
330
1E
100
AcDbEntity
  8
0
100
AcDbLine
 10
93.3007
 20
865.9080000000001
 30
0.0
 11
94.0497
 21
867.1689999999999
 31
0.0
  0
LINE
  5
3DD
330
1E
100
AcDbEntity
  8
0
100
AcDbLine
 10
93.5946
 20
860.5529999999999
 30
0.0
 11
93.7174
 21
858.941
 31
0.0
  0
LINE
  5
3DE
330
1E
100
AcDbEntity
  8
0
100
AcDbLine
 10
92.5968413047328
 20
851.0590271345328
 30
0.0
 11
92.6439
 21
849.8986999999999
 31
0.0
  0
LINE
  5
3DF
330
1E
100
AcDbEntity
  8
0
100
AcDbLine
 10
92.6439
 20
849.8986999999999
 30
0.0
 11
93.86140000000001
 21
849.1053
 31
0.0
  0
LINE
  5
3E0
330
1E
100
AcDbEntity
  8
0
100
AcDbLine
 10
91.79999999999999
 20
882.4749999999999
 30
0.0
 11
99.8
 21
881.075
 31
0.0
  0
LINE
  5
3E1
330
1E
100
AcDbEntity
  8
0
100
AcDbLine
 10
93.59999999999999
 20
890.0310000000001
 30
0.0
 11
102.4999999999999
 21
888.531
 31
0.0
  0
LINE
  5
3E2
330
1E
100
AcDbEntity
  8
0
100
AcDbLine
 10
93.94654567248052
 20
825.0272615462151
 30
0.0
 11
94.0497
 21
823.7919000000001
 31
0.0
  0
LINE
  5
3E3
330
1E
100
AcDbEntity
  8
0
100
AcDbLine
 10
94.02700000000001
 20
837.9417999999999
 30
0.0
 11
94.7924
 21
838.8657
 31
0.0
  0
LINE
  5
3E4
330
1E
100
AcDbEntity
  8
0
100
AcDbLine
 10
94.02700000000001
 20
837.9417999999999
 30
0.0
 11
95.87299999999999
 21
837.6349000000001
 31
0.0
  0
LINE
  5
3E5
330
1E
100
AcDbEntity
  8
0
100
AcDbLine
 10
93.96678346215981
 20
839.2486858790149
 30
0.0
 11
94.02700000000001
 21
837.9417999999999
 31
0.0
  0
LINE
  5
3E6
330
1E
100
AcDbEntity
  8
0
100
AcDbLine
 10
94.7622461386347
 20
839.5201324371599
 30
0.0
 11
94.7924
 21
838.8657
 31
0.0
  0
LINE
  5
3E7
330
1E
100
AcDbEntity
  8
0
100
AcDbLine
 10
94.7924
 20
838.8657
 30
0.0
 11
96.6384
 21
838.5588
 31
0.0
  0
LINE
  5
3E8
330
1E
100
AcDbEntity
  8
0
100
AcDbLine
 10
96.58734830454712
 20
839.666780336965
 30
0.0
 11
96.6384
 21
838.5588
 31
0.0
  0
LINE
  5
3E9
330
1E
100
AcDbEntity
  8
0
100
AcDbLine
 10
95.87299999999999
 20
837.6349000000001
 30
0.0
 11
96.6384
 21
838.5588
 31
0.0
  0
LINE
  5
3EA
330
1E
100
AcDbEntity
  8
0
100
AcDbLine
 10
95.6986
 20
844.2904999999999
 30
0.0
 11
95.95969999999999
 21
843.299
 31
0.0
  0
LINE
  5
3EB
330
1E
100
AcDbEntity
  8
0
100
AcDbLine
 10
95.6986
 20
844.2904999999999
 30
0.0
 11
97.6796
 21
844.4962999999999
 31
0.0
  0
LINE
  5
3EC
330
1E
100
AcDbEntity
  8
0
100
AcDbLine
 10
95.95969999999999
 20
843.299
 30
0.0
 11
97.94070000000001
 21
843.5049000000001
 31
0.0
  0
LINE
  5
3ED
330
1E
100
AcDbEntity
  8
0
100
AcDbLine
 10
98.06854390860509
 20
831.934683188491
 30
0.0
 11
98.13500000000001
 21
831.2438
 31
0.0
  0
LINE
  5
3EE
330
1E
100
AcDbEntity
  8
0
100
AcDbLine
 10
98.13500000000001
 20
831.2438
 30
0.0
 11
99.5385
 21
830.7546999999999
 31
0.0
  0
LINE
  5
3EF
330
1E
100
AcDbEntity
  8
0
100
AcDbLine
 10
98.13500000000001
 20
831.2438
 30
0.0
 11
99.54920000000001
 21
831.9509
 31
0.0
  0
LINE
  5
3F0
330
1E
100
AcDbEntity
  8
0
100
AcDbLine
 10
97.9091444364251
 20
844.1348060242789
 30
0.0
 11
97.94070000000001
 21
843.5049000000001
 31
0.0
  0
LINE
  5
3F1
330
1E
100
AcDbEntity
  8
0
100
AcDbLine
 10
95.63324784914009
 20
845.596558569966
 30
0.0
 11
95.6986
 21
844.2904999999999
 31
0.0
  0
LINE
  5
3F2
330
1E
100
AcDbEntity
  8
0
100
AcDbLine
 10
97.62320344721791
 20
845.6233815131319
 30
0.0
 11
97.6796
 21
844.4962999999999
 31
0.0
  0
LINE
  5
3F3
330
1E
100
AcDbEntity
  8
0
100
AcDbLine
 10
97.6796
 20
844.4962999999999
 30
0.0
 11
97.94070000000001
 21
843.5049000000001
 31
0.0
  0
LINE
  5
3F4
330
1E
100
AcDbEntity
  8
0
100
AcDbLine
 10
99.38890213462611
 20
833.6173702665069
 30
0.0
 11
99.54920000000001
 21
831.9509
 31
0.0
  0
LINE
  5
3F5
330
1E
100
AcDbEntity
  8
0
100
AcDbLine
 10
99.54920000000001
 20
831.9509
 30
0.0
 11
100.9526999999999
 21
831.4618000000001
 31
0.0
  0
LINE
  5
3F6
330
1E
100
AcDbEntity
  8
0
100
AcDbLine
 10
99.5385
 20
830.7546999999999
 30
0.0
 11
100.9526999999999
 21
831.4618000000001
 31
0.0
  0
LINE
  5
3F7
330
1E
100
AcDbEntity
  8
0
100
AcDbLine
 10
99.54920000000001
 20
855.0859
 30
0.0
 11
100.9526999999999
 21
856.0
 31
0.0
  0
LINE
  5
3F8
330
1E
100
AcDbEntity
  8
0
100
AcDbLine
 10
98.13500000000001
 20
855.793
 30
0.0
 11
99.5385
 21
856.7069999999999
 31
0.0
  0
LINE
  5
3F9
330
1E
100
AcDbEntity
  8
0
100
AcDbLine
 10
98.13500000000001
 20
855.793
 30
0.0
 11
99.54920000000001
 21
855.0859
 31
0.0
  0
LINE
  5
3FA
330
1E
100
AcDbEntity
  8
0
100
AcDbLine
 10
93.993562758875
 20
867.705763328419
 30
0.0
 11
94.0497
 21
867.1689999999999
 31
0.0
  0
LINE
  5
3FB
330
1E
100
AcDbEntity
  8
0
100
AcDbLine
 10
98.01208462450491
 20
856.9478525780541
 30
0.0
 11
98.13500000000001
 21
855.793
 31
0.0
  0
LINE
  5
3FC
330
1E
100
AcDbEntity
  8
0
100
AcDbLine
 10
99.4647568229443
 20
857.400279263857
 30
0.0
 11
99.5385
 21
856.7069999999999
 31
0.0
  0
LINE
  5
3FD
330
1E
100
AcDbEntity
  8
0
100
AcDbLine
 10
99.5385
 20
856.7069999999999
 30
0.0
 11
100.9526999999999
 21
856.0
 31
0.0
  0
LINE
  5
3FE
330
1E
100
AcDbEntity
  8
0
100
AcDbLine
 10
93.8375100942332
 20
849.6943884288869
 30
0.0
 11
93.86140000000001
 21
849.1053
 31
0.0
  0
LINE
  5
3FF
330
1E
100
AcDbEntity
  8
0
100
AcDbLine
 10
99.8
 20
820.3084999999999
 30
0.0
 11
107.4
 21
822.1085
 31
0.0
  0
LINE
  5
400
330
1E
100
AcDbEntity
  8
0
100
AcDbLine
 10
99.8
 20
880.2080000000001
 30
0.0
 11
107.4
 21
878.4080000000001
 31
0.0
  0
LINE
  5
401
330
1E
100
AcDbEntity
  8
0
100
AcDbLine
 10
99.8
 20
881.075
 30
0.0
 11
107.4
 21
879.2749999999999
 31
0.0
  0
LINE
  5
402
330
1E
100
AcDbEntity
  8
0
100
AcDbLine
 10
93.59999999999999
 20
890.131
 30
0.0
 11
102.6
 21
888.6310000000001
 31
0.0
  0
LINE
  5
403
330
1E
100
AcDbEntity
  8
0
100
AcDbLine
 10
91.79999999999999
 20
899.7949999999999
 30
0.0
 11
92.79999999999999
 21
899.6669999999999
 31
0.0
  0
LINE
  5
404
330
1E
100
AcDbEntity
  8
0
100
AcDbLine
 10
92.79999999999999
 20
899.6669999999999
 30
0.0
 11
101.4
 21
898.2169999999999
 31
0.0
  0
LINE
  5
405
330
1E
100
AcDbEntity
  8
0
100
AcDbLine
 10
100.0
 20
898.4530465116279
 30
0.0
 11
100.0
 21
948.0
 31
0.0
  0
LINE
  5
406
330
1E
100
AcDbEntity
  8
0
100
AcDbLine
 10
90.0
 20
818.7350060240961
 30
0.0
 11
90.0
 21
760.0
 31
0.0
  0
LINE
  5
407
330
1E
100
AcDbEntity
  8
0
100
AcDbLine
 10
90.0
 20
948.0
 30
0.0
 11
90.0
 21
899.9684939759029
 31
0.0
  0
LINE
  5
408
330
1E
100
AcDbEntity
  8
0
100
AcDbLine
 10
102.628666914312
 20
823.036132576971
 30
0.0
 11
102.7374999999999
 21
822.3313
 31
0.0
  0
LINE
  5
409
330
1E
100
AcDbEntity
  8
0
100
AcDbLine
 10
104.4696
 20
822.8312999999999
 30
0.0
 11
105.4251
 21
822.5148
 31
0.0
  0
LINE
  5
40A
330
1E
100
AcDbEntity
  8
0
100
AcDbLine
 10
104.1746
 20
824.7417999999999
 30
0.0
 11
104.4696
 21
822.8312999999999
 31
0.0
  0
LINE
  5
40B
330
1E
100
AcDbEntity
  8
0
100
AcDbLine
 10
102.7374999999999
 20
822.3313
 30
0.0
 11
103.6929999999999
 21
822.0148
 31
0.0
  0
LINE
  5
40C
330
1E
100
AcDbEntity
  8
0
100
AcDbLine
 10
102.7374999999999
 20
822.3313
 30
0.0
 11
104.4696
 21
822.8312999999999
 31
0.0
  0
LINE
  5
40D
330
1E
100
AcDbEntity
  8
0
100
AcDbLine
 10
103.6929999999999
 20
822.0148
 30
0.0
 11
105.4251
 21
822.5148
 31
0.0
  0
LINE
  5
40E
330
1E
100
AcDbEntity
  8
0
100
AcDbLine
 10
105.31294274378
 20
823.2409146662449
 30
0.0
 11
105.4251
 21
822.5148
 31
0.0
  0
LINE
  5
40F
330
1E
100
AcDbEntity
  8
0
100
AcDbLine
 10
101.8491
 20
826.8076
 30
0.0
 11
103.0407
 21
826.3873
 31
0.0
  0
LINE
  5
410
330
1E
100
AcDbEntity
  8
0
100
AcDbLine
 10
101.8491
 20
826.8076
 30
0.0
 11
103.4359
 21
827.4163999999998
 31
0.0
  0
LINE
  5
411
330
1E
100
AcDbEntity
  8
0
100
AcDbLine
 10
103.0407
 20
826.3873
 30
0.0
 11
104.6273999999999
 21
826.9961
 31
0.0
  0
LINE
  5
412
330
1E
100
AcDbEntity
  8
0
100
AcDbLine
 10
114.7443999999999
 20
826.7734
 30
0.0
 11
116.0957
 21
826.6087999999999
 31
0.0
  0
LINE
  5
413
330
1E
100
AcDbEntity
  8
0
100
AcDbLine
 10
114.7443999999999
 20
826.7734
 30
0.0
 11
116.1586
 21
827.4805
 31
0.0
  0
LINE
  5
414
330
1E
100
AcDbEntity
  8
0
100
AcDbLine
 10
116.0957
 20
826.6087999999999
 30
0.0
 11
117.5099
 21
827.3159000000001
 31
0.0
  0
LINE
  5
415
330
1E
100
AcDbEntity
  8
0
100
AcDbLine
 10
114.5
 20
824.5084999999999
 30
0.0
 11
120.9
 21
827.3085
 31
0.0
  0
LINE
  5
416
330
1E
100
AcDbEntity
  8
0
100
AcDbLine
 10
107.4
 20
822.1085
 30
0.0
 11
114.5
 21
824.5084999999999
 31
0.0
  0
LINE
  5
417
330
1E
100
AcDbEntity
  8
0
100
AcDbLine
 10
103.4359
 20
827.4163999999998
 30
0.0
 11
104.6273999999999
 21
826.9961
 31
0.0
  0
LINE
  5
418
330
1E
100
AcDbEntity
  8
0
100
AcDbLine
 10
103.314419614497
 20
828.3178484996151
 30
0.0
 11
103.4359
 21
827.4163999999998
 31
0.0
  0
LINE
  5
419
330
1E
100
AcDbEntity
  8
0
100
AcDbLine
 10
101.673159473993
 20
828.11376334569
 30
0.0
 11
101.8491
 21
826.8076
 31
0.0
  0
LINE
  5
41A
330
1E
100
AcDbEntity
  8
0
100
AcDbLine
 10
116.1586
 20
827.4805
 30
0.0
 11
117.5099
 21
827.3159000000001
 31
0.0
  0
LINE
  5
41B
330
1E
100
AcDbEntity
  8
0
100
AcDbLine
 10
116.050867628719
 20
827.9617321359539
 30
0.0
 11
116.1586
 21
827.4805
 31
0.0
  0
LINE
  5
41C
330
1E
100
AcDbEntity
  8
0
100
AcDbLine
 10
114.585984209542
 20
827.48103103331
 30
0.0
 11
114.7443999999999
 21
826.7734
 31
0.0
  0
LINE
  5
41D
330
1E
100
AcDbEntity
  8
0
100
AcDbLine
 10
117.3548990895859
 20
828.0082770293549
 30
0.0
 11
117.5099
 21
827.3159000000001
 31
0.0
  0
LINE
  5
41E
330
1E
100
AcDbEntity
  8
0
100
AcDbLine
 10
104.465006924295
 20
828.2012070817689
 30
0.0
 11
104.6273999999999
 21
826.9961
 31
0.0
  0
LINE
  5
41F
330
1E
100
AcDbEntity
  8
0
100
AcDbLine
 10
120.9
 20
827.3085
 30
0.0
 11
126.5
 21
830.5085
 31
0.0
  0
LINE
  5
420
330
1E
100
AcDbEntity
  8
0
100
AcDbLine
 10
122.6180458015269
 20
828.290240458015
 30
0.0
 11
123.7999999999999
 21
828.803
 31
0.0
  0
LINE
  5
421
330
1E
100
AcDbEntity
  8
0
100
AcDbLine
 10
123.7999999999999
 20
828.803
 30
0.0
 11
125.9
 21
829.8314000000001
 31
0.0
  0
LINE
  5
422
330
1E
100
AcDbEntity
  8
0
100
AcDbLine
 10
124.769597322567
 20
829.3378439014018
 30
0.0
 11
125.9
 21
829.8314000000001
 31
0.0
  0
LINE
  5
423
330
1E
100
AcDbEntity
  8
0
100
AcDbLine
 10
122.36505882353
 20
828.1456764705881
 30
0.0
 11
126.0
 21
829.7813999999998
 31
0.0
  0
LINE
  5
424
330
1E
100
AcDbEntity
  8
0
100
AcDbLine
 10
111.6332
 20
831.6995999999999
 30
0.0
 11
113.186
 21
831.46
 31
0.0
  0
LINE
  5
425
330
1E
100
AcDbEntity
  8
0
100
AcDbLine
 10
111.483672095517
 20
832.533711834939
 30
0.0
 11
111.6332
 21
831.6995999999999
 31
0.0
  0
LINE
  5
426
330
1E
100
AcDbEntity
  8
0
100
AcDbLine
 10
110.185474658601
 20
832.1904022268968
 30
0.0
 11
110.4155999999999
 21
830.9063
 31
0.0
  0
LINE
  5
427
330
1E
100
AcDbEntity
  8
0
100
AcDbLine
 10
110.4155999999999
 20
830.9063
 30
0.0
 11
111.9685
 21
830.6665999999999
 31
0.0
  0
LINE
  5
428
330
1E
100
AcDbEntity
  8
0
100
AcDbLine
 10
110.4155999999999
 20
830.9063
 30
0.0
 11
111.6332
 21
831.6995999999999
 31
0.0
  0
LINE
  5
429
330
1E
100
AcDbEntity
  8
0
100
AcDbLine
 10
124.0428
 20
832.6178999999999
 30
0.0
 11
125.0428
 21
833.4839999999999
 31
0.0
  0
LINE
  5
42A
330
1E
100
AcDbEntity
  8
0
100
AcDbLine
 10
124.0428
 20
832.6178999999999
 30
0.0
 11
125.6977999999999
 21
832.6512000000001
 31
0.0
  0
LINE
  5
42B
330
1E
100
AcDbEntity
  8
0
100
AcDbLine
 10
125.6977999999999
 20
832.6512000000001
 30
0.0
 11
126.6977999999999
 21
833.5172
 31
0.0
  0
LINE
  5
42C
330
1E
100
AcDbEntity
  8
0
100
AcDbLine
 10
111.9685
 20
830.6665999999999
 30
0.0
 11
113.186
 21
831.46
 31
0.0
  0
LINE
  5
42D
330
1E
100
AcDbEntity
  8
0
100
AcDbLine
 10
112.9690605249699
 20
832.6701539456021
 30
0.0
 11
113.186
 21
831.46
 31
0.0
  0
LINE
  5
42E
330
1E
100
AcDbEntity
  8
0
100
AcDbLine
 10
100.9233013540679
 20
831.767606882625
 30
0.0
 11
100.9526999999999
 21
831.4618000000001
 31
0.0
  0
LINE
  5
42F
330
1E
100
AcDbEntity
  8
0
100
AcDbLine
 10
125.9
 20
829.8314000000001
 30
0.0
 11
132.0999999999999
 21
833.3814
 31
0.0
  0
LINE
  5
430
330
1E
100
AcDbEntity
  8
0
100
AcDbLine
 10
126.5
 20
830.5085
 30
0.0
 11
131.3
 21
834.0585
 31
0.0
  0
LINE
  5
431
330
1E
100
AcDbEntity
  8
0
100
AcDbLine
 10
126.0
 20
829.7813999999998
 30
0.0
 11
132.3
 21
833.2813999999999
 31
0.0
  0
LINE
  5
432
330
1E
100
AcDbEntity
  8
0
100
AcDbLine
 10
124.8847392364839
 20
834.041512172528
 30
0.0
 11
125.0428
 21
833.4839999999999
 31
0.0
  0
LINE
  5
433
330
1E
100
AcDbEntity
  8
0
100
AcDbLine
 10
125.0428
 20
833.4839999999999
 30
0.0
 11
126.6977999999999
 21
833.5172
 31
0.0
  0
LINE
  5
434
330
1E
100
AcDbEntity
  8
0
100
AcDbLine
 10
126.5470603393269
 20
834.0489186660718
 30
0.0
 11
126.6977999999999
 21
833.5172
 31
0.0
  0
LINE
  5
435
330
1E
100
AcDbEntity
  8
0
100
AcDbLine
 10
103.7005
 20
834.6558999999999
 30
0.0
 11
104.7004999999999
 21
835.5218999999999
 31
0.0
  0
LINE
  5
436
330
1E
100
AcDbEntity
  8
0
100
AcDbLine
 10
103.7005
 20
834.6558999999999
 30
0.0
 11
105.4194
 21
834.3723999999999
 31
0.0
  0
LINE
  5
437
330
1E
100
AcDbEntity
  8
0
100
AcDbLine
 10
103.6157924870779
 20
835.3649421062829
 30
0.0
 11
103.7005
 21
834.6558999999999
 31
0.0
  0
LINE
  5
438
330
1E
100
AcDbEntity
  8
0
100
AcDbLine
 10
104.6488724743749
 20
835.954046904666
 30
0.0
 11
104.7004999999999
 21
835.5218999999999
 31
0.0
  0
LINE
  5
439
330
1E
100
AcDbEntity
  8
0
100
AcDbLine
 10
104.7004999999999
 20
835.5218999999999
 30
0.0
 11
106.4194
 21
835.2383999999998
 31
0.0
  0
LINE
  5
43A
330
1E
100
AcDbEntity
  8
0
100
AcDbLine
 10
106.367605015021
 20
835.6719486189819
 30
0.0
 11
106.4194
 21
835.2383999999998
 31
0.0
  0
LINE
  5
43B
330
1E
100
AcDbEntity
  8
0
100
AcDbLine
 10
105.4194
 20
834.3723999999999
 30
0.0
 11
106.4194
 21
835.2383999999998
 31
0.0
  0
LINE
  5
43C
330
1E
100
AcDbEntity
  8
0
100
AcDbLine
 10
107.2167585471179
 20
839.3609244585171
 30
0.0
 11
107.3101
 21
838.672
 31
0.0
  0
LINE
  5
43D
330
1E
100
AcDbEntity
  8
0
100
AcDbLine
 10
107.3101
 20
838.672
 30
0.0
 11
107.8276999999999
 21
839.6378999999999
 31
0.0
  0
LINE
  5
43E
330
1E
100
AcDbEntity
  8
0
100
AcDbLine
 10
107.3101
 20
838.672
 30
0.0
 11
109.2273
 21
838.6279
 31
0.0
  0
LINE
  5
43F
330
1E
100
AcDbEntity
  8
0
100
AcDbLine
 10
107.7704812888919
 20
840.060237771531
 30
0.0
 11
107.8276999999999
 21
839.6378999999999
 31
0.0
  0
LINE
  5
440
330
1E
100
AcDbEntity
  8
0
100
AcDbLine
 10
107.8276999999999
 20
839.6378999999999
 30
0.0
 11
109.745
 21
839.5937999999999
 31
0.0
  0
LINE
  5
441
330
1E
100
AcDbEntity
  8
0
100
AcDbLine
 10
116.5685999999999
 20
835.9738
 30
0.0
 11
117.334
 21
836.8976999999999
 31
0.0
  0
LINE
  5
442
330
1E
100
AcDbEntity
  8
0
100
AcDbLine
 10
116.5685999999999
 20
835.9738
 30
0.0
 11
118.3769
 21
835.9555
 31
0.0
  0
LINE
  5
443
330
1E
100
AcDbEntity
  8
0
100
AcDbLine
 10
116.2927680734419
 20
837.261693317529
 30
0.0
 11
116.5685999999999
 21
835.9738
 31
0.0
  0
LINE
  5
444
330
1E
100
AcDbEntity
  8
0
100
AcDbLine
 10
117.1739205182259
 20
837.645088725516
 30
0.0
 11
117.334
 21
836.8976999999999
 31
0.0
  0
LINE
  5
445
330
1E
100
AcDbEntity
  8
0
100
AcDbLine
 10
117.334
 20
836.8976999999999
 30
0.0
 11
119.1423
 21
836.8794000000001
 31
0.0
  0
LINE
  5
446
330
1E
100
AcDbEntity
  8
0
100
AcDbLine
 10
123.605265730345
 20
834.1612571840581
 30
0.0
 11
124.0428
 21
832.6178999999999
 31
0.0
  0
LINE
  5
447
330
1E
100
AcDbEntity
  8
0
100
AcDbLine
 10
129.9989999999999
 20
839.4665999999999
 30
0.0
 11
130.5166999999999
 21
840.4325
 31
0.0
  0
LINE
  5
448
330
1E
100
AcDbEntity
  8
0
100
AcDbLine
 10
129.9989999999999
 20
839.4665999999999
 30
0.0
 11
131.8448999999999
 21
839.7303
 31
0.0
  0
LINE
  5
449
330
1E
100
AcDbEntity
  8
0
100
AcDbLine
 10
131.8448999999999
 20
839.7303
 30
0.0
 11
132.3625
 21
840.6962999999999
 31
0.0
  0
LINE
  5
44A
330
1E
100
AcDbEntity
  8
0
100
AcDbLine
 10
118.877476207352
 20
838.1154998974221
 30
0.0
 11
119.1423
 21
836.8794000000001
 31
0.0
  0
LINE
  5
44B
330
1E
100
AcDbEntity
  8
0
100
AcDbLine
 10
118.3769
 20
835.9555
 30
0.0
 11
119.1423
 21
836.8794000000001
 31
0.0
  0
LINE
  5
44C
330
1E
100
AcDbEntity
  8
0
100
AcDbLine
 10
129.5108052702919
 20
840.9496874461201
 30
0.0
 11
129.9989999999999
 21
839.4665999999999
 31
0.0
  0
LINE
  5
44D
330
1E
100
AcDbEntity
  8
0
100
AcDbLine
 10
130.336675479952
 20
840.97930079221
 30
0.0
 11
130.5166999999999
 21
840.4325
 31
0.0
  0
LINE
  5
44E
330
1E
100
AcDbEntity
  8
0
100
AcDbLine
 10
130.5166999999999
 20
840.4325
 30
0.0
 11
132.3625
 21
840.6962999999999
 31
0.0
  0
LINE
  5
44F
330
1E
100
AcDbEntity
  8
0
100
AcDbLine
 10
132.2467976544629
 20
841.0477923158961
 30
0.0
 11
132.3625
 21
840.6962999999999
 31
0.0
  0
LINE
  5
450
330
1E
100
AcDbEntity
  8
0
100
AcDbLine
 10
109.686279455917
 20
840.027015577435
 30
0.0
 11
109.745
 21
839.5937999999999
 31
0.0
  0
LINE
  5
451
330
1E
100
AcDbEntity
  8
0
100
AcDbLine
 10
109.2273
 20
838.6279
 30
0.0
 11
109.745
 21
839.5937999999999
 31
0.0
  0
LINE
  5
452
330
1E
100
AcDbEntity
  8
0
100
AcDbLine
 10
131.3
 20
834.0585
 30
0.0
 11
134.8999999999999
 21
837.8585000000001
 31
0.0
  0
LINE
  5
453
330
1E
100
AcDbEntity
  8
0
100
AcDbLine
 10
134.8999999999999
 20
837.8585000000001
 30
0.0
 11
137.7
 21
841.8585
 31
0.0
  0
LINE
  5
454
330
1E
100
AcDbEntity
  8
0
100
AcDbLine
 10
132.0999999999999
 20
833.3814
 30
0.0
 11
137.4
 21
837.3314
 31
0.0
  0
LINE
  5
455
330
1E
100
AcDbEntity
  8
0
100
AcDbLine
 10
137.4
 20
837.3314
 30
0.0
 11
141.5
 21
841.5314
 31
0.0
  0
LINE
  5
456
330
1E
100
AcDbEntity
  8
0
100
AcDbLine
 10
132.3
 20
833.2813999999999
 30
0.0
 11
137.5999999999999
 21
837.2813999999999
 31
0.0
  0
LINE
  5
457
330
1E
100
AcDbEntity
  8
0
100
AcDbLine
 10
137.5999999999999
 20
837.2813999999999
 30
0.0
 11
141.6999999999999
 21
841.4813999999999
 31
0.0
  0
LINE
  5
458
330
1E
100
AcDbEntity
  8
0
100
AcDbLine
 10
119.8887999999999
 20
841.665
 30
0.0
 11
120.1497999999999
 21
842.6563999999999
 31
0.0
  0
LINE
  5
459
330
1E
100
AcDbEntity
  8
0
100
AcDbLine
 10
119.8887999999999
 20
841.665
 30
0.0
 11
121.8293
 21
841.8934
 31
0.0
  0
LINE
  5
45A
330
1E
100
AcDbEntity
  8
0
100
AcDbLine
 10
108.7177999999999
 20
844.0184
 30
0.0
 11
108.7177999999999
 21
843.0184
 31
0.0
  0
LINE
  5
45B
330
1E
100
AcDbEntity
  8
0
100
AcDbLine
 10
108.7177999999999
 20
844.0184
 30
0.0
 11
110.7026999999999
 21
844.2311
 31
0.0
  0
LINE
  5
45C
330
1E
100
AcDbEntity
  8
0
100
AcDbLine
 10
108.62883257302
 20
843.641063315291
 30
0.0
 11
108.7177999999999
 21
843.0184
 31
0.0
  0
LINE
  5
45D
330
1E
100
AcDbEntity
  8
0
100
AcDbLine
 10
110.7026999999999
 20
844.2311
 30
0.0
 11
110.7026999999999
 21
843.2311
 31
0.0
  0
LINE
  5
45E
330
1E
100
AcDbEntity
  8
0
100
AcDbLine
 10
108.7177999999999
 20
843.0184
 30
0.0
 11
110.7026999999999
 21
843.2311
 31
0.0
  0
LINE
  5
45F
330
1E
100
AcDbEntity
  8
0
100
AcDbLine
 10
108.7177999999999
 20
843.0184
 30
0.0
 11
108.7177999999999
 21
844.0184
 31
0.0
  0
LINE
  5
460
330
1E
100
AcDbEntity
  8
0
100
AcDbLine
 10
108.551539934872
 20
845.182017369499
 30
0.0
 11
108.7177999999999
 21
844.0184
 31
0.0
  0
LINE
  5
461
330
1E
100
AcDbEntity
  8
0
100
AcDbLine
 10
110.5956329814699
 20
844.98043834752
 30
0.0
 11
110.7026999999999
 21
844.2311
 31
0.0
  0
LINE
  5
462
330
1E
100
AcDbEntity
  8
0
100
AcDbLine
 10
119.579901370313
 20
842.9696174894729
 30
0.0
 11
119.8887999999999
 21
841.665
 31
0.0
  0
LINE
  5
463
330
1E
100
AcDbEntity
  8
0
100
AcDbLine
 10
120.0340894320919
 20
843.1450976376771
 30
0.0
 11
120.1497999999999
 21
842.6563999999999
 31
0.0
  0
LINE
  5
464
330
1E
100
AcDbEntity
  8
0
100
AcDbLine
 10
120.1497999999999
 20
842.6563999999999
 30
0.0
 11
122.0903999999999
 21
842.8848999999999
 31
0.0
  0
LINE
  5
465
330
1E
100
AcDbEntity
  8
0
100
AcDbLine
 10
121.799082229054
 20
844.114892491452
 30
0.0
 11
122.0903999999999
 21
842.8848999999999
 31
0.0
  0
LINE
  5
466
330
1E
100
AcDbEntity
  8
0
100
AcDbLine
 10
121.8293
 20
841.8934
 30
0.0
 11
122.0903999999999
 21
842.8848999999999
 31
0.0
  0
LINE
  5
467
330
1E
100
AcDbEntity
  8
0
100
AcDbLine
 10
110.7026999999999
 20
843.2311
 30
0.0
 11
110.7026999999999
 21
844.2311
 31
0.0
  0
LINE
  5
468
330
1E
100
AcDbEntity
  8
0
100
AcDbLine
 10
107.8276999999999
 20
847.3988
 30
0.0
 11
109.745
 21
847.8683999999999
 31
0.0
  0
LINE
  5
469
330
1E
100
AcDbEntity
  8
0
100
AcDbLine
 10
107.3101
 20
848.3647999999998
 30
0.0
 11
107.8276999999999
 21
847.3988
 31
0.0
  0
LINE
  5
46A
330
1E
100
AcDbEntity
  8
0
100
AcDbLine
 10
107.3101
 20
848.3647999999998
 30
0.0
 11
109.2273
 21
848.8343
 31
0.0
  0
LINE
  5
46B
330
1E
100
AcDbEntity
  8
0
100
AcDbLine
 10
109.2273
 20
848.8343
 30
0.0
 11
109.745
 21
847.8683999999999
 31
0.0
  0
LINE
  5
46C
330
1E
100
AcDbEntity
  8
0
100
AcDbLine
 10
103.7005
 20
852.3808999999999
 30
0.0
 11
104.7004999999999
 21
851.5147999999999
 31
0.0
  0
LINE
  5
46D
330
1E
100
AcDbEntity
  8
0
100
AcDbLine
 10
103.7005
 20
852.3808999999999
 30
0.0
 11
105.4194
 21
853.0898
 31
0.0
  0
LINE
  5
46E
330
1E
100
AcDbEntity
  8
0
100
AcDbLine
 10
104.7004999999999
 20
851.5147999999999
 30
0.0
 11
106.4194
 21
852.2237
 31
0.0
  0
LINE
  5
46F
330
1E
100
AcDbEntity
  8
0
100
AcDbLine
 10
105.4194
 20
853.0898
 30
0.0
 11
106.4194
 21
852.2237
 31
0.0
  0
LINE
  5
470
330
1E
100
AcDbEntity
  8
0
100
AcDbLine
 10
107.1533938834329
 20
849.4793821638269
 30
0.0
 11
107.3101
 21
848.3647999999998
 31
0.0
  0
LINE
  5
471
330
1E
100
AcDbEntity
  8
0
100
AcDbLine
 10
109.553613499227
 20
849.229074949237
 30
0.0
 11
109.745
 21
847.8683999999999
 31
0.0
  0
LINE
  5
472
330
1E
100
AcDbEntity
  8
0
100
AcDbLine
 10
109.1279492819319
 20
849.540980149764
 30
0.0
 11
109.2273
 21
848.8343
 31
0.0
  0
LINE
  5
473
330
1E
100
AcDbEntity
  8
0
100
AcDbLine
 10
119.7694289442289
 20
849.0718346216251
 30
0.0
 11
119.8887999999999
 21
848.5834
 31
0.0
  0
LINE
  5
474
330
1E
100
AcDbEntity
  8
0
100
AcDbLine
 10
119.8887999999999
 20
848.5834
 30
0.0
 11
120.1497999999999
 21
847.5919000000001
 31
0.0
  0
LINE
  5
475
330
1E
100
AcDbEntity
  8
0
100
AcDbLine
 10
119.8887999999999
 20
848.5834
 30
0.0
 11
121.8293
 21
849.0671999999999
 31
0.0
  0
LINE
  5
476
330
1E
100
AcDbEntity
  8
0
100
AcDbLine
 10
120.1497999999999
 20
847.5919000000001
 30
0.0
 11
122.0903999999999
 21
848.0757999999999
 31
0.0
  0
LINE
  5
477
330
1E
100
AcDbEntity
  8
0
100
AcDbLine
 10
121.936938210688
 20
848.7035708605439
 30
0.0
 11
122.0903999999999
 21
848.0757999999999
 31
0.0
  0
LINE
  5
478
330
1E
100
AcDbEntity
  8
0
100
AcDbLine
 10
121.8293
 20
849.0671999999999
 30
0.0
 11
122.0903999999999
 21
848.0757999999999
 31
0.0
  0
LINE
  5
479
330
1E
100
AcDbEntity
  8
0
100
AcDbLine
 10
121.7257579736039
 20
849.4908664420739
 30
0.0
 11
121.8293
 21
849.0671999999999
 31
0.0
  0
LINE
  5
47A
330
1E
100
AcDbEntity
  8
0
100
AcDbLine
 10
103.558436445289
 20
853.487953793766
 30
0.0
 11
103.7005
 21
852.3808999999999
 31
0.0
  0
LINE
  5
47B
330
1E
100
AcDbEntity
  8
0
100
AcDbLine
 10
106.2400043791249
 20
853.6217544483399
 30
0.0
 11
106.4194
 21
852.2237
 31
0.0
  0
LINE
  5
47C
330
1E
100
AcDbEntity
  8
0
100
AcDbLine
 10
105.3318707595229
 20
853.771886112324
 30
0.0
 11
105.4194
 21
853.0898
 31
0.0
  0
LINE
  5
47D
330
1E
100
AcDbEntity
  8
0
100
AcDbLine
 10
130.5166999999999
 20
854.2729000000001
 30
0.0
 11
132.3625
 21
855.0311999999999
 31
0.0
  0
LINE
  5
47E
330
1E
100
AcDbEntity
  8
0
100
AcDbLine
 10
116.5685999999999
 20
854.2745
 30
0.0
 11
117.334
 21
853.3506
 31
0.0
  0
LINE
  5
47F
330
1E
100
AcDbEntity
  8
0
100
AcDbLine
 10
116.5685999999999
 20
854.2745
 30
0.0
 11
118.3769
 21
855.0051999999999
 31
0.0
  0
LINE
  5
480
330
1E
100
AcDbEntity
  8
0
100
AcDbLine
 10
117.334
 20
853.3506
 30
0.0
 11
119.1423
 21
854.0812999999999
 31
0.0
  0
LINE
  5
481
330
1E
100
AcDbEntity
  8
0
100
AcDbLine
 10
132.050246774124
 20
848.292686591229
 30
0.0
 11
132.2070999999999
 21
847.8526999999999
 31
0.0
  0
LINE
  5
482
330
1E
100
AcDbEntity
  8
0
100
AcDbLine
 10
132.2070999999999
 20
847.8526999999999
 30
0.0
 11
132.2070999999999
 21
846.8526999999999
 31
0.0
  0
LINE
  5
483
330
1E
100
AcDbEntity
  8
0
100
AcDbLine
 10
132.2070999999999
 20
847.8526999999999
 30
0.0
 11
134.1180999999999
 21
848.3636999999999
 31
0.0
  0
LINE
  5
484
330
1E
100
AcDbEntity
  8
0
100
AcDbLine
 10
131.7144847769359
 20
848.2345274477459
 30
0.0
 11
132.2070999999999
 21
846.8526999999999
 31
0.0
  0
LINE
  5
485
330
1E
100
AcDbEntity
  8
0
100
AcDbLine
 10
132.2070999999999
 20
846.8526999999999
 30
0.0
 11
134.1180999999999
 21
847.3637
 31
0.0
  0
LINE
  5
486
330
1E
100
AcDbEntity
  8
0
100
AcDbLine
 10
132.2070999999999
 20
846.8526999999999
 30
0.0
 11
132.2070999999999
 21
847.8526999999999
 31
0.0
  0
LINE
  5
487
330
1E
100
AcDbEntity
  8
0
100
AcDbLine
 10
134.1180999999999
 20
848.3636999999999
 30
0.0
 11
134.1180999999999
 21
847.3637
 31
0.0
  0
LINE
  5
488
330
1E
100
AcDbEntity
  8
0
100
AcDbLine
 10
134.1180999999999
 20
847.3637
 30
0.0
 11
134.1180999999999
 21
848.3636999999999
 31
0.0
  0
LINE
  5
489
330
1E
100
AcDbEntity
  8
0
100
AcDbLine
 10
133.944352245986
 20
848.850994582094
 30
0.0
 11
134.1180999999999
 21
848.3636999999999
 31
0.0
  0
LINE
  5
48A
330
1E
100
AcDbEntity
  8
0
100
AcDbLine
 10
137.7
 20
841.8585
 30
0.0
 11
139.3
 21
846.0085000000001
 31
0.0
  0
LINE
  5
48B
330
1E
100
AcDbEntity
  8
0
100
AcDbLine
 10
140.0
 20
851.125
 30
0.0
 11
140.0
 21
850.258
 31
0.0
  0
LINE
  5
48C
330
1E
100
AcDbEntity
  8
0
100
AcDbLine
 10
139.3
 20
846.0085000000001
 30
0.0
 11
140.0
 21
850.258
 31
0.0
  0
LINE
  5
48D
330
1E
100
AcDbEntity
  8
0
100
AcDbLine
 10
129.9989999999999
 20
855.2388
 30
0.0
 11
130.5166999999999
 21
854.2729000000001
 31
0.0
  0
LINE
  5
48E
330
1E
100
AcDbEntity
  8
0
100
AcDbLine
 10
129.9989999999999
 20
855.2388
 30
0.0
 11
131.8448999999999
 21
855.9971
 31
0.0
  0
LINE
  5
48F
330
1E
100
AcDbEntity
  8
0
100
AcDbLine
 10
118.9978058852519
 20
854.6958943096498
 30
0.0
 11
119.1423
 21
854.0812999999999
 31
0.0
  0
LINE
  5
490
330
1E
100
AcDbEntity
  8
0
100
AcDbLine
 10
118.3769
 20
855.0051999999999
 30
0.0
 11
119.1423
 21
854.0812999999999
 31
0.0
  0
LINE
  5
491
330
1E
100
AcDbEntity
  8
0
100
AcDbLine
 10
139.3
 20
854.508
 30
0.0
 11
140.0
 21
850.258
 31
0.0
  0
LINE
  5
492
330
1E
100
AcDbEntity
  8
0
100
AcDbLine
 10
140.0
 20
850.258
 30
0.0
 11
140.0
 21
851.125
 31
0.0
  0
LINE
  5
493
330
1E
100
AcDbEntity
  8
0
100
AcDbLine
 10
111.6332
 20
858.549
 30
0.0
 11
113.186
 21
859.501
 31
0.0
  0
LINE
  5
494
330
1E
100
AcDbEntity
  8
0
100
AcDbLine
 10
110.4155999999999
 20
859.342
 30
0.0
 11
111.9685
 21
860.294
 31
0.0
  0
LINE
  5
495
330
1E
100
AcDbEntity
  8
0
100
AcDbLine
 10
110.4155999999999
 20
859.342
 30
0.0
 11
111.6332
 21
858.549
 31
0.0
  0
LINE
  5
496
330
1E
100
AcDbEntity
  8
0
100
AcDbLine
 10
131.9294652565259
 20
856.2308407317019
 30
0.0
 11
132.3625
 21
855.0311999999999
 31
0.0
  0
LINE
  5
497
330
1E
100
AcDbEntity
  8
0
100
AcDbLine
 10
131.8448999999999
 20
855.9971
 30
0.0
 11
132.3625
 21
855.0311999999999
 31
0.0
  0
LINE
  5
498
330
1E
100
AcDbEntity
  8
0
100
AcDbLine
 10
131.682791976059
 20
856.4461392263169
 30
0.0
 11
131.8448999999999
 21
855.9971
 31
0.0
  0
LINE
  5
499
330
1E
100
AcDbEntity
  8
0
100
AcDbLine
 10
116.2603544762899
 20
855.5860242551331
 30
0.0
 11
116.5685999999999
 21
854.2745
 31
0.0
  0
LINE
  5
49A
330
1E
100
AcDbEntity
  8
0
100
AcDbLine
 10
129.436681847527
 20
856.7960039098679
 30
0.0
 11
129.9989999999999
 21
855.2388
 31
0.0
  0
LINE
  5
49B
330
1E
100
AcDbEntity
  8
0
100
AcDbLine
 10
117.997
 20
856.6219999999999
 30
0.0
 11
118.3769
 21
855.0051999999999
 31
0.0
  0
LINE
  5
49C
330
1E
100
AcDbEntity
  8
0
100
AcDbLine
 10
113.059848738416
 20
860.1079797140259
 30
0.0
 11
113.186
 21
859.501
 31
0.0
  0
LINE
  5
49D
330
1E
100
AcDbEntity
  8
0
100
AcDbLine
 10
110.178388398697
 20
860.4836990007511
 30
0.0
 11
110.4155999999999
 21
859.342
 31
0.0
  0
LINE
  5
49E
330
1E
100
AcDbEntity
  8
0
100
AcDbLine
 10
124.0428
 20
862.0880000000001
 30
0.0
 11
125.0428
 21
861.2210000000001
 31
0.0
  0
LINE
  5
49F
330
1E
100
AcDbEntity
  8
0
100
AcDbLine
 10
124.0428
 20
862.0880000000001
 30
0.0
 11
125.6977999999999
 21
863.076
 31
0.0
  0
LINE
  5
4A0
330
1E
100
AcDbEntity
  8
0
100
AcDbLine
 10
125.0428
 20
861.2210000000001
 30
0.0
 11
126.6977999999999
 21
862.2100000000001
 31
0.0
  0
LINE
  5
4A1
330
1E
100
AcDbEntity
  8
0
100
AcDbLine
 10
111.6422
 20
861.8639999999999
 30
0.0
 11
111.9685
 21
860.294
 31
0.0
  0
LINE
  5
4A2
330
1E
100
AcDbEntity
  8
0
100
AcDbLine
 10
111.9685
 20
860.294
 30
0.0
 11
113.186
 21
859.501
 31
0.0
  0
LINE
  5
4A3
330
1E
100
AcDbEntity
  8
0
100
AcDbLine
 10
100.782569877467
 20
857.59937995377
 30
0.0
 11
100.9526999999999
 21
856.0
 31
0.0
  0
LINE
  5
4A4
330
1E
100
AcDbEntity
  8
0
100
AcDbLine
 10
126.2807094719269
 20
863.4408659810841
 30
0.0
 11
126.6977999999999
 21
862.2100000000001
 31
0.0
  0
LINE
  5
4A5
330
1E
100
AcDbEntity
  8
0
100
AcDbLine
 10
125.6977999999999
 20
863.076
 30
0.0
 11
126.6977999999999
 21
862.2100000000001
 31
0.0
  0
LINE
  5
4A6
330
1E
100
AcDbEntity
  8
0
100
AcDbLine
 10
125.548840907472
 20
863.515589650747
 30
0.0
 11
125.6977999999999
 21
863.076
 31
0.0
  0
LINE
  5
4A7
330
1E
100
AcDbEntity
  8
0
100
AcDbLine
 10
103.4359
 20
862.832
 30
0.0
 11
104.6273999999999
 21
863.9650000000001
 31
0.0
  0
LINE
  5
4A8
330
1E
100
AcDbEntity
  8
0
100
AcDbLine
 10
101.8491
 20
863.441
 30
0.0
 11
103.0407
 21
864.573
 31
0.0
  0
LINE
  5
4A9
330
1E
100
AcDbEntity
  8
0
100
AcDbLine
 10
101.8491
 20
863.441
 30
0.0
 11
103.4359
 21
862.832
 31
0.0
  0
LINE
  5
4AA
330
1E
100
AcDbEntity
  8
0
100
AcDbLine
 10
134.8999999999999
 20
862.659
 30
0.0
 11
137.7
 21
858.6589999999999
 31
0.0
  0
LINE
  5
4AB
330
1E
100
AcDbEntity
  8
0
100
AcDbLine
 10
137.7
 20
858.6589999999999
 30
0.0
 11
139.3
 21
854.508
 31
0.0
  0
LINE
  5
4AC
330
1E
100
AcDbEntity
  8
0
100
AcDbLine
 10
101.676056294224
 20
864.500140859964
 30
0.0
 11
101.8491
 21
863.441
 31
0.0
  0
LINE
  5
4AD
330
1E
100
AcDbEntity
  8
0
100
AcDbLine
 10
123.546289764124
 20
863.552267955899
 30
0.0
 11
124.0428
 21
862.0880000000001
 31
0.0
  0
LINE
  5
4AE
330
1E
100
AcDbEntity
  8
0
100
AcDbLine
 10
104.5312930212519
 20
864.552618947536
 30
0.0
 11
104.6273999999999
 21
863.9650000000001
 31
0.0
  0
LINE
  5
4AF
330
1E
100
AcDbEntity
  8
0
100
AcDbLine
 10
103.0407
 20
864.573
 30
0.0
 11
104.6273999999999
 21
863.9650000000001
 31
0.0
  0
LINE
  5
4B0
330
1E
100
AcDbEntity
  8
0
100
AcDbLine
 10
134.8999999999999
 20
863.5249999999999
 30
0.0
 11
137.7
 21
859.525
 31
0.0
  0
LINE
  5
4B1
330
1E
100
AcDbEntity
  8
0
100
AcDbLine
 10
137.7
 20
859.525
 30
0.0
 11
139.3
 21
855.375
 31
0.0
  0
LINE
  5
4B2
330
1E
100
AcDbEntity
  8
0
100
AcDbLine
 10
139.3
 20
855.375
 30
0.0
 11
140.0
 21
851.125
 31
0.0
  0
LINE
  5
4B3
330
1E
100
AcDbEntity
  8
0
100
AcDbLine
 10
141.5
 20
841.5314
 30
0.0
 11
144.5
 21
845.9813999999999
 31
0.0
  0
LINE
  5
4B4
330
1E
100
AcDbEntity
  8
0
100
AcDbLine
 10
141.6999999999999
 20
841.4813999999999
 30
0.0
 11
144.6999999999999
 21
845.9813999999999
 31
0.0
  0
LINE
  5
4B5
330
1E
100
AcDbEntity
  8
0
100
AcDbLine
 10
141.6999999999999
 20
841.4813999999999
 30
0.0
 11
143.4
 21
843.3830999999999
 31
0.0
  0
LINE
  5
4B6
330
1E
100
AcDbEntity
  8
0
100
AcDbLine
 10
144.5
 20
845.9813999999999
 30
0.0
 11
146.4
 21
850.581
 31
0.0
  0
LINE
  5
4B7
330
1E
100
AcDbEntity
  8
0
100
AcDbLine
 10
146.4
 20
850.581
 30
0.0
 11
147.0999999999999
 21
855.281
 31
0.0
  0
LINE
  5
4B8
330
1E
100
AcDbEntity
  8
0
100
AcDbLine
 10
144.6999999999999
 20
845.9813999999999
 30
0.0
 11
146.6
 21
850.581
 31
0.0
  0
LINE
  5
4B9
330
1E
100
AcDbEntity
  8
0
100
AcDbLine
 10
143.4
 20
843.3830999999999
 30
0.0
 11
146.5
 21
847.9831
 31
0.0
  0
LINE
  5
4BA
330
1E
100
AcDbEntity
  8
0
100
AcDbLine
 10
144.5
 20
864.581
 30
0.0
 11
146.4
 21
859.9810000000001
 31
0.0
  0
LINE
  5
4BB
330
1E
100
AcDbEntity
  8
0
100
AcDbLine
 10
146.6
 20
850.581
 30
0.0
 11
147.3
 21
855.281
 31
0.0
  0
LINE
  5
4BC
330
1E
100
AcDbEntity
  8
0
100
AcDbLine
 10
146.5
 20
847.9831
 30
0.0
 11
148.5
 21
852.733
 31
0.0
  0
LINE
  5
4BD
330
1E
100
AcDbEntity
  8
0
100
AcDbLine
 10
146.4
 20
859.9810000000001
 30
0.0
 11
147.0999999999999
 21
855.281
 31
0.0
  0
LINE
  5
4BE
330
1E
100
AcDbEntity
  8
0
100
AcDbLine
 10
144.6999999999999
 20
864.581
 30
0.0
 11
146.6
 21
859.9810000000001
 31
0.0
  0
LINE
  5
4BF
330
1E
100
AcDbEntity
  8
0
100
AcDbLine
 10
148.5
 20
852.733
 30
0.0
 11
149.1999999999999
 21
854.8849999999999
 31
0.0
  0
LINE
  5
4C0
330
1E
100
AcDbEntity
  8
0
100
AcDbLine
 10
149.1999999999999
 20
854.8849999999999
 30
0.0
 11
150.0
 21
859.7849999999999
 31
0.0
  0
LINE
  5
4C1
330
1E
100
AcDbEntity
  8
0
100
AcDbLine
 10
146.6
 20
859.9810000000001
 30
0.0
 11
147.3
 21
855.281
 31
0.0
  0
LINE
  5
4C2
330
1E
100
AcDbEntity
  8
0
100
AcDbLine
 10
114.334641833351
 20
869.3522068767371
 30
0.0
 11
114.7443999999999
 21
867.932
 31
0.0
  0
LINE
  5
4C3
330
1E
100
AcDbEntity
  8
0
100
AcDbLine
 10
102.7903
 20
866.1050000000001
 30
0.0
 11
103.0407
 21
864.573
 31
0.0
  0
LINE
  5
4C4
330
1E
100
AcDbEntity
  8
0
100
AcDbLine
 10
104.4696
 20
871.8739999999998
 30
0.0
 11
105.4251
 21
873.2130000000001
 31
0.0
  0
LINE
  5
4C5
330
1E
100
AcDbEntity
  8
0
100
AcDbLine
 10
102.7374999999999
 20
872.3739999999999
 30
0.0
 11
103.6929999999999
 21
873.713
 31
0.0
  0
LINE
  5
4C6
330
1E
100
AcDbEntity
  8
0
100
AcDbLine
 10
102.7374999999999
 20
872.3739999999999
 30
0.0
 11
104.4696
 21
871.8739999999998
 31
0.0
  0
LINE
  5
4C7
330
1E
100
AcDbEntity
  8
0
100
AcDbLine
 10
102.4424999999999
 20
873.7739999999998
 30
0.0
 11
102.7374999999999
 21
872.3739999999999
 31
0.0
  0
LINE
  5
4C8
330
1E
100
AcDbEntity
  8
0
100
AcDbLine
 10
105.2189044891929
 20
874.190524634427
 30
0.0
 11
105.4251
 21
873.2130000000001
 31
0.0
  0
LINE
  5
4C9
330
1E
100
AcDbEntity
  8
0
100
AcDbLine
 10
103.490494536475
 20
874.6733564185499
 30
0.0
 11
103.6929999999999
 21
873.713
 31
0.0
  0
LINE
  5
4CA
330
1E
100
AcDbEntity
  8
0
100
AcDbLine
 10
103.6929999999999
 20
873.713
 30
0.0
 11
105.4251
 21
873.2130000000001
 31
0.0
  0
LINE
  5
4CB
330
1E
100
AcDbEntity
  8
0
100
AcDbLine
 10
114.5
 20
876.008
 30
0.0
 11
120.9
 21
873.2080000000001
 31
0.0
  0
LINE
  5
4CC
330
1E
100
AcDbEntity
  8
0
100
AcDbLine
 10
107.4
 20
878.4080000000001
 30
0.0
 11
114.5
 21
876.008
 31
0.0
  0
LINE
  5
4CD
330
1E
100
AcDbEntity
  8
0
100
AcDbLine
 10
116.1586
 20
867.225
 30
0.0
 11
117.5099
 21
868.412
 31
0.0
  0
LINE
  5
4CE
330
1E
100
AcDbEntity
  8
0
100
AcDbLine
 10
114.7443999999999
 20
867.932
 30
0.0
 11
116.0957
 21
869.1189999999998
 31
0.0
  0
LINE
  5
4CF
330
1E
100
AcDbEntity
  8
0
100
AcDbLine
 10
114.7443999999999
 20
867.932
 30
0.0
 11
116.1586
 21
867.225
 31
0.0
  0
LINE
  5
4D0
330
1E
100
AcDbEntity
  8
0
100
AcDbLine
 10
117.2023091365059
 20
869.4780987263008
 30
0.0
 11
117.5099
 21
868.412
 31
0.0
  0
LINE
  5
4D1
330
1E
100
AcDbEntity
  8
0
100
AcDbLine
 10
115.8033918344269
 20
870.1321294521049
 30
0.0
 11
116.0957
 21
869.1189999999998
 31
0.0
  0
LINE
  5
4D2
330
1E
100
AcDbEntity
  8
0
100
AcDbLine
 10
116.0957
 20
869.1189999999998
 30
0.0
 11
117.5099
 21
868.412
 31
0.0
  0
LINE
  5
4D3
330
1E
100
AcDbEntity
  8
0
100
AcDbLine
 10
120.9
 20
873.2080000000001
 30
0.0
 11
126.5
 21
870.0079999999999
 31
0.0
  0
LINE
  5
4D4
330
1E
100
AcDbEntity
  8
0
100
AcDbLine
 10
120.9
 20
874.075
 30
0.0
 11
126.5
 21
870.875
 31
0.0
  0
LINE
  5
4D5
330
1E
100
AcDbEntity
  8
0
100
AcDbLine
 10
114.5
 20
876.875
 30
0.0
 11
120.9
 21
874.075
 31
0.0
  0
LINE
  5
4D6
330
1E
100
AcDbEntity
  8
0
100
AcDbLine
 10
107.4
 20
879.2749999999999
 30
0.0
 11
114.5
 21
876.875
 31
0.0
  0
LINE
  5
4D7
330
1E
100
AcDbEntity
  8
0
100
AcDbLine
 10
126.5
 20
870.0079999999999
 30
0.0
 11
131.3
 21
866.458
 31
0.0
  0
LINE
  5
4D8
330
1E
100
AcDbEntity
  8
0
100
AcDbLine
 10
126.5
 20
870.875
 30
0.0
 11
131.3
 21
867.3250000000001
 31
0.0
  0
LINE
  5
4D9
330
1E
100
AcDbEntity
  8
0
100
AcDbLine
 10
125.9
 20
880.7310000000001
 30
0.0
 11
132.0999999999999
 21
877.181
 31
0.0
  0
LINE
  5
4DA
330
1E
100
AcDbEntity
  8
0
100
AcDbLine
 10
102.4999999999999
 20
888.531
 30
0.0
 11
110.8999999999999
 21
886.4810000000002
 31
0.0
  0
LINE
  5
4DB
330
1E
100
AcDbEntity
  8
0
100
AcDbLine
 10
118.7999999999999
 20
883.8309999999999
 30
0.0
 11
125.9
 21
880.7310000000001
 31
0.0
  0
LINE
  5
4DC
330
1E
100
AcDbEntity
  8
0
100
AcDbLine
 10
110.8999999999999
 20
886.4810000000002
 30
0.0
 11
118.7999999999999
 21
883.8309999999999
 31
0.0
  0
LINE
  5
4DD
330
1E
100
AcDbEntity
  8
0
100
AcDbLine
 10
119.0
 20
883.9310000000001
 30
0.0
 11
126.0
 21
880.7810000000001
 31
0.0
  0
LINE
  5
4DE
330
1E
100
AcDbEntity
  8
0
100
AcDbLine
 10
111.0
 20
886.5809999999999
 30
0.0
 11
119.0
 21
883.9310000000001
 31
0.0
  0
LINE
  5
4DF
330
1E
100
AcDbEntity
  8
0
100
AcDbLine
 10
102.6
 20
888.6310000000001
 30
0.0
 11
111.0
 21
886.5809999999999
 31
0.0
  0
LINE
  5
4E0
330
1E
100
AcDbEntity
  8
0
100
AcDbLine
 10
117.0
 20
893.717
 30
0.0
 11
119.0
 21
892.938
 31
0.0
  0
LINE
  5
4E1
330
1E
100
AcDbEntity
  8
0
100
AcDbLine
 10
109.4
 20
896.2669999999999
 30
0.0
 11
117.0
 21
893.717
 31
0.0
  0
LINE
  5
4E2
330
1E
100
AcDbEntity
  8
0
100
AcDbLine
 10
101.4
 20
898.2169999999999
 30
0.0
 11
109.4
 21
896.2669999999999
 31
0.0
  0
LINE
  5
4E3
330
1E
100
AcDbEntity
  8
0
100
AcDbLine
 10
119.0
 20
892.938
 30
0.0
 11
126.0
 21
889.788
 31
0.0
  0
LINE
  5
4E4
330
1E
100
AcDbEntity
  8
0
100
AcDbLine
 10
126.0
 20
889.788
 30
0.0
 11
132.3
 21
886.288
 31
0.0
  0
LINE
  5
4E6
330
1E
100
AcDbEntity
  8
0
100
AcDbLine
 10
126.0
 20
880.7810000000001
 30
0.0
 11
132.3
 21
877.2810000000001
 31
0.0
  0
LINE
  5
4E7
330
1E
100
AcDbEntity
  8
0
100
AcDbLine
 10
131.3
 20
866.458
 30
0.0
 11
134.8999999999999
 21
862.659
 31
0.0
  0
LINE
  5
4E8
330
1E
100
AcDbEntity
  8
0
100
AcDbLine
 10
131.3
 20
867.3250000000001
 30
0.0
 11
134.8999999999999
 21
863.5249999999999
 31
0.0
  0
LINE
  5
4E9
330
1E
100
AcDbEntity
  8
0
100
AcDbLine
 10
148.5
 20
866.8359999999999
 30
0.0
 11
149.1999999999999
 21
864.6849999999998
 31
0.0
  0
LINE
  5
4EA
330
1E
100
AcDbEntity
  8
0
100
AcDbLine
 10
141.5
 20
869.031
 30
0.0
 11
144.5
 21
864.581
 31
0.0
  0
LINE
  5
4EB
330
1E
100
AcDbEntity
  8
0
100
AcDbLine
 10
132.0999999999999
 20
877.181
 30
0.0
 11
137.4
 21
873.2310000000001
 31
0.0
  0
LINE
  5
4EC
330
1E
100
AcDbEntity
  8
0
100
AcDbLine
 10
137.4
 20
873.2310000000001
 30
0.0
 11
141.5
 21
869.031
 31
0.0
  0
LINE
  5
4ED
330
1E
100
AcDbEntity
  8
0
100
AcDbLine
 10
132.3
 20
886.288
 30
0.0
 11
137.5999999999999
 21
882.2879999999999
 31
0.0
  0
LINE
  5
4EE
330
1E
100
AcDbEntity
  8
0
100
AcDbLine
 10
137.5999999999999
 20
882.2879999999999
 30
0.0
 11
141.6999999999999
 21
878.0880000000001
 31
0.0
  0
LINE
  5
4EF
330
1E
100
AcDbEntity
  8
0
100
AcDbLine
 10
132.3
 20
877.2810000000001
 30
0.0
 11
137.5999999999999
 21
873.281
 31
0.0
  0
LINE
  5
4F0
330
1E
100
AcDbEntity
  8
0
100
AcDbLine
 10
141.6999999999999
 20
878.0880000000001
 30
0.0
 11
143.4
 21
876.186
 31
0.0
  0
LINE
  5
4F1
330
1E
100
AcDbEntity
  8
0
100
AcDbLine
 10
143.4
 20
876.186
 30
0.0
 11
146.5
 21
871.5860000000001
 31
0.0
  0
LINE
  5
4F2
330
1E
100
AcDbEntity
  8
0
100
AcDbLine
 10
146.5
 20
871.5860000000001
 30
0.0
 11
148.5
 21
866.8359999999999
 31
0.0
  0
LINE
  5
4F3
330
1E
100
AcDbEntity
  8
0
100
AcDbLine
 10
137.5999999999999
 20
873.281
 30
0.0
 11
141.6999999999999
 21
869.081
 31
0.0
  0
LINE
  5
4F4
330
1E
100
AcDbEntity
  8
0
100
AcDbLine
 10
141.6999999999999
 20
869.081
 30
0.0
 11
144.6999999999999
 21
864.581
 31
0.0
  0
LINE
  5
4F6
330
1E
100
AcDbEntity
  8
0
100
AcDbLine
 10
149.1999999999999
 20
864.6849999999998
 30
0.0
 11
150.0
 21
859.7849999999999
 31
0.0
  0
LINE
  5
4F7
330
1E
100
AcDbEntity
  8
0
100
AcDbLine
 10
100.0
 20
820.3558684210518
 30
0.0
 11
100.0
 21
19.99999999999989
 31
0.0
  0
LINE
  5
4F8
330
1E
100
AcDbEntity
  8
0
100
AcDbLine
 10
100.0
 20
948.0
 30
0.0
 11
100.0
 21
968.0
 31
0.0
  0
LINE
  5
4F9
330
1E
100
AcDbEntity
  8
0
100
AcDbLine
 10
100.0
 20
948.0
 30
0.0
 11
100.0
 21
898.4530465116279
 31
0.0
  0
LINE
  5
4FA
330
1E
100
AcDbEntity
  8
0
100
AcDbLine
 10
84.0
 20
948.0
 30
0.0
 11
90.0
 21
948.0
 31
0.0
  0
LINE
  5
4FB
330
1E
100
AcDbEntity
  8
0
100
AcDbLine
 10
100.0
 20
968.0
 30
0.0
 11
100.0
 21
948.0
 31
0.0
  0
LINE
  5
4FC
330
1E
100
AcDbEntity
  8
0
100
AcDbLine
 10
99.50000000000001
 20
968.0
 30
0.0
 11
100.0
 21
968.0
 31
0.0
  0
LINE
  5
4FD
330
1E
100
AcDbEntity
  8
0
100
AcDbLine
 10
97.5
 20
968.0
 30
0.0
 11
99.50000000000001
 21
968.0
 31
0.0
  0
LINE
  5
4FE
330
1E
100
AcDbEntity
  8
0
100
AcDbLine
 10
94.0
 20
968.0
 30
0.0
 11
97.5
 21
968.0
 31
0.0
  0
LINE
  5
4FF
330
1E
100
AcDbEntity
  8
0
100
AcDbLine
 10
90.0
 20
968.0
 30
0.0
 11
94.0
 21
968.0
 31
0.0
  0
LINE
  5
500
330
1E
100
AcDbEntity
  8
0
100
AcDbLine
 10
84.0
 20
968.0
 30
0.0
 11
90.0
 21
968.0
 31
0.0
  0
LINE
  5
501
330
1E
100
AcDbEntity
  8
0
100
AcDbLine
 10
75.0
 20
968.0
 30
0.0
 11
84.0
 21
968.0
 31
0.0
  0
LINE
  5
502
330
1E
100
AcDbEntity
  8
0
100
AcDbLine
 10
75.0
 20
948.0
 30
0.0
 11
84.0
 21
948.0
 31
0.0
  0
LINE
  5
503
330
1E
100
AcDbEntity
  8
0
100
AcDbLine
 10
66.0
 20
948.0
 30
0.0
 11
75.0
 21
948.0
 31
0.0
  0
LINE
  5
504
330
1E
100
AcDbEntity
  8
0
100
AcDbLine
 10
66.0
 20
968.0
 30
0.0
 11
75.0
 21
968.0
 31
0.0
  0
LINE
  5
505
330
1E
100
AcDbEntity
  8
0
100
AcDbLine
 10
60.0
 20
899.9684939759029
 30
0.0
 11
60.0
 21
948.0
 31
0.0
  0
LINE
  5
506
330
1E
100
AcDbEntity
  8
0
100
AcDbLine
 10
92.1156
 20
760.0
 30
0.0
 11
95.10899999999999
 21
758.0
 31
0.0
  0
LINE
  5
507
330
1E
100
AcDbEntity
  8
0
100
AcDbLine
 10
57.8844
 20
760.0
 30
0.0
 11
61.1006606115279
 21
760.0
 31
0.0
  0
LINE
  5
508
330
1E
100
AcDbEntity
  8
0
100
AcDbLine
 10
54.891
 20
758.0
 30
0.0
 11
57.8844
 21
760.0
 31
0.0
  0
LINE
  5
509
330
1E
100
AcDbEntity
  8
0
100
AcDbLine
 10
52.9689774266368
 20
754.147479307751
 30
0.0
 11
54.891
 21
758.0
 31
0.0
  0
ENDSEC
  0
SECTION
  2
OBJECTS
  0
DICTIONARY
  5
C
330
0
100
AcDbDictionary
281
     1
  3
ACAD_GROUP
350
D
  3
ACAD_LAYOUT
350
19
  3
ACAD_MLINESTYLE
350
16
  3
ACAD_PLOTSETTINGS
350
18
  3
ACAD_PLOTSTYLENAME
350
E
  3
AcDbVariableDictionary
350
50E
  0
DICTIONARY
  5
D
102
{ACAD_REACTORS
330
C
102
}
330
C
100
AcDbDictionary
281
     1
  0
DICTIONARY
  5
19
102
{ACAD_REACTORS
330
C
102
}
330
C
100
AcDbDictionary
281
     1
  3
Layout1
350
1D
  3
Model
350
21
  0
DICTIONARY
  5
16
102
{ACAD_REACTORS
330
C
102
}
330
C
100
AcDbDictionary
281
     1
  3
Standard
350
17
  0
DICTIONARY
  5
18
102
{ACAD_REACTORS
330
C
102
}
330
C
100
AcDbDictionary
281
     1
  0
ACDBDICTIONARYWDFLT
  5
E
102
{ACAD_REACTORS
330
C
102
}
330
C
100
AcDbDictionary
281
     1
  3
Normal
350
F
100
AcDbDictionaryWithDefault
340
F
  0
DICTIONARY
  5
50E
102
{ACAD_REACTORS
330
C
102
}
330
C
100
AcDbDictionary
281
     1
  3
DIMASSOC
350
50F
  0
LAYOUT
  5
1D
102
{ACAD_REACTORS
330
19
102
}
330
19
100
AcDbPlotSettings
  1

  2
hp deskjet 980c series
  4

  6

 40
0.0
 41
0.0
 42
0.0
 43
0.0
 44
0.0
 45
0.0
 46
0.0
 47
0.0
 48
0.0
 49
0.0
140
0.0
141
0.0
142
1.0
143
1.0
 70
   688
 72
     0
 73
     0
 74
     5
  7

 75
    16
147
1.0
148
0.0
149
0.0
100
AcDbLayout
  1
Layout1
 70
     1
 71
     1
 10
0.0
 20
0.0
 11
12.0
 21
9.0
 12
0.0
 22
0.0
 32
0.0
 14
1.000000000000000E+20
 24
1.000000000000000E+20
 34
1.000000000000000E+20
 15
-1.000000000000000E+20
 25
-1.000000000000000E+20
 35
-1.000000000000000E+20
146
0.0
 13
0.0
 23
0.0
 33
0.0
 16
1.0
 26
0.0
 36
0.0
 17
0.0
 27
1.0
 37
0.0
 76
     0
330
1A
  0
LAYOUT
  5
21
102
{ACAD_REACTORS
330
19
102
}
330
19
100
AcDbPlotSettings
  1

  2
hp deskjet 980c series
  4

  6

 40
0.0
 41
0.0
 42
0.0
 43
0.0
 44
0.0
 45
0.0
 46
0.0
 47
0.0
 48
0.0
 49
0.0
140
0.0
141
0.0
142
1.0
143
1.0
 70
  1712
 72
     0
 73
     0
 74
     0
  7

 75
     0
147
1.0
148
0.0
149
0.0
100
AcDbLayout
  1
Model
 70
     1
 71
     0
 10
0.0
 20
0.0
 11
12.0
 21
9.0
 12
0.0
 22
0.0
 32
0.0
 14
0.0
 24
0.0
 34
0.0
 15
0.0
 25
0.0
 35
0.0
146
0.0
 13
0.0
 23
0.0
 33
0.0
 16
1.0
 26
0.0
 36
0.0
 17
0.0
 27
1.0
 37
0.0
 76
     0
330
1E
  0
MLINESTYLE
  5
17
102
{ACAD_REACTORS
330
16
102
}
330
16
100
AcDbMlineStyle
  2
STANDARD
 70
     0
  3

 62
   256
 51
90.0
 52
90.0
 71
     2
 49
0.5
 62
   256
  6
BYLAYER
 49
-0.5
 62
   256
  6
BYLAYER
  0
ACDBPLACEHOLDER
  5
F
102
{ACAD_REACTORS
330
E
102
}
330
E
  0
DICTIONARYVAR
  5
50F
102
{ACAD_REACTORS
330
50E
102
}
330
50E
100
DictionaryVariables
280
     0
  1
1
  0
ENDSEC
  0
EOF
