  0
SECTION
  2
HEADER
  9
$ACADVER
  1
AC1015
  9
$ACADMAINTVER
 70
    13
  9
$DWGCODEPAGE
  3
ANSI_1252
  9
$INSBASE
 10
0.0
 20
0.0
 30
0.0
  9
$EXTMIN
 10
-0.0000000000000096
 20
0.00000000000001
 30
0.0
  9
$EXTMAX
 10
300.0
 20
609.0
 30
0.0
  9
$LIMMIN
 10
0.0
 20
0.0
  9
$LIMMAX
 10
12.0
 20
9.0
  9
$ORTHOMODE
 70
     0
  9
$REGENMODE
 70
     1
  9
$FILLMODE
 70
     1
  9
$QTEXTMODE
 70
     0
  9
$MIRRTEXT
 70
     1
  9
$LTSCALE
 40
1.0
  9
$ATTMODE
 70
     1
  9
$TEXTSIZE
 40
0.2
  9
$TRACEWID
 40
0.05
  9
$TEXTSTYLE
  7
Standard
  9
$CLAYER
  8
0
  9
$CELTYPE
  6
Continuous
  9
$CECOLOR
 62
   256
  9
$CELTSCALE
 40
1.0
  9
$DISPSILH
 70
     0
  9
$DIMSCALE
 40
1.0
  9
$DIMASZ
 40
0.18
  9
$DIMEXO
 40
0.0625
  9
$DIMDLI
 40
0.38
  9
$DIMRND
 40
0.0
  9
$DIMDLE
 40
0.0
  9
$DIMEXE
 40
0.18
  9
$DIMTP
 40
0.0
  9
$DIMTM
 40
0.0
  9
$DIMTXT
 40
0.18
  9
$DIMCEN
 40
0.09
  9
$DIMTSZ
 40
0.0
  9
$DIMTOL
 70
     0
  9
$DIMLIM
 70
     0
  9
$DIMTIH
 70
     1
  9
$DIMTOH
 70
     1
  9
$DIMSE1
 70
     0
  9
$DIMSE2
 70
     0
  9
$DIMTAD
 70
     0
  9
$DIMZIN
 70
     0
  9
$DIMBLK
  1

  9
$DIMASO
 70
     1
  9
$DIMSHO
 70
     1
  9
$DIMPOST
  1

  9
$DIMAPOST
  1

  9
$DIMALT
 70
     0
  9
$DIMALTD
 70
     2
  9
$DIMALTF
 40
25.4
  9
$DIMLFAC
 40
1.0
  9
$DIMTOFL
 70
     0
  9
$DIMTVP
 40
0.0
  9
$DIMTIX
 70
     0
  9
$DIMSOXD
 70
     0
  9
$DIMSAH
 70
     0
  9
$DIMBLK1
  1

  9
$DIMBLK2
  1

  9
$DIMSTYLE
  2
Standard
  9
$DIMCLRD
 70
     0
  9
$DIMCLRE
 70
     0
  9
$DIMCLRT
 70
     0
  9
$DIMTFAC
 40
1.0
  9
$DIMGAP
 40
0.09
  9
$DIMJUST
 70
     0
  9
$DIMSD1
 70
     0
  9
$DIMSD2
 70
     0
  9
$DIMTOLJ
 70
     1
  9
$DIMTZIN
 70
     0
  9
$DIMALTZ
 70
     0
  9
$DIMALTTZ
 70
     0
  9
$DIMUPT
 70
     0
  9
$DIMDEC
 70
     4
  9
$DIMTDEC
 70
     4
  9
$DIMALTU
 70
     2
  9
$DIMALTTD
 70
     2
  9
$DIMTXSTY
  7
Standard
  9
$DIMAUNIT
 70
     0
  9
$DIMADEC
 70
     0
  9
$DIMALTRND
 40
0.0
  9
$DIMAZIN
 70
     0
  9
$DIMDSEP
 70
    46
  9
$DIMATFIT
 70
     3
  9
$DIMFRAC
 70
     0
  9
$DIMLDRBLK
  1

  9
$DIMLUNIT
 70
     2
  9
$DIMLWD
 70
    -2
  9
$DIMLWE
 70
    -2
  9
$DIMTMOVE
 70
     0
  9
$LUNITS
 70
     2
  9
$LUPREC
 70
     4
  9
$SKETCHINC
 40
0.1
  9
$FILLETRAD
 40
0.0
  9
$AUNITS
 70
     0
  9
$AUPREC
 70
     0
  9
$MENU
  1
.
  9
$ELEVATION
 40
0.0
  9
$PELEVATION
 40
0.0
  9
$THICKNESS
 40
0.0
  9
$LIMCHECK
 70
     0
  9
$CHAMFERA
 40
0.0
  9
$CHAMFERB
 40
0.0
  9
$CHAMFERC
 40
0.0
  9
$CHAMFERD
 40
0.0
  9
$SKPOLY
 70
     0
  9
$TDCREATE
 40
2454741.412059861
  9
$TDUCREATE
 40
2454741.328726527
  9
$TDUPDATE
 40
2454741.413485289
  9
$TDUUPDATE
 40
2454741.330151956
  9
$TDINDWG
 40
0.0014254282
  9
$TDUSRTIMER
 40
0.0014254282
  9
$USRTIMER
 70
     1
  9
$ANGBASE
 50
0.0
  9
$ANGDIR
 70
     0
  9
$PDMODE
 70
     0
  9
$PDSIZE
 40
0.0
  9
$PLINEWID
 40
0.0
  9
$SPLFRAME
 70
     0
  9
$SPLINETYPE
 70
     6
  9
$SPLINESEGS
 70
     8
  9
$HANDSEED
  5
168
  9
$SURFTAB1
 70
     6
  9
$SURFTAB2
 70
     6
  9
$SURFTYPE
 70
     6
  9
$SURFU
 70
     6
  9
$SURFV
 70
     6
  9
$UCSBASE
  2

  9
$UCSNAME
  2

  9
$UCSORG
 10
0.0
 20
0.0
 30
0.0
  9
$UCSXDIR
 10
1.0
 20
0.0
 30
0.0
  9
$UCSYDIR
 10
0.0
 20
1.0
 30
0.0
  9
$UCSORTHOREF
  2

  9
$UCSORTHOVIEW
 70
     1
  9
$UCSORGTOP
 10
0.0
 20
0.0
 30
0.0
  9
$UCSORGBOTTOM
 10
0.0
 20
0.0
 30
0.0
  9
$UCSORGLEFT
 10
0.0
 20
0.0
 30
0.0
  9
$UCSORGRIGHT
 10
0.0
 20
0.0
 30
0.0
  9
$UCSORGFRONT
 10
0.0
 20
0.0
 30
0.0
  9
$UCSORGBACK
 10
0.0
 20
0.0
 30
0.0
  9
$PUCSBASE
  2

  9
$PUCSNAME
  2

  9
$PUCSORG
 10
0.0
 20
0.0
 30
0.0
  9
$PUCSXDIR
 10
1.0
 20
0.0
 30
0.0
  9
$PUCSYDIR
 10
0.0
 20
1.0
 30
0.0
  9
$PUCSORTHOREF
  2

  9
$PUCSORTHOVIEW
 70
     0
  9
$PUCSORGTOP
 10
0.0
 20
0.0
 30
0.0
  9
$PUCSORGBOTTOM
 10
0.0
 20
0.0
 30
0.0
  9
$PUCSORGLEFT
 10
0.0
 20
0.0
 30
0.0
  9
$PUCSORGRIGHT
 10
0.0
 20
0.0
 30
0.0
  9
$PUCSORGFRONT
 10
0.0
 20
0.0
 30
0.0
  9
$PUCSORGBACK
 10
0.0
 20
0.0
 30
0.0
  9
$USERI1
 70
     0
  9
$USERI2
 70
     0
  9
$USERI3
 70
     0
  9
$USERI4
 70
     0
  9
$USERI5
 70
     0
  9
$USERR1
 40
0.0
  9
$USERR2
 40
0.0
  9
$USERR3
 40
0.0
  9
$USERR4
 40
0.0
  9
$USERR5
 40
0.0
  9
$WORLDVIEW
 70
     1
  9
$SHADEDGE
 70
     3
  9
$SHADEDIF
 70
    70
  9
$TILEMODE
 70
     1
  9
$MAXACTVP
 70
    64
  9
$PINSBASE
 10
0.0
 20
0.0
 30
0.0
  9
$PLIMCHECK
 70
     0
  9
$PEXTMIN
 10
1.000000000000000E+20
 20
1.000000000000000E+20
 30
1.000000000000000E+20
  9
$PEXTMAX
 10
-1.000000000000000E+20
 20
-1.000000000000000E+20
 30
-1.000000000000000E+20
  9
$PLIMMIN
 10
0.0
 20
0.0
  9
$PLIMMAX
 10
12.0
 20
9.0
  9
$UNITMODE
 70
     0
  9
$VISRETAIN
 70
     1
  9
$PLINEGEN
 70
     0
  9
$PSLTSCALE
 70
     1
  9
$TREEDEPTH
 70
  3020
  9
$CMLSTYLE
  2
Standard
  9
$CMLJUST
 70
     0
  9
$CMLSCALE
 40
1.0
  9
$PROXYGRAPHICS
 70
     1
  9
$MEASUREMENT
 70
     0
  9
$CELWEIGHT
370
    -1
  9
$ENDCAPS
280
     0
  9
$JOINSTYLE
280
     0
  9
$LWDISPLAY
290
     0
  9
$INSUNITS
 70
     0
  9
$HYPERLINKBASE
  1

  9
$STYLESHEET
  1

  9
$XEDIT
290
     1
  9
$CEPSNTYPE
380
     0
  9
$PSTYLEMODE
290
     1
  9
$FINGERPRINTGUID
  2
{EF46FFCB-FFA7-4136-9FA2-EA84FF6EF55F}
  9
$VERSIONGUID
  2
{75817E2D-E480-4A95-B7DA-7F5B322D72CB}
  9
$EXTNAMES
290
     1
  9
$PSVPSCALE
 40
0.0
  9
$OLESTARTUP
290
     0
  0
ENDSEC
  0
SECTION
  2
CLASSES
  0
CLASS
  1
ACDBDICTIONARYWDFLT
  2
AcDbDictionaryWithDefault
  3
AutoCAD 2000
 90
        0
280
     0
281
     0
  0
CLASS
  1
ACDBPLACEHOLDER
  2
AcDbPlaceHolder
  3
AutoCAD 2000
 90
        0
280
     0
281
     0
  0
CLASS
  1
LAYOUT
  2
AcDbLayout
  3
AutoCAD 2000
 90
        0
280
     0
281
     0
  0
CLASS
  1
DICTIONARYVAR
  2
AcDbDictionaryVar
  3
AutoCAD 2000
 90
        0
280
     0
281
     0
  0
ENDSEC
  0
SECTION
  2
TABLES
  0
TABLE
  2
VPORT
  5
8
330
0
100
AcDbSymbolTable
 70
     2
  0
VPORT
  5
167
330
8
100
AcDbSymbolTableRecord
100
AcDbViewportTableRecord
  2
*Active
 70
     0
 10
0.0
 20
0.0
 11
1.0
 21
1.0
 12
150.0
 22
304.4999999999999
 13
0.0
 23
0.0
 14
1.0
 24
1.0
 15
0.0
 25
0.0
 16
0.0
 26
0.0
 36
1.0
 17
0.0
 27
0.0
 37
0.0
 40
613.6726342710996
 41
2.078104993597951
 42
50.0
 43
0.0
 44
0.0
 50
0.0
 51
0.0
 71
     0
 72
   100
 73
     1
 74
     3
 75
     0
 76
     0
 77
     0
 78
     0
281
     0
 65
     1
110
0.0
120
0.0
130
0.0
111
1.0
121
0.0
131
0.0
112
0.0
122
1.0
132
0.0
 79
     1
146
0.0
  0
ENDTAB
  0
TABLE
  2
LTYPE
  5
5
330
0
100
AcDbSymbolTable
 70
     1
  0
LTYPE
  5
13
330
5
100
AcDbSymbolTableRecord
100
AcDbLinetypeTableRecord
  2
ByBlock
 70
     0
  3

 72
    65
 73
     0
 40
0.0
  0
LTYPE
  5
14
330
5
100
AcDbSymbolTableRecord
100
AcDbLinetypeTableRecord
  2
ByLayer
 70
     0
  3

 72
    65
 73
     0
 40
0.0
  0
LTYPE
  5
15
330
5
100
AcDbSymbolTableRecord
100
AcDbLinetypeTableRecord
  2
Continuous
 70
     0
  3
Solid line
 72
    65
 73
     0
 40
0.0
  0
ENDTAB
  0
TABLE
  2
LAYER
  5
2
330
0
100
AcDbSymbolTable
 70
     1
  0
LAYER
  5
10
330
2
100
AcDbSymbolTableRecord
100
AcDbLayerTableRecord
  2
0
 70
     0
 62
     7
  6
Continuous
370
    -3
390
F
  0
ENDTAB
  0
TABLE
  2
STYLE
  5
3
330
0
100
AcDbSymbolTable
 70
     1
  0
STYLE
  5
11
330
3
100
AcDbSymbolTableRecord
100
AcDbTextStyleTableRecord
  2
Standard
 70
     0
 40
0.0
 41
1.0
 50
0.0
 71
     0
 42
0.2
  3
txt
  4

  0
ENDTAB
  0
TABLE
  2
VIEW
  5
6
330
0
100
AcDbSymbolTable
 70
     0
  0
ENDTAB
  0
TABLE
  2
UCS
  5
7
330
0
100
AcDbSymbolTable
 70
     0
  0
ENDTAB
  0
TABLE
  2
APPID
  5
9
330
0
100
AcDbSymbolTable
 70
     1
  0
APPID
  5
12
330
9
100
AcDbSymbolTableRecord
100
AcDbRegAppTableRecord
  2
ACAD
 70
     0
  0
ENDTAB
  0
TABLE
  2
DIMSTYLE
  5
A
330
0
100
AcDbSymbolTable
 70
     1
100
AcDbDimStyleTable
 71
     0
  0
DIMSTYLE
105
15F
330
A
100
AcDbSymbolTableRecord
100
AcDbDimStyleTableRecord
  2
Standard
 70
     0
340
11
  0
ENDTAB
  0
TABLE
  2
BLOCK_RECORD
  5
1
330
0
100
AcDbSymbolTable
 70
     0
  0
BLOCK_RECORD
  5
1E
330
1
100
AcDbSymbolTableRecord
100
AcDbBlockTableRecord
  2
*Model_Space
340
21
  0
BLOCK_RECORD
  5
1A
330
1
100
AcDbSymbolTableRecord
100
AcDbBlockTableRecord
  2
*Paper_Space
340
1D
  0
ENDTAB
  0
ENDSEC
  0
SECTION
  2
BLOCKS
  0
BLOCK
  5
1F
330
1E
100
AcDbEntity
  8
0
100
AcDbBlockBegin
  2
*Model_Space
 70
     0
 10
0.0
 20
0.0
 30
0.0
  3
*Model_Space
  1

  0
ENDBLK
  5
20
330
1E
100
AcDbEntity
  8
0
100
AcDbBlockEnd
  0
BLOCK
  5
1B
330
1A
100
AcDbEntity
 67
     1
  8
0
100
AcDbBlockBegin
  2
*Paper_Space
 70
     0
 10
0.0
 20
0.0
 30
0.0
  3
*Paper_Space
  1

  0
ENDBLK
  5
1C
330
1A
100
AcDbEntity
 67
     1
  8
0
100
AcDbBlockEnd
  0
ENDSEC
  0
SECTION
  2
ENTITIES
  0
LINE
  5
22
330
1E
100
AcDbEntity
  8
0
100
AcDbLine
 10
6.62499999999999
 20
111.6249999999999
 30
0.0
 11
12.875
 21
93.125
 31
0.0
  0
LINE
  5
23
330
1E
100
AcDbEntity
  8
0
100
AcDbLine
 10
2.74999999999999
 20
130.4999999999999
 30
0.0
 11
6.62499999999999
 21
111.6249999999999
 31
0.0
  0
LINE
  5
24
330
1E
100
AcDbEntity
  8
0
100
AcDbLine
 10
5.37499999999999
 20
111.25
 30
0.0
 11
11.75
 21
92.75
 31
0.0
  0
LINE
  5
25
330
1E
100
AcDbEntity
  8
0
100
AcDbLine
 10
31.25
 20
58.875
 30
0.0
 11
44.125
 21
44.125
 31
0.0
  0
LINE
  5
26
330
1E
100
AcDbEntity
  8
0
100
AcDbLine
 10
31.25
 20
58.875
 30
0.0
 11
44.125
 21
44.125
 31
0.0
  0
LINE
  5
27
330
1E
100
AcDbEntity
  8
0
100
AcDbLine
 10
92.75
 20
11.75
 30
0.0
 11
111.25
 21
5.375000000000009
 31
0.0
  0
LINE
  5
28
330
1E
100
AcDbEntity
  8
0
100
AcDbLine
 10
76.0
 20
21.125
 30
0.0
 11
93.125
 21
12.875
 31
0.0
  0
LINE
  5
29
330
1E
100
AcDbEntity
  8
0
100
AcDbLine
 10
59.625
 20
32.25
 30
0.0
 11
76.0
 21
21.125
 31
0.0
  0
LINE
  5
2A
330
1E
100
AcDbEntity
  8
0
100
AcDbLine
 10
58.875
 20
31.25
 30
0.0
 11
75.375
 21
20.125
 31
0.0
  0
LINE
  5
2B
330
1E
100
AcDbEntity
  8
0
100
AcDbLine
 10
75.375
 20
20.125
 30
0.0
 11
92.75
 21
11.75
 31
0.0
  0
LINE
  5
2C
330
1E
100
AcDbEntity
  8
0
100
AcDbLine
 10
75.375
 20
20.125
 30
0.0
 11
92.75
 21
11.75
 31
0.0
  0
LINE
  5
2D
330
1E
100
AcDbEntity
  8
0
100
AcDbLine
 10
93.125
 20
12.875
 30
0.0
 11
111.6249999999999
 21
6.625000000000009
 31
0.0
  0
LINE
  5
2E
330
1E
100
AcDbEntity
  8
0
100
AcDbLine
 10
93.125
 20
12.875
 30
0.0
 11
111.6249999999999
 21
6.625000000000009
 31
0.0
  0
LINE
  5
2F
330
1E
100
AcDbEntity
  8
0
100
AcDbLine
 10
92.75
 20
11.75
 30
0.0
 11
111.25
 21
5.375000000000009
 31
0.0
  0
LINE
  5
30
330
1E
100
AcDbEntity
  8
0
100
AcDbLine
 10
45.0
 20
45.0
 30
0.0
 11
59.625
 21
32.25
 31
0.0
  0
LINE
  5
31
330
1E
100
AcDbEntity
  8
0
100
AcDbLine
 10
32.25
 20
59.625
 30
0.0
 11
45.0
 21
45.0
 31
0.0
  0
LINE
  5
32
330
1E
100
AcDbEntity
  8
0
100
AcDbLine
 10
44.125
 20
44.125
 30
0.0
 11
58.875
 21
31.25
 31
0.0
  0
LINE
  5
33
330
1E
100
AcDbEntity
  8
0
100
AcDbLine
 10
21.125
 20
76.0
 30
0.0
 11
32.25
 21
59.625
 31
0.0
  0
LINE
  5
34
330
1E
100
AcDbEntity
  8
0
100
AcDbLine
 10
12.875
 20
93.125
 30
0.0
 11
21.125
 21
76.0
 31
0.0
  0
LINE
  5
35
330
1E
100
AcDbEntity
  8
0
100
AcDbLine
 10
20.125
 20
75.375
 30
0.0
 11
31.25
 21
58.875
 31
0.0
  0
LINE
  5
36
330
1E
100
AcDbEntity
  8
0
100
AcDbLine
 10
20.125
 20
75.375
 30
0.0
 11
31.25
 21
58.875
 31
0.0
  0
LINE
  5
37
330
1E
100
AcDbEntity
  8
0
100
AcDbLine
 10
11.75
 20
92.75
 30
0.0
 11
20.125
 21
75.375
 31
0.0
  0
LINE
  5
38
330
1E
100
AcDbEntity
  8
0
100
AcDbLine
 10
2.74999999999999
 20
169.5
 30
0.0
 11
6.62499999999999
 21
188.375
 31
0.0
  0
LINE
  5
39
330
1E
100
AcDbEntity
  8
0
100
AcDbLine
 10
12.875
 20
206.875
 30
0.0
 11
21.125
 21
224.0
 31
0.0
  0
LINE
  5
3A
330
1E
100
AcDbEntity
  8
0
100
AcDbLine
 10
6.62499999999999
 20
188.375
 30
0.0
 11
12.875
 21
206.875
 31
0.0
  0
LINE
  5
3B
330
1E
100
AcDbEntity
  8
0
100
AcDbLine
 10
21.125
 20
224.0
 30
0.0
 11
32.25
 21
240.375
 31
0.0
  0
LINE
  5
3C
330
1E
100
AcDbEntity
  8
0
100
AcDbLine
 10
20.125
 20
224.6249999999999
 30
0.0
 11
31.25
 21
241.1249999999999
 31
0.0
  0
LINE
  5
3D
330
1E
100
AcDbEntity
  8
0
100
AcDbLine
 10
32.25
 20
240.375
 30
0.0
 11
45.0
 21
255.0
 31
0.0
  0
LINE
  5
3E
330
1E
100
AcDbEntity
  8
0
100
AcDbLine
 10
31.25
 20
241.1249999999999
 30
0.0
 11
44.125
 21
255.8749999999999
 31
0.0
  0
LINE
  5
3F
330
1E
100
AcDbEntity
  8
0
100
AcDbLine
 10
11.75
 20
207.25
 30
0.0
 11
20.125
 21
224.6249999999999
 31
0.0
  0
LINE
  5
40
330
1E
100
AcDbEntity
  8
0
100
AcDbLine
 10
5.37499999999999
 20
188.75
 30
0.0
 11
11.75
 21
207.25
 31
0.0
  0
LINE
  5
41
330
1E
100
AcDbEntity
  8
0
100
AcDbLine
 10
1.499999999999989
 20
169.5
 30
0.0
 11
5.37499999999999
 21
188.75
 31
0.0
  0
LINE
  5
42
330
1E
100
AcDbEntity
  8
0
100
AcDbLine
 10
45.0
 20
255.0
 30
0.0
 11
59.625
 21
267.75
 31
0.0
  0
LINE
  5
43
330
1E
100
AcDbEntity
  8
0
100
AcDbLine
 10
44.125
 20
255.8749999999999
 30
0.0
 11
58.875
 21
268.75
 31
0.0
  0
LINE
  5
44
330
1E
100
AcDbEntity
  8
0
100
AcDbLine
 10
59.625
 20
267.75
 30
0.0
 11
76.0
 21
278.8749999999999
 31
0.0
  0
LINE
  5
45
330
1E
100
AcDbEntity
  8
0
100
AcDbLine
 10
76.0
 20
278.8749999999999
 30
0.0
 11
93.125
 21
287.1249999999999
 31
0.0
  0
LINE
  5
46
330
1E
100
AcDbEntity
  8
0
100
AcDbLine
 10
58.875
 20
268.75
 30
0.0
 11
75.375
 21
279.875
 31
0.0
  0
LINE
  5
47
330
1E
100
AcDbEntity
  8
0
100
AcDbLine
 10
75.375
 20
279.875
 30
0.0
 11
92.75
 21
288.2499999999999
 31
0.0
  0
LINE
  5
48
330
1E
100
AcDbEntity
  8
0
100
AcDbLine
 10
93.125
 20
287.1249999999999
 30
0.0
 11
111.6249999999999
 21
293.3749999999999
 31
0.0
  0
LINE
  5
49
330
1E
100
AcDbEntity
  8
0
100
AcDbLine
 10
92.75
 20
288.2499999999999
 30
0.0
 11
111.25
 21
294.625
 31
0.0
  0
LINE
  5
4A
330
1E
100
AcDbEntity
  8
0
100
AcDbLine
 10
1.24999999999999
 20
150.0
 30
0.0
 11
2.74999999999999
 21
130.4999999999999
 31
0.0
  0
LINE
  5
4B
330
1E
100
AcDbEntity
  8
0
100
AcDbLine
 10
1.24999999999999
 20
150.0
 30
0.0
 11
2.74999999999999
 21
169.5
 31
0.0
  0
LINE
  5
4C
330
1E
100
AcDbEntity
  8
0
100
AcDbLine
 10
-0.0000000000000096
 20
150.0
 30
0.0
 11
1.499999999999989
 21
130.4999999999999
 31
0.0
  0
LINE
  5
4D
330
1E
100
AcDbEntity
  8
0
100
AcDbLine
 10
-0.0000000000000096
 20
150.0
 30
0.0
 11
1.499999999999989
 21
169.5
 31
0.0
  0
LINE
  5
4E
330
1E
100
AcDbEntity
  8
0
100
AcDbLine
 10
1.499999999999989
 20
130.4999999999999
 30
0.0
 11
5.37499999999999
 21
111.25
 31
0.0
  0
LINE
  5
4F
330
1E
100
AcDbEntity
  8
0
100
AcDbLine
 10
111.25
 20
5.375000000000009
 30
0.0
 11
130.4999999999999
 21
1.50000000000001
 31
0.0
  0
LINE
  5
50
330
1E
100
AcDbEntity
  8
0
100
AcDbLine
 10
111.6249999999999
 20
293.3749999999999
 30
0.0
 11
130.4999999999999
 21
297.25
 31
0.0
  0
LINE
  5
51
330
1E
100
AcDbEntity
  8
0
100
AcDbLine
 10
111.25
 20
294.625
 30
0.0
 11
130.4999999999999
 21
298.4999999999999
 31
0.0
  0
LINE
  5
52
330
1E
100
AcDbEntity
  8
0
100
AcDbLine
 10
111.6249999999999
 20
6.625000000000009
 30
0.0
 11
130.4999999999999
 21
2.750000000000009
 31
0.0
  0
LINE
  5
53
330
1E
100
AcDbEntity
  8
0
100
AcDbLine
 10
111.6249999999999
 20
6.625000000000009
 30
0.0
 11
130.4999999999999
 21
2.750000000000009
 31
0.0
  0
LINE
  5
54
330
1E
100
AcDbEntity
  8
0
100
AcDbLine
 10
128.7599999999999
 20
128.7599999999999
 30
0.0
 11
135.12
 21
123.96
 31
0.0
  0
LINE
  5
55
330
1E
100
AcDbEntity
  8
0
100
AcDbLine
 10
123.96
 20
135.12
 30
0.0
 11
128.7599999999999
 21
128.7599999999999
 31
0.0
  0
LINE
  5
56
330
1E
100
AcDbEntity
  8
0
100
AcDbLine
 10
121.08
 20
142.32
 30
0.0
 11
123.96
 21
135.12
 31
0.0
  0
LINE
  5
57
330
1E
100
AcDbEntity
  8
0
100
AcDbLine
 10
128.7599999999999
 20
171.24
 30
0.0
 11
135.12
 21
176.0399999999999
 31
0.0
  0
LINE
  5
58
330
1E
100
AcDbEntity
  8
0
100
AcDbLine
 10
123.96
 20
164.88
 30
0.0
 11
128.7599999999999
 21
171.24
 31
0.0
  0
LINE
  5
59
330
1E
100
AcDbEntity
  8
0
100
AcDbLine
 10
121.08
 20
157.68
 30
0.0
 11
123.96
 21
164.88
 31
0.0
  0
LINE
  5
5A
330
1E
100
AcDbEntity
  8
0
100
AcDbLine
 10
120.0
 20
150.0
 30
0.0
 11
121.08
 21
142.32
 31
0.0
  0
LINE
  5
5B
330
1E
100
AcDbEntity
  8
0
100
AcDbLine
 10
120.0
 20
150.0
 30
0.0
 11
121.08
 21
157.68
 31
0.0
  0
LINE
  5
5C
330
1E
100
AcDbEntity
  8
0
100
AcDbLine
 10
130.4799999999999
 20
150.0
 30
0.0
 11
131.1999999999999
 21
155.0399999999999
 31
0.0
  0
LINE
  5
5D
330
1E
100
AcDbEntity
  8
0
100
AcDbLine
 10
130.4799999999999
 20
150.0
 30
0.0
 11
131.1999999999999
 21
144.96
 31
0.0
  0
LINE
  5
5E
330
1E
100
AcDbEntity
  8
0
100
AcDbLine
 10
130.0
 20
150.0
 30
0.0
 11
130.7199999999999
 21
155.12
 31
0.0
  0
LINE
  5
5F
330
1E
100
AcDbEntity
  8
0
100
AcDbLine
 10
130.0
 20
150.0
 30
0.0
 11
130.7199999999999
 21
144.88
 31
0.0
  0
LINE
  5
60
330
1E
100
AcDbEntity
  8
0
100
AcDbLine
 10
130.4999999999999
 20
297.25
 30
0.0
 11
138.0
 21
297.826923076923
 31
0.0
  0
LINE
  5
61
330
1E
100
AcDbEntity
  8
0
100
AcDbLine
 10
130.4999999999999
 20
298.4999999999999
 30
0.0
 11
138.0
 21
299.0769230769229
 31
0.0
  0
LINE
  5
62
330
1E
100
AcDbEntity
  8
0
100
AcDbLine
 10
130.4999999999999
 20
2.750000000000009
 30
0.0
 11
150.0
 21
1.250000000000009
 31
0.0
  0
LINE
  5
63
330
1E
100
AcDbEntity
  8
0
100
AcDbLine
 10
130.4999999999999
 20
1.50000000000001
 30
0.0
 11
150.0
 21
0.0000000000000109
 31
0.0
  0
LINE
  5
64
330
1E
100
AcDbEntity
  8
0
100
AcDbLine
 10
130.4999999999999
 20
1.50000000000001
 30
0.0
 11
150.0
 21
0.0000000000000108
 31
0.0
  0
LINE
  5
65
330
1E
100
AcDbEntity
  8
0
100
AcDbLine
 10
130.4999999999999
 20
1.50000000000001
 30
0.0
 11
150.0
 21
0.0000000000000102
 31
0.0
  0
LINE
  5
66
330
1E
100
AcDbEntity
  8
0
100
AcDbLine
 10
130.4999999999999
 20
1.50000000000001
 30
0.0
 11
150.0
 21
0.00000000000001
 31
0.0
  0
LINE
  5
67
330
1E
100
AcDbEntity
  8
0
100
AcDbLine
 10
116.2399999999999
 20
597.0
 30
0.0
 11
122.48
 21
597.0
 31
0.0
  0
LINE
  5
68
330
1E
100
AcDbEntity
  8
0
100
AcDbLine
 10
122.48
 20
597.0
 30
0.0
 11
130.6399999999999
 21
597.0
 31
0.0
  0
LINE
  5
69
330
1E
100
AcDbEntity
  8
0
100
AcDbLine
 10
110.9599999999999
 20
597.0
 30
0.0
 11
112.4
 21
597.0
 31
0.0
  0
LINE
  5
6A
330
1E
100
AcDbEntity
  8
0
100
AcDbLine
 10
112.4
 20
597.0
 30
0.0
 11
116.2399999999999
 21
597.0
 31
0.0
  0
LINE
  5
6B
330
1E
100
AcDbEntity
  8
0
100
AcDbLine
 10
135.12
 20
123.96
 30
0.0
 11
142.32
 21
121.08
 31
0.0
  0
LINE
  5
6C
330
1E
100
AcDbEntity
  8
0
100
AcDbLine
 10
150.0
 20
120.0
 30
0.0
 11
157.68
 21
121.08
 31
0.0
  0
LINE
  5
6D
330
1E
100
AcDbEntity
  8
0
100
AcDbLine
 10
142.32
 20
121.08
 30
0.0
 11
150.0
 21
120.0
 31
0.0
  0
LINE
  5
6E
330
1E
100
AcDbEntity
  8
0
100
AcDbLine
 10
150.0
 20
130.4799999999999
 30
0.0
 11
155.0399999999999
 21
131.1999999999999
 31
0.0
  0
LINE
  5
6F
330
1E
100
AcDbEntity
  8
0
100
AcDbLine
 10
150.0
 20
130.0
 30
0.0
 11
155.12
 21
130.7199999999999
 31
0.0
  0
LINE
  5
70
330
1E
100
AcDbEntity
  8
0
100
AcDbLine
 10
144.96
 20
131.1999999999999
 30
0.0
 11
150.0
 21
130.4799999999999
 31
0.0
  0
LINE
  5
71
330
1E
100
AcDbEntity
  8
0
100
AcDbLine
 10
140.08
 20
132.6399999999999
 30
0.0
 11
144.88
 21
130.7199999999999
 31
0.0
  0
LINE
  5
72
330
1E
100
AcDbEntity
  8
0
100
AcDbLine
 10
150.0
 20
137.312
 30
0.0
 11
153.276
 21
137.78
 31
0.0
  0
LINE
  5
73
330
1E
100
AcDbEntity
  8
0
100
AcDbLine
 10
150.0
 20
137.0
 30
0.0
 11
153.3279999999999
 21
137.4679999999999
 31
0.0
  0
LINE
  5
74
330
1E
100
AcDbEntity
  8
0
100
AcDbLine
 10
146.672
 20
137.4679999999999
 30
0.0
 11
150.0
 21
137.0
 31
0.0
  0
LINE
  5
75
330
1E
100
AcDbEntity
  8
0
100
AcDbLine
 10
146.7239999999999
 20
137.78
 30
0.0
 11
150.0
 21
137.312
 31
0.0
  0
LINE
  5
76
330
1E
100
AcDbEntity
  8
0
100
AcDbLine
 10
142.5
 20
136.9499999999999
 30
0.0
 11
146.1
 21
135.5999999999999
 31
0.0
  0
LINE
  5
77
330
1E
100
AcDbEntity
  8
0
100
AcDbLine
 10
146.1
 20
135.5999999999999
 30
0.0
 11
150.0
 21
135.0
 31
0.0
  0
LINE
  5
78
330
1E
100
AcDbEntity
  8
0
100
AcDbLine
 10
150.0
 20
135.0
 30
0.0
 11
153.9
 21
135.5999999999999
 31
0.0
  0
LINE
  5
79
330
1E
100
AcDbEntity
  8
0
100
AcDbLine
 10
140.32
 20
133.12
 30
0.0
 11
144.96
 21
131.1999999999999
 31
0.0
  0
LINE
  5
7A
330
1E
100
AcDbEntity
  8
0
100
AcDbLine
 10
136.24
 20
136.24
 30
0.0
 11
140.32
 21
133.12
 31
0.0
  0
LINE
  5
7B
330
1E
100
AcDbEntity
  8
0
100
AcDbLine
 10
144.88
 20
130.7199999999999
 30
0.0
 11
150.0
 21
130.0
 31
0.0
  0
LINE
  5
7C
330
1E
100
AcDbEntity
  8
0
100
AcDbLine
 10
135.84
 20
135.84
 30
0.0
 11
140.08
 21
132.6399999999999
 31
0.0
  0
LINE
  5
7D
330
1E
100
AcDbEntity
  8
0
100
AcDbLine
 10
150.0
 20
0.0000000000000109
 30
0.0
 11
169.5
 21
1.50000000000001
 31
0.0
  0
LINE
  5
7E
330
1E
100
AcDbEntity
  8
0
100
AcDbLine
 10
150.0
 20
1.250000000000009
 30
0.0
 11
169.5
 21
2.750000000000009
 31
0.0
  0
LINE
  5
7F
330
1E
100
AcDbEntity
  8
0
100
AcDbLine
 10
150.0
 20
0.0000000000000108
 30
0.0
 11
169.5
 21
1.50000000000001
 31
0.0
  0
LINE
  5
80
330
1E
100
AcDbEntity
  8
0
100
AcDbLine
 10
155.0399999999999
 20
131.1999999999999
 30
0.0
 11
159.6799999999999
 21
133.12
 31
0.0
  0
LINE
  5
81
330
1E
100
AcDbEntity
  8
0
100
AcDbLine
 10
157.68
 20
121.08
 30
0.0
 11
164.88
 21
123.96
 31
0.0
  0
LINE
  5
82
330
1E
100
AcDbEntity
  8
0
100
AcDbLine
 10
155.12
 20
130.7199999999999
 30
0.0
 11
159.9199999999999
 21
132.6399999999999
 31
0.0
  0
LINE
  5
83
330
1E
100
AcDbEntity
  8
0
100
AcDbLine
 10
153.276
 20
137.78
 30
0.0
 11
156.292
 21
139.0279999999999
 31
0.0
  0
LINE
  5
84
330
1E
100
AcDbEntity
  8
0
100
AcDbLine
 10
153.3279999999999
 20
137.4679999999999
 30
0.0
 11
156.4479999999999
 21
138.716
 31
0.0
  0
LINE
  5
85
330
1E
100
AcDbEntity
  8
0
100
AcDbLine
 10
157.5
 20
136.9499999999999
 30
0.0
 11
160.65
 21
139.3499999999999
 31
0.0
  0
LINE
  5
86
330
1E
100
AcDbEntity
  8
0
100
AcDbLine
 10
153.9
 20
135.5999999999999
 30
0.0
 11
157.5
 21
136.9499999999999
 31
0.0
  0
LINE
  5
87
330
1E
100
AcDbEntity
  8
0
100
AcDbLine
 10
159.6799999999999
 20
133.12
 30
0.0
 11
163.7599999999999
 21
136.24
 31
0.0
  0
LINE
  5
88
330
1E
100
AcDbEntity
  8
0
100
AcDbLine
 10
159.9199999999999
 20
132.6399999999999
 30
0.0
 11
164.1599999999999
 21
135.84
 31
0.0
  0
LINE
  5
89
330
1E
100
AcDbEntity
  8
0
100
AcDbLine
 10
153.0999999999999
 20
138.4
 30
0.0
 11
156.0
 21
139.5999999999999
 31
0.0
  0
LINE
  5
8A
330
1E
100
AcDbEntity
  8
0
100
AcDbLine
 10
143.552
 20
138.716
 30
0.0
 11
146.672
 21
137.4679999999999
 31
0.0
  0
LINE
  5
8B
330
1E
100
AcDbEntity
  8
0
100
AcDbLine
 10
143.7079999999999
 20
139.0279999999999
 30
0.0
 11
146.7239999999999
 21
137.78
 31
0.0
  0
LINE
  5
8C
330
1E
100
AcDbEntity
  8
0
100
AcDbLine
 10
139.3499999999999
 20
139.3499999999999
 30
0.0
 11
142.5
 21
136.9499999999999
 31
0.0
  0
LINE
  5
8D
330
1E
100
AcDbEntity
  8
0
100
AcDbLine
 10
140.7959999999999
 20
140.7959999999999
 30
0.0
 11
143.552
 21
138.716
 31
0.0
  0
LINE
  5
8E
330
1E
100
AcDbEntity
  8
0
100
AcDbLine
 10
141.056
 20
141.056
 30
0.0
 11
143.7079999999999
 21
139.0279999999999
 31
0.0
  0
LINE
  5
8F
330
1E
100
AcDbEntity
  8
0
100
AcDbLine
 10
133.12
 20
140.32
 30
0.0
 11
136.24
 21
136.24
 31
0.0
  0
LINE
  5
90
330
1E
100
AcDbEntity
  8
0
100
AcDbLine
 10
132.6399999999999
 20
140.08
 30
0.0
 11
135.84
 21
135.84
 31
0.0
  0
LINE
  5
91
330
1E
100
AcDbEntity
  8
0
100
AcDbLine
 10
138.716
 20
143.552
 30
0.0
 11
140.7959999999999
 21
140.7959999999999
 31
0.0
  0
LINE
  5
92
330
1E
100
AcDbEntity
  8
0
100
AcDbLine
 10
139.0279999999999
 20
143.7079999999999
 30
0.0
 11
141.056
 21
141.056
 31
0.0
  0
LINE
  5
93
330
1E
100
AcDbEntity
  8
0
100
AcDbLine
 10
136.9499999999999
 20
142.5
 30
0.0
 11
139.3499999999999
 21
139.3499999999999
 31
0.0
  0
LINE
  5
94
330
1E
100
AcDbEntity
  8
0
100
AcDbLine
 10
137.78
 20
146.7239999999999
 30
0.0
 11
139.0279999999999
 21
143.7079999999999
 31
0.0
  0
LINE
  5
95
330
1E
100
AcDbEntity
  8
0
100
AcDbLine
 10
137.4679999999999
 20
146.672
 30
0.0
 11
138.716
 21
143.552
 31
0.0
  0
LINE
  5
96
330
1E
100
AcDbEntity
  8
0
100
AcDbLine
 10
135.5999999999999
 20
146.1
 30
0.0
 11
136.9499999999999
 21
142.5
 31
0.0
  0
LINE
  5
97
330
1E
100
AcDbEntity
  8
0
100
AcDbLine
 10
131.1999999999999
 20
144.96
 30
0.0
 11
133.12
 21
140.32
 31
0.0
  0
LINE
  5
98
330
1E
100
AcDbEntity
  8
0
100
AcDbLine
 10
130.7199999999999
 20
144.88
 30
0.0
 11
132.6399999999999
 21
140.08
 31
0.0
  0
LINE
  5
99
330
1E
100
AcDbEntity
  8
0
100
AcDbLine
 10
137.0
 20
150.0
 30
0.0
 11
137.4679999999999
 21
153.3279999999999
 31
0.0
  0
LINE
  5
9A
330
1E
100
AcDbEntity
  8
0
100
AcDbLine
 10
137.0
 20
150.0
 30
0.0
 11
137.4679999999999
 21
146.672
 31
0.0
  0
LINE
  5
9B
330
1E
100
AcDbEntity
  8
0
100
AcDbLine
 10
137.312
 20
150.0
 30
0.0
 11
137.78
 21
153.276
 31
0.0
  0
LINE
  5
9C
330
1E
100
AcDbEntity
  8
0
100
AcDbLine
 10
137.312
 20
150.0
 30
0.0
 11
137.78
 21
146.7239999999999
 31
0.0
  0
LINE
  5
9D
330
1E
100
AcDbEntity
  8
0
100
AcDbLine
 10
135.0
 20
150.0
 30
0.0
 11
135.5999999999999
 21
146.1
 31
0.0
  0
LINE
  5
9E
330
1E
100
AcDbEntity
  8
0
100
AcDbLine
 10
135.0
 20
150.0
 30
0.0
 11
135.5999999999999
 21
153.9
 31
0.0
  0
LINE
  5
9F
330
1E
100
AcDbEntity
  8
0
100
AcDbLine
 10
137.4679999999999
 20
153.3279999999999
 30
0.0
 11
138.0
 21
154.6579999999999
 31
0.0
  0
LINE
  5
A0
330
1E
100
AcDbEntity
  8
0
100
AcDbLine
 10
137.78
 20
153.276
 30
0.0
 11
138.0
 21
153.807666666667
 31
0.0
  0
LINE
  5
A1
330
1E
100
AcDbEntity
  8
0
100
AcDbLine
 10
135.5999999999999
 20
153.9
 30
0.0
 11
136.9499999999999
 21
157.5
 31
0.0
  0
LINE
  5
A2
330
1E
100
AcDbEntity
  8
0
100
AcDbLine
 10
136.9499999999999
 20
157.5
 30
0.0
 11
138.0
 21
158.878125
 31
0.0
  0
LINE
  5
A3
330
1E
100
AcDbEntity
  8
0
100
AcDbLine
 10
131.1999999999999
 20
155.0399999999999
 30
0.0
 11
133.12
 21
159.6799999999999
 31
0.0
  0
LINE
  5
A4
330
1E
100
AcDbEntity
  8
0
100
AcDbLine
 10
130.7199999999999
 20
155.12
 30
0.0
 11
132.6399999999999
 21
159.9199999999999
 31
0.0
  0
LINE
  5
A5
330
1E
100
AcDbEntity
  8
0
100
AcDbLine
 10
132.6399999999999
 20
159.9199999999999
 30
0.0
 11
135.84
 21
164.1599999999999
 31
0.0
  0
LINE
  5
A6
330
1E
100
AcDbEntity
  8
0
100
AcDbLine
 10
136.24
 20
163.7599999999999
 30
0.0
 11
138.0
 21
165.1058823529409
 31
0.0
  0
LINE
  5
A7
330
1E
100
AcDbEntity
  8
0
100
AcDbLine
 10
133.12
 20
159.6799999999999
 30
0.0
 11
136.24
 21
163.7599999999999
 31
0.0
  0
LINE
  5
A8
330
1E
100
AcDbEntity
  8
0
100
AcDbLine
 10
135.12
 20
176.0399999999999
 30
0.0
 11
138.0
 21
177.192
 31
0.0
  0
LINE
  5
A9
330
1E
100
AcDbEntity
  8
0
100
AcDbLine
 10
135.84
 20
164.1599999999999
 30
0.0
 11
138.0
 21
165.7901886792449
 31
0.0
  0
LINE
  5
AA
330
1E
100
AcDbEntity
  8
0
100
AcDbLine
 10
138.0
 20
164.0
 30
0.0
 11
138.0
 21
170.8
 31
0.0
  0
LINE
  5
AB
330
1E
100
AcDbEntity
  8
0
100
AcDbLine
 10
138.0
 20
164.0
 30
0.0
 11
138.0
 21
158.1999999999999
 31
0.0
  0
LINE
  5
AC
330
1E
100
AcDbEntity
  8
0
100
AcDbLine
 10
138.0
 20
170.8
 30
0.0
 11
138.0
 21
178.0
 31
0.0
  0
LINE
  5
AD
330
1E
100
AcDbEntity
  8
0
100
AcDbLine
 10
138.0
 20
170.8
 30
0.0
 11
138.0
 21
164.0
 31
0.0
  0
LINE
  5
AE
330
1E
100
AcDbEntity
  8
0
100
AcDbLine
 10
138.0
 20
178.0
 30
0.0
 11
138.0
 21
597.0
 31
0.0
  0
LINE
  5
AF
330
1E
100
AcDbEntity
  8
0
100
AcDbLine
 10
138.0
 20
178.0
 30
0.0
 11
138.0
 21
170.8
 31
0.0
  0
LINE
  5
B0
330
1E
100
AcDbEntity
  8
0
100
AcDbLine
 10
138.0
 20
597.0
 30
0.0
 11
138.0
 21
178.0
 31
0.0
  0
LINE
  5
B1
330
1E
100
AcDbEntity
  8
0
100
AcDbLine
 10
138.0
 20
597.0
 30
0.0
 11
138.4
 21
597.0
 31
0.0
  0
LINE
  5
B2
330
1E
100
AcDbEntity
  8
0
100
AcDbLine
 10
138.0
 20
158.1999999999999
 30
0.0
 11
138.0
 21
153.6999999999999
 31
0.0
  0
LINE
  5
B3
330
1E
100
AcDbEntity
  8
0
100
AcDbLine
 10
138.0
 20
158.1999999999999
 30
0.0
 11
138.0
 21
164.0
 31
0.0
  0
LINE
  5
B4
330
1E
100
AcDbEntity
  8
0
100
AcDbLine
 10
138.0
 20
153.6999999999999
 30
0.0
 11
138.0
 21
151.0
 31
0.0
  0
LINE
  5
B5
330
1E
100
AcDbEntity
  8
0
100
AcDbLine
 10
138.0
 20
153.6999999999999
 30
0.0
 11
138.0
 21
158.1999999999999
 31
0.0
  0
LINE
  5
B6
330
1E
100
AcDbEntity
  8
0
100
AcDbLine
 10
138.0
 20
151.0
 30
0.0
 11
138.0
 21
150.0
 31
0.0
  0
LINE
  5
B7
330
1E
100
AcDbEntity
  8
0
100
AcDbLine
 10
138.0
 20
151.0
 30
0.0
 11
138.0
 21
153.6999999999999
 31
0.0
  0
LINE
  5
B8
330
1E
100
AcDbEntity
  8
0
100
AcDbLine
 10
138.4
 20
597.0
 30
0.0
 11
139.5999999999999
 21
597.0
 31
0.0
  0
LINE
  5
B9
330
1E
100
AcDbEntity
  8
0
100
AcDbLine
 10
139.5999999999999
 20
597.0
 30
0.0
 11
141.5
 21
597.0
 31
0.0
  0
LINE
  5
BA
330
1E
100
AcDbEntity
  8
0
100
AcDbLine
 10
138.0
 20
150.0
 30
0.0
 11
138.4
 21
146.9
 31
0.0
  0
LINE
  5
BB
330
1E
100
AcDbEntity
  8
0
100
AcDbLine
 10
138.0
 20
150.0
 30
0.0
 11
138.0
 21
151.0
 31
0.0
  0
LINE
  5
BC
330
1E
100
AcDbEntity
  8
0
100
AcDbLine
 10
138.4
 20
146.9
 30
0.0
 11
139.5999999999999
 21
144.0
 31
0.0
  0
LINE
  5
BD
330
1E
100
AcDbEntity
  8
0
100
AcDbLine
 10
141.5
 20
597.0
 30
0.0
 11
144.0
 21
597.0
 31
0.0
  0
LINE
  5
BE
330
1E
100
AcDbEntity
  8
0
100
AcDbLine
 10
144.0
 20
597.0
 30
0.0
 11
146.9
 21
597.0
 31
0.0
  0
LINE
  5
BF
330
1E
100
AcDbEntity
  8
0
100
AcDbLine
 10
139.5999999999999
 20
144.0
 30
0.0
 11
141.5
 21
141.5
 31
0.0
  0
LINE
  5
C0
330
1E
100
AcDbEntity
  8
0
100
AcDbLine
 10
141.5
 20
141.5
 30
0.0
 11
144.0
 21
139.5999999999999
 31
0.0
  0
LINE
  5
C1
330
1E
100
AcDbEntity
  8
0
100
AcDbLine
 10
156.292
 20
139.0279999999999
 30
0.0
 11
158.9439999999999
 21
141.056
 31
0.0
  0
LINE
  5
C2
330
1E
100
AcDbEntity
  8
0
100
AcDbLine
 10
156.4479999999999
 20
138.716
 30
0.0
 11
159.204
 21
140.7959999999999
 31
0.0
  0
LINE
  5
C3
330
1E
100
AcDbEntity
  8
0
100
AcDbLine
 10
158.4999999999999
 20
141.5
 30
0.0
 11
160.4
 21
144.0
 31
0.0
  0
LINE
  5
C4
330
1E
100
AcDbEntity
  8
0
100
AcDbLine
 10
156.0
 20
139.5999999999999
 30
0.0
 11
158.4999999999999
 21
141.5
 31
0.0
  0
LINE
  5
C5
330
1E
100
AcDbEntity
  8
0
100
AcDbLine
 10
158.9439999999999
 20
141.056
 30
0.0
 11
160.972
 21
143.7079999999999
 31
0.0
  0
LINE
  5
C6
330
1E
100
AcDbEntity
  8
0
100
AcDbLine
 10
159.204
 20
140.7959999999999
 30
0.0
 11
161.284
 21
143.552
 31
0.0
  0
LINE
  5
C7
330
1E
100
AcDbEntity
  8
0
100
AcDbLine
 10
158.4999999999999
 20
597.0
 30
0.0
 11
160.4
 21
597.0
 31
0.0
  0
LINE
  5
C8
330
1E
100
AcDbEntity
  8
0
100
AcDbLine
 10
156.0
 20
597.0
 30
0.0
 11
158.4999999999999
 21
597.0
 31
0.0
  0
LINE
  5
C9
330
1E
100
AcDbEntity
  8
0
100
AcDbLine
 10
153.0999999999999
 20
597.0
 30
0.0
 11
156.0
 21
597.0
 31
0.0
  0
LINE
  5
CA
330
1E
100
AcDbEntity
  8
0
100
AcDbLine
 10
146.9
 20
597.0
 30
0.0
 11
150.0
 21
597.0
 31
0.0
  0
LINE
  5
CB
330
1E
100
AcDbEntity
  8
0
100
AcDbLine
 10
144.0
 20
139.5999999999999
 30
0.0
 11
146.9
 21
138.4
 31
0.0
  0
LINE
  5
CC
330
1E
100
AcDbEntity
  8
0
100
AcDbLine
 10
146.9
 20
138.4
 30
0.0
 11
150.0
 21
138.0
 31
0.0
  0
LINE
  5
CD
330
1E
100
AcDbEntity
  8
0
100
AcDbLine
 10
130.6399999999999
 20
597.0
 30
0.0
 11
139.9199999999999
 21
597.0
 31
0.0
  0
LINE
  5
CE
330
1E
100
AcDbEntity
  8
0
100
AcDbLine
 10
130.6399999999999
 20
597.0
 30
0.0
 11
138.0
 21
597.0
 31
0.0
  0
LINE
  5
CF
330
1E
100
AcDbEntity
  8
0
100
AcDbLine
 10
139.9199999999999
 20
597.0
 30
0.0
 11
150.0
 21
597.0
 31
0.0
  0
LINE
  5
D0
330
1E
100
AcDbEntity
  8
0
100
AcDbLine
 10
160.972
 20
143.7079999999999
 30
0.0
 11
162.22
 21
146.7239999999999
 31
0.0
  0
LINE
  5
D1
330
1E
100
AcDbEntity
  8
0
100
AcDbLine
 10
161.284
 20
143.552
 30
0.0
 11
162.532
 21
146.672
 31
0.0
  0
LINE
  5
D2
330
1E
100
AcDbEntity
  8
0
100
AcDbLine
 10
160.65
 20
139.3499999999999
 30
0.0
 11
163.05
 21
142.5
 31
0.0
  0
LINE
  5
D3
330
1E
100
AcDbEntity
  8
0
100
AcDbLine
 10
162.0
 20
153.807666666667
 30
0.0
 11
162.22
 21
153.276
 31
0.0
  0
LINE
  5
D4
330
1E
100
AcDbEntity
  8
0
100
AcDbLine
 10
162.0
 20
154.6579999999999
 30
0.0
 11
162.532
 21
153.3279999999999
 31
0.0
  0
LINE
  5
D5
330
1E
100
AcDbEntity
  8
0
100
AcDbLine
 10
162.0
 20
158.878125
 30
0.0
 11
163.05
 21
157.5
 31
0.0
  0
LINE
  5
D6
330
1E
100
AcDbEntity
  8
0
100
AcDbLine
 10
162.0
 20
153.6999999999999
 30
0.0
 11
162.0
 21
151.0
 31
0.0
  0
LINE
  5
D7
330
1E
100
AcDbEntity
  8
0
100
AcDbLine
 10
162.0
 20
153.6999999999999
 30
0.0
 11
162.0
 21
158.1999999999999
 31
0.0
  0
LINE
  5
D8
330
1E
100
AcDbEntity
  8
0
100
AcDbLine
 10
162.0
 20
151.0
 30
0.0
 11
162.0
 21
150.0
 31
0.0
  0
LINE
  5
D9
330
1E
100
AcDbEntity
  8
0
100
AcDbLine
 10
162.0
 20
151.0
 30
0.0
 11
162.0
 21
153.6999999999999
 31
0.0
  0
LINE
  5
DA
330
1E
100
AcDbEntity
  8
0
100
AcDbLine
 10
162.0
 20
150.0
 30
0.0
 11
162.0
 21
151.0
 31
0.0
  0
LINE
  5
DB
330
1E
100
AcDbEntity
  8
0
100
AcDbLine
 10
160.4
 20
144.0
 30
0.0
 11
161.5999999999999
 21
146.9
 31
0.0
  0
LINE
  5
DC
330
1E
100
AcDbEntity
  8
0
100
AcDbLine
 10
162.0
 20
158.1999999999999
 30
0.0
 11
162.0
 21
164.0
 31
0.0
  0
LINE
  5
DD
330
1E
100
AcDbEntity
  8
0
100
AcDbLine
 10
162.0
 20
158.1999999999999
 30
0.0
 11
162.0
 21
153.6999999999999
 31
0.0
  0
LINE
  5
DE
330
1E
100
AcDbEntity
  8
0
100
AcDbLine
 10
162.0
 20
177.192
 30
0.0
 11
164.88
 21
176.0399999999999
 31
0.0
  0
LINE
  5
DF
330
1E
100
AcDbEntity
  8
0
100
AcDbLine
 10
162.0
 20
165.1058823529409
 30
0.0
 11
163.7599999999999
 21
163.7599999999999
 31
0.0
  0
LINE
  5
E0
330
1E
100
AcDbEntity
  8
0
100
AcDbLine
 10
162.0
 20
165.7901886792449
 30
0.0
 11
164.1599999999999
 21
164.1599999999999
 31
0.0
  0
LINE
  5
E1
330
1E
100
AcDbEntity
  8
0
100
AcDbLine
 10
162.0
 20
297.826923076923
 30
0.0
 11
169.5
 21
297.25
 31
0.0
  0
LINE
  5
E2
330
1E
100
AcDbEntity
  8
0
100
AcDbLine
 10
162.0
 20
299.0769230769229
 30
0.0
 11
169.5
 21
298.4999999999999
 31
0.0
  0
LINE
  5
E3
330
1E
100
AcDbEntity
  8
0
100
AcDbLine
 10
162.0
 20
164.0
 30
0.0
 11
162.0
 21
170.8
 31
0.0
  0
LINE
  5
E4
330
1E
100
AcDbEntity
  8
0
100
AcDbLine
 10
162.0
 20
164.0
 30
0.0
 11
162.0
 21
158.1999999999999
 31
0.0
  0
LINE
  5
E5
330
1E
100
AcDbEntity
  8
0
100
AcDbLine
 10
162.0
 20
170.8
 30
0.0
 11
162.0
 21
178.0
 31
0.0
  0
LINE
  5
E6
330
1E
100
AcDbEntity
  8
0
100
AcDbLine
 10
162.0
 20
170.8
 30
0.0
 11
162.0
 21
164.0
 31
0.0
  0
LINE
  5
E7
330
1E
100
AcDbEntity
  8
0
100
AcDbLine
 10
161.5999999999999
 20
597.0
 30
0.0
 11
162.0
 21
597.0
 31
0.0
  0
LINE
  5
E8
330
1E
100
AcDbEntity
  8
0
100
AcDbLine
 10
163.7599999999999
 20
136.24
 30
0.0
 11
166.88
 21
140.32
 31
0.0
  0
LINE
  5
E9
330
1E
100
AcDbEntity
  8
0
100
AcDbLine
 10
164.88
 20
123.96
 30
0.0
 11
171.24
 21
128.7599999999999
 31
0.0
  0
LINE
  5
EA
330
1E
100
AcDbEntity
  8
0
100
AcDbLine
 10
164.1599999999999
 20
135.84
 30
0.0
 11
167.36
 21
140.08
 31
0.0
  0
LINE
  5
EB
330
1E
100
AcDbEntity
  8
0
100
AcDbLine
 10
163.05
 20
142.5
 30
0.0
 11
164.4
 21
146.1
 31
0.0
  0
LINE
  5
EC
330
1E
100
AcDbEntity
  8
0
100
AcDbLine
 10
166.88
 20
140.32
 30
0.0
 11
168.8
 21
144.96
 31
0.0
  0
LINE
  5
ED
330
1E
100
AcDbEntity
  8
0
100
AcDbLine
 10
162.22
 20
146.7239999999999
 30
0.0
 11
162.6879999999999
 21
150.0
 31
0.0
  0
LINE
  5
EE
330
1E
100
AcDbEntity
  8
0
100
AcDbLine
 10
162.22
 20
153.276
 30
0.0
 11
162.6879999999999
 21
150.0
 31
0.0
  0
LINE
  5
EF
330
1E
100
AcDbEntity
  8
0
100
AcDbLine
 10
162.532
 20
146.672
 30
0.0
 11
163.0
 21
150.0
 31
0.0
  0
LINE
  5
F0
330
1E
100
AcDbEntity
  8
0
100
AcDbLine
 10
162.532
 20
153.3279999999999
 30
0.0
 11
163.0
 21
150.0
 31
0.0
  0
LINE
  5
F1
330
1E
100
AcDbEntity
  8
0
100
AcDbLine
 10
164.4
 20
146.1
 30
0.0
 11
165.0
 21
150.0
 31
0.0
  0
LINE
  5
F2
330
1E
100
AcDbEntity
  8
0
100
AcDbLine
 10
164.4
 20
153.9
 30
0.0
 11
165.0
 21
150.0
 31
0.0
  0
LINE
  5
F3
330
1E
100
AcDbEntity
  8
0
100
AcDbLine
 10
168.8
 20
144.96
 30
0.0
 11
169.5199999999999
 21
150.0
 31
0.0
  0
LINE
  5
F4
330
1E
100
AcDbEntity
  8
0
100
AcDbLine
 10
168.8
 20
155.0399999999999
 30
0.0
 11
169.5199999999999
 21
150.0
 31
0.0
  0
LINE
  5
F5
330
1E
100
AcDbEntity
  8
0
100
AcDbLine
 10
167.36
 20
140.08
 30
0.0
 11
169.28
 21
144.88
 31
0.0
  0
LINE
  5
F6
330
1E
100
AcDbEntity
  8
0
100
AcDbLine
 10
169.28
 20
144.88
 30
0.0
 11
170.0
 21
150.0
 31
0.0
  0
LINE
  5
F7
330
1E
100
AcDbEntity
  8
0
100
AcDbLine
 10
163.05
 20
157.5
 30
0.0
 11
164.4
 21
153.9
 31
0.0
  0
LINE
  5
F8
330
1E
100
AcDbEntity
  8
0
100
AcDbLine
 10
163.7599999999999
 20
163.7599999999999
 30
0.0
 11
166.88
 21
159.6799999999999
 31
0.0
  0
LINE
  5
F9
330
1E
100
AcDbEntity
  8
0
100
AcDbLine
 10
166.88
 20
159.6799999999999
 30
0.0
 11
168.8
 21
155.0399999999999
 31
0.0
  0
LINE
  5
FA
330
1E
100
AcDbEntity
  8
0
100
AcDbLine
 10
164.88
 20
176.0399999999999
 30
0.0
 11
171.24
 21
171.24
 31
0.0
  0
LINE
  5
FB
330
1E
100
AcDbEntity
  8
0
100
AcDbLine
 10
164.1599999999999
 20
164.1599999999999
 30
0.0
 11
167.36
 21
159.9199999999999
 31
0.0
  0
LINE
  5
FC
330
1E
100
AcDbEntity
  8
0
100
AcDbLine
 10
167.36
 20
159.9199999999999
 30
0.0
 11
169.28
 21
155.12
 31
0.0
  0
LINE
  5
FD
330
1E
100
AcDbEntity
  8
0
100
AcDbLine
 10
169.28
 20
155.12
 30
0.0
 11
170.0
 21
150.0
 31
0.0
  0
LINE
  5
FE
330
1E
100
AcDbEntity
  8
0
100
AcDbLine
 10
162.0
 20
178.0
 30
0.0
 11
162.0
 21
597.0
 31
0.0
  0
LINE
  5
FF
330
1E
100
AcDbEntity
  8
0
100
AcDbLine
 10
162.0
 20
178.0
 30
0.0
 11
162.0
 21
170.8
 31
0.0
  0
LINE
  5
100
330
1E
100
AcDbEntity
  8
0
100
AcDbLine
 10
160.4
 20
597.0
 30
0.0
 11
161.5999999999999
 21
597.0
 31
0.0
  0
LINE
  5
101
330
1E
100
AcDbEntity
  8
0
100
AcDbLine
 10
160.08
 20
597.0
 30
0.0
 11
169.36
 21
597.0
 31
0.0
  0
LINE
  5
102
330
1E
100
AcDbEntity
  8
0
100
AcDbLine
 10
150.0
 20
597.0
 30
0.0
 11
160.08
 21
597.0
 31
0.0
  0
LINE
  5
103
330
1E
100
AcDbEntity
  8
0
100
AcDbLine
 10
150.0
 20
597.0
 30
0.0
 11
153.0999999999999
 21
597.0
 31
0.0
  0
LINE
  5
104
330
1E
100
AcDbEntity
  8
0
100
AcDbLine
 10
169.5
 20
297.25
 30
0.0
 11
188.375
 21
293.3749999999999
 31
0.0
  0
LINE
  5
105
330
1E
100
AcDbEntity
  8
0
100
AcDbLine
 10
169.5
 20
298.4999999999999
 30
0.0
 11
188.75
 21
294.625
 31
0.0
  0
LINE
  5
106
330
1E
100
AcDbEntity
  8
0
100
AcDbLine
 10
169.5
 20
2.750000000000009
 30
0.0
 11
188.375
 21
6.625000000000009
 31
0.0
  0
LINE
  5
107
330
1E
100
AcDbEntity
  8
0
100
AcDbLine
 10
169.5
 20
1.50000000000001
 30
0.0
 11
188.75
 21
5.375000000000009
 31
0.0
  0
LINE
  5
108
330
1E
100
AcDbEntity
  8
0
100
AcDbLine
 10
171.24
 20
128.7599999999999
 30
0.0
 11
176.0399999999999
 21
135.12
 31
0.0
  0
LINE
  5
109
330
1E
100
AcDbEntity
  8
0
100
AcDbLine
 10
176.0399999999999
 20
135.12
 30
0.0
 11
178.9199999999999
 21
142.32
 31
0.0
  0
LINE
  5
10A
330
1E
100
AcDbEntity
  8
0
100
AcDbLine
 10
171.24
 20
171.24
 30
0.0
 11
176.0399999999999
 21
164.88
 31
0.0
  0
LINE
  5
10B
330
1E
100
AcDbEntity
  8
0
100
AcDbLine
 10
176.0399999999999
 20
164.88
 30
0.0
 11
178.9199999999999
 21
157.68
 31
0.0
  0
LINE
  5
10C
330
1E
100
AcDbEntity
  8
0
100
AcDbLine
 10
178.9199999999999
 20
157.68
 30
0.0
 11
180.0
 21
150.0
 31
0.0
  0
LINE
  5
10D
330
1E
100
AcDbEntity
  8
0
100
AcDbLine
 10
178.9199999999999
 20
142.32
 30
0.0
 11
180.0
 21
150.0
 31
0.0
  0
LINE
  5
10E
330
1E
100
AcDbEntity
  8
0
100
AcDbLine
 10
169.5
 20
1.50000000000001
 30
0.0
 11
188.75
 21
5.375000000000009
 31
0.0
  0
LINE
  5
10F
330
1E
100
AcDbEntity
  8
0
100
AcDbLine
 10
169.5
 20
1.50000000000001
 30
0.0
 11
188.75
 21
5.375000000000009
 31
0.0
  0
LINE
  5
110
330
1E
100
AcDbEntity
  8
0
100
AcDbLine
 10
188.375
 20
293.3749999999999
 30
0.0
 11
206.875
 21
287.1249999999999
 31
0.0
  0
LINE
  5
111
330
1E
100
AcDbEntity
  8
0
100
AcDbLine
 10
188.75
 20
294.625
 30
0.0
 11
207.25
 21
288.2499999999999
 31
0.0
  0
LINE
  5
112
330
1E
100
AcDbEntity
  8
0
100
AcDbLine
 10
188.375
 20
6.625000000000009
 30
0.0
 11
206.875
 21
12.875
 31
0.0
  0
LINE
  5
113
330
1E
100
AcDbEntity
  8
0
100
AcDbLine
 10
188.75
 20
5.375000000000009
 30
0.0
 11
207.25
 21
11.75
 31
0.0
  0
LINE
  5
114
330
1E
100
AcDbEntity
  8
0
100
AcDbLine
 10
189.0399999999999
 20
597.0
 30
0.0
 11
190.0
 21
597.72
 31
0.0
  0
LINE
  5
115
330
1E
100
AcDbEntity
  8
0
100
AcDbLine
 10
187.5999999999999
 20
597.0
 30
0.0
 11
189.0399999999999
 21
597.0
 31
0.0
  0
LINE
  5
116
330
1E
100
AcDbEntity
  8
0
100
AcDbLine
 10
183.7599999999999
 20
597.0
 30
0.0
 11
187.5999999999999
 21
597.0
 31
0.0
  0
LINE
  5
117
330
1E
100
AcDbEntity
  8
0
100
AcDbLine
 10
177.52
 20
597.0
 30
0.0
 11
183.7599999999999
 21
597.0
 31
0.0
  0
LINE
  5
118
330
1E
100
AcDbEntity
  8
0
100
AcDbLine
 10
169.36
 20
597.0
 30
0.0
 11
177.52
 21
597.0
 31
0.0
  0
LINE
  5
119
330
1E
100
AcDbEntity
  8
0
100
AcDbLine
 10
110.0
 20
597.72
 30
0.0
 11
111.44
 21
597.72
 31
0.0
  0
LINE
  5
11A
330
1E
100
AcDbEntity
  8
0
100
AcDbLine
 10
110.0
 20
597.72
 30
0.0
 11
110.9599999999999
 21
597.0
 31
0.0
  0
LINE
  5
11B
330
1E
100
AcDbEntity
  8
0
100
AcDbLine
 10
110.0
 20
597.72
 30
0.0
 11
110.0
 21
609.0
 31
0.0
  0
LINE
  5
11C
330
1E
100
AcDbEntity
  8
0
100
AcDbLine
 10
111.44
 20
597.72
 30
0.0
 11
115.28
 21
597.72
 31
0.0
  0
LINE
  5
11D
330
1E
100
AcDbEntity
  8
0
100
AcDbLine
 10
115.28
 20
597.72
 30
0.0
 11
121.68
 21
597.72
 31
0.0
  0
LINE
  5
11E
330
1E
100
AcDbEntity
  8
0
100
AcDbLine
 10
121.68
 20
597.72
 30
0.0
 11
130.16
 21
597.72
 31
0.0
  0
LINE
  5
11F
330
1E
100
AcDbEntity
  8
0
100
AcDbLine
 10
130.16
 20
597.72
 30
0.0
 11
139.7599999999999
 21
597.72
 31
0.0
  0
LINE
  5
120
330
1E
100
AcDbEntity
  8
0
100
AcDbLine
 10
139.7599999999999
 20
597.72
 30
0.0
 11
150.0
 21
597.72
 31
0.0
  0
LINE
  5
121
330
1E
100
AcDbEntity
  8
0
100
AcDbLine
 10
110.0
 20
609.0
 30
0.0
 11
111.44
 21
609.0
 31
0.0
  0
LINE
  5
122
330
1E
100
AcDbEntity
  8
0
100
AcDbLine
 10
110.0
 20
609.0
 30
0.0
 11
110.0
 21
597.72
 31
0.0
  0
LINE
  5
123
330
1E
100
AcDbEntity
  8
0
100
AcDbLine
 10
111.44
 20
609.0
 30
0.0
 11
115.28
 21
609.0
 31
0.0
  0
LINE
  5
124
330
1E
100
AcDbEntity
  8
0
100
AcDbLine
 10
115.28
 20
609.0
 30
0.0
 11
121.68
 21
609.0
 31
0.0
  0
LINE
  5
125
330
1E
100
AcDbEntity
  8
0
100
AcDbLine
 10
121.68
 20
609.0
 30
0.0
 11
130.16
 21
609.0
 31
0.0
  0
LINE
  5
126
330
1E
100
AcDbEntity
  8
0
100
AcDbLine
 10
130.16
 20
609.0
 30
0.0
 11
139.7599999999999
 21
609.0
 31
0.0
  0
LINE
  5
127
330
1E
100
AcDbEntity
  8
0
100
AcDbLine
 10
139.7599999999999
 20
609.0
 30
0.0
 11
150.0
 21
609.0
 31
0.0
  0
LINE
  5
128
330
1E
100
AcDbEntity
  8
0
100
AcDbLine
 10
150.0
 20
597.72
 30
0.0
 11
160.24
 21
597.72
 31
0.0
  0
LINE
  5
129
330
1E
100
AcDbEntity
  8
0
100
AcDbLine
 10
169.84
 20
597.72
 30
0.0
 11
178.3199999999999
 21
597.72
 31
0.0
  0
LINE
  5
12A
330
1E
100
AcDbEntity
  8
0
100
AcDbLine
 10
160.24
 20
597.72
 30
0.0
 11
169.84
 21
597.72
 31
0.0
  0
LINE
  5
12B
330
1E
100
AcDbEntity
  8
0
100
AcDbLine
 10
184.7199999999999
 20
597.72
 30
0.0
 11
188.56
 21
597.72
 31
0.0
  0
LINE
  5
12C
330
1E
100
AcDbEntity
  8
0
100
AcDbLine
 10
178.3199999999999
 20
597.72
 30
0.0
 11
184.7199999999999
 21
597.72
 31
0.0
  0
LINE
  5
12D
330
1E
100
AcDbEntity
  8
0
100
AcDbLine
 10
188.56
 20
597.72
 30
0.0
 11
190.0
 21
597.72
 31
0.0
  0
LINE
  5
12E
330
1E
100
AcDbEntity
  8
0
100
AcDbLine
 10
190.0
 20
597.72
 30
0.0
 11
190.0
 21
609.0
 31
0.0
  0
LINE
  5
12F
330
1E
100
AcDbEntity
  8
0
100
AcDbLine
 10
188.56
 20
609.0
 30
0.0
 11
190.0
 21
609.0
 31
0.0
  0
LINE
  5
130
330
1E
100
AcDbEntity
  8
0
100
AcDbLine
 10
184.7199999999999
 20
609.0
 30
0.0
 11
188.56
 21
609.0
 31
0.0
  0
LINE
  5
131
330
1E
100
AcDbEntity
  8
0
100
AcDbLine
 10
178.3199999999999
 20
609.0
 30
0.0
 11
184.7199999999999
 21
609.0
 31
0.0
  0
LINE
  5
132
330
1E
100
AcDbEntity
  8
0
100
AcDbLine
 10
169.84
 20
609.0
 30
0.0
 11
178.3199999999999
 21
609.0
 31
0.0
  0
LINE
  5
133
330
1E
100
AcDbEntity
  8
0
100
AcDbLine
 10
160.24
 20
609.0
 30
0.0
 11
169.84
 21
609.0
 31
0.0
  0
LINE
  5
134
330
1E
100
AcDbEntity
  8
0
100
AcDbLine
 10
150.0
 20
609.0
 30
0.0
 11
160.24
 21
609.0
 31
0.0
  0
LINE
  5
135
330
1E
100
AcDbEntity
  8
0
100
AcDbLine
 10
162.0
 20
597.0
 30
0.0
 11
169.36
 21
597.0
 31
0.0
  0
LINE
  5
136
330
1E
100
AcDbEntity
  8
0
100
AcDbLine
 10
162.0
 20
597.0
 30
0.0
 11
162.0
 21
178.0
 31
0.0
  0
LINE
  5
137
330
1E
100
AcDbEntity
  8
0
100
AcDbLine
 10
207.25
 20
11.75
 30
0.0
 11
224.6249999999999
 21
20.125
 31
0.0
  0
LINE
  5
138
330
1E
100
AcDbEntity
  8
0
100
AcDbLine
 10
206.875
 20
287.1249999999999
 30
0.0
 11
224.0
 21
278.8749999999999
 31
0.0
  0
LINE
  5
139
330
1E
100
AcDbEntity
  8
0
100
AcDbLine
 10
224.0
 20
278.8749999999999
 30
0.0
 11
240.375
 21
267.75
 31
0.0
  0
LINE
  5
13A
330
1E
100
AcDbEntity
  8
0
100
AcDbLine
 10
224.6249999999999
 20
279.875
 30
0.0
 11
241.1249999999999
 21
268.75
 31
0.0
  0
LINE
  5
13B
330
1E
100
AcDbEntity
  8
0
100
AcDbLine
 10
207.25
 20
288.2499999999999
 30
0.0
 11
224.6249999999999
 21
279.875
 31
0.0
  0
LINE
  5
13C
330
1E
100
AcDbEntity
  8
0
100
AcDbLine
 10
224.0
 20
21.125
 30
0.0
 11
240.375
 21
32.25
 31
0.0
  0
LINE
  5
13D
330
1E
100
AcDbEntity
  8
0
100
AcDbLine
 10
240.375
 20
267.75
 30
0.0
 11
255.0
 21
255.0
 31
0.0
  0
LINE
  5
13E
330
1E
100
AcDbEntity
  8
0
100
AcDbLine
 10
255.0
 20
45.0
 30
0.0
 11
267.75
 21
59.625
 31
0.0
  0
LINE
  5
13F
330
1E
100
AcDbEntity
  8
0
100
AcDbLine
 10
255.8749999999999
 20
44.125
 30
0.0
 11
268.75
 21
58.875
 31
0.0
  0
LINE
  5
140
330
1E
100
AcDbEntity
  8
0
100
AcDbLine
 10
255.8749999999999
 20
44.125
 30
0.0
 11
268.75
 21
58.875
 31
0.0
  0
LINE
  5
141
330
1E
100
AcDbEntity
  8
0
100
AcDbLine
 10
267.75
 20
59.625
 30
0.0
 11
278.8749999999999
 21
76.0
 31
0.0
  0
LINE
  5
142
330
1E
100
AcDbEntity
  8
0
100
AcDbLine
 10
278.8749999999999
 20
76.0
 30
0.0
 11
287.1249999999999
 21
93.125
 31
0.0
  0
LINE
  5
143
330
1E
100
AcDbEntity
  8
0
100
AcDbLine
 10
268.75
 20
58.875
 30
0.0
 11
279.875
 21
75.375
 31
0.0
  0
LINE
  5
144
330
1E
100
AcDbEntity
  8
0
100
AcDbLine
 10
268.75
 20
58.875
 30
0.0
 11
279.875
 21
75.375
 31
0.0
  0
LINE
  5
145
330
1E
100
AcDbEntity
  8
0
100
AcDbLine
 10
287.1249999999999
 20
93.125
 30
0.0
 11
293.3749999999999
 21
111.6249999999999
 31
0.0
  0
LINE
  5
146
330
1E
100
AcDbEntity
  8
0
100
AcDbLine
 10
288.2499999999999
 20
92.75
 30
0.0
 11
294.625
 21
111.25
 31
0.0
  0
LINE
  5
147
330
1E
100
AcDbEntity
  8
0
100
AcDbLine
 10
293.3749999999999
 20
111.6249999999999
 30
0.0
 11
297.25
 21
130.4999999999999
 31
0.0
  0
LINE
  5
148
330
1E
100
AcDbEntity
  8
0
100
AcDbLine
 10
297.25
 20
130.4999999999999
 30
0.0
 11
298.75
 21
150.0
 31
0.0
  0
LINE
  5
149
330
1E
100
AcDbEntity
  8
0
100
AcDbLine
 10
294.625
 20
111.25
 30
0.0
 11
298.4999999999999
 21
130.4999999999999
 31
0.0
  0
LINE
  5
14A
330
1E
100
AcDbEntity
  8
0
100
AcDbLine
 10
279.875
 20
75.375
 30
0.0
 11
288.2499999999999
 21
92.75
 31
0.0
  0
LINE
  5
14B
330
1E
100
AcDbEntity
  8
0
100
AcDbLine
 10
293.3749999999999
 20
188.375
 30
0.0
 11
297.25
 21
169.5
 31
0.0
  0
LINE
  5
14C
330
1E
100
AcDbEntity
  8
0
100
AcDbLine
 10
297.25
 20
169.5
 30
0.0
 11
298.75
 21
150.0
 31
0.0
  0
LINE
  5
14D
330
1E
100
AcDbEntity
  8
0
100
AcDbLine
 10
278.8749999999999
 20
224.0
 30
0.0
 11
287.1249999999999
 21
206.875
 31
0.0
  0
LINE
  5
14E
330
1E
100
AcDbEntity
  8
0
100
AcDbLine
 10
287.1249999999999
 20
206.875
 30
0.0
 11
293.3749999999999
 21
188.375
 31
0.0
  0
LINE
  5
14F
330
1E
100
AcDbEntity
  8
0
100
AcDbLine
 10
255.0
 20
255.0
 30
0.0
 11
267.75
 21
240.375
 31
0.0
  0
LINE
  5
150
330
1E
100
AcDbEntity
  8
0
100
AcDbLine
 10
267.75
 20
240.375
 30
0.0
 11
278.8749999999999
 21
224.0
 31
0.0
  0
LINE
  5
151
330
1E
100
AcDbEntity
  8
0
100
AcDbLine
 10
241.1249999999999
 20
268.75
 30
0.0
 11
255.8749999999999
 21
255.8749999999999
 31
0.0
  0
LINE
  5
152
330
1E
100
AcDbEntity
  8
0
100
AcDbLine
 10
255.8749999999999
 20
255.8749999999999
 30
0.0
 11
268.75
 21
241.1249999999999
 31
0.0
  0
LINE
  5
153
330
1E
100
AcDbEntity
  8
0
100
AcDbLine
 10
268.75
 20
241.1249999999999
 30
0.0
 11
279.875
 21
224.6249999999999
 31
0.0
  0
LINE
  5
154
330
1E
100
AcDbEntity
  8
0
100
AcDbLine
 10
279.875
 20
224.6249999999999
 30
0.0
 11
288.2499999999999
 21
207.25
 31
0.0
  0
LINE
  5
155
330
1E
100
AcDbEntity
  8
0
100
AcDbLine
 10
288.2499999999999
 20
207.25
 30
0.0
 11
294.625
 21
188.75
 31
0.0
  0
LINE
  5
156
330
1E
100
AcDbEntity
  8
0
100
AcDbLine
 10
294.625
 20
188.75
 30
0.0
 11
298.4999999999999
 21
169.5
 31
0.0
  0
LINE
  5
157
330
1E
100
AcDbEntity
  8
0
100
AcDbLine
 10
298.4999999999999
 20
169.5
 30
0.0
 11
300.0
 21
150.0
 31
0.0
  0
LINE
  5
158
330
1E
100
AcDbEntity
  8
0
100
AcDbLine
 10
298.4999999999999
 20
130.4999999999999
 30
0.0
 11
300.0
 21
150.0
 31
0.0
  0
LINE
  5
159
330
1E
100
AcDbEntity
  8
0
100
AcDbLine
 10
240.375
 20
32.25
 30
0.0
 11
255.0
 21
45.0
 31
0.0
  0
LINE
  5
15A
330
1E
100
AcDbEntity
  8
0
100
AcDbLine
 10
241.1249999999999
 20
31.25
 30
0.0
 11
255.8749999999999
 21
44.125
 31
0.0
  0
LINE
  5
15B
330
1E
100
AcDbEntity
  8
0
100
AcDbLine
 10
224.6249999999999
 20
20.125
 30
0.0
 11
241.1249999999999
 21
31.25
 31
0.0
  0
LINE
  5
15C
330
1E
100
AcDbEntity
  8
0
100
AcDbLine
 10
206.875
 20
12.875
 30
0.0
 11
224.0
 21
21.125
 31
0.0
  0
LINE
  5
15D
330
1E
100
AcDbEntity
  8
0
100
AcDbLine
 10
206.875
 20
12.875
 30
0.0
 11
224.0
 21
21.125
 31
0.0
  0
LINE
  5
15E
330
1E
100
AcDbEntity
  8
0
100
AcDbLine
 10
190.0
 20
609.0
 30
0.0
 11
190.0
 21
597.72
 31
0.0
  0
LINE
  5
163
330
1E
100
AcDbEntity
  8
0
100
AcDbLine
 10
162.0
 20
150.0
 30
0.0
 11
161.5999999999999
 21
146.9
 31
0.0
  0
LINE
  5
164
330
1E
100
AcDbEntity
  8
0
100
AcDbLine
 10
153.0999999999999
 20
138.4
 30
0.0
 11
150.0
 21
138.0
 31
0.0
  0
ENDSEC
  0
SECTION
  2
OBJECTS
  0
DICTIONARY
  5
C
330
0
100
AcDbDictionary
281
     1
  3
ACAD_GROUP
350
D
  3
ACAD_LAYOUT
350
19
  3
ACAD_MLINESTYLE
350
16
  3
ACAD_PLOTSETTINGS
350
18
  3
ACAD_PLOTSTYLENAME
350
E
  3
AcDbVariableDictionary
350
165
  0
DICTIONARY
  5
D
102
{ACAD_REACTORS
330
C
102
}
330
C
100
AcDbDictionary
281
     1
  0
DICTIONARY
  5
19
102
{ACAD_REACTORS
330
C
102
}
330
C
100
AcDbDictionary
281
     1
  3
Layout1
350
1D
  3
Model
350
21
  0
DICTIONARY
  5
16
102
{ACAD_REACTORS
330
C
102
}
330
C
100
AcDbDictionary
281
     1
  3
Standard
350
17
  0
DICTIONARY
  5
18
102
{ACAD_REACTORS
330
C
102
}
330
C
100
AcDbDictionary
281
     1
  0
ACDBDICTIONARYWDFLT
  5
E
102
{ACAD_REACTORS
330
C
102
}
330
C
100
AcDbDictionary
281
     1
  3
Normal
350
F
100
AcDbDictionaryWithDefault
340
F
  0
DICTIONARY
  5
165
102
{ACAD_REACTORS
330
C
102
}
330
C
100
AcDbDictionary
281
     1
  3
DIMASSOC
350
166
  0
LAYOUT
  5
1D
102
{ACAD_REACTORS
330
19
102
}
330
19
100
AcDbPlotSettings
  1

  2
hp deskjet 980c series
  4

  6

 40
0.0
 41
0.0
 42
0.0
 43
0.0
 44
0.0
 45
0.0
 46
0.0
 47
0.0
 48
0.0
 49
0.0
140
0.0
141
0.0
142
1.0
143
1.0
 70
   688
 72
     0
 73
     0
 74
     5
  7

 75
    16
147
1.0
148
0.0
149
0.0
100
AcDbLayout
  1
Layout1
 70
     1
 71
     1
 10
0.0
 20
0.0
 11
12.0
 21
9.0
 12
0.0
 22
0.0
 32
0.0
 14
1.000000000000000E+20
 24
1.000000000000000E+20
 34
1.000000000000000E+20
 15
-1.000000000000000E+20
 25
-1.000000000000000E+20
 35
-1.000000000000000E+20
146
0.0
 13
0.0
 23
0.0
 33
0.0
 16
1.0
 26
0.0
 36
0.0
 17
0.0
 27
1.0
 37
0.0
 76
     0
330
1A
  0
LAYOUT
  5
21
102
{ACAD_REACTORS
330
19
102
}
330
19
100
AcDbPlotSettings
  1

  2
hp deskjet 980c series
  4

  6

 40
0.0
 41
0.0
 42
0.0
 43
0.0
 44
0.0
 45
0.0
 46
0.0
 47
0.0
 48
0.0
 49
0.0
140
0.0
141
0.0
142
1.0
143
1.0
 70
  1712
 72
     0
 73
     0
 74
     0
  7

 75
     0
147
1.0
148
0.0
149
0.0
100
AcDbLayout
  1
Model
 70
     1
 71
     0
 10
0.0
 20
0.0
 11
12.0
 21
9.0
 12
0.0
 22
0.0
 32
0.0
 14
0.0
 24
0.0
 34
0.0
 15
0.0
 25
0.0
 35
0.0
146
0.0
 13
0.0
 23
0.0
 33
0.0
 16
1.0
 26
0.0
 36
0.0
 17
0.0
 27
1.0
 37
0.0
 76
     0
330
1E
  0
MLINESTYLE
  5
17
102
{ACAD_REACTORS
330
16
102
}
330
16
100
AcDbMlineStyle
  2
STANDARD
 70
     0
  3

 62
   256
 51
90.0
 52
90.0
 71
     2
 49
0.5
 62
   256
  6
BYLAYER
 49
-0.5
 62
   256
  6
BYLAYER
  0
ACDBPLACEHOLDER
  5
F
102
{ACAD_REACTORS
330
E
102
}
330
E
  0
DICTIONARYVAR
  5
166
102
{ACAD_REACTORS
330
165
102
}
330
165
100
DictionaryVariables
280
     0
  1
1
  0
ENDSEC
  0
EOF
