  0
SECTION
  2
HEADER
  9
$ACADVER
  1
AC1015
  9
$ACADMAINTVER
 70
    13
  9
$DWGCODEPAGE
  3
ANSI_1252
  9
$INSBASE
 10
0.0
 20
0.0
 30
0.0
  9
$EXTMIN
 10
0.00000000000001
 20
0.0000000000000124
 30
0.0
  9
$EXTMAX
 10
609.0
 20
149.0
 30
0.0
  9
$LIMMIN
 10
0.0
 20
0.0
  9
$LIMMAX
 10
12.0
 20
9.0
  9
$ORTHOMODE
 70
     0
  9
$REGENMODE
 70
     1
  9
$FILLMODE
 70
     1
  9
$QTEXTMODE
 70
     0
  9
$MIRRTEXT
 70
     1
  9
$LTSCALE
 40
1.0
  9
$ATTMODE
 70
     1
  9
$TEXTSIZE
 40
0.2
  9
$TRACEWID
 40
0.05
  9
$TEXTSTYLE
  7
Standard
  9
$CLAYER
  8
0
  9
$CELTYPE
  6
Continuous
  9
$CECOLOR
 62
   256
  9
$CELTSCALE
 40
1.0
  9
$DISPSILH
 70
     0
  9
$DIMSCALE
 40
1.0
  9
$DIMASZ
 40
0.18
  9
$DIMEXO
 40
0.0625
  9
$DIMDLI
 40
0.38
  9
$DIMRND
 40
0.0
  9
$DIMDLE
 40
0.0
  9
$DIMEXE
 40
0.18
  9
$DIMTP
 40
0.0
  9
$DIMTM
 40
0.0
  9
$DIMTXT
 40
0.18
  9
$DIMCEN
 40
0.09
  9
$DIMTSZ
 40
0.0
  9
$DIMTOL
 70
     0
  9
$DIMLIM
 70
     0
  9
$DIMTIH
 70
     1
  9
$DIMTOH
 70
     1
  9
$DIMSE1
 70
     0
  9
$DIMSE2
 70
     0
  9
$DIMTAD
 70
     0
  9
$DIMZIN
 70
     0
  9
$DIMBLK
  1

  9
$DIMASO
 70
     1
  9
$DIMSHO
 70
     1
  9
$DIMPOST
  1

  9
$DIMAPOST
  1

  9
$DIMALT
 70
     0
  9
$DIMALTD
 70
     2
  9
$DIMALTF
 40
25.4
  9
$DIMLFAC
 40
1.0
  9
$DIMTOFL
 70
     0
  9
$DIMTVP
 40
0.0
  9
$DIMTIX
 70
     0
  9
$DIMSOXD
 70
     0
  9
$DIMSAH
 70
     0
  9
$DIMBLK1
  1

  9
$DIMBLK2
  1

  9
$DIMSTYLE
  2
Standard
  9
$DIMCLRD
 70
     0
  9
$DIMCLRE
 70
     0
  9
$DIMCLRT
 70
     0
  9
$DIMTFAC
 40
1.0
  9
$DIMGAP
 40
0.09
  9
$DIMJUST
 70
     0
  9
$DIMSD1
 70
     0
  9
$DIMSD2
 70
     0
  9
$DIMTOLJ
 70
     1
  9
$DIMTZIN
 70
     0
  9
$DIMALTZ
 70
     0
  9
$DIMALTTZ
 70
     0
  9
$DIMUPT
 70
     0
  9
$DIMDEC
 70
     4
  9
$DIMTDEC
 70
     4
  9
$DIMALTU
 70
     2
  9
$DIMALTTD
 70
     2
  9
$DIMTXSTY
  7
Standard
  9
$DIMAUNIT
 70
     0
  9
$DIMADEC
 70
     0
  9
$DIMALTRND
 40
0.0
  9
$DIMAZIN
 70
     0
  9
$DIMDSEP
 70
    46
  9
$DIMATFIT
 70
     3
  9
$DIMFRAC
 70
     0
  9
$DIMLDRBLK
  1

  9
$DIMLUNIT
 70
     2
  9
$DIMLWD
 70
    -2
  9
$DIMLWE
 70
    -2
  9
$DIMTMOVE
 70
     0
  9
$LUNITS
 70
     2
  9
$LUPREC
 70
     4
  9
$SKETCHINC
 40
0.1
  9
$FILLETRAD
 40
0.0
  9
$AUNITS
 70
     0
  9
$AUPREC
 70
     0
  9
$MENU
  1
.
  9
$ELEVATION
 40
0.0
  9
$PELEVATION
 40
0.0
  9
$THICKNESS
 40
0.0
  9
$LIMCHECK
 70
     0
  9
$CHAMFERA
 40
0.0
  9
$CHAMFERB
 40
0.0
  9
$CHAMFERC
 40
0.0
  9
$CHAMFERD
 40
0.0
  9
$SKPOLY
 70
     0
  9
$TDCREATE
 40
2454741.412056967
  9
$TDUCREATE
 40
2454741.328723634
  9
$TDUPDATE
 40
2454741.413655463
  9
$TDUUPDATE
 40
2454741.330322129
  9
$TDINDWG
 40
0.0015984954
  9
$TDUSRTIMER
 40
0.0015984954
  9
$USRTIMER
 70
     1
  9
$ANGBASE
 50
0.0
  9
$ANGDIR
 70
     0
  9
$PDMODE
 70
     0
  9
$PDSIZE
 40
0.0
  9
$PLINEWID
 40
0.0
  9
$SPLFRAME
 70
     0
  9
$SPLINETYPE
 70
     6
  9
$SPLINESEGS
 70
     8
  9
$HANDSEED
  5
46A
  9
$SURFTAB1
 70
     6
  9
$SURFTAB2
 70
     6
  9
$SURFTYPE
 70
     6
  9
$SURFU
 70
     6
  9
$SURFV
 70
     6
  9
$UCSBASE
  2

  9
$UCSNAME
  2

  9
$UCSORG
 10
0.0
 20
0.0
 30
0.0
  9
$UCSXDIR
 10
1.0
 20
0.0
 30
0.0
  9
$UCSYDIR
 10
0.0
 20
1.0
 30
0.0
  9
$UCSORTHOREF
  2

  9
$UCSORTHOVIEW
 70
     1
  9
$UCSORGTOP
 10
0.0
 20
0.0
 30
0.0
  9
$UCSORGBOTTOM
 10
0.0
 20
0.0
 30
0.0
  9
$UCSORGLEFT
 10
0.0
 20
0.0
 30
0.0
  9
$UCSORGRIGHT
 10
0.0
 20
0.0
 30
0.0
  9
$UCSORGFRONT
 10
0.0
 20
0.0
 30
0.0
  9
$UCSORGBACK
 10
0.0
 20
0.0
 30
0.0
  9
$PUCSBASE
  2

  9
$PUCSNAME
  2

  9
$PUCSORG
 10
0.0
 20
0.0
 30
0.0
  9
$PUCSXDIR
 10
1.0
 20
0.0
 30
0.0
  9
$PUCSYDIR
 10
0.0
 20
1.0
 30
0.0
  9
$PUCSORTHOREF
  2

  9
$PUCSORTHOVIEW
 70
     0
  9
$PUCSORGTOP
 10
0.0
 20
0.0
 30
0.0
  9
$PUCSORGBOTTOM
 10
0.0
 20
0.0
 30
0.0
  9
$PUCSORGLEFT
 10
0.0
 20
0.0
 30
0.0
  9
$PUCSORGRIGHT
 10
0.0
 20
0.0
 30
0.0
  9
$PUCSORGFRONT
 10
0.0
 20
0.0
 30
0.0
  9
$PUCSORGBACK
 10
0.0
 20
0.0
 30
0.0
  9
$USERI1
 70
     0
  9
$USERI2
 70
     0
  9
$USERI3
 70
     0
  9
$USERI4
 70
     0
  9
$USERI5
 70
     0
  9
$USERR1
 40
0.0
  9
$USERR2
 40
0.0
  9
$USERR3
 40
0.0
  9
$USERR4
 40
0.0
  9
$USERR5
 40
0.0
  9
$WORLDVIEW
 70
     1
  9
$SHADEDGE
 70
     3
  9
$SHADEDIF
 70
    70
  9
$TILEMODE
 70
     1
  9
$MAXACTVP
 70
    64
  9
$PINSBASE
 10
0.0
 20
0.0
 30
0.0
  9
$PLIMCHECK
 70
     0
  9
$PEXTMIN
 10
1.000000000000000E+20
 20
1.000000000000000E+20
 30
1.000000000000000E+20
  9
$PEXTMAX
 10
-1.000000000000000E+20
 20
-1.000000000000000E+20
 30
-1.000000000000000E+20
  9
$PLIMMIN
 10
0.0
 20
0.0
  9
$PLIMMAX
 10
12.0
 20
9.0
  9
$UNITMODE
 70
     0
  9
$VISRETAIN
 70
     1
  9
$PLINEGEN
 70
     0
  9
$PSLTSCALE
 70
     1
  9
$TREEDEPTH
 70
  3020
  9
$CMLSTYLE
  2
Standard
  9
$CMLJUST
 70
     0
  9
$CMLSCALE
 40
1.0
  9
$PROXYGRAPHICS
 70
     1
  9
$MEASUREMENT
 70
     0
  9
$CELWEIGHT
370
    -1
  9
$ENDCAPS
280
     0
  9
$JOINSTYLE
280
     0
  9
$LWDISPLAY
290
     0
  9
$INSUNITS
 70
     0
  9
$HYPERLINKBASE
  1

  9
$STYLESHEET
  1

  9
$XEDIT
290
     1
  9
$CEPSNTYPE
380
     0
  9
$PSTYLEMODE
290
     1
  9
$FINGERPRINTGUID
  2
{DF53E65E-081F-4F5A-AAC2-3BE3C36835B9}
  9
$VERSIONGUID
  2
{265D5C91-D058-4938-B7E7-2320CE29D724}
  9
$EXTNAMES
290
     1
  9
$PSVPSCALE
 40
0.0
  9
$OLESTARTUP
290
     0
  0
ENDSEC
  0
SECTION
  2
CLASSES
  0
CLASS
  1
ACDBDICTIONARYWDFLT
  2
AcDbDictionaryWithDefault
  3
AutoCAD 2000
 90
        0
280
     0
281
     0
  0
CLASS
  1
ACDBPLACEHOLDER
  2
AcDbPlaceHolder
  3
AutoCAD 2000
 90
        0
280
     0
281
     0
  0
CLASS
  1
LAYOUT
  2
AcDbLayout
  3
AutoCAD 2000
 90
        0
280
     0
281
     0
  0
CLASS
  1
DICTIONARYVAR
  2
AcDbDictionaryVar
  3
AutoCAD 2000
 90
        0
280
     0
281
     0
  0
ENDSEC
  0
SECTION
  2
TABLES
  0
TABLE
  2
VPORT
  5
8
330
0
100
AcDbSymbolTable
 70
     2
  0
VPORT
  5
469
330
8
100
AcDbSymbolTableRecord
100
AcDbViewportTableRecord
  2
*Active
 70
     0
 10
0.0
 20
0.0
 11
1.0
 21
1.0
 12
304.4999999999999
 22
74.50000000000001
 13
0.0
 23
0.0
 14
1.0
 24
1.0
 15
0.0
 25
0.0
 16
0.0
 26
0.0
 36
1.0
 17
0.0
 27
0.0
 37
0.0
 40
294.1381700554528
 41
2.078104993597951
 42
50.0
 43
0.0
 44
0.0
 50
0.0
 51
0.0
 71
     0
 72
   100
 73
     1
 74
     3
 75
     0
 76
     0
 77
     0
 78
     0
281
     0
 65
     1
110
0.0
120
0.0
130
0.0
111
1.0
121
0.0
131
0.0
112
0.0
122
1.0
132
0.0
 79
     1
146
0.0
  0
ENDTAB
  0
TABLE
  2
LTYPE
  5
5
330
0
100
AcDbSymbolTable
 70
     1
  0
LTYPE
  5
13
330
5
100
AcDbSymbolTableRecord
100
AcDbLinetypeTableRecord
  2
ByBlock
 70
     0
  3

 72
    65
 73
     0
 40
0.0
  0
LTYPE
  5
14
330
5
100
AcDbSymbolTableRecord
100
AcDbLinetypeTableRecord
  2
ByLayer
 70
     0
  3

 72
    65
 73
     0
 40
0.0
  0
LTYPE
  5
15
330
5
100
AcDbSymbolTableRecord
100
AcDbLinetypeTableRecord
  2
Continuous
 70
     0
  3
Solid line
 72
    65
 73
     0
 40
0.0
  0
ENDTAB
  0
TABLE
  2
LAYER
  5
2
330
0
100
AcDbSymbolTable
 70
     1
  0
LAYER
  5
10
330
2
100
AcDbSymbolTableRecord
100
AcDbLayerTableRecord
  2
0
 70
     0
 62
     7
  6
Continuous
370
    -3
390
F
  0
ENDTAB
  0
TABLE
  2
STYLE
  5
3
330
0
100
AcDbSymbolTable
 70
     1
  0
STYLE
  5
11
330
3
100
AcDbSymbolTableRecord
100
AcDbTextStyleTableRecord
  2
Standard
 70
     0
 40
0.0
 41
1.0
 50
0.0
 71
     0
 42
0.2
  3
txt
  4

  0
ENDTAB
  0
TABLE
  2
VIEW
  5
6
330
0
100
AcDbSymbolTable
 70
     0
  0
ENDTAB
  0
TABLE
  2
UCS
  5
7
330
0
100
AcDbSymbolTable
 70
     0
  0
ENDTAB
  0
TABLE
  2
APPID
  5
9
330
0
100
AcDbSymbolTable
 70
     1
  0
APPID
  5
12
330
9
100
AcDbSymbolTableRecord
100
AcDbRegAppTableRecord
  2
ACAD
 70
     0
  0
ENDTAB
  0
TABLE
  2
DIMSTYLE
  5
A
330
0
100
AcDbSymbolTable
 70
     1
100
AcDbDimStyleTable
 71
     0
  0
DIMSTYLE
105
463
330
A
100
AcDbSymbolTableRecord
100
AcDbDimStyleTableRecord
  2
Standard
 70
     0
340
11
  0
ENDTAB
  0
TABLE
  2
BLOCK_RECORD
  5
1
330
0
100
AcDbSymbolTable
 70
     0
  0
BLOCK_RECORD
  5
1E
330
1
100
AcDbSymbolTableRecord
100
AcDbBlockTableRecord
  2
*Model_Space
340
21
  0
BLOCK_RECORD
  5
1A
330
1
100
AcDbSymbolTableRecord
100
AcDbBlockTableRecord
  2
*Paper_Space
340
1D
  0
ENDTAB
  0
ENDSEC
  0
SECTION
  2
BLOCKS
  0
BLOCK
  5
1F
330
1E
100
AcDbEntity
  8
0
100
AcDbBlockBegin
  2
*Model_Space
 70
     0
 10
0.0
 20
0.0
 30
0.0
  3
*Model_Space
  1

  0
ENDBLK
  5
20
330
1E
100
AcDbEntity
  8
0
100
AcDbBlockEnd
  0
BLOCK
  5
1B
330
1A
100
AcDbEntity
 67
     1
  8
0
100
AcDbBlockBegin
  2
*Paper_Space
 70
     0
 10
0.0
 20
0.0
 30
0.0
  3
*Paper_Space
  1

  0
ENDBLK
  5
1C
330
1A
100
AcDbEntity
 67
     1
  8
0
100
AcDbBlockEnd
  0
ENDSEC
  0
SECTION
  2
ENTITIES
  0
LINE
  5
22
330
1E
100
AcDbEntity
  8
0
100
AcDbLine
 10
83.58249999999999
 20
0.0000000000000249
 30
0.0
 11
83.58249999999999
 21
2.000000000000019
 31
0.0
  0
LINE
  5
23
330
1E
100
AcDbEntity
  8
0
100
AcDbLine
 10
87.5
 20
0.0000000000000247
 30
0.0
 11
89.30609999999999
 21
0.0000000000000246
 31
0.0
  0
LINE
  5
24
330
1E
100
AcDbEntity
  8
0
100
AcDbLine
 10
87.5
 20
0.0000000000000247
 30
0.0
 11
87.5
 21
2.000000000000019
 31
0.0
  0
LINE
  5
25
330
1E
100
AcDbEntity
  8
0
100
AcDbLine
 10
89.30609999999999
 20
0.0000000000000246
 30
0.0
 11
89.95310000000001
 21
0.0000000000000245
 31
0.0
  0
LINE
  5
26
330
1E
100
AcDbEntity
  8
0
100
AcDbLine
 10
89.30609999999999
 20
0.0000000000000246
 30
0.0
 11
89.30609999999999
 21
2.000000000000019
 31
0.0
  0
LINE
  5
27
330
1E
100
AcDbEntity
  8
0
100
AcDbLine
 10
110.457
 20
0.0000000000000233
 30
0.0
 11
111.707
 21
0.0000000000000232
 31
0.0
  0
LINE
  5
28
330
1E
100
AcDbEntity
  8
0
100
AcDbLine
 10
110.457
 20
0.0000000000000233
 30
0.0
 11
110.457
 21
2.000000000000019
 31
0.0
  0
LINE
  5
29
330
1E
100
AcDbEntity
  8
0
100
AcDbLine
 10
111.707
 20
0.0000000000000232
 30
0.0
 11
111.707
 21
2.000000000000019
 31
0.0
  0
LINE
  5
2A
330
1E
100
AcDbEntity
  8
0
100
AcDbLine
 10
109.832
 20
0.0000000000000233
 30
0.0
 11
110.457
 21
0.0000000000000233
 31
0.0
  0
LINE
  5
2B
330
1E
100
AcDbEntity
  8
0
100
AcDbLine
 10
109.832
 20
0.0000000000000233
 30
0.0
 11
110.4789999999999
 21
0.0000000000000233
 31
0.0
  0
LINE
  5
2C
330
1E
100
AcDbEntity
  8
0
100
AcDbLine
 10
112.736
 20
0.0000000000000231
 30
0.0
 11
113.205
 21
0.0000000000000231
 31
0.0
  0
LINE
  5
2D
330
1E
100
AcDbEntity
  8
0
100
AcDbLine
 10
112.736
 20
0.0000000000000231
 30
0.0
 11
112.736
 21
2.000000000000019
 31
0.0
  0
LINE
  5
2E
330
1E
100
AcDbEntity
  8
0
100
AcDbLine
 10
111.707
 20
0.0000000000000232
 30
0.0
 11
113.205
 21
0.0000000000000231
 31
0.0
  0
LINE
  5
2F
330
1E
100
AcDbEntity
  8
0
100
AcDbLine
 10
111.707
 20
0.0000000000000232
 30
0.0
 11
112.736
 21
0.0000000000000231
 31
0.0
  0
LINE
  5
30
330
1E
100
AcDbEntity
  8
0
100
AcDbLine
 10
102.332
 20
0.0000000000000238
 30
0.0
 11
102.332
 21
2.000000000000019
 31
0.0
  0
LINE
  5
31
330
1E
100
AcDbEntity
  8
0
100
AcDbLine
 10
108.2929999999999
 20
0.0000000000000234
 30
0.0
 11
110.457
 21
0.0000000000000233
 31
0.0
  0
LINE
  5
32
330
1E
100
AcDbEntity
  8
0
100
AcDbLine
 10
108.2929999999999
 20
0.0000000000000234
 30
0.0
 11
109.5429999999999
 21
0.0000000000000233
 31
0.0
  0
LINE
  5
33
330
1E
100
AcDbEntity
  8
0
100
AcDbLine
 10
108.2929999999999
 20
0.0000000000000234
 30
0.0
 11
108.2929999999999
 21
2.000000000000019
 31
0.0
  0
LINE
  5
34
330
1E
100
AcDbEntity
  8
0
100
AcDbLine
 10
108.457
 20
0.0000000000000234
 30
0.0
 11
109.832
 21
0.0000000000000233
 31
0.0
  0
LINE
  5
35
330
1E
100
AcDbEntity
  8
0
100
AcDbLine
 10
108.457
 20
0.0000000000000234
 30
0.0
 11
108.75
 21
0.0000000000000234
 31
0.0
  0
LINE
  5
36
330
1E
100
AcDbEntity
  8
0
100
AcDbLine
 10
106.6899999999999
 20
0.0000000000000235
 30
0.0
 11
107.417
 21
0.0000000000000235
 31
0.0
  0
LINE
  5
37
330
1E
100
AcDbEntity
  8
0
100
AcDbLine
 10
106.6899999999999
 20
0.0000000000000235
 30
0.0
 11
108.457
 21
0.0000000000000234
 31
0.0
  0
LINE
  5
38
330
1E
100
AcDbEntity
  8
0
100
AcDbLine
 10
106.6899999999999
 20
0.0000000000000235
 30
0.0
 11
106.6899999999999
 21
2.000000000000019
 31
0.0
  0
LINE
  5
39
330
1E
100
AcDbEntity
  8
0
100
AcDbLine
 10
104.922
 20
0.0000000000000236
 30
0.0
 11
106.25
 21
0.0000000000000235
 31
0.0
  0
LINE
  5
3A
330
1E
100
AcDbEntity
  8
0
100
AcDbLine
 10
104.922
 20
0.0000000000000236
 30
0.0
 11
104.922
 21
2.000000000000019
 31
0.0
  0
LINE
  5
3B
330
1E
100
AcDbEntity
  8
0
100
AcDbLine
 10
104.922
 20
0.0000000000000236
 30
0.0
 11
106.6899999999999
 21
0.0000000000000235
 31
0.0
  0
LINE
  5
3C
330
1E
100
AcDbEntity
  8
0
100
AcDbLine
 10
108.75
 20
0.0000000000000234
 30
0.0
 11
109.5429999999999
 21
0.0000000000000233
 31
0.0
  0
LINE
  5
3D
330
1E
100
AcDbEntity
  8
0
100
AcDbLine
 10
101.082
 20
0.0000000000000238
 30
0.0
 11
102.332
 21
0.0000000000000238
 31
0.0
  0
LINE
  5
3E
330
1E
100
AcDbEntity
  8
0
100
AcDbLine
 10
101.082
 20
0.0000000000000238
 30
0.0
 11
101.082
 21
2.000000000000019
 31
0.0
  0
LINE
  5
3F
330
1E
100
AcDbEntity
  8
0
100
AcDbLine
 10
95.1992
 20
0.0000000000000242
 30
0.0
 11
95.1992
 21
2.000000000000019
 31
0.0
  0
LINE
  5
40
330
1E
100
AcDbEntity
  8
0
100
AcDbLine
 10
93.43149999999999
 20
0.0000000000000243
 30
0.0
 11
95.1992
 21
0.0000000000000242
 31
0.0
  0
LINE
  5
41
330
1E
100
AcDbEntity
  8
0
100
AcDbLine
 10
93.43149999999999
 20
0.0000000000000243
 30
0.0
 11
93.43149999999999
 21
2.000000000000019
 31
0.0
  0
LINE
  5
42
330
1E
100
AcDbEntity
  8
0
100
AcDbLine
 10
91.70749999999999
 20
0.0000000000000244
 30
0.0
 11
92.368
 21
0.0000000000000244
 31
0.0
  0
LINE
  5
43
330
1E
100
AcDbEntity
  8
0
100
AcDbLine
 10
91.70749999999999
 20
0.0000000000000244
 30
0.0
 11
92.95749999999999
 21
0.0000000000000243
 31
0.0
  0
LINE
  5
44
330
1E
100
AcDbEntity
  8
0
100
AcDbLine
 10
91.70749999999999
 20
0.0000000000000244
 30
0.0
 11
91.70749999999999
 21
2.000000000000019
 31
0.0
  0
LINE
  5
45
330
1E
100
AcDbEntity
  8
0
100
AcDbLine
 10
89.95310000000001
 20
0.0000000000000245
 30
0.0
 11
92.368
 21
0.0000000000000244
 31
0.0
  0
LINE
  5
46
330
1E
100
AcDbEntity
  8
0
100
AcDbLine
 10
91.7209
 20
0.0000000000000244
 30
0.0
 11
92.368
 21
0.0000000000000244
 31
0.0
  0
LINE
  5
47
330
1E
100
AcDbEntity
  8
0
100
AcDbLine
 10
92.95749999999999
 20
0.0000000000000243
 30
0.0
 11
93.43149999999999
 21
0.0000000000000243
 31
0.0
  0
LINE
  5
48
330
1E
100
AcDbEntity
  8
0
100
AcDbLine
 10
92.95749999999999
 20
0.0000000000000243
 30
0.0
 11
92.95749999999999
 21
2.000000000000019
 31
0.0
  0
LINE
  5
49
330
1E
100
AcDbEntity
  8
0
100
AcDbLine
 10
98.6635
 20
0.000000000000024
 30
0.0
 11
98.6635
 21
2.000000000000019
 31
0.0
  0
LINE
  5
4A
330
1E
100
AcDbEntity
  8
0
100
AcDbLine
 10
97.4135
 20
0.0000000000000241
 30
0.0
 11
98.6635
 21
0.000000000000024
 31
0.0
  0
LINE
  5
4B
330
1E
100
AcDbEntity
  8
0
100
AcDbLine
 10
96.49840000000001
 20
0.0000000000000241
 30
0.0
 11
98.6635
 21
0.000000000000024
 31
0.0
  0
LINE
  5
4C
330
1E
100
AcDbEntity
  8
0
100
AcDbLine
 10
96.49840000000001
 20
0.0000000000000241
 30
0.0
 11
96.49840000000001
 21
2.000000000000019
 31
0.0
  0
LINE
  5
4D
330
1E
100
AcDbEntity
  8
0
100
AcDbLine
 10
95.24840000000001
 20
0.0000000000000242
 30
0.0
 11
97.4135
 21
0.0000000000000241
 31
0.0
  0
LINE
  5
4E
330
1E
100
AcDbEntity
  8
0
100
AcDbLine
 10
95.24840000000001
 20
0.0000000000000242
 30
0.0
 11
96.49840000000001
 21
0.0000000000000241
 31
0.0
  0
LINE
  5
4F
330
1E
100
AcDbEntity
  8
0
100
AcDbLine
 10
95.24840000000001
 20
0.0000000000000242
 30
0.0
 11
95.24840000000001
 21
2.000000000000019
 31
0.0
  0
LINE
  5
50
330
1E
100
AcDbEntity
  8
0
100
AcDbLine
 10
98.91750000000001
 20
0.000000000000024
 30
0.0
 11
100.1679999999999
 21
0.0000000000000239
 31
0.0
  0
LINE
  5
51
330
1E
100
AcDbEntity
  8
0
100
AcDbLine
 10
98.91750000000001
 20
0.000000000000024
 30
0.0
 11
98.91750000000001
 21
2.000000000000019
 31
0.0
  0
LINE
  5
52
330
1E
100
AcDbEntity
  8
0
100
AcDbLine
 10
98.91750000000001
 20
0.000000000000024
 30
0.0
 11
101.082
 21
0.0000000000000238
 31
0.0
  0
LINE
  5
53
330
1E
100
AcDbEntity
  8
0
100
AcDbLine
 10
89.5425
 20
0.0000000000000246
 30
0.0
 11
89.95310000000001
 21
0.0000000000000245
 31
0.0
  0
LINE
  5
54
330
1E
100
AcDbEntity
  8
0
100
AcDbLine
 10
89.5425
 20
0.0000000000000246
 30
0.0
 11
91.70749999999999
 21
0.0000000000000244
 31
0.0
  0
LINE
  5
55
330
1E
100
AcDbEntity
  8
0
100
AcDbLine
 10
89.5425
 20
0.0000000000000246
 30
0.0
 11
89.5425
 21
2.000000000000019
 31
0.0
  0
LINE
  5
56
330
1E
100
AcDbEntity
  8
0
100
AcDbLine
 10
19.9235
 20
0.0000000000000288
 30
0.0
 11
19.9235
 21
2.00000000000003
 31
0.0
  0
LINE
  5
57
330
1E
100
AcDbEntity
  8
0
100
AcDbLine
 10
19.27649999999999
 20
0.0000000000000289
 30
0.0
 11
19.9235
 21
0.0000000000000288
 31
0.0
  0
LINE
  5
58
330
1E
100
AcDbEntity
  8
0
100
AcDbLine
 10
17.5088
 20
0.000000000000029
 30
0.0
 11
19.9235
 21
0.0000000000000288
 31
0.0
  0
LINE
  5
59
330
1E
100
AcDbEntity
  8
0
100
AcDbLine
 10
17.5088
 20
0.000000000000029
 30
0.0
 11
17.5088
 21
2.00000000000003
 31
0.0
  0
LINE
  5
5A
330
1E
100
AcDbEntity
  8
0
100
AcDbLine
 10
17.5088
 20
0.000000000000029
 30
0.0
 11
19.27649999999999
 21
0.0000000000000289
 31
0.0
  0
LINE
  5
5B
330
1E
100
AcDbEntity
  8
0
100
AcDbLine
 10
15.0
 20
0.0000000000000291
 30
0.0
 11
15.0
 21
2.00000000000003
 31
0.0
  0
LINE
  5
5C
330
1E
100
AcDbEntity
  8
0
100
AcDbLine
 10
12.5
 20
0.0000000000000293
 30
0.0
 11
15.0
 21
0.0000000000000291
 31
0.0
  0
LINE
  5
5D
330
1E
100
AcDbEntity
  8
0
100
AcDbLine
 10
12.5
 20
0.0000000000000293
 30
0.0
 11
12.5
 21
2.00000000000003
 31
0.0
  0
LINE
  5
5E
330
1E
100
AcDbEntity
  8
0
100
AcDbLine
 10
16.8616
 20
0.000000000000029
 30
0.0
 11
16.8616
 21
2.00000000000003
 31
0.0
  0
LINE
  5
5F
330
1E
100
AcDbEntity
  8
0
100
AcDbLine
 10
16.8616
 20
0.000000000000029
 30
0.0
 11
17.5088
 21
0.000000000000029
 31
0.0
  0
LINE
  5
60
330
1E
100
AcDbEntity
  8
0
100
AcDbLine
 10
16.8616
 20
0.000000000000029
 30
0.0
 11
19.27649999999999
 21
0.0000000000000289
 31
0.0
  0
LINE
  5
61
330
1E
100
AcDbEntity
  8
0
100
AcDbLine
 10
74.2569
 20
0.0000000000000255
 30
0.0
 11
74.2569
 21
2.00000000000003
 31
0.0
  0
LINE
  5
62
330
1E
100
AcDbEntity
  8
0
100
AcDbLine
 10
68.68269999999999
 20
0.0000000000000258
 30
0.0
 11
68.68269999999999
 21
2.00000000000003
 31
0.0
  0
LINE
  5
63
330
1E
100
AcDbEntity
  8
0
100
AcDbLine
 10
71.19499999999999
 20
0.0000000000000257
 30
0.0
 11
71.842
 21
0.0000000000000256
 31
0.0
  0
LINE
  5
64
330
1E
100
AcDbEntity
  8
0
100
AcDbLine
 10
71.19499999999999
 20
0.0000000000000257
 30
0.0
 11
71.19499999999999
 21
2.00000000000003
 31
0.0
  0
LINE
  5
65
330
1E
100
AcDbEntity
  8
0
100
AcDbLine
 10
71.19499999999999
 20
0.0000000000000257
 30
0.0
 11
73.6099
 21
0.0000000000000255
 31
0.0
  0
LINE
  5
66
330
1E
100
AcDbEntity
  8
0
100
AcDbLine
 10
71.842
 20
0.0000000000000256
 30
0.0
 11
74.2569
 21
0.0000000000000255
 31
0.0
  0
LINE
  5
67
330
1E
100
AcDbEntity
  8
0
100
AcDbLine
 10
71.842
 20
0.0000000000000256
 30
0.0
 11
71.842
 21
2.00000000000003
 31
0.0
  0
LINE
  5
68
330
1E
100
AcDbEntity
  8
0
100
AcDbLine
 10
68.75
 20
0.0000000000000258
 30
0.0
 11
71.19499999999999
 21
0.0000000000000257
 31
0.0
  0
LINE
  5
69
330
1E
100
AcDbEntity
  8
0
100
AcDbLine
 10
68.75
 20
0.0000000000000258
 30
0.0
 11
68.75
 21
2.00000000000003
 31
0.0
  0
LINE
  5
6A
330
1E
100
AcDbEntity
  8
0
100
AcDbLine
 10
73.6099
 20
0.0000000000000255
 30
0.0
 11
74.2569
 21
0.0000000000000255
 31
0.0
  0
LINE
  5
6B
330
1E
100
AcDbEntity
  8
0
100
AcDbLine
 10
80.1675
 20
0.0000000000000251
 30
0.0
 11
82.33249999999999
 21
0.000000000000025
 31
0.0
  0
LINE
  5
6C
330
1E
100
AcDbEntity
  8
0
100
AcDbLine
 10
80.1675
 20
0.0000000000000251
 30
0.0
 11
81.4175
 21
0.0000000000000251
 31
0.0
  0
LINE
  5
6D
330
1E
100
AcDbEntity
  8
0
100
AcDbLine
 10
80.1675
 20
0.0000000000000251
 30
0.0
 11
80.1675
 21
2.000000000000019
 31
0.0
  0
LINE
  5
6E
330
1E
100
AcDbEntity
  8
0
100
AcDbLine
 10
81.4175
 20
0.0000000000000251
 30
0.0
 11
83.58249999999999
 21
0.0000000000000249
 31
0.0
  0
LINE
  5
6F
330
1E
100
AcDbEntity
  8
0
100
AcDbLine
 10
80.17319999999999
 20
0.0000000000000251
 30
0.0
 11
81.4175
 21
0.0000000000000251
 31
0.0
  0
LINE
  5
70
330
1E
100
AcDbEntity
  8
0
100
AcDbLine
 10
79.0104
 20
0.0000000000000252
 30
0.0
 11
80.26049999999999
 21
0.0000000000000251
 31
0.0
  0
LINE
  5
71
330
1E
100
AcDbEntity
  8
0
100
AcDbLine
 10
79.0104
 20
0.0000000000000252
 30
0.0
 11
80.26049999999999
 21
0.0000000000000251
 31
0.0
  0
LINE
  5
72
330
1E
100
AcDbEntity
  8
0
100
AcDbLine
 10
78.4054
 20
0.0000000000000252
 30
0.0
 11
78.4054
 21
2.00000000000003
 31
0.0
  0
LINE
  5
73
330
1E
100
AcDbEntity
  8
0
100
AcDbLine
 10
78.4054
 20
0.0000000000000252
 30
0.0
 11
80.17319999999999
 21
0.0000000000000251
 31
0.0
  0
LINE
  5
74
330
1E
100
AcDbEntity
  8
0
100
AcDbLine
 10
78.4054
 20
0.0000000000000252
 30
0.0
 11
80.1675
 21
0.0000000000000251
 31
0.0
  0
LINE
  5
75
330
1E
100
AcDbEntity
  8
0
100
AcDbLine
 10
37.3876
 20
0.0000000000000277
 30
0.0
 11
38.03459999999999
 21
0.0000000000000277
 31
0.0
  0
LINE
  5
76
330
1E
100
AcDbEntity
  8
0
100
AcDbLine
 10
38.03459999999999
 20
0.0000000000000277
 30
0.0
 11
38.03459999999999
 21
2.00000000000003
 31
0.0
  0
LINE
  5
77
330
1E
100
AcDbEntity
  8
0
100
AcDbLine
 10
35.6199
 20
0.0000000000000279
 30
0.0
 11
38.03459999999999
 21
0.0000000000000277
 31
0.0
  0
LINE
  5
78
330
1E
100
AcDbEntity
  8
0
100
AcDbLine
 10
35.6199
 20
0.0000000000000279
 30
0.0
 11
35.6199
 21
2.00000000000003
 31
0.0
  0
LINE
  5
79
330
1E
100
AcDbEntity
  8
0
100
AcDbLine
 10
47.7845
 20
0.0000000000000271
 30
0.0
 11
49.9495
 21
0.000000000000027
 31
0.0
  0
LINE
  5
7A
330
1E
100
AcDbEntity
  8
0
100
AcDbLine
 10
47.7845
 20
0.0000000000000271
 30
0.0
 11
47.7845
 21
2.00000000000003
 31
0.0
  0
LINE
  5
7B
330
1E
100
AcDbEntity
  8
0
100
AcDbLine
 10
49.9495
 20
0.000000000000027
 30
0.0
 11
49.9495
 21
2.00000000000003
 31
0.0
  0
LINE
  5
7C
330
1E
100
AcDbEntity
  8
0
100
AcDbLine
 10
50.0
 20
0.000000000000027
 30
0.0
 11
51.8889
 21
0.0000000000000269
 31
0.0
  0
LINE
  5
7D
330
1E
100
AcDbEntity
  8
0
100
AcDbLine
 10
50.0
 20
0.000000000000027
 30
0.0
 11
50.0
 21
2.00000000000003
 31
0.0
  0
LINE
  5
7E
330
1E
100
AcDbEntity
  8
0
100
AcDbLine
 10
46.5345
 20
0.0000000000000272
 30
0.0
 11
48.6995
 21
0.0000000000000271
 31
0.0
  0
LINE
  5
7F
330
1E
100
AcDbEntity
  8
0
100
AcDbLine
 10
46.5345
 20
0.0000000000000272
 30
0.0
 11
46.5345
 21
2.00000000000003
 31
0.0
  0
LINE
  5
80
330
1E
100
AcDbEntity
  8
0
100
AcDbLine
 10
46.5345
 20
0.0000000000000272
 30
0.0
 11
47.7845
 21
0.0000000000000271
 31
0.0
  0
LINE
  5
81
330
1E
100
AcDbEntity
  8
0
100
AcDbLine
 10
31.5465
 20
0.0000000000000281
 30
0.0
 11
33.71159999999999
 21
0.000000000000028
 31
0.0
  0
LINE
  5
82
330
1E
100
AcDbEntity
  8
0
100
AcDbLine
 10
31.5465
 20
0.0000000000000281
 30
0.0
 11
31.5465
 21
2.00000000000003
 31
0.0
  0
LINE
  5
83
330
1E
100
AcDbEntity
  8
0
100
AcDbLine
 10
33.75
 20
0.000000000000028
 30
0.0
 11
33.75
 21
2.00000000000003
 31
0.0
  0
LINE
  5
84
330
1E
100
AcDbEntity
  8
0
100
AcDbLine
 10
33.71159999999999
 20
0.000000000000028
 30
0.0
 11
33.71159999999999
 21
2.00000000000003
 31
0.0
  0
LINE
  5
85
330
1E
100
AcDbEntity
  8
0
100
AcDbLine
 10
34.97279999999999
 20
0.0000000000000279
 30
0.0
 11
34.97279999999999
 21
2.00000000000003
 31
0.0
  0
LINE
  5
86
330
1E
100
AcDbEntity
  8
0
100
AcDbLine
 10
34.97279999999999
 20
0.0000000000000279
 30
0.0
 11
35.6199
 21
0.0000000000000279
 31
0.0
  0
LINE
  5
87
330
1E
100
AcDbEntity
  8
0
100
AcDbLine
 10
65.1471
 20
0.000000000000026
 30
0.0
 11
66.91500000000001
 21
0.0000000000000259
 31
0.0
  0
LINE
  5
88
330
1E
100
AcDbEntity
  8
0
100
AcDbLine
 10
65.1471
 20
0.000000000000026
 30
0.0
 11
65.1471
 21
2.00000000000003
 31
0.0
  0
LINE
  5
89
330
1E
100
AcDbEntity
  8
0
100
AcDbLine
 10
64.02249999999999
 20
0.0000000000000261
 30
0.0
 11
65.1471
 21
0.000000000000026
 31
0.0
  0
LINE
  5
8A
330
1E
100
AcDbEntity
  8
0
100
AcDbLine
 10
64.02249999999999
 20
0.0000000000000261
 30
0.0
 11
64.02249999999999
 21
2.00000000000003
 31
0.0
  0
LINE
  5
8B
330
1E
100
AcDbEntity
  8
0
100
AcDbLine
 10
53.6567
 20
0.0000000000000268
 30
0.0
 11
55.4245
 21
0.0000000000000266
 31
0.0
  0
LINE
  5
8C
330
1E
100
AcDbEntity
  8
0
100
AcDbLine
 10
53.6567
 20
0.0000000000000268
 30
0.0
 11
53.6567
 21
2.00000000000003
 31
0.0
  0
LINE
  5
8D
330
1E
100
AcDbEntity
  8
0
100
AcDbLine
 10
53.0839
 20
0.0000000000000268
 30
0.0
 11
53.731
 21
0.0000000000000267
 31
0.0
  0
LINE
  5
8E
330
1E
100
AcDbEntity
  8
0
100
AcDbLine
 10
55.4245
 20
0.0000000000000266
 30
0.0
 11
56.1457
 21
0.0000000000000266
 31
0.0
  0
LINE
  5
8F
330
1E
100
AcDbEntity
  8
0
100
AcDbLine
 10
55.4245
 20
0.0000000000000266
 30
0.0
 11
55.4245
 21
2.00000000000003
 31
0.0
  0
LINE
  5
90
330
1E
100
AcDbEntity
  8
0
100
AcDbLine
 10
110.457
 20
2.000000000000019
 30
0.0
 11
110.457
 21
0.0000000000000233
 31
0.0
  0
LINE
  5
91
330
1E
100
AcDbEntity
  8
0
100
AcDbLine
 10
110.457
 20
2.000000000000019
 30
0.0
 11
111.6249999999999
 21
2.000000000000019
 31
0.0
  0
LINE
  5
92
330
1E
100
AcDbEntity
  8
0
100
AcDbLine
 10
113.205
 20
2.000000000000019
 30
0.0
 11
113.205
 21
0.000000000000023
 31
0.0
  0
LINE
  5
93
330
1E
100
AcDbEntity
  8
0
100
AcDbLine
 10
113.205
 20
2.000000000000019
 30
0.0
 11
115.62
 21
2.000000000000019
 31
0.0
  0
LINE
  5
94
330
1E
100
AcDbEntity
  8
0
100
AcDbLine
 10
112.736
 20
2.000000000000019
 30
0.0
 11
112.736
 21
0.000000000000023
 31
0.0
  0
LINE
  5
95
330
1E
100
AcDbEntity
  8
0
100
AcDbLine
 10
112.736
 20
2.000000000000019
 30
0.0
 11
113.205
 21
2.000000000000019
 31
0.0
  0
LINE
  5
96
330
1E
100
AcDbEntity
  8
0
100
AcDbLine
 10
56.1457
 20
0.0000000000000266
 30
0.0
 11
56.1457
 21
2.00000000000003
 31
0.0
  0
LINE
  5
97
330
1E
100
AcDbEntity
  8
0
100
AcDbLine
 10
55.4245
 20
0.0000000000000266
 30
0.0
 11
55.4987
 21
0.0000000000000266
 31
0.0
  0
LINE
  5
98
330
1E
100
AcDbEntity
  8
0
100
AcDbLine
 10
62.7725
 20
0.0000000000000262
 30
0.0
 11
62.7725
 21
2.00000000000003
 31
0.0
  0
LINE
  5
99
330
1E
100
AcDbEntity
  8
0
100
AcDbLine
 10
62.7725
 20
0.0000000000000262
 30
0.0
 11
64.02249999999999
 21
0.0000000000000261
 31
0.0
  0
LINE
  5
9A
330
1E
100
AcDbEntity
  8
0
100
AcDbLine
 10
51.8889
 20
0.0000000000000269
 30
0.0
 11
53.0839
 21
0.0000000000000268
 31
0.0
  0
LINE
  5
9B
330
1E
100
AcDbEntity
  8
0
100
AcDbLine
 10
51.8889
 20
0.0000000000000269
 30
0.0
 11
53.6567
 21
0.0000000000000268
 31
0.0
  0
LINE
  5
9C
330
1E
100
AcDbEntity
  8
0
100
AcDbLine
 10
51.8889
 20
0.0000000000000269
 30
0.0
 11
51.8889
 21
2.00000000000003
 31
0.0
  0
LINE
  5
9D
330
1E
100
AcDbEntity
  8
0
100
AcDbLine
 10
66.91500000000001
 20
0.0000000000000259
 30
0.0
 11
68.68269999999999
 21
0.0000000000000258
 31
0.0
  0
LINE
  5
9E
330
1E
100
AcDbEntity
  8
0
100
AcDbLine
 10
66.91500000000001
 20
0.0000000000000259
 30
0.0
 11
66.91500000000001
 21
2.00000000000003
 31
0.0
  0
LINE
  5
9F
330
1E
100
AcDbEntity
  8
0
100
AcDbLine
 10
30.2965
 20
0.0000000000000282
 30
0.0
 11
32.46159999999999
 21
0.000000000000028
 31
0.0
  0
LINE
  5
A0
330
1E
100
AcDbEntity
  8
0
100
AcDbLine
 10
30.2965
 20
0.0000000000000282
 30
0.0
 11
30.2965
 21
2.00000000000003
 31
0.0
  0
LINE
  5
A1
330
1E
100
AcDbEntity
  8
0
100
AcDbLine
 10
30.2965
 20
0.0000000000000282
 30
0.0
 11
31.5465
 21
0.0000000000000281
 31
0.0
  0
LINE
  5
A2
330
1E
100
AcDbEntity
  8
0
100
AcDbLine
 10
82.33249999999999
 20
0.000000000000025
 30
0.0
 11
83.58249999999999
 21
0.0000000000000249
 31
0.0
  0
LINE
  5
A3
330
1E
100
AcDbEntity
  8
0
100
AcDbLine
 10
82.33249999999999
 20
0.000000000000025
 30
0.0
 11
82.33249999999999
 21
2.000000000000019
 31
0.0
  0
LINE
  5
A4
330
1E
100
AcDbEntity
  8
0
100
AcDbLine
 10
115.62
 20
0.000000000000023
 30
0.0
 11
116.267
 21
0.0000000000000229
 31
0.0
  0
LINE
  5
A5
330
1E
100
AcDbEntity
  8
0
100
AcDbLine
 10
115.62
 20
0.000000000000023
 30
0.0
 11
115.62
 21
2.000000000000019
 31
0.0
  0
LINE
  5
A6
330
1E
100
AcDbEntity
  8
0
100
AcDbLine
 10
116.267
 20
0.0000000000000229
 30
0.0
 11
116.267
 21
2.000000000000019
 31
0.0
  0
LINE
  5
A7
330
1E
100
AcDbEntity
  8
0
100
AcDbLine
 10
115.62
 20
2.000000000000019
 30
0.0
 11
115.62
 21
0.000000000000023
 31
0.0
  0
LINE
  5
A8
330
1E
100
AcDbEntity
  8
0
100
AcDbLine
 10
114.901
 20
0.000000000000023
 30
0.0
 11
115.62
 21
0.000000000000023
 31
0.0
  0
LINE
  5
A9
330
1E
100
AcDbEntity
  8
0
100
AcDbLine
 10
113.205
 20
0.0000000000000231
 30
0.0
 11
113.8519999999999
 21
0.0000000000000231
 31
0.0
  0
LINE
  5
AA
330
1E
100
AcDbEntity
  8
0
100
AcDbLine
 10
113.205
 20
0.0000000000000231
 30
0.0
 11
115.62
 21
0.000000000000023
 31
0.0
  0
LINE
  5
AB
330
1E
100
AcDbEntity
  8
0
100
AcDbLine
 10
113.205
 20
0.0000000000000231
 30
0.0
 11
113.205
 21
2.000000000000019
 31
0.0
  0
LINE
  5
AC
330
1E
100
AcDbEntity
  8
0
100
AcDbLine
 10
111.6249999999999
 20
2.000000000000019
 30
0.0
 11
130.4999999999999
 21
2.000000000000019
 31
0.0
  0
LINE
  5
AD
330
1E
100
AcDbEntity
  8
0
100
AcDbLine
 10
130.179
 20
0.0000000000000221
 30
0.0
 11
130.8249999999999
 21
0.000000000000022
 31
0.0
  0
LINE
  5
AE
330
1E
100
AcDbEntity
  8
0
100
AcDbLine
 10
130.179
 20
0.0000000000000221
 30
0.0
 11
130.179
 21
2.000000000000019
 31
0.0
  0
LINE
  5
AF
330
1E
100
AcDbEntity
  8
0
100
AcDbLine
 10
130.458
 20
0.000000000000022
 30
0.0
 11
131.1399999999999
 21
0.000000000000022
 31
0.0
  0
LINE
  5
B0
330
1E
100
AcDbEntity
  8
0
100
AcDbLine
 10
125.3249999999999
 20
0.0000000000000224
 30
0.0
 11
125.973
 21
0.0000000000000223
 31
0.0
  0
LINE
  5
B1
330
1E
100
AcDbEntity
  8
0
100
AcDbLine
 10
125.3249999999999
 20
0.0000000000000224
 30
0.0
 11
125.3249999999999
 21
2.000000000000019
 31
0.0
  0
LINE
  5
B2
330
1E
100
AcDbEntity
  8
0
100
AcDbLine
 10
125.973
 20
0.0000000000000223
 30
0.0
 11
126.1749999999999
 21
0.0000000000000223
 31
0.0
  0
LINE
  5
B3
330
1E
100
AcDbEntity
  8
0
100
AcDbLine
 10
125.973
 20
0.0000000000000223
 30
0.0
 11
127.0429999999999
 21
0.0000000000000223
 31
0.0
  0
LINE
  5
B4
330
1E
100
AcDbEntity
  8
0
100
AcDbLine
 10
125.973
 20
0.0000000000000223
 30
0.0
 11
125.973
 21
2.000000000000019
 31
0.0
  0
LINE
  5
B5
330
1E
100
AcDbEntity
  8
0
100
AcDbLine
 10
126.1749999999999
 20
0.0000000000000223
 30
0.0
 11
127.0429999999999
 21
0.0000000000000223
 31
0.0
  0
LINE
  5
B6
330
1E
100
AcDbEntity
  8
0
100
AcDbLine
 10
126.1749999999999
 20
0.0000000000000223
 30
0.0
 11
126.1749999999999
 21
2.000000000000019
 31
0.0
  0
LINE
  5
B7
330
1E
100
AcDbEntity
  8
0
100
AcDbLine
 10
128.41
 20
0.0000000000000222
 30
0.0
 11
130.8249999999999
 21
0.000000000000022
 31
0.0
  0
LINE
  5
B8
330
1E
100
AcDbEntity
  8
0
100
AcDbLine
 10
127.7639999999999
 20
0.0000000000000222
 30
0.0
 11
130.179
 21
0.0000000000000221
 31
0.0
  0
LINE
  5
B9
330
1E
100
AcDbEntity
  8
0
100
AcDbLine
 10
127.7639999999999
 20
0.0000000000000222
 30
0.0
 11
127.7639999999999
 21
2.000000000000019
 31
0.0
  0
LINE
  5
BA
330
1E
100
AcDbEntity
  8
0
100
AcDbLine
 10
127.0429999999999
 20
0.0000000000000223
 30
0.0
 11
129.208
 21
0.0000000000000221
 31
0.0
  0
LINE
  5
BB
330
1E
100
AcDbEntity
  8
0
100
AcDbLine
 10
127.0429999999999
 20
0.0000000000000223
 30
0.0
 11
127.0429999999999
 21
2.000000000000019
 31
0.0
  0
LINE
  5
BC
330
1E
100
AcDbEntity
  8
0
100
AcDbLine
 10
129.208
 20
0.0000000000000221
 30
0.0
 11
130.458
 21
0.000000000000022
 31
0.0
  0
LINE
  5
BD
330
1E
100
AcDbEntity
  8
0
100
AcDbLine
 10
130.458
 20
0.000000000000022
 30
0.0
 11
130.8249999999999
 21
0.000000000000022
 31
0.0
  0
LINE
  5
BE
330
1E
100
AcDbEntity
  8
0
100
AcDbLine
 10
121.12
 20
0.0000000000000226
 30
0.0
 11
121.716
 21
0.0000000000000226
 31
0.0
  0
LINE
  5
BF
330
1E
100
AcDbEntity
  8
0
100
AcDbLine
 10
121.12
 20
0.0000000000000226
 30
0.0
 11
121.12
 21
2.000000000000019
 31
0.0
  0
LINE
  5
C0
330
1E
100
AcDbEntity
  8
0
100
AcDbLine
 10
121.716
 20
0.0000000000000226
 30
0.0
 11
121.716
 21
2.000000000000019
 31
0.0
  0
LINE
  5
C1
330
1E
100
AcDbEntity
  8
0
100
AcDbLine
 10
122.911
 20
0.0000000000000225
 30
0.0
 11
123.5579999999999
 21
0.0000000000000225
 31
0.0
  0
LINE
  5
C2
330
1E
100
AcDbEntity
  8
0
100
AcDbLine
 10
122.911
 20
0.0000000000000225
 30
0.0
 11
122.911
 21
2.000000000000019
 31
0.0
  0
LINE
  5
C3
330
1E
100
AcDbEntity
  8
0
100
AcDbLine
 10
122.911
 20
0.0000000000000225
 30
0.0
 11
125.3249999999999
 21
0.0000000000000224
 31
0.0
  0
LINE
  5
C4
330
1E
100
AcDbEntity
  8
0
100
AcDbLine
 10
118.0579999999999
 20
0.0000000000000228
 30
0.0
 11
120.473
 21
0.0000000000000227
 31
0.0
  0
LINE
  5
C5
330
1E
100
AcDbEntity
  8
0
100
AcDbLine
 10
118.0579999999999
 20
0.0000000000000228
 30
0.0
 11
118.0579999999999
 21
2.000000000000019
 31
0.0
  0
LINE
  5
C6
330
1E
100
AcDbEntity
  8
0
100
AcDbLine
 10
119.832
 20
0.0000000000000227
 30
0.0
 11
120.473
 21
0.0000000000000227
 31
0.0
  0
LINE
  5
C7
330
1E
100
AcDbEntity
  8
0
100
AcDbLine
 10
121.716
 20
2.000000000000019
 30
0.0
 11
121.716
 21
0.0000000000000225
 31
0.0
  0
LINE
  5
C8
330
1E
100
AcDbEntity
  8
0
100
AcDbLine
 10
117.6679999999999
 20
0.0000000000000228
 30
0.0
 11
118.0579999999999
 21
0.0000000000000228
 31
0.0
  0
LINE
  5
C9
330
1E
100
AcDbEntity
  8
0
100
AcDbLine
 10
117.6679999999999
 20
0.0000000000000228
 30
0.0
 11
117.6679999999999
 21
2.000000000000019
 31
0.0
  0
LINE
  5
CA
330
1E
100
AcDbEntity
  8
0
100
AcDbLine
 10
117.6679999999999
 20
0.0000000000000228
 30
0.0
 11
118.18
 21
0.0000000000000228
 31
0.0
  0
LINE
  5
CB
330
1E
100
AcDbEntity
  8
0
100
AcDbLine
 10
117.6679999999999
 20
0.0000000000000228
 30
0.0
 11
118.9179999999999
 21
0.0000000000000228
 31
0.0
  0
LINE
  5
CC
330
1E
100
AcDbEntity
  8
0
100
AcDbLine
 10
127.7639999999999
 20
2.000000000000019
 30
0.0
 11
127.7639999999999
 21
0.0000000000000222
 31
0.0
  0
LINE
  5
CD
330
1E
100
AcDbEntity
  8
0
100
AcDbLine
 10
127.7639999999999
 20
2.000000000000019
 30
0.0
 11
130.179
 21
2.000000000000019
 31
0.0
  0
LINE
  5
CE
330
1E
100
AcDbEntity
  8
0
100
AcDbLine
 10
130.179
 20
2.000000000000019
 30
0.0
 11
130.179
 21
0.000000000000022
 31
0.0
  0
LINE
  5
CF
330
1E
100
AcDbEntity
  8
0
100
AcDbLine
 10
130.179
 20
2.000000000000019
 30
0.0
 11
130.4999999999999
 21
2.000000000000019
 31
0.0
  0
LINE
  5
D0
330
1E
100
AcDbEntity
  8
0
100
AcDbLine
 10
127.0429999999999
 20
2.000000000000019
 30
0.0
 11
127.0429999999999
 21
0.0000000000000222
 31
0.0
  0
LINE
  5
D1
330
1E
100
AcDbEntity
  8
0
100
AcDbLine
 10
125.973
 20
2.000000000000019
 30
0.0
 11
126.1749999999999
 21
2.000000000000019
 31
0.0
  0
LINE
  5
D2
330
1E
100
AcDbEntity
  8
0
100
AcDbLine
 10
125.973
 20
2.000000000000019
 30
0.0
 11
125.973
 21
0.0000000000000222
 31
0.0
  0
LINE
  5
D3
330
1E
100
AcDbEntity
  8
0
100
AcDbLine
 10
125.3249999999999
 20
2.000000000000019
 30
0.0
 11
125.3249999999999
 21
0.0000000000000225
 31
0.0
  0
LINE
  5
D4
330
1E
100
AcDbEntity
  8
0
100
AcDbLine
 10
126.1749999999999
 20
2.000000000000019
 30
0.0
 11
126.1749999999999
 21
0.0000000000000222
 31
0.0
  0
LINE
  5
D5
330
1E
100
AcDbEntity
  8
0
100
AcDbLine
 10
122.911
 20
2.000000000000019
 30
0.0
 11
122.911
 21
0.0000000000000225
 31
0.0
  0
LINE
  5
D6
330
1E
100
AcDbEntity
  8
0
100
AcDbLine
 10
120.473
 20
0.0000000000000227
 30
0.0
 11
121.12
 21
0.0000000000000226
 31
0.0
  0
LINE
  5
D7
330
1E
100
AcDbEntity
  8
0
100
AcDbLine
 10
120.473
 20
0.0000000000000227
 30
0.0
 11
120.473
 21
2.000000000000019
 31
0.0
  0
LINE
  5
D8
330
1E
100
AcDbEntity
  8
0
100
AcDbLine
 10
135.6789999999999
 20
0.0000000000000217
 30
0.0
 11
135.6789999999999
 21
2.000000000000019
 31
0.0
  0
LINE
  5
D9
330
1E
100
AcDbEntity
  8
0
100
AcDbLine
 10
137.4689999999999
 20
0.0000000000000216
 30
0.0
 11
139.8839999999999
 21
0.0000000000000215
 31
0.0
  0
LINE
  5
DA
330
1E
100
AcDbEntity
  8
0
100
AcDbLine
 10
137.4689999999999
 20
0.0000000000000216
 30
0.0
 11
137.4689999999999
 21
2.000000000000019
 31
0.0
  0
LINE
  5
DB
330
1E
100
AcDbEntity
  8
0
100
AcDbLine
 10
137.667
 20
0.0000000000000216
 30
0.0
 11
139.833
 21
0.0000000000000215
 31
0.0
  0
LINE
  5
DC
330
1E
100
AcDbEntity
  8
0
100
AcDbLine
 10
137.667
 20
0.0000000000000216
 30
0.0
 11
138.583
 21
0.0000000000000215
 31
0.0
  0
LINE
  5
DD
330
1E
100
AcDbEntity
  8
0
100
AcDbLine
 10
136.417
 20
0.0000000000000217
 30
0.0
 11
136.417
 21
2.000000000000019
 31
0.0
  0
LINE
  5
DE
330
1E
100
AcDbEntity
  8
0
100
AcDbLine
 10
136.417
 20
0.0000000000000217
 30
0.0
 11
137.4689999999999
 21
0.0000000000000216
 31
0.0
  0
LINE
  5
DF
330
1E
100
AcDbEntity
  8
0
100
AcDbLine
 10
130.8249999999999
 20
0.000000000000022
 30
0.0
 11
130.8249999999999
 21
2.000000000000019
 31
0.0
  0
LINE
  5
E0
330
1E
100
AcDbEntity
  8
0
100
AcDbLine
 10
131.1399999999999
 20
0.000000000000022
 30
0.0
 11
131.1399999999999
 21
2.000000000000019
 31
0.0
  0
LINE
  5
E1
330
1E
100
AcDbEntity
  8
0
100
AcDbLine
 10
132.616
 20
0.0000000000000219
 30
0.0
 11
135.031
 21
0.0000000000000218
 31
0.0
  0
LINE
  5
E2
330
1E
100
AcDbEntity
  8
0
100
AcDbLine
 10
132.616
 20
0.0000000000000219
 30
0.0
 11
132.616
 21
2.000000000000019
 31
0.0
  0
LINE
  5
E3
330
1E
100
AcDbEntity
  8
0
100
AcDbLine
 10
131.4389999999999
 20
0.000000000000022
 30
0.0
 11
132.616
 21
0.0000000000000219
 31
0.0
  0
LINE
  5
E4
330
1E
100
AcDbEntity
  8
0
100
AcDbLine
 10
131.4389999999999
 20
0.000000000000022
 30
0.0
 11
131.4389999999999
 21
2.000000000000019
 31
0.0
  0
LINE
  5
E5
330
1E
100
AcDbEntity
  8
0
100
AcDbLine
 10
131.1399999999999
 20
2.000000000000019
 30
0.0
 11
131.1399999999999
 21
0.000000000000022
 31
0.0
  0
LINE
  5
E6
330
1E
100
AcDbEntity
  8
0
100
AcDbLine
 10
135.6789999999999
 20
2.000000000000019
 30
0.0
 11
135.6789999999999
 21
0.0000000000000217
 31
0.0
  0
LINE
  5
E7
330
1E
100
AcDbEntity
  8
0
100
AcDbLine
 10
132.616
 20
2.000000000000019
 30
0.0
 11
132.616
 21
0.000000000000022
 31
0.0
  0
LINE
  5
E8
330
1E
100
AcDbEntity
  8
0
100
AcDbLine
 10
135.031
 20
2.000000000000019
 30
0.0
 11
135.031
 21
0.0000000000000217
 31
0.0
  0
LINE
  5
E9
330
1E
100
AcDbEntity
  8
0
100
AcDbLine
 10
135.031
 20
2.000000000000019
 30
0.0
 11
135.6789999999999
 21
2.000000000000019
 31
0.0
  0
LINE
  5
EA
330
1E
100
AcDbEntity
  8
0
100
AcDbLine
 10
131.4389999999999
 20
2.000000000000019
 30
0.0
 11
131.4389999999999
 21
0.000000000000022
 31
0.0
  0
LINE
  5
EB
330
1E
100
AcDbEntity
  8
0
100
AcDbLine
 10
130.8249999999999
 20
0.000000000000022
 30
0.0
 11
131.1399999999999
 21
0.000000000000022
 31
0.0
  0
LINE
  5
EC
330
1E
100
AcDbEntity
  8
0
100
AcDbLine
 10
130.8249999999999
 20
0.000000000000022
 30
0.0
 11
130.8249999999999
 21
2.000000000000019
 31
0.0
  0
LINE
  5
ED
330
1E
100
AcDbEntity
  8
0
100
AcDbLine
 10
137.4689999999999
 20
2.000000000000019
 30
0.0
 11
137.4689999999999
 21
0.0000000000000217
 31
0.0
  0
LINE
  5
EE
330
1E
100
AcDbEntity
  8
0
100
AcDbLine
 10
137.4689999999999
 20
2.000000000000019
 30
0.0
 11
139.8839999999999
 21
2.000000000000019
 31
0.0
  0
LINE
  5
EF
330
1E
100
AcDbEntity
  8
0
100
AcDbLine
 10
136.417
 20
2.000000000000019
 30
0.0
 11
136.417
 21
0.0000000000000217
 31
0.0
  0
LINE
  5
F0
330
1E
100
AcDbEntity
  8
0
100
AcDbLine
 10
136.417
 20
2.000000000000019
 30
0.0
 11
137.4689999999999
 21
2.000000000000019
 31
0.0
  0
LINE
  5
F1
330
1E
100
AcDbEntity
  8
0
100
AcDbLine
 10
135.031
 20
0.0000000000000218
 30
0.0
 11
135.6789999999999
 21
0.0000000000000217
 31
0.0
  0
LINE
  5
F2
330
1E
100
AcDbEntity
  8
0
100
AcDbLine
 10
135.031
 20
0.0000000000000218
 30
0.0
 11
135.031
 21
2.000000000000019
 31
0.0
  0
LINE
  5
F3
330
1E
100
AcDbEntity
  8
0
100
AcDbLine
 10
130.4999999999999
 20
2.000000000000019
 30
0.0
 11
150.0
 21
2.000000000000019
 31
0.0
  0
LINE
  5
F4
330
1E
100
AcDbEntity
  8
0
100
AcDbLine
 10
121.12
 20
2.000000000000019
 30
0.0
 11
121.12
 21
0.0000000000000227
 31
0.0
  0
LINE
  5
F5
330
1E
100
AcDbEntity
  8
0
100
AcDbLine
 10
118.0579999999999
 20
2.000000000000019
 30
0.0
 11
118.0579999999999
 21
0.0000000000000227
 31
0.0
  0
LINE
  5
F6
330
1E
100
AcDbEntity
  8
0
100
AcDbLine
 10
120.473
 20
2.000000000000019
 30
0.0
 11
120.473
 21
0.0000000000000227
 31
0.0
  0
LINE
  5
F7
330
1E
100
AcDbEntity
  8
0
100
AcDbLine
 10
117.6679999999999
 20
2.000000000000019
 30
0.0
 11
117.6679999999999
 21
0.0000000000000227
 31
0.0
  0
LINE
  5
F8
330
1E
100
AcDbEntity
  8
0
100
AcDbLine
 10
117.6679999999999
 20
2.000000000000019
 30
0.0
 11
118.0579999999999
 21
2.000000000000019
 31
0.0
  0
LINE
  5
F9
330
1E
100
AcDbEntity
  8
0
100
AcDbLine
 10
121.12
 20
2.000000000000019
 30
0.0
 11
122.911
 21
2.000000000000019
 31
0.0
  0
LINE
  5
FA
330
1E
100
AcDbEntity
  8
0
100
AcDbLine
 10
121.12
 20
2.000000000000019
 30
0.0
 11
121.716
 21
2.000000000000019
 31
0.0
  0
LINE
  5
FB
330
1E
100
AcDbEntity
  8
0
100
AcDbLine
 10
116.267
 20
2.000000000000019
 30
0.0
 11
117.6679999999999
 21
2.000000000000019
 31
0.0
  0
LINE
  5
FC
330
1E
100
AcDbEntity
  8
0
100
AcDbLine
 10
116.267
 20
2.000000000000019
 30
0.0
 11
116.267
 21
0.000000000000023
 31
0.0
  0
LINE
  5
FD
330
1E
100
AcDbEntity
  8
0
100
AcDbLine
 10
92.95749999999999
 20
2.000000000000019
 30
0.0
 11
92.95749999999999
 21
0.0000000000000243
 31
0.0
  0
LINE
  5
FE
330
1E
100
AcDbEntity
  8
0
100
AcDbLine
 10
92.95749999999999
 20
2.000000000000019
 30
0.0
 11
93.125
 21
2.000000000000019
 31
0.0
  0
LINE
  5
FF
330
1E
100
AcDbEntity
  8
0
100
AcDbLine
 10
91.70749999999999
 20
2.000000000000019
 30
0.0
 11
91.70749999999999
 21
0.0000000000000243
 31
0.0
  0
LINE
  5
100
330
1E
100
AcDbEntity
  8
0
100
AcDbLine
 10
91.70749999999999
 20
2.000000000000019
 30
0.0
 11
92.95749999999999
 21
2.000000000000019
 31
0.0
  0
LINE
  5
101
330
1E
100
AcDbEntity
  8
0
100
AcDbLine
 10
93.43149999999999
 20
2.000000000000019
 30
0.0
 11
93.43149999999999
 21
0.0000000000000243
 31
0.0
  0
LINE
  5
102
330
1E
100
AcDbEntity
  8
0
100
AcDbLine
 10
96.49840000000001
 20
2.000000000000019
 30
0.0
 11
96.49840000000001
 21
0.000000000000024
 31
0.0
  0
LINE
  5
103
330
1E
100
AcDbEntity
  8
0
100
AcDbLine
 10
96.49840000000001
 20
2.000000000000019
 30
0.0
 11
98.6635
 21
2.000000000000019
 31
0.0
  0
LINE
  5
104
330
1E
100
AcDbEntity
  8
0
100
AcDbLine
 10
95.24840000000001
 20
2.000000000000019
 30
0.0
 11
95.24840000000001
 21
0.0000000000000243
 31
0.0
  0
LINE
  5
105
330
1E
100
AcDbEntity
  8
0
100
AcDbLine
 10
95.24840000000001
 20
2.000000000000019
 30
0.0
 11
96.49840000000001
 21
2.000000000000019
 31
0.0
  0
LINE
  5
106
330
1E
100
AcDbEntity
  8
0
100
AcDbLine
 10
93.125
 20
2.000000000000019
 30
0.0
 11
111.6249999999999
 21
2.000000000000019
 31
0.0
  0
LINE
  5
107
330
1E
100
AcDbEntity
  8
0
100
AcDbLine
 10
0.0000000000000102
 20
3.000000000000029
 30
0.0
 11
0.0000000000000109
 21
16.0
 31
0.0
  0
LINE
  5
108
330
1E
100
AcDbEntity
  8
0
100
AcDbLine
 10
0.0000000000000102
 20
3.000000000000029
 30
0.0
 11
0.0000000000000109
 21
16.0
 31
0.0
  0
LINE
  5
109
330
1E
100
AcDbEntity
  8
0
100
AcDbLine
 10
0.0000000000000102
 20
3.000000000000029
 30
0.0
 11
1.250000000000009
 21
2.00000000000003
 31
0.0
  0
LINE
  5
10A
330
1E
100
AcDbEntity
  8
0
100
AcDbLine
 10
0.0000000000000102
 20
3.000000000000029
 30
0.0
 11
1.50000000000001
 21
3.000000000000029
 31
0.0
  0
LINE
  5
10B
330
1E
100
AcDbEntity
  8
0
100
AcDbLine
 10
68.68269999999999
 20
2.00000000000003
 30
0.0
 11
68.68269999999999
 21
0.0000000000000258
 31
0.0
  0
LINE
  5
10C
330
1E
100
AcDbEntity
  8
0
100
AcDbLine
 10
66.91500000000001
 20
2.00000000000003
 30
0.0
 11
66.91500000000001
 21
0.0000000000000258
 31
0.0
  0
LINE
  5
10D
330
1E
100
AcDbEntity
  8
0
100
AcDbLine
 10
66.91500000000001
 20
2.00000000000003
 30
0.0
 11
68.68269999999999
 21
2.00000000000003
 31
0.0
  0
LINE
  5
10E
330
1E
100
AcDbEntity
  8
0
100
AcDbLine
 10
71.19499999999999
 20
2.00000000000003
 30
0.0
 11
71.19499999999999
 21
0.0000000000000256
 31
0.0
  0
LINE
  5
10F
330
1E
100
AcDbEntity
  8
0
100
AcDbLine
 10
71.19499999999999
 20
2.00000000000003
 30
0.0
 11
71.842
 21
2.00000000000003
 31
0.0
  0
LINE
  5
110
330
1E
100
AcDbEntity
  8
0
100
AcDbLine
 10
74.2569
 20
2.00000000000003
 30
0.0
 11
74.2569
 21
0.0000000000000256
 31
0.0
  0
LINE
  5
111
330
1E
100
AcDbEntity
  8
0
100
AcDbLine
 10
71.842
 20
2.00000000000003
 30
0.0
 11
71.842
 21
0.0000000000000256
 31
0.0
  0
LINE
  5
112
330
1E
100
AcDbEntity
  8
0
100
AcDbLine
 10
65.1471
 20
2.00000000000003
 30
0.0
 11
65.1471
 21
0.0000000000000261
 31
0.0
  0
LINE
  5
113
330
1E
100
AcDbEntity
  8
0
100
AcDbLine
 10
64.02249999999999
 20
2.00000000000003
 30
0.0
 11
64.02249999999999
 21
0.0000000000000261
 31
0.0
  0
LINE
  5
114
330
1E
100
AcDbEntity
  8
0
100
AcDbLine
 10
68.75
 20
2.00000000000003
 30
0.0
 11
68.75
 21
0.0000000000000258
 31
0.0
  0
LINE
  5
115
330
1E
100
AcDbEntity
  8
0
100
AcDbLine
 10
68.75
 20
2.00000000000003
 30
0.0
 11
71.19499999999999
 21
2.00000000000003
 31
0.0
  0
LINE
  5
116
330
1E
100
AcDbEntity
  8
0
100
AcDbLine
 10
62.7725
 20
2.00000000000003
 30
0.0
 11
62.7725
 21
0.0000000000000261
 31
0.0
  0
LINE
  5
117
330
1E
100
AcDbEntity
  8
0
100
AcDbLine
 10
62.7725
 20
2.00000000000003
 30
0.0
 11
64.02249999999999
 21
2.00000000000003
 31
0.0
  0
LINE
  5
118
330
1E
100
AcDbEntity
  8
0
100
AcDbLine
 10
38.03459999999999
 20
2.00000000000003
 30
0.0
 11
38.03459999999999
 21
0.0000000000000277
 31
0.0
  0
LINE
  5
119
330
1E
100
AcDbEntity
  8
0
100
AcDbLine
 10
33.75
 20
2.00000000000003
 30
0.0
 11
33.75
 21
0.0000000000000279
 31
0.0
  0
LINE
  5
11A
330
1E
100
AcDbEntity
  8
0
100
AcDbLine
 10
33.71159999999999
 20
2.00000000000003
 30
0.0
 11
33.71159999999999
 21
0.0000000000000279
 31
0.0
  0
LINE
  5
11B
330
1E
100
AcDbEntity
  8
0
100
AcDbLine
 10
34.97279999999999
 20
2.00000000000003
 30
0.0
 11
34.97279999999999
 21
0.0000000000000279
 31
0.0
  0
LINE
  5
11C
330
1E
100
AcDbEntity
  8
0
100
AcDbLine
 10
34.97279999999999
 20
2.00000000000003
 30
0.0
 11
35.6199
 21
2.00000000000003
 31
0.0
  0
LINE
  5
11D
330
1E
100
AcDbEntity
  8
0
100
AcDbLine
 10
49.9495
 20
2.00000000000003
 30
0.0
 11
49.9495
 21
0.0000000000000269
 31
0.0
  0
LINE
  5
11E
330
1E
100
AcDbEntity
  8
0
100
AcDbLine
 10
47.7845
 20
2.00000000000003
 30
0.0
 11
47.7845
 21
0.0000000000000271
 31
0.0
  0
LINE
  5
11F
330
1E
100
AcDbEntity
  8
0
100
AcDbLine
 10
47.7845
 20
2.00000000000003
 30
0.0
 11
48.6995
 21
2.00000000000003
 31
0.0
  0
LINE
  5
120
330
1E
100
AcDbEntity
  8
0
100
AcDbLine
 10
53.6567
 20
2.00000000000003
 30
0.0
 11
53.6567
 21
0.0000000000000266
 31
0.0
  0
LINE
  5
121
330
1E
100
AcDbEntity
  8
0
100
AcDbLine
 10
53.6567
 20
2.00000000000003
 30
0.0
 11
55.4245
 21
2.00000000000003
 31
0.0
  0
LINE
  5
122
330
1E
100
AcDbEntity
  8
0
100
AcDbLine
 10
56.1457
 20
2.00000000000003
 30
0.0
 11
56.1457
 21
0.0000000000000266
 31
0.0
  0
LINE
  5
123
330
1E
100
AcDbEntity
  8
0
100
AcDbLine
 10
51.8889
 20
2.00000000000003
 30
0.0
 11
51.8889
 21
0.0000000000000269
 31
0.0
  0
LINE
  5
124
330
1E
100
AcDbEntity
  8
0
100
AcDbLine
 10
51.8889
 20
2.00000000000003
 30
0.0
 11
53.6567
 21
2.00000000000003
 31
0.0
  0
LINE
  5
125
330
1E
100
AcDbEntity
  8
0
100
AcDbLine
 10
53.0839
 20
2.00000000000003
 30
0.0
 11
53.6567
 21
2.00000000000003
 31
0.0
  0
LINE
  5
126
330
1E
100
AcDbEntity
  8
0
100
AcDbLine
 10
53.0839
 20
2.00000000000003
 30
0.0
 11
53.6567
 21
2.00000000000003
 31
0.0
  0
LINE
  5
127
330
1E
100
AcDbEntity
  8
0
100
AcDbLine
 10
55.4245
 20
2.00000000000003
 30
0.0
 11
56.1457
 21
2.00000000000003
 31
0.0
  0
LINE
  5
128
330
1E
100
AcDbEntity
  8
0
100
AcDbLine
 10
55.4245
 20
2.00000000000003
 30
0.0
 11
55.4245
 21
0.0000000000000266
 31
0.0
  0
LINE
  5
129
330
1E
100
AcDbEntity
  8
0
100
AcDbLine
 10
50.0
 20
2.00000000000003
 30
0.0
 11
50.0
 21
0.0000000000000269
 31
0.0
  0
LINE
  5
12A
330
1E
100
AcDbEntity
  8
0
100
AcDbLine
 10
50.0
 20
2.00000000000003
 30
0.0
 11
52.5
 21
2.00000000000003
 31
0.0
  0
LINE
  5
12B
330
1E
100
AcDbEntity
  8
0
100
AcDbLine
 10
46.5345
 20
2.00000000000003
 30
0.0
 11
46.5345
 21
0.0000000000000271
 31
0.0
  0
LINE
  5
12C
330
1E
100
AcDbEntity
  8
0
100
AcDbLine
 10
46.5345
 20
2.00000000000003
 30
0.0
 11
47.7845
 21
2.00000000000003
 31
0.0
  0
LINE
  5
12D
330
1E
100
AcDbEntity
  8
0
100
AcDbLine
 10
45.0
 20
2.00000000000003
 30
0.0
 11
59.625
 21
2.00000000000003
 31
0.0
  0
LINE
  5
12E
330
1E
100
AcDbEntity
  8
0
100
AcDbLine
 10
59.625
 20
2.00000000000003
 30
0.0
 11
76.0
 21
2.00000000000003
 31
0.0
  0
LINE
  5
12F
330
1E
100
AcDbEntity
  8
0
100
AcDbLine
 10
76.0
 20
2.00000000000003
 30
0.0
 11
93.125
 21
2.000000000000019
 31
0.0
  0
LINE
  5
130
330
1E
100
AcDbEntity
  8
0
100
AcDbLine
 10
31.5465
 20
2.00000000000003
 30
0.0
 11
31.5465
 21
0.0000000000000282
 31
0.0
  0
LINE
  5
131
330
1E
100
AcDbEntity
  8
0
100
AcDbLine
 10
31.5465
 20
2.00000000000003
 30
0.0
 11
33.71159999999999
 21
2.00000000000003
 31
0.0
  0
LINE
  5
132
330
1E
100
AcDbEntity
  8
0
100
AcDbLine
 10
31.5465
 20
2.00000000000003
 30
0.0
 11
32.25
 21
2.00000000000003
 31
0.0
  0
LINE
  5
133
330
1E
100
AcDbEntity
  8
0
100
AcDbLine
 10
30.2965
 20
2.00000000000003
 30
0.0
 11
30.2965
 21
0.0000000000000282
 31
0.0
  0
LINE
  5
134
330
1E
100
AcDbEntity
  8
0
100
AcDbLine
 10
30.2965
 20
2.00000000000003
 30
0.0
 11
31.5465
 21
2.00000000000003
 31
0.0
  0
LINE
  5
135
330
1E
100
AcDbEntity
  8
0
100
AcDbLine
 10
32.25
 20
2.00000000000003
 30
0.0
 11
45.0
 21
2.00000000000003
 31
0.0
  0
LINE
  5
136
330
1E
100
AcDbEntity
  8
0
100
AcDbLine
 10
32.46159999999999
 20
2.00000000000003
 30
0.0
 11
34.97279999999999
 21
2.00000000000003
 31
0.0
  0
LINE
  5
137
330
1E
100
AcDbEntity
  8
0
100
AcDbLine
 10
35.6199
 20
2.00000000000003
 30
0.0
 11
45.0
 21
2.00000000000003
 31
0.0
  0
LINE
  5
138
330
1E
100
AcDbEntity
  8
0
100
AcDbLine
 10
35.6199
 20
2.00000000000003
 30
0.0
 11
35.6199
 21
0.0000000000000279
 31
0.0
  0
LINE
  5
139
330
1E
100
AcDbEntity
  8
0
100
AcDbLine
 10
35.6199
 20
2.00000000000003
 30
0.0
 11
38.03459999999999
 21
2.00000000000003
 31
0.0
  0
LINE
  5
13A
330
1E
100
AcDbEntity
  8
0
100
AcDbLine
 10
21.125
 20
2.00000000000003
 30
0.0
 11
30.2965
 21
2.00000000000003
 31
0.0
  0
LINE
  5
13B
330
1E
100
AcDbEntity
  8
0
100
AcDbLine
 10
21.125
 20
2.00000000000003
 30
0.0
 11
32.25
 21
2.00000000000003
 31
0.0
  0
LINE
  5
13C
330
1E
100
AcDbEntity
  8
0
100
AcDbLine
 10
15.0
 20
2.00000000000003
 30
0.0
 11
15.0
 21
0.0000000000000292
 31
0.0
  0
LINE
  5
13D
330
1E
100
AcDbEntity
  8
0
100
AcDbLine
 10
12.5
 20
2.00000000000003
 30
0.0
 11
12.5
 21
0.0000000000000292
 31
0.0
  0
LINE
  5
13E
330
1E
100
AcDbEntity
  8
0
100
AcDbLine
 10
12.5
 20
2.00000000000003
 30
0.0
 11
12.875
 21
2.00000000000003
 31
0.0
  0
LINE
  5
13F
330
1E
100
AcDbEntity
  8
0
100
AcDbLine
 10
12.875
 20
2.00000000000003
 30
0.0
 11
21.125
 21
2.00000000000003
 31
0.0
  0
LINE
  5
140
330
1E
100
AcDbEntity
  8
0
100
AcDbLine
 10
17.5088
 20
2.00000000000003
 30
0.0
 11
17.5088
 21
0.0000000000000289
 31
0.0
  0
LINE
  5
141
330
1E
100
AcDbEntity
  8
0
100
AcDbLine
 10
17.5088
 20
2.00000000000003
 30
0.0
 11
19.9235
 21
2.00000000000003
 31
0.0
  0
LINE
  5
142
330
1E
100
AcDbEntity
  8
0
100
AcDbLine
 10
16.8616
 20
2.00000000000003
 30
0.0
 11
16.8616
 21
0.0000000000000289
 31
0.0
  0
LINE
  5
143
330
1E
100
AcDbEntity
  8
0
100
AcDbLine
 10
15.0
 20
2.00000000000003
 30
0.0
 11
16.8616
 21
2.00000000000003
 31
0.0
  0
LINE
  5
144
330
1E
100
AcDbEntity
  8
0
100
AcDbLine
 10
19.9235
 20
2.00000000000003
 30
0.0
 11
21.125
 21
2.00000000000003
 31
0.0
  0
LINE
  5
145
330
1E
100
AcDbEntity
  8
0
100
AcDbLine
 10
19.9235
 20
2.00000000000003
 30
0.0
 11
19.9235
 21
0.0000000000000287
 31
0.0
  0
LINE
  5
146
330
1E
100
AcDbEntity
  8
0
100
AcDbLine
 10
6.625000000000009
 20
2.00000000000003
 30
0.0
 11
12.5
 21
2.00000000000003
 31
0.0
  0
LINE
  5
147
330
1E
100
AcDbEntity
  8
0
100
AcDbLine
 10
6.625000000000009
 20
2.00000000000003
 30
0.0
 11
12.875
 21
2.00000000000003
 31
0.0
  0
LINE
  5
148
330
1E
100
AcDbEntity
  8
0
100
AcDbLine
 10
1.50000000000001
 20
3.000000000000029
 30
0.0
 11
5.375000000000009
 21
3.000000000000029
 31
0.0
  0
LINE
  5
149
330
1E
100
AcDbEntity
  8
0
100
AcDbLine
 10
44.125
 20
3.000000000000029
 30
0.0
 11
58.875
 21
3.000000000000029
 31
0.0
  0
LINE
  5
14A
330
1E
100
AcDbEntity
  8
0
100
AcDbLine
 10
58.875
 20
3.000000000000029
 30
0.0
 11
75.375
 21
3.000000000000029
 31
0.0
  0
LINE
  5
14B
330
1E
100
AcDbEntity
  8
0
100
AcDbLine
 10
75.375
 20
3.000000000000029
 30
0.0
 11
92.75
 21
3.00000000000002
 31
0.0
  0
LINE
  5
14C
330
1E
100
AcDbEntity
  8
0
100
AcDbLine
 10
31.25
 20
3.000000000000029
 30
0.0
 11
44.125
 21
3.000000000000029
 31
0.0
  0
LINE
  5
14D
330
1E
100
AcDbEntity
  8
0
100
AcDbLine
 10
20.125
 20
3.000000000000029
 30
0.0
 11
31.25
 21
3.000000000000029
 31
0.0
  0
LINE
  5
14E
330
1E
100
AcDbEntity
  8
0
100
AcDbLine
 10
11.75
 20
3.000000000000029
 30
0.0
 11
20.125
 21
3.000000000000029
 31
0.0
  0
LINE
  5
14F
330
1E
100
AcDbEntity
  8
0
100
AcDbLine
 10
5.375000000000009
 20
3.000000000000029
 30
0.0
 11
11.75
 21
3.000000000000029
 31
0.0
  0
LINE
  5
150
330
1E
100
AcDbEntity
  8
0
100
AcDbLine
 10
1.50000000000001
 20
3.000000000000029
 30
0.0
 11
5.375000000000009
 21
3.000000000000029
 31
0.0
  0
LINE
  5
151
330
1E
100
AcDbEntity
  8
0
100
AcDbLine
 10
2.750000000000009
 20
2.00000000000003
 30
0.0
 11
6.625000000000009
 21
2.00000000000003
 31
0.0
  0
LINE
  5
152
330
1E
100
AcDbEntity
  8
0
100
AcDbLine
 10
1.250000000000009
 20
2.00000000000003
 30
0.0
 11
2.750000000000009
 21
2.00000000000003
 31
0.0
  0
LINE
  5
153
330
1E
100
AcDbEntity
  8
0
100
AcDbLine
 10
0.0000000000000108
 20
16.0
 30
0.0
 11
1.50000000000001
 21
16.0
 31
0.0
  0
LINE
  5
154
330
1E
100
AcDbEntity
  8
0
100
AcDbLine
 10
0.0000000000000108
 20
16.0
 30
0.0
 11
1.250000000000009
 21
17.0
 31
0.0
  0
LINE
  5
155
330
1E
100
AcDbEntity
  8
0
100
AcDbLine
 10
1.250000000000009
 20
17.0
 30
0.0
 11
2.750000000000009
 21
17.0
 31
0.0
  0
LINE
  5
156
330
1E
100
AcDbEntity
  8
0
100
AcDbLine
 10
44.125
 20
16.0
 30
0.0
 11
58.875
 21
16.0
 31
0.0
  0
LINE
  5
157
330
1E
100
AcDbEntity
  8
0
100
AcDbLine
 10
58.875
 20
16.0
 30
0.0
 11
75.375
 21
16.0
 31
0.0
  0
LINE
  5
158
330
1E
100
AcDbEntity
  8
0
100
AcDbLine
 10
75.375
 20
16.0
 30
0.0
 11
92.75
 21
16.0
 31
0.0
  0
LINE
  5
159
330
1E
100
AcDbEntity
  8
0
100
AcDbLine
 10
31.25
 20
16.0
 30
0.0
 11
44.125
 21
16.0
 31
0.0
  0
LINE
  5
15A
330
1E
100
AcDbEntity
  8
0
100
AcDbLine
 10
20.125
 20
16.0
 30
0.0
 11
31.25
 21
16.0
 31
0.0
  0
LINE
  5
15B
330
1E
100
AcDbEntity
  8
0
100
AcDbLine
 10
11.75
 20
16.0
 30
0.0
 11
20.125
 21
16.0
 31
0.0
  0
LINE
  5
15C
330
1E
100
AcDbEntity
  8
0
100
AcDbLine
 10
45.0
 20
17.0
 30
0.0
 11
59.625
 21
17.0
 31
0.0
  0
LINE
  5
15D
330
1E
100
AcDbEntity
  8
0
100
AcDbLine
 10
59.625
 20
17.0
 30
0.0
 11
76.0
 21
17.0
 31
0.0
  0
LINE
  5
15E
330
1E
100
AcDbEntity
  8
0
100
AcDbLine
 10
32.25
 20
17.0
 30
0.0
 11
45.0
 21
17.0
 31
0.0
  0
LINE
  5
15F
330
1E
100
AcDbEntity
  8
0
100
AcDbLine
 10
12.875
 20
17.0
 30
0.0
 11
21.125
 21
17.0
 31
0.0
  0
LINE
  5
160
330
1E
100
AcDbEntity
  8
0
100
AcDbLine
 10
6.625000000000009
 20
17.0
 30
0.0
 11
12.875
 21
17.0
 31
0.0
  0
LINE
  5
161
330
1E
100
AcDbEntity
  8
0
100
AcDbLine
 10
2.750000000000009
 20
17.0
 30
0.0
 11
6.625000000000009
 21
17.0
 31
0.0
  0
LINE
  5
162
330
1E
100
AcDbEntity
  8
0
100
AcDbLine
 10
5.375000000000009
 20
16.0
 30
0.0
 11
11.75
 21
16.0
 31
0.0
  0
LINE
  5
163
330
1E
100
AcDbEntity
  8
0
100
AcDbLine
 10
1.50000000000001
 20
16.0
 30
0.0
 11
5.375000000000009
 21
16.0
 31
0.0
  0
LINE
  5
164
330
1E
100
AcDbEntity
  8
0
100
AcDbLine
 10
21.125
 20
17.0
 30
0.0
 11
32.25
 21
17.0
 31
0.0
  0
LINE
  5
165
330
1E
100
AcDbEntity
  8
0
100
AcDbLine
 10
0.0000000000000109
 20
16.0
 30
0.0
 11
1.250000000000009
 21
17.0
 31
0.0
  0
LINE
  5
166
330
1E
100
AcDbEntity
  8
0
100
AcDbLine
 10
0.0000000000000109
 20
16.0
 30
0.0
 11
1.50000000000001
 21
16.0
 31
0.0
  0
LINE
  5
167
330
1E
100
AcDbEntity
  8
0
100
AcDbLine
 10
0.00000000000001
 20
3.000000000000029
 30
0.0
 11
1.250000000000009
 21
2.00000000000003
 31
0.0
  0
LINE
  5
168
330
1E
100
AcDbEntity
  8
0
100
AcDbLine
 10
0.00000000000001
 20
3.000000000000029
 30
0.0
 11
1.50000000000001
 21
3.000000000000029
 31
0.0
  0
LINE
  5
169
330
1E
100
AcDbEntity
  8
0
100
AcDbLine
 10
89.5425
 20
2.000000000000019
 30
0.0
 11
89.5425
 21
0.0000000000000246
 31
0.0
  0
LINE
  5
16A
330
1E
100
AcDbEntity
  8
0
100
AcDbLine
 10
87.5
 20
2.000000000000019
 30
0.0
 11
87.5
 21
0.0000000000000246
 31
0.0
  0
LINE
  5
16B
330
1E
100
AcDbEntity
  8
0
100
AcDbLine
 10
87.5
 20
2.000000000000019
 30
0.0
 11
89.30609999999999
 21
2.000000000000019
 31
0.0
  0
LINE
  5
16C
330
1E
100
AcDbEntity
  8
0
100
AcDbLine
 10
80.1675
 20
2.000000000000019
 30
0.0
 11
80.1675
 21
0.0000000000000251
 31
0.0
  0
LINE
  5
16D
330
1E
100
AcDbEntity
  8
0
100
AcDbLine
 10
83.58249999999999
 20
2.000000000000019
 30
0.0
 11
83.58249999999999
 21
0.0000000000000248
 31
0.0
  0
LINE
  5
16E
330
1E
100
AcDbEntity
  8
0
100
AcDbLine
 10
82.33249999999999
 20
2.000000000000019
 30
0.0
 11
82.33249999999999
 21
0.0000000000000251
 31
0.0
  0
LINE
  5
16F
330
1E
100
AcDbEntity
  8
0
100
AcDbLine
 10
89.30609999999999
 20
2.000000000000019
 30
0.0
 11
89.30609999999999
 21
0.0000000000000246
 31
0.0
  0
LINE
  5
170
330
1E
100
AcDbEntity
  8
0
100
AcDbLine
 10
78.4054
 20
2.00000000000003
 30
0.0
 11
78.4054
 21
0.0000000000000253
 31
0.0
  0
LINE
  5
171
330
1E
100
AcDbEntity
  8
0
100
AcDbLine
 10
78.4054
 20
2.00000000000003
 30
0.0
 11
80.1675
 21
2.000000000000019
 31
0.0
  0
LINE
  5
172
330
1E
100
AcDbEntity
  8
0
100
AcDbLine
 10
93.125
 20
17.0
 30
0.0
 11
111.6249999999999
 21
17.0
 31
0.0
  0
LINE
  5
173
330
1E
100
AcDbEntity
  8
0
100
AcDbLine
 10
92.75
 20
16.0
 30
0.0
 11
111.25
 21
16.0
 31
0.0
  0
LINE
  5
174
330
1E
100
AcDbEntity
  8
0
100
AcDbLine
 10
92.75
 20
3.00000000000002
 30
0.0
 11
111.25
 21
3.00000000000002
 31
0.0
  0
LINE
  5
175
330
1E
100
AcDbEntity
  8
0
100
AcDbLine
 10
76.0
 20
17.0
 30
0.0
 11
93.125
 21
17.0
 31
0.0
  0
LINE
  5
176
330
1E
100
AcDbEntity
  8
0
100
AcDbLine
 10
95.1992
 20
2.000000000000019
 30
0.0
 11
95.1992
 21
0.0000000000000243
 31
0.0
  0
LINE
  5
177
330
1E
100
AcDbEntity
  8
0
100
AcDbLine
 10
101.082
 20
2.000000000000019
 30
0.0
 11
101.082
 21
0.0000000000000238
 31
0.0
  0
LINE
  5
178
330
1E
100
AcDbEntity
  8
0
100
AcDbLine
 10
101.082
 20
2.000000000000019
 30
0.0
 11
102.332
 21
2.000000000000019
 31
0.0
  0
LINE
  5
179
330
1E
100
AcDbEntity
  8
0
100
AcDbLine
 10
108.2929999999999
 20
2.000000000000019
 30
0.0
 11
108.2929999999999
 21
0.0000000000000235
 31
0.0
  0
LINE
  5
17A
330
1E
100
AcDbEntity
  8
0
100
AcDbLine
 10
106.6899999999999
 20
2.000000000000019
 30
0.0
 11
106.6899999999999
 21
0.0000000000000235
 31
0.0
  0
LINE
  5
17B
330
1E
100
AcDbEntity
  8
0
100
AcDbLine
 10
104.922
 20
2.000000000000019
 30
0.0
 11
104.922
 21
0.0000000000000235
 31
0.0
  0
LINE
  5
17C
330
1E
100
AcDbEntity
  8
0
100
AcDbLine
 10
104.922
 20
2.000000000000019
 30
0.0
 11
106.6899999999999
 21
2.000000000000019
 31
0.0
  0
LINE
  5
17D
330
1E
100
AcDbEntity
  8
0
100
AcDbLine
 10
98.91750000000001
 20
2.000000000000019
 30
0.0
 11
98.91750000000001
 21
0.000000000000024
 31
0.0
  0
LINE
  5
17E
330
1E
100
AcDbEntity
  8
0
100
AcDbLine
 10
120.0
 20
17.0
 30
0.0
 11
125.0
 21
21.6154
 31
0.0
  0
LINE
  5
17F
330
1E
100
AcDbEntity
  8
0
100
AcDbLine
 10
120.0
 20
17.0
 30
0.0
 11
121.08
 21
17.0
 31
0.0
  0
LINE
  5
180
330
1E
100
AcDbEntity
  8
0
100
AcDbLine
 10
121.08
 20
17.0
 30
0.0
 11
123.96
 21
17.0
 31
0.0
  0
LINE
  5
181
330
1E
100
AcDbEntity
  8
0
100
AcDbLine
 10
125.6
 20
22.0
 30
0.0
 11
126.5
 21
22.0
 31
0.0
  0
LINE
  5
182
330
1E
100
AcDbEntity
  8
0
100
AcDbLine
 10
126.5
 20
22.0
 30
0.0
 11
128.9
 21
22.0
 31
0.0
  0
LINE
  5
183
330
1E
100
AcDbEntity
  8
0
100
AcDbLine
 10
128.9
 20
22.0
 30
0.0
 11
132.8
 21
22.0
 31
0.0
  0
LINE
  5
184
330
1E
100
AcDbEntity
  8
0
100
AcDbLine
 10
125.0
 20
21.6154
 30
0.0
 11
125.6
 21
22.0
 31
0.0
  0
LINE
  5
185
330
1E
100
AcDbEntity
  8
0
100
AcDbLine
 10
130.0
 20
32.38459999999999
 30
0.0
 11
130.0
 21
41.6154
 31
0.0
  0
LINE
  5
186
330
1E
100
AcDbEntity
  8
0
100
AcDbLine
 10
130.0
 20
32.38459999999999
 30
0.0
 11
130.4799999999999
 21
32.0
 31
0.0
  0
LINE
  5
187
330
1E
100
AcDbEntity
  8
0
100
AcDbLine
 10
130.0
 20
32.38459999999999
 30
0.0
 11
130.7199999999999
 21
32.38459999999999
 31
0.0
  0
LINE
  5
188
330
1E
100
AcDbEntity
  8
0
100
AcDbLine
 10
130.0
 20
41.6154
 30
0.0
 11
130.4799999999999
 21
42.0
 31
0.0
  0
LINE
  5
189
330
1E
100
AcDbEntity
  8
0
100
AcDbLine
 10
130.0
 20
41.6154
 30
0.0
 11
130.0
 21
32.38459999999999
 31
0.0
  0
LINE
  5
18A
330
1E
100
AcDbEntity
  8
0
100
AcDbLine
 10
130.0
 20
41.6154
 30
0.0
 11
130.7199999999999
 21
41.6154
 31
0.0
  0
LINE
  5
18B
330
1E
100
AcDbEntity
  8
0
100
AcDbLine
 10
130.0
 20
22.38459999999999
 30
0.0
 11
130.0
 21
31.6154
 31
0.0
  0
LINE
  5
18C
330
1E
100
AcDbEntity
  8
0
100
AcDbLine
 10
130.0
 20
22.38459999999999
 30
0.0
 11
130.4799999999999
 21
22.0
 31
0.0
  0
LINE
  5
18D
330
1E
100
AcDbEntity
  8
0
100
AcDbLine
 10
130.0
 20
22.38459999999999
 30
0.0
 11
130.7199999999999
 21
22.38459999999999
 31
0.0
  0
LINE
  5
18E
330
1E
100
AcDbEntity
  8
0
100
AcDbLine
 10
130.4799999999999
 20
42.0
 30
0.0
 11
131.1999999999999
 21
42.0
 31
0.0
  0
LINE
  5
18F
330
1E
100
AcDbEntity
  8
0
100
AcDbLine
 10
130.4799999999999
 20
32.0
 30
0.0
 11
131.1999999999999
 21
32.0
 31
0.0
  0
LINE
  5
190
330
1E
100
AcDbEntity
  8
0
100
AcDbLine
 10
130.0
 20
31.6154
 30
0.0
 11
130.4799999999999
 21
32.0
 31
0.0
  0
LINE
  5
191
330
1E
100
AcDbEntity
  8
0
100
AcDbLine
 10
130.0
 20
31.6154
 30
0.0
 11
130.0
 21
22.38459999999999
 31
0.0
  0
LINE
  5
192
330
1E
100
AcDbEntity
  8
0
100
AcDbLine
 10
130.0
 20
31.6154
 30
0.0
 11
130.7199999999999
 21
31.6154
 31
0.0
  0
LINE
  5
193
330
1E
100
AcDbEntity
  8
0
100
AcDbLine
 10
111.6249999999999
 20
17.0
 30
0.0
 11
130.4999999999999
 21
17.0
 31
0.0
  0
LINE
  5
194
330
1E
100
AcDbEntity
  8
0
100
AcDbLine
 10
130.4999999999999
 20
17.0
 30
0.0
 11
150.0
 21
17.0
 31
0.0
  0
LINE
  5
195
330
1E
100
AcDbEntity
  8
0
100
AcDbLine
 10
111.25
 20
16.0
 30
0.0
 11
130.4999999999999
 21
16.0
 31
0.0
  0
LINE
  5
196
330
1E
100
AcDbEntity
  8
0
100
AcDbLine
 10
130.4999999999999
 20
16.0
 30
0.0
 11
150.0
 21
16.0
 31
0.0
  0
LINE
  5
197
330
1E
100
AcDbEntity
  8
0
100
AcDbLine
 10
111.25
 20
3.00000000000002
 30
0.0
 11
130.4999999999999
 21
3.00000000000002
 31
0.0
  0
LINE
  5
198
330
1E
100
AcDbEntity
  8
0
100
AcDbLine
 10
130.7199999999999
 20
22.38459999999999
 30
0.0
 11
132.6399999999999
 21
22.38459999999999
 31
0.0
  0
LINE
  5
199
330
1E
100
AcDbEntity
  8
0
100
AcDbLine
 10
132.8
 20
22.0
 30
0.0
 11
137.9
 21
22.0
 31
0.0
  0
LINE
  5
19A
330
1E
100
AcDbEntity
  8
0
100
AcDbLine
 10
137.9
 20
22.0
 30
0.0
 11
143.6999999999999
 21
22.0
 31
0.0
  0
LINE
  5
19B
330
1E
100
AcDbEntity
  8
0
100
AcDbLine
 10
132.6399999999999
 20
22.38459999999999
 30
0.0
 11
135.84
 21
22.38459999999999
 31
0.0
  0
LINE
  5
19C
330
1E
100
AcDbEntity
  8
0
100
AcDbLine
 10
130.7199999999999
 20
31.6154
 30
0.0
 11
132.6399999999999
 21
31.6154
 31
0.0
  0
LINE
  5
19D
330
1E
100
AcDbEntity
  8
0
100
AcDbLine
 10
130.7199999999999
 20
41.6154
 30
0.0
 11
132.6399999999999
 21
41.6154
 31
0.0
  0
LINE
  5
19E
330
1E
100
AcDbEntity
  8
0
100
AcDbLine
 10
130.7199999999999
 20
32.38459999999999
 30
0.0
 11
132.6399999999999
 21
32.38459999999999
 31
0.0
  0
LINE
  5
19F
330
1E
100
AcDbEntity
  8
0
100
AcDbLine
 10
131.1999999999999
 20
42.0
 30
0.0
 11
133.12
 21
42.0
 31
0.0
  0
LINE
  5
1A0
330
1E
100
AcDbEntity
  8
0
100
AcDbLine
 10
132.6399999999999
 20
41.6154
 30
0.0
 11
135.84
 21
41.6154
 31
0.0
  0
LINE
  5
1A1
330
1E
100
AcDbEntity
  8
0
100
AcDbLine
 10
133.12
 20
42.0
 30
0.0
 11
136.24
 21
42.0
 31
0.0
  0
LINE
  5
1A2
330
1E
100
AcDbEntity
  8
0
100
AcDbLine
 10
132.6399999999999
 20
32.38459999999999
 30
0.0
 11
135.84
 21
32.38459999999999
 31
0.0
  0
LINE
  5
1A3
330
1E
100
AcDbEntity
  8
0
100
AcDbLine
 10
131.1999999999999
 20
32.0
 30
0.0
 11
133.12
 21
32.0
 31
0.0
  0
LINE
  5
1A4
330
1E
100
AcDbEntity
  8
0
100
AcDbLine
 10
135.0
 20
42.0
 30
0.0
 11
141.1151513395259
 21
47.7070941106167
 31
0.0
  0
LINE
  5
1A5
330
1E
100
AcDbEntity
  8
0
100
AcDbLine
 10
135.84
 20
41.6154
 30
0.0
 11
140.08
 21
41.6154
 31
0.0
  0
LINE
  5
1A6
330
1E
100
AcDbEntity
  8
0
100
AcDbLine
 10
135.84
 20
32.38459999999999
 30
0.0
 11
140.08
 21
32.38459999999999
 31
0.0
  0
LINE
  5
1A7
330
1E
100
AcDbEntity
  8
0
100
AcDbLine
 10
133.12
 20
32.0
 30
0.0
 11
136.24
 21
32.0
 31
0.0
  0
LINE
  5
1A8
330
1E
100
AcDbEntity
  8
0
100
AcDbLine
 10
132.6399999999999
 20
31.6154
 30
0.0
 11
135.84
 21
31.6154
 31
0.0
  0
LINE
  5
1A9
330
1E
100
AcDbEntity
  8
0
100
AcDbLine
 10
137.312
 20
52.0
 30
0.0
 11
137.78
 21
52.0
 31
0.0
  0
LINE
  5
1AA
330
1E
100
AcDbEntity
  8
0
100
AcDbLine
 10
137.78
 20
52.0
 30
0.0
 11
138.0
 21
52.0
 31
0.0
  0
LINE
  5
1AB
330
1E
100
AcDbEntity
  8
0
100
AcDbLine
 10
137.78
 20
52.0
 30
0.0
 11
139.0279999999999
 21
52.0
 31
0.0
  0
LINE
  5
1AC
330
1E
100
AcDbEntity
  8
0
100
AcDbLine
 10
137.0
 20
52.38459999999999
 30
0.0
 11
137.0
 21
61.6154
 31
0.0
  0
LINE
  5
1AD
330
1E
100
AcDbEntity
  8
0
100
AcDbLine
 10
137.0
 20
52.38459999999999
 30
0.0
 11
137.312
 21
52.0
 31
0.0
  0
LINE
  5
1AE
330
1E
100
AcDbEntity
  8
0
100
AcDbLine
 10
137.0
 20
52.38459999999999
 30
0.0
 11
137.4679999999999
 21
52.38459999999999
 31
0.0
  0
LINE
  5
1AF
330
1E
100
AcDbEntity
  8
0
100
AcDbLine
 10
137.312
 20
62.0
 30
0.0
 11
137.78
 21
62.0
 31
0.0
  0
LINE
  5
1B0
330
1E
100
AcDbEntity
  8
0
100
AcDbLine
 10
137.78
 20
62.0
 30
0.0
 11
139.0279999999999
 21
62.0
 31
0.0
  0
LINE
  5
1B1
330
1E
100
AcDbEntity
  8
0
100
AcDbLine
 10
137.4679999999999
 20
61.6154
 30
0.0
 11
138.716
 21
61.6154
 31
0.0
  0
LINE
  5
1B2
330
1E
100
AcDbEntity
  8
0
100
AcDbLine
 10
137.4679999999999
 20
52.38459999999999
 30
0.0
 11
138.716
 21
52.38459999999999
 31
0.0
  0
LINE
  5
1B3
330
1E
100
AcDbEntity
  8
0
100
AcDbLine
 10
137.0
 20
61.6154
 30
0.0
 11
137.312
 21
62.0
 31
0.0
  0
LINE
  5
1B4
330
1E
100
AcDbEntity
  8
0
100
AcDbLine
 10
137.0
 20
61.6154
 30
0.0
 11
137.0
 21
52.38459999999999
 31
0.0
  0
LINE
  5
1B5
330
1E
100
AcDbEntity
  8
0
100
AcDbLine
 10
137.0
 20
61.6154
 30
0.0
 11
137.4679999999999
 21
61.6154
 31
0.0
  0
LINE
  5
1B6
330
1E
100
AcDbEntity
  8
0
100
AcDbLine
 10
138.0
 20
52.0
 30
0.0
 11
138.507
 21
50.8837
 31
0.0
  0
LINE
  5
1B7
330
1E
100
AcDbEntity
  8
0
100
AcDbLine
 10
138.0
 20
52.0
 30
0.0
 11
138.426
 21
52.0
 31
0.0
  0
LINE
  5
1B8
330
1E
100
AcDbEntity
  8
0
100
AcDbLine
 10
136.24
 20
42.0
 30
0.0
 11
140.32
 21
42.0
 31
0.0
  0
LINE
  5
1B9
330
1E
100
AcDbEntity
  8
0
100
AcDbLine
 10
136.24
 20
32.0
 30
0.0
 11
140.32
 21
32.0
 31
0.0
  0
LINE
  5
1BA
330
1E
100
AcDbEntity
  8
0
100
AcDbLine
 10
135.84
 20
31.6154
 30
0.0
 11
140.08
 21
31.6154
 31
0.0
  0
LINE
  5
1BB
330
1E
100
AcDbEntity
  8
0
100
AcDbLine
 10
135.84
 20
22.38459999999999
 30
0.0
 11
140.08
 21
22.38459999999999
 31
0.0
  0
LINE
  5
1BC
330
1E
100
AcDbEntity
  8
0
100
AcDbLine
 10
130.4999999999999
 20
3.00000000000002
 30
0.0
 11
150.0
 21
3.00000000000002
 31
0.0
  0
LINE
  5
1BD
330
1E
100
AcDbEntity
  8
0
100
AcDbLine
 10
102.332
 20
2.000000000000019
 30
0.0
 11
104.922
 21
2.000000000000019
 31
0.0
  0
LINE
  5
1BE
330
1E
100
AcDbEntity
  8
0
100
AcDbLine
 10
102.332
 20
2.000000000000019
 30
0.0
 11
102.332
 21
0.0000000000000238
 31
0.0
  0
LINE
  5
1BF
330
1E
100
AcDbEntity
  8
0
100
AcDbLine
 10
98.6635
 20
2.000000000000019
 30
0.0
 11
100.1679999999999
 21
2.000000000000019
 31
0.0
  0
LINE
  5
1C0
330
1E
100
AcDbEntity
  8
0
100
AcDbLine
 10
98.6635
 20
2.000000000000019
 30
0.0
 11
98.6635
 21
0.000000000000024
 31
0.0
  0
LINE
  5
1C1
330
1E
100
AcDbEntity
  8
0
100
AcDbLine
 10
111.707
 20
2.000000000000019
 30
0.0
 11
112.736
 21
2.000000000000019
 31
0.0
  0
LINE
  5
1C2
330
1E
100
AcDbEntity
  8
0
100
AcDbLine
 10
111.707
 20
2.000000000000019
 30
0.0
 11
112.736
 21
2.000000000000019
 31
0.0
  0
LINE
  5
1C3
330
1E
100
AcDbEntity
  8
0
100
AcDbLine
 10
111.707
 20
2.000000000000019
 30
0.0
 11
111.707
 21
0.0000000000000233
 31
0.0
  0
LINE
  5
1C4
330
1E
100
AcDbEntity
  8
0
100
AcDbLine
 10
138.116
 20
0.0000000000000216
 30
0.0
 11
139.8839999999999
 21
0.0000000000000215
 31
0.0
  0
LINE
  5
1C5
330
1E
100
AcDbEntity
  8
0
100
AcDbLine
 10
138.583
 20
0.0000000000000215
 30
0.0
 11
139.833
 21
0.0000000000000215
 31
0.0
  0
LINE
  5
1C6
330
1E
100
AcDbEntity
  8
0
100
AcDbLine
 10
144.792
 20
0.0000000000000212
 30
0.0
 11
145.752
 21
0.0000000000000211
 31
0.0
  0
LINE
  5
1C7
330
1E
100
AcDbEntity
  8
0
100
AcDbLine
 10
145.3839999999999
 20
0.0000000000000212
 30
0.0
 11
145.3839999999999
 21
2.000000000000019
 31
0.0
  0
LINE
  5
1C8
330
1E
100
AcDbEntity
  8
0
100
AcDbLine
 10
144.738
 20
0.0000000000000212
 30
0.0
 11
145.3839999999999
 21
0.0000000000000211
 31
0.0
  0
LINE
  5
1C9
330
1E
100
AcDbEntity
  8
0
100
AcDbLine
 10
144.738
 20
0.0000000000000212
 30
0.0
 11
144.738
 21
2.000000000000019
 31
0.0
  0
LINE
  5
1CA
330
1E
100
AcDbEntity
  8
0
100
AcDbLine
 10
148.4639999999999
 20
0.0000000000000209
 30
0.0
 11
150.0
 21
0.0000000000000209
 31
0.0
  0
LINE
  5
1CB
330
1E
100
AcDbEntity
  8
0
100
AcDbLine
 10
145.752
 20
0.0000000000000211
 30
0.0
 11
147.0239999999999
 21
0.000000000000021
 31
0.0
  0
LINE
  5
1CC
330
1E
100
AcDbEntity
  8
0
100
AcDbLine
 10
147.0239999999999
 20
0.000000000000021
 30
0.0
 11
148.4639999999999
 21
0.0000000000000209
 31
0.0
  0
LINE
  5
1CD
330
1E
100
AcDbEntity
  8
0
100
AcDbLine
 10
145.3839999999999
 20
0.0000000000000211
 30
0.0
 11
145.3839999999999
 21
2.000000000000019
 31
0.0
  0
LINE
  5
1CE
330
1E
100
AcDbEntity
  8
0
100
AcDbLine
 10
139.8839999999999
 20
0.0000000000000215
 30
0.0
 11
140.531
 21
0.0000000000000214
 31
0.0
  0
LINE
  5
1CF
330
1E
100
AcDbEntity
  8
0
100
AcDbLine
 10
139.8839999999999
 20
0.0000000000000215
 30
0.0
 11
139.8839999999999
 21
2.000000000000019
 31
0.0
  0
LINE
  5
1D0
330
1E
100
AcDbEntity
  8
0
100
AcDbLine
 10
147.0239999999999
 20
2.000000000000019
 30
0.0
 11
148.4639999999999
 21
2.000000000000019
 31
0.0
  0
LINE
  5
1D1
330
1E
100
AcDbEntity
  8
0
100
AcDbLine
 10
148.4639999999999
 20
2.000000000000019
 30
0.0
 11
150.0
 21
2.000000000000019
 31
0.0
  0
LINE
  5
1D2
330
1E
100
AcDbEntity
  8
0
100
AcDbLine
 10
140.531
 20
0.0000000000000214
 30
0.0
 11
140.531
 21
2.000000000000019
 31
0.0
  0
LINE
  5
1D3
330
1E
100
AcDbEntity
  8
0
100
AcDbLine
 10
142.322
 20
0.0000000000000213
 30
0.0
 11
142.322
 21
2.000000000000019
 31
0.0
  0
LINE
  5
1D4
330
1E
100
AcDbEntity
  8
0
100
AcDbLine
 10
142.322
 20
0.0000000000000213
 30
0.0
 11
144.738
 21
0.0000000000000212
 31
0.0
  0
LINE
  5
1D5
330
1E
100
AcDbEntity
  8
0
100
AcDbLine
 10
139.833
 20
0.0000000000000215
 30
0.0
 11
139.8839999999999
 21
0.0000000000000215
 31
0.0
  0
LINE
  5
1D6
330
1E
100
AcDbEntity
  8
0
100
AcDbLine
 10
140.531
 20
2.000000000000019
 30
0.0
 11
140.531
 21
0.0000000000000215
 31
0.0
  0
LINE
  5
1D7
330
1E
100
AcDbEntity
  8
0
100
AcDbLine
 10
139.8839999999999
 20
2.000000000000019
 30
0.0
 11
139.8839999999999
 21
0.0000000000000215
 31
0.0
  0
LINE
  5
1D8
330
1E
100
AcDbEntity
  8
0
100
AcDbLine
 10
139.8839999999999
 20
2.000000000000019
 30
0.0
 11
140.531
 21
2.000000000000019
 31
0.0
  0
LINE
  5
1D9
330
1E
100
AcDbEntity
  8
0
100
AcDbLine
 10
145.752
 20
2.000000000000019
 30
0.0
 11
147.0239999999999
 21
2.000000000000019
 31
0.0
  0
LINE
  5
1DA
330
1E
100
AcDbEntity
  8
0
100
AcDbLine
 10
144.738
 20
2.000000000000019
 30
0.0
 11
144.738
 21
0.0000000000000212
 31
0.0
  0
LINE
  5
1DB
330
1E
100
AcDbEntity
  8
0
100
AcDbLine
 10
144.738
 20
2.000000000000019
 30
0.0
 11
145.3839999999999
 21
2.000000000000019
 31
0.0
  0
LINE
  5
1DC
330
1E
100
AcDbEntity
  8
0
100
AcDbLine
 10
142.322
 20
2.000000000000019
 30
0.0
 11
142.322
 21
0.0000000000000212
 31
0.0
  0
LINE
  5
1DD
330
1E
100
AcDbEntity
  8
0
100
AcDbLine
 10
142.322
 20
2.000000000000019
 30
0.0
 11
144.738
 21
2.000000000000019
 31
0.0
  0
LINE
  5
1DE
330
1E
100
AcDbEntity
  8
0
100
AcDbLine
 10
148.75
 20
2.000000000000019
 30
0.0
 11
148.75
 21
0.0000000000000209
 31
0.0
  0
LINE
  5
1DF
330
1E
100
AcDbEntity
  8
0
100
AcDbLine
 10
148.75
 20
2.000000000000019
 30
0.0
 11
151.25
 21
2.000000000000019
 31
0.0
  0
LINE
  5
1E0
330
1E
100
AcDbEntity
  8
0
100
AcDbLine
 10
148.75
 20
0.0000000000000209
 30
0.0
 11
151.25
 21
0.0000000000000208
 31
0.0
  0
LINE
  5
1E1
330
1E
100
AcDbEntity
  8
0
100
AcDbLine
 10
148.75
 20
0.0000000000000209
 30
0.0
 11
148.75
 21
2.000000000000019
 31
0.0
  0
LINE
  5
1E2
330
1E
100
AcDbEntity
  8
0
100
AcDbLine
 10
140.08
 20
31.6154
 30
0.0
 11
144.88
 21
31.6154
 31
0.0
  0
LINE
  5
1E3
330
1E
100
AcDbEntity
  8
0
100
AcDbLine
 10
143.6999999999999
 20
22.0
 30
0.0
 11
150.0
 21
22.0
 31
0.0
  0
LINE
  5
1E4
330
1E
100
AcDbEntity
  8
0
100
AcDbLine
 10
140.08
 20
22.38459999999999
 30
0.0
 11
144.88
 21
22.38459999999999
 31
0.0
  0
LINE
  5
1E5
330
1E
100
AcDbEntity
  8
0
100
AcDbLine
 10
144.88
 20
31.6154
 30
0.0
 11
150.0
 21
31.6154
 31
0.0
  0
LINE
  5
1E6
330
1E
100
AcDbEntity
  8
0
100
AcDbLine
 10
150.0
 20
22.0
 30
0.0
 11
156.3
 21
22.0
 31
0.0
  0
LINE
  5
1E7
330
1E
100
AcDbEntity
  8
0
100
AcDbLine
 10
144.88
 20
22.38459999999999
 30
0.0
 11
150.0
 21
22.38459999999999
 31
0.0
  0
LINE
  5
1E8
330
1E
100
AcDbEntity
  8
0
100
AcDbLine
 10
140.32
 20
32.0
 30
0.0
 11
144.96
 21
32.0
 31
0.0
  0
LINE
  5
1E9
330
1E
100
AcDbEntity
  8
0
100
AcDbLine
 10
140.08
 20
41.6154
 30
0.0
 11
144.88
 21
41.6154
 31
0.0
  0
LINE
  5
1EA
330
1E
100
AcDbEntity
  8
0
100
AcDbLine
 10
140.08
 20
32.38459999999999
 30
0.0
 11
144.88
 21
32.38459999999999
 31
0.0
  0
LINE
  5
1EB
330
1E
100
AcDbEntity
  8
0
100
AcDbLine
 10
144.88
 20
41.6154
 30
0.0
 11
150.0
 21
41.6154
 31
0.0
  0
LINE
  5
1EC
330
1E
100
AcDbEntity
  8
0
100
AcDbLine
 10
144.88
 20
32.38459999999999
 30
0.0
 11
150.0
 21
32.38459999999999
 31
0.0
  0
LINE
  5
1ED
330
1E
100
AcDbEntity
  8
0
100
AcDbLine
 10
140.32
 20
42.0
 30
0.0
 11
144.96
 21
42.0
 31
0.0
  0
LINE
  5
1EE
330
1E
100
AcDbEntity
  8
0
100
AcDbLine
 10
138.426
 20
52.0
 30
0.0
 11
139.616
 21
52.0
 31
0.0
  0
LINE
  5
1EF
330
1E
100
AcDbEntity
  8
0
100
AcDbLine
 10
139.0279999999999
 20
52.0
 30
0.0
 11
141.056
 21
52.0
 31
0.0
  0
LINE
  5
1F0
330
1E
100
AcDbEntity
  8
0
100
AcDbLine
 10
141.056
 20
52.0
 30
0.0
 11
143.7079999999999
 21
52.0
 31
0.0
  0
LINE
  5
1F1
330
1E
100
AcDbEntity
  8
0
100
AcDbLine
 10
146.927
 20
52.0
 30
0.0
 11
150.0
 21
52.0
 31
0.0
  0
LINE
  5
1F2
330
1E
100
AcDbEntity
  8
0
100
AcDbLine
 10
143.7079999999999
 20
52.0
 30
0.0
 11
146.7239999999999
 21
52.0
 31
0.0
  0
LINE
  5
1F3
330
1E
100
AcDbEntity
  8
0
100
AcDbLine
 10
146.7239999999999
 20
52.0
 30
0.0
 11
146.927
 21
52.0
 31
0.0
  0
LINE
  5
1F4
330
1E
100
AcDbEntity
  8
0
100
AcDbLine
 10
146.7239999999999
 20
52.0
 30
0.0
 11
150.0
 21
52.0
 31
0.0
  0
LINE
  5
1F5
330
1E
100
AcDbEntity
  8
0
100
AcDbLine
 10
141.532
 20
52.0
 30
0.0
 11
143.7079999999999
 21
52.0
 31
0.0
  0
LINE
  5
1F6
330
1E
100
AcDbEntity
  8
0
100
AcDbLine
 10
138.716
 20
61.6154
 30
0.0
 11
140.7959999999999
 21
61.6154
 31
0.0
  0
LINE
  5
1F7
330
1E
100
AcDbEntity
  8
0
100
AcDbLine
 10
138.716
 20
52.38459999999999
 30
0.0
 11
140.7959999999999
 21
52.38459999999999
 31
0.0
  0
LINE
  5
1F8
330
1E
100
AcDbEntity
  8
0
100
AcDbLine
 10
140.7959999999999
 20
61.6154
 30
0.0
 11
143.552
 21
61.6154
 31
0.0
  0
LINE
  5
1F9
330
1E
100
AcDbEntity
  8
0
100
AcDbLine
 10
140.7959999999999
 20
52.38459999999999
 30
0.0
 11
143.552
 21
52.38459999999999
 31
0.0
  0
LINE
  5
1FA
330
1E
100
AcDbEntity
  8
0
100
AcDbLine
 10
143.552
 20
61.6154
 30
0.0
 11
146.672
 21
61.6154
 31
0.0
  0
LINE
  5
1FB
330
1E
100
AcDbEntity
  8
0
100
AcDbLine
 10
143.552
 20
52.38459999999999
 30
0.0
 11
146.672
 21
52.38459999999999
 31
0.0
  0
LINE
  5
1FC
330
1E
100
AcDbEntity
  8
0
100
AcDbLine
 10
146.672
 20
61.6154
 30
0.0
 11
150.0
 21
61.6154
 31
0.0
  0
LINE
  5
1FD
330
1E
100
AcDbEntity
  8
0
100
AcDbLine
 10
146.672
 20
52.38459999999999
 30
0.0
 11
150.0
 21
52.38459999999999
 31
0.0
  0
LINE
  5
1FE
330
1E
100
AcDbEntity
  8
0
100
AcDbLine
 10
139.0279999999999
 20
62.0
 30
0.0
 11
141.056
 21
62.0
 31
0.0
  0
LINE
  5
1FF
330
1E
100
AcDbEntity
  8
0
100
AcDbLine
 10
141.056
 20
62.0
 30
0.0
 11
143.7079999999999
 21
62.0
 31
0.0
  0
LINE
  5
200
330
1E
100
AcDbEntity
  8
0
100
AcDbLine
 10
143.7079999999999
 20
62.0
 30
0.0
 11
146.7239999999999
 21
62.0
 31
0.0
  0
LINE
  5
201
330
1E
100
AcDbEntity
  8
0
100
AcDbLine
 10
146.7239999999999
 20
62.0
 30
0.0
 11
150.0
 21
62.0
 31
0.0
  0
LINE
  5
202
330
1E
100
AcDbEntity
  8
0
100
AcDbLine
 10
150.0
 20
62.0
 30
0.0
 11
153.276
 21
62.0
 31
0.0
  0
LINE
  5
203
330
1E
100
AcDbEntity
  8
0
100
AcDbLine
 10
150.0
 20
61.6154
 30
0.0
 11
153.3279999999999
 21
61.6154
 31
0.0
  0
LINE
  5
204
330
1E
100
AcDbEntity
  8
0
100
AcDbLine
 10
150.0
 20
52.38459999999999
 30
0.0
 11
153.3279999999999
 21
52.38459999999999
 31
0.0
  0
LINE
  5
205
330
1E
100
AcDbEntity
  8
0
100
AcDbLine
 10
139.616
 20
52.0
 30
0.0
 11
141.532
 21
52.0
 31
0.0
  0
LINE
  5
206
330
1E
100
AcDbEntity
  8
0
100
AcDbLine
 10
138.507
 20
50.8837
 30
0.0
 11
140.873
 21
47.907
 31
0.0
  0
LINE
  5
207
330
1E
100
AcDbEntity
  8
0
100
AcDbLine
 10
140.873
 20
47.907
 30
0.0
 11
141.1151513395259
 21
47.7070941106167
 31
0.0
  0
LINE
  5
208
330
1E
100
AcDbEntity
  8
0
100
AcDbLine
 10
150.0
 20
52.0
 30
0.0
 11
153.0729999999999
 21
52.0
 31
0.0
  0
LINE
  5
209
330
1E
100
AcDbEntity
  8
0
100
AcDbLine
 10
150.0
 20
52.0
 30
0.0
 11
153.276
 21
52.0
 31
0.0
  0
LINE
  5
20A
330
1E
100
AcDbEntity
  8
0
100
AcDbLine
 10
144.96
 20
42.0
 30
0.0
 11
150.0
 21
42.0
 31
0.0
  0
LINE
  5
20B
330
1E
100
AcDbEntity
  8
0
100
AcDbLine
 10
150.0
 20
42.0
 30
0.0
 11
155.0399999999999
 21
42.0
 31
0.0
  0
LINE
  5
20C
330
1E
100
AcDbEntity
  8
0
100
AcDbLine
 10
150.0
 20
41.6154
 30
0.0
 11
155.12
 21
41.6154
 31
0.0
  0
LINE
  5
20D
330
1E
100
AcDbEntity
  8
0
100
AcDbLine
 10
150.0
 20
32.38459999999999
 30
0.0
 11
155.12
 21
32.38459999999999
 31
0.0
  0
LINE
  5
20E
330
1E
100
AcDbEntity
  8
0
100
AcDbLine
 10
144.96
 20
32.0
 30
0.0
 11
150.0
 21
32.0
 31
0.0
  0
LINE
  5
20F
330
1E
100
AcDbEntity
  8
0
100
AcDbLine
 10
150.0
 20
32.0
 30
0.0
 11
155.0399999999999
 21
32.0
 31
0.0
  0
LINE
  5
210
330
1E
100
AcDbEntity
  8
0
100
AcDbLine
 10
150.0
 20
31.6154
 30
0.0
 11
155.12
 21
31.6154
 31
0.0
  0
LINE
  5
211
330
1E
100
AcDbEntity
  8
0
100
AcDbLine
 10
150.0
 20
22.38459999999999
 30
0.0
 11
155.12
 21
22.38459999999999
 31
0.0
  0
LINE
  5
212
330
1E
100
AcDbEntity
  8
0
100
AcDbLine
 10
150.0
 20
17.0
 30
0.0
 11
169.5
 21
17.0
 31
0.0
  0
LINE
  5
213
330
1E
100
AcDbEntity
  8
0
100
AcDbLine
 10
150.0
 20
17.0
 30
0.0
 11
157.68
 21
17.0
 31
0.0
  0
LINE
  5
214
330
1E
100
AcDbEntity
  8
0
100
AcDbLine
 10
150.0
 20
16.0
 30
0.0
 11
169.5
 21
16.0
 31
0.0
  0
LINE
  5
215
330
1E
100
AcDbEntity
  8
0
100
AcDbLine
 10
150.0
 20
3.00000000000002
 30
0.0
 11
169.5
 21
3.00000000000002
 31
0.0
  0
LINE
  5
216
330
1E
100
AcDbEntity
  8
0
100
AcDbLine
 10
154.2479999999999
 20
0.0000000000000206
 30
0.0
 11
154.616
 21
0.0000000000000206
 31
0.0
  0
LINE
  5
217
330
1E
100
AcDbEntity
  8
0
100
AcDbLine
 10
152.976
 20
0.0000000000000207
 30
0.0
 11
154.2479999999999
 21
0.0000000000000206
 31
0.0
  0
LINE
  5
218
330
1E
100
AcDbEntity
  8
0
100
AcDbLine
 10
151.536
 20
0.0000000000000208
 30
0.0
 11
152.976
 21
0.0000000000000207
 31
0.0
  0
LINE
  5
219
330
1E
100
AcDbEntity
  8
0
100
AcDbLine
 10
163.583
 20
0.00000000000002
 30
0.0
 11
163.583
 21
2.000000000000019
 31
0.0
  0
LINE
  5
21A
330
1E
100
AcDbEntity
  8
0
100
AcDbLine
 10
173.8249999999999
 20
0.0000000000000194
 30
0.0
 11
174.027
 21
0.0000000000000194
 31
0.0
  0
LINE
  5
21B
330
1E
100
AcDbEntity
  8
0
100
AcDbLine
 10
173.8249999999999
 20
0.0000000000000194
 30
0.0
 11
173.8249999999999
 21
2.000000000000019
 31
0.0
  0
LINE
  5
21C
330
1E
100
AcDbEntity
  8
0
100
AcDbLine
 10
172.5
 20
0.0000000000000195
 30
0.0
 11
174.675
 21
0.0000000000000193
 31
0.0
  0
LINE
  5
21D
330
1E
100
AcDbEntity
  8
0
100
AcDbLine
 10
172.958
 20
0.0000000000000194
 30
0.0
 11
173.8249999999999
 21
0.0000000000000194
 31
0.0
  0
LINE
  5
21E
330
1E
100
AcDbEntity
  8
0
100
AcDbLine
 10
172.958
 20
0.0000000000000194
 30
0.0
 11
172.958
 21
2.000000000000019
 31
0.0
  0
LINE
  5
21F
330
1E
100
AcDbEntity
  8
0
100
AcDbLine
 10
172.958
 20
0.0000000000000194
 30
0.0
 11
174.675
 21
0.0000000000000193
 31
0.0
  0
LINE
  5
220
330
1E
100
AcDbEntity
  8
0
100
AcDbLine
 10
177.089
 20
0.0000000000000192
 30
0.0
 11
177.089
 21
2.000000000000019
 31
0.0
  0
LINE
  5
221
330
1E
100
AcDbEntity
  8
0
100
AcDbLine
 10
174.675
 20
0.0000000000000193
 30
0.0
 11
174.675
 21
2.000000000000019
 31
0.0
  0
LINE
  5
222
330
1E
100
AcDbEntity
  8
0
100
AcDbLine
 10
174.675
 20
0.0000000000000193
 30
0.0
 11
177.089
 21
0.0000000000000192
 31
0.0
  0
LINE
  5
223
330
1E
100
AcDbEntity
  8
0
100
AcDbLine
 10
174.027
 20
0.0000000000000194
 30
0.0
 11
174.675
 21
0.0000000000000193
 31
0.0
  0
LINE
  5
224
330
1E
100
AcDbEntity
  8
0
100
AcDbLine
 10
174.027
 20
0.0000000000000194
 30
0.0
 11
174.027
 21
2.000000000000019
 31
0.0
  0
LINE
  5
225
330
1E
100
AcDbEntity
  8
0
100
AcDbLine
 10
172.2359999999999
 20
0.0000000000000195
 30
0.0
 11
172.2359999999999
 21
2.000000000000019
 31
0.0
  0
LINE
  5
226
330
1E
100
AcDbEntity
  8
0
100
AcDbLine
 10
172.2359999999999
 20
0.0000000000000195
 30
0.0
 11
172.958
 21
0.0000000000000194
 31
0.0
  0
LINE
  5
227
330
1E
100
AcDbEntity
  8
0
100
AcDbLine
 10
169.8209999999999
 20
0.0000000000000196
 30
0.0
 11
169.8209999999999
 21
2.000000000000019
 31
0.0
  0
LINE
  5
228
330
1E
100
AcDbEntity
  8
0
100
AcDbLine
 10
169.8209999999999
 20
0.0000000000000196
 30
0.0
 11
172.2359999999999
 21
0.0000000000000195
 31
0.0
  0
LINE
  5
229
330
1E
100
AcDbEntity
  8
0
100
AcDbLine
 10
169.8209999999999
 20
0.0000000000000196
 30
0.0
 11
171.7079999999999
 21
0.0000000000000195
 31
0.0
  0
LINE
  5
22A
330
1E
100
AcDbEntity
  8
0
100
AcDbLine
 10
168.5609999999999
 20
0.0000000000000197
 30
0.0
 11
168.5609999999999
 21
2.000000000000019
 31
0.0
  0
LINE
  5
22B
330
1E
100
AcDbEntity
  8
0
100
AcDbLine
 10
168.86
 20
0.0000000000000197
 30
0.0
 11
169.542
 21
0.0000000000000197
 31
0.0
  0
LINE
  5
22C
330
1E
100
AcDbEntity
  8
0
100
AcDbLine
 10
168.86
 20
0.0000000000000197
 30
0.0
 11
168.86
 21
2.000000000000019
 31
0.0
  0
LINE
  5
22D
330
1E
100
AcDbEntity
  8
0
100
AcDbLine
 10
169.175
 20
0.0000000000000197
 30
0.0
 11
169.8209999999999
 21
0.0000000000000196
 31
0.0
  0
LINE
  5
22E
330
1E
100
AcDbEntity
  8
0
100
AcDbLine
 10
169.175
 20
0.0000000000000197
 30
0.0
 11
169.175
 21
2.000000000000019
 31
0.0
  0
LINE
  5
22F
330
1E
100
AcDbEntity
  8
0
100
AcDbLine
 10
167.384
 20
0.0000000000000198
 30
0.0
 11
167.384
 21
2.000000000000019
 31
0.0
  0
LINE
  5
230
330
1E
100
AcDbEntity
  8
0
100
AcDbLine
 10
167.384
 20
0.0000000000000198
 30
0.0
 11
168.5609999999999
 21
0.0000000000000197
 31
0.0
  0
LINE
  5
231
330
1E
100
AcDbEntity
  8
0
100
AcDbLine
 10
164.969
 20
0.0000000000000199
 30
0.0
 11
166.7359999999999
 21
0.0000000000000198
 31
0.0
  0
LINE
  5
232
330
1E
100
AcDbEntity
  8
0
100
AcDbLine
 10
164.969
 20
0.0000000000000199
 30
0.0
 11
164.969
 21
2.000000000000019
 31
0.0
  0
LINE
  5
233
330
1E
100
AcDbEntity
  8
0
100
AcDbLine
 10
164.969
 20
0.0000000000000199
 30
0.0
 11
167.384
 21
0.0000000000000198
 31
0.0
  0
LINE
  5
234
330
1E
100
AcDbEntity
  8
0
100
AcDbLine
 10
164.969
 20
0.0000000000000199
 30
0.0
 11
165.0259999999999
 21
0.0000000000000199
 31
0.0
  0
LINE
  5
235
330
1E
100
AcDbEntity
  8
0
100
AcDbLine
 10
164.321
 20
0.00000000000002
 30
0.0
 11
164.969
 21
0.0000000000000199
 31
0.0
  0
LINE
  5
236
330
1E
100
AcDbEntity
  8
0
100
AcDbLine
 10
164.321
 20
0.00000000000002
 30
0.0
 11
164.321
 21
2.000000000000019
 31
0.0
  0
LINE
  5
237
330
1E
100
AcDbEntity
  8
0
100
AcDbLine
 10
161.8839999999999
 20
0.0000000000000201
 30
0.0
 11
162.5309999999999
 21
0.0000000000000201
 31
0.0
  0
LINE
  5
238
330
1E
100
AcDbEntity
  8
0
100
AcDbLine
 10
161.8839999999999
 20
0.0000000000000201
 30
0.0
 11
162.3329999999999
 21
0.0000000000000201
 31
0.0
  0
LINE
  5
239
330
1E
100
AcDbEntity
  8
0
100
AcDbLine
 10
162.5309999999999
 20
0.0000000000000201
 30
0.0
 11
162.5309999999999
 21
2.000000000000019
 31
0.0
  0
LINE
  5
23A
330
1E
100
AcDbEntity
  8
0
100
AcDbLine
 10
162.5309999999999
 20
0.0000000000000201
 30
0.0
 11
163.583
 21
0.00000000000002
 31
0.0
  0
LINE
  5
23B
330
1E
100
AcDbEntity
  8
0
100
AcDbLine
 10
160.116
 20
0.0000000000000202
 30
0.0
 11
160.116
 21
2.000000000000019
 31
0.0
  0
LINE
  5
23C
330
1E
100
AcDbEntity
  8
0
100
AcDbLine
 10
160.116
 20
0.0000000000000202
 30
0.0
 11
162.5309999999999
 21
0.0000000000000201
 31
0.0
  0
LINE
  5
23D
330
1E
100
AcDbEntity
  8
0
100
AcDbLine
 10
160.116
 20
0.0000000000000202
 30
0.0
 11
161.8839999999999
 21
0.0000000000000201
 31
0.0
  0
LINE
  5
23E
330
1E
100
AcDbEntity
  8
0
100
AcDbLine
 10
159.4689999999999
 20
0.0000000000000203
 30
0.0
 11
160.116
 21
0.0000000000000202
 31
0.0
  0
LINE
  5
23F
330
1E
100
AcDbEntity
  8
0
100
AcDbLine
 10
159.4689999999999
 20
0.0000000000000203
 30
0.0
 11
159.4689999999999
 21
2.000000000000019
 31
0.0
  0
LINE
  5
240
330
1E
100
AcDbEntity
  8
0
100
AcDbLine
 10
157.678
 20
0.0000000000000204
 30
0.0
 11
157.678
 21
2.000000000000019
 31
0.0
  0
LINE
  5
241
330
1E
100
AcDbEntity
  8
0
100
AcDbLine
 10
155.262
 20
0.0000000000000205
 30
0.0
 11
155.262
 21
2.000000000000019
 31
0.0
  0
LINE
  5
242
330
1E
100
AcDbEntity
  8
0
100
AcDbLine
 10
155.262
 20
0.0000000000000205
 30
0.0
 11
157.678
 21
0.0000000000000204
 31
0.0
  0
LINE
  5
243
330
1E
100
AcDbEntity
  8
0
100
AcDbLine
 10
154.616
 20
0.0000000000000206
 30
0.0
 11
155.262
 21
0.0000000000000205
 31
0.0
  0
LINE
  5
244
330
1E
100
AcDbEntity
  8
0
100
AcDbLine
 10
154.616
 20
0.0000000000000206
 30
0.0
 11
154.616
 21
2.000000000000019
 31
0.0
  0
LINE
  5
245
330
1E
100
AcDbEntity
  8
0
100
AcDbLine
 10
154.616
 20
0.0000000000000206
 30
0.0
 11
157.031
 21
0.0000000000000204
 31
0.0
  0
LINE
  5
246
330
1E
100
AcDbEntity
  8
0
100
AcDbLine
 10
151.25
 20
0.0000000000000208
 30
0.0
 11
151.536
 21
0.0000000000000208
 31
0.0
  0
LINE
  5
247
330
1E
100
AcDbEntity
  8
0
100
AcDbLine
 10
173.8249999999999
 20
2.000000000000019
 30
0.0
 11
173.8249999999999
 21
0.0000000000000194
 31
0.0
  0
LINE
  5
248
330
1E
100
AcDbEntity
  8
0
100
AcDbLine
 10
173.8249999999999
 20
2.000000000000019
 30
0.0
 11
174.027
 21
2.000000000000019
 31
0.0
  0
LINE
  5
249
330
1E
100
AcDbEntity
  8
0
100
AcDbLine
 10
172.958
 20
2.000000000000019
 30
0.0
 11
172.958
 21
0.0000000000000194
 31
0.0
  0
LINE
  5
24A
330
1E
100
AcDbEntity
  8
0
100
AcDbLine
 10
174.027
 20
2.000000000000019
 30
0.0
 11
174.027
 21
0.0000000000000194
 31
0.0
  0
LINE
  5
24B
330
1E
100
AcDbEntity
  8
0
100
AcDbLine
 10
174.675
 20
2.000000000000019
 30
0.0
 11
174.675
 21
0.0000000000000194
 31
0.0
  0
LINE
  5
24C
330
1E
100
AcDbEntity
  8
0
100
AcDbLine
 10
174.675
 20
2.000000000000019
 30
0.0
 11
175.0
 21
2.000000000000019
 31
0.0
  0
LINE
  5
24D
330
1E
100
AcDbEntity
  8
0
100
AcDbLine
 10
172.2359999999999
 20
2.000000000000019
 30
0.0
 11
172.2359999999999
 21
0.0000000000000194
 31
0.0
  0
LINE
  5
24E
330
1E
100
AcDbEntity
  8
0
100
AcDbLine
 10
172.2359999999999
 20
2.000000000000019
 30
0.0
 11
172.958
 21
2.000000000000019
 31
0.0
  0
LINE
  5
24F
330
1E
100
AcDbEntity
  8
0
100
AcDbLine
 10
151.25
 20
0.0000000000000208
 30
0.0
 11
151.25
 21
2.000000000000019
 31
0.0
  0
LINE
  5
250
330
1E
100
AcDbEntity
  8
0
100
AcDbLine
 10
178.917
 20
0.0000000000000191
 30
0.0
 11
181.0829999999999
 21
0.0000000000000189
 31
0.0
  0
LINE
  5
251
330
1E
100
AcDbEntity
  8
0
100
AcDbLine
 10
182.333
 20
0.0000000000000189
 30
0.0
 11
182.333
 21
2.000000000000019
 31
0.0
  0
LINE
  5
252
330
1E
100
AcDbEntity
  8
0
100
AcDbLine
 10
181.0829999999999
 20
0.0000000000000189
 30
0.0
 11
182.333
 21
0.0000000000000189
 31
0.0
  0
LINE
  5
253
330
1E
100
AcDbEntity
  8
0
100
AcDbLine
 10
181.82
 20
0.0000000000000189
 30
0.0
 11
181.9429999999999
 21
0.0000000000000189
 31
0.0
  0
LINE
  5
254
330
1E
100
AcDbEntity
  8
0
100
AcDbLine
 10
181.82
 20
0.0000000000000189
 30
0.0
 11
182.333
 21
0.0000000000000189
 31
0.0
  0
LINE
  5
255
330
1E
100
AcDbEntity
  8
0
100
AcDbLine
 10
181.2949999999999
 20
0.0000000000000189
 30
0.0
 11
181.9429999999999
 21
0.0000000000000189
 31
0.0
  0
LINE
  5
256
330
1E
100
AcDbEntity
  8
0
100
AcDbLine
 10
181.9429999999999
 20
0.0000000000000189
 30
0.0
 11
181.9429999999999
 21
2.000000000000019
 31
0.0
  0
LINE
  5
257
330
1E
100
AcDbEntity
  8
0
100
AcDbLine
 10
181.9429999999999
 20
0.0000000000000189
 30
0.0
 11
182.333
 21
0.0000000000000189
 31
0.0
  0
LINE
  5
258
330
1E
100
AcDbEntity
  8
0
100
AcDbLine
 10
179.527
 20
0.000000000000019
 30
0.0
 11
179.527
 21
2.000000000000019
 31
0.0
  0
LINE
  5
259
330
1E
100
AcDbEntity
  8
0
100
AcDbLine
 10
179.527
 20
0.000000000000019
 30
0.0
 11
181.9429999999999
 21
0.0000000000000189
 31
0.0
  0
LINE
  5
25A
330
1E
100
AcDbEntity
  8
0
100
AcDbLine
 10
179.527
 20
0.000000000000019
 30
0.0
 11
181.2949999999999
 21
0.0000000000000189
 31
0.0
  0
LINE
  5
25B
330
1E
100
AcDbEntity
  8
0
100
AcDbLine
 10
178.284
 20
2.000000000000019
 30
0.0
 11
178.284
 21
0.0000000000000191
 31
0.0
  0
LINE
  5
25C
330
1E
100
AcDbEntity
  8
0
100
AcDbLine
 10
178.284
 20
0.0000000000000191
 30
0.0
 11
180.053
 21
0.000000000000019
 31
0.0
  0
LINE
  5
25D
330
1E
100
AcDbEntity
  8
0
100
AcDbLine
 10
178.284
 20
0.0000000000000191
 30
0.0
 11
178.284
 21
2.000000000000019
 31
0.0
  0
LINE
  5
25E
330
1E
100
AcDbEntity
  8
0
100
AcDbLine
 10
178.284
 20
0.0000000000000191
 30
0.0
 11
178.8799999999999
 21
0.0000000000000191
 31
0.0
  0
LINE
  5
25F
330
1E
100
AcDbEntity
  8
0
100
AcDbLine
 10
178.8799999999999
 20
2.000000000000019
 30
0.0
 11
178.8799999999999
 21
0.0000000000000191
 31
0.0
  0
LINE
  5
260
330
1E
100
AcDbEntity
  8
0
100
AcDbLine
 10
181.9429999999999
 20
2.000000000000019
 30
0.0
 11
181.9429999999999
 21
0.0000000000000189
 31
0.0
  0
LINE
  5
261
330
1E
100
AcDbEntity
  8
0
100
AcDbLine
 10
181.9429999999999
 20
2.000000000000019
 30
0.0
 11
182.333
 21
2.000000000000019
 31
0.0
  0
LINE
  5
262
330
1E
100
AcDbEntity
  8
0
100
AcDbLine
 10
179.527
 20
2.000000000000019
 30
0.0
 11
179.527
 21
0.0000000000000191
 31
0.0
  0
LINE
  5
263
330
1E
100
AcDbEntity
  8
0
100
AcDbLine
 10
179.527
 20
2.000000000000019
 30
0.0
 11
181.9429999999999
 21
2.000000000000019
 31
0.0
  0
LINE
  5
264
330
1E
100
AcDbEntity
  8
0
100
AcDbLine
 10
178.8799999999999
 20
0.0000000000000191
 30
0.0
 11
179.527
 21
0.000000000000019
 31
0.0
  0
LINE
  5
265
330
1E
100
AcDbEntity
  8
0
100
AcDbLine
 10
178.8799999999999
 20
0.0000000000000191
 30
0.0
 11
178.8799999999999
 21
2.000000000000019
 31
0.0
  0
LINE
  5
266
330
1E
100
AcDbEntity
  8
0
100
AcDbLine
 10
183.734
 20
2.000000000000019
 30
0.0
 11
183.734
 21
0.0000000000000189
 31
0.0
  0
LINE
  5
267
330
1E
100
AcDbEntity
  8
0
100
AcDbLine
 10
187.264
 20
0.0000000000000186
 30
0.0
 11
188.292
 21
0.0000000000000185
 31
0.0
  0
LINE
  5
268
330
1E
100
AcDbEntity
  8
0
100
AcDbLine
 10
187.264
 20
0.0000000000000186
 30
0.0
 11
187.264
 21
2.000000000000019
 31
0.0
  0
LINE
  5
269
330
1E
100
AcDbEntity
  8
0
100
AcDbLine
 10
188.292
 20
0.0000000000000185
 30
0.0
 11
189.542
 21
0.0000000000000184
 31
0.0
  0
LINE
  5
26A
330
1E
100
AcDbEntity
  8
0
100
AcDbLine
 10
188.292
 20
0.0000000000000185
 30
0.0
 11
188.292
 21
2.000000000000019
 31
0.0
  0
LINE
  5
26B
330
1E
100
AcDbEntity
  8
0
100
AcDbLine
 10
186.795
 20
0.0000000000000186
 30
0.0
 11
186.795
 21
2.000000000000019
 31
0.0
  0
LINE
  5
26C
330
1E
100
AcDbEntity
  8
0
100
AcDbLine
 10
186.795
 20
0.0000000000000186
 30
0.0
 11
187.264
 21
0.0000000000000186
 31
0.0
  0
LINE
  5
26D
330
1E
100
AcDbEntity
  8
0
100
AcDbLine
 10
187.264
 20
2.000000000000019
 30
0.0
 11
187.264
 21
0.0000000000000186
 31
0.0
  0
LINE
  5
26E
330
1E
100
AcDbEntity
  8
0
100
AcDbLine
 10
187.264
 20
2.000000000000019
 30
0.0
 11
188.375
 21
2.000000000000019
 31
0.0
  0
LINE
  5
26F
330
1E
100
AcDbEntity
  8
0
100
AcDbLine
 10
188.292
 20
2.000000000000019
 30
0.0
 11
189.542
 21
2.000000000000019
 31
0.0
  0
LINE
  5
270
330
1E
100
AcDbEntity
  8
0
100
AcDbLine
 10
188.292
 20
2.000000000000019
 30
0.0
 11
188.292
 21
0.0000000000000186
 31
0.0
  0
LINE
  5
271
330
1E
100
AcDbEntity
  8
0
100
AcDbLine
 10
186.795
 20
2.000000000000019
 30
0.0
 11
186.795
 21
0.0000000000000186
 31
0.0
  0
LINE
  5
272
330
1E
100
AcDbEntity
  8
0
100
AcDbLine
 10
186.795
 20
2.000000000000019
 30
0.0
 11
187.264
 21
2.000000000000019
 31
0.0
  0
LINE
  5
273
330
1E
100
AcDbEntity
  8
0
100
AcDbLine
 10
184.3799999999999
 20
0.0000000000000187
 30
0.0
 11
184.3799999999999
 21
2.000000000000019
 31
0.0
  0
LINE
  5
274
330
1E
100
AcDbEntity
  8
0
100
AcDbLine
 10
184.3799999999999
 20
0.0000000000000187
 30
0.0
 11
186.795
 21
0.0000000000000186
 31
0.0
  0
LINE
  5
275
330
1E
100
AcDbEntity
  8
0
100
AcDbLine
 10
183.734
 20
0.0000000000000188
 30
0.0
 11
184.3799999999999
 21
0.0000000000000187
 31
0.0
  0
LINE
  5
276
330
1E
100
AcDbEntity
  8
0
100
AcDbLine
 10
183.734
 20
0.0000000000000188
 30
0.0
 11
183.734
 21
2.000000000000019
 31
0.0
  0
LINE
  5
277
330
1E
100
AcDbEntity
  8
0
100
AcDbLine
 10
184.3799999999999
 20
2.000000000000019
 30
0.0
 11
185.099
 21
2.000000000000019
 31
0.0
  0
LINE
  5
278
330
1E
100
AcDbEntity
  8
0
100
AcDbLine
 10
184.3799999999999
 20
2.000000000000019
 30
0.0
 11
184.3799999999999
 21
0.0000000000000189
 31
0.0
  0
LINE
  5
279
330
1E
100
AcDbEntity
  8
0
100
AcDbLine
 10
182.333
 20
2.000000000000019
 30
0.0
 11
183.734
 21
2.000000000000019
 31
0.0
  0
LINE
  5
27A
330
1E
100
AcDbEntity
  8
0
100
AcDbLine
 10
182.333
 20
2.000000000000019
 30
0.0
 11
182.333
 21
0.0000000000000189
 31
0.0
  0
LINE
  5
27B
330
1E
100
AcDbEntity
  8
0
100
AcDbLine
 10
180.167
 20
2.000000000000019
 30
0.0
 11
181.0829999999999
 21
2.000000000000019
 31
0.0
  0
LINE
  5
27C
330
1E
100
AcDbEntity
  8
0
100
AcDbLine
 10
180.167
 20
2.000000000000019
 30
0.0
 11
181.2949999999999
 21
2.000000000000019
 31
0.0
  0
LINE
  5
27D
330
1E
100
AcDbEntity
  8
0
100
AcDbLine
 10
177.089
 20
2.000000000000019
 30
0.0
 11
178.284
 21
2.000000000000019
 31
0.0
  0
LINE
  5
27E
330
1E
100
AcDbEntity
  8
0
100
AcDbLine
 10
177.089
 20
2.000000000000019
 30
0.0
 11
177.089
 21
0.0000000000000191
 31
0.0
  0
LINE
  5
27F
330
1E
100
AcDbEntity
  8
0
100
AcDbLine
 10
168.5609999999999
 20
2.000000000000019
 30
0.0
 11
168.5609999999999
 21
0.0000000000000196
 31
0.0
  0
LINE
  5
280
330
1E
100
AcDbEntity
  8
0
100
AcDbLine
 10
168.86
 20
2.000000000000019
 30
0.0
 11
169.175
 21
2.000000000000019
 31
0.0
  0
LINE
  5
281
330
1E
100
AcDbEntity
  8
0
100
AcDbLine
 10
168.86
 20
2.000000000000019
 30
0.0
 11
168.86
 21
0.0000000000000196
 31
0.0
  0
LINE
  5
282
330
1E
100
AcDbEntity
  8
0
100
AcDbLine
 10
169.175
 20
2.000000000000019
 30
0.0
 11
169.5
 21
2.000000000000019
 31
0.0
  0
LINE
  5
283
330
1E
100
AcDbEntity
  8
0
100
AcDbLine
 10
169.175
 20
2.000000000000019
 30
0.0
 11
169.175
 21
0.0000000000000196
 31
0.0
  0
LINE
  5
284
330
1E
100
AcDbEntity
  8
0
100
AcDbLine
 10
171.7079999999999
 20
2.000000000000019
 30
0.0
 11
173.8249999999999
 21
2.000000000000019
 31
0.0
  0
LINE
  5
285
330
1E
100
AcDbEntity
  8
0
100
AcDbLine
 10
169.8209999999999
 20
2.000000000000019
 30
0.0
 11
169.8209999999999
 21
0.0000000000000196
 31
0.0
  0
LINE
  5
286
330
1E
100
AcDbEntity
  8
0
100
AcDbLine
 10
169.8209999999999
 20
2.000000000000019
 30
0.0
 11
172.2359999999999
 21
2.000000000000019
 31
0.0
  0
LINE
  5
287
330
1E
100
AcDbEntity
  8
0
100
AcDbLine
 10
175.0
 20
2.000000000000019
 30
0.0
 11
176.4429999999999
 21
2.000000000000019
 31
0.0
  0
LINE
  5
288
330
1E
100
AcDbEntity
  8
0
100
AcDbLine
 10
192.5829999999999
 20
0.0000000000000182
 30
0.0
 11
193.75
 21
0.0000000000000182
 31
0.0
  0
LINE
  5
289
330
1E
100
AcDbEntity
  8
0
100
AcDbLine
 10
195.077
 20
0.0000000000000181
 30
0.0
 11
195.077
 21
2.000000000000019
 31
0.0
  0
LINE
  5
28A
330
1E
100
AcDbEntity
  8
0
100
AcDbLine
 10
193.3099999999999
 20
0.0000000000000182
 30
0.0
 11
195.077
 21
0.0000000000000181
 31
0.0
  0
LINE
  5
28B
330
1E
100
AcDbEntity
  8
0
100
AcDbLine
 10
193.3099999999999
 20
0.0000000000000182
 30
0.0
 11
193.3099999999999
 21
2.000000000000019
 31
0.0
  0
LINE
  5
28C
330
1E
100
AcDbEntity
  8
0
100
AcDbLine
 10
191.9359999999999
 20
0.0000000000000183
 30
0.0
 11
192.5829999999999
 21
0.0000000000000182
 31
0.0
  0
LINE
  5
28D
330
1E
100
AcDbEntity
  8
0
100
AcDbLine
 10
191.9359999999999
 20
0.0000000000000183
 30
0.0
 11
193.75
 21
0.0000000000000182
 31
0.0
  0
LINE
  5
28E
330
1E
100
AcDbEntity
  8
0
100
AcDbLine
 10
207.633
 20
0.0000000000000173
 30
0.0
 11
210.0459999999999
 21
0.0000000000000172
 31
0.0
  0
LINE
  5
28F
330
1E
100
AcDbEntity
  8
0
100
AcDbLine
 10
207.633
 20
0.0000000000000173
 30
0.0
 11
209.208
 21
0.0000000000000172
 31
0.0
  0
LINE
  5
290
330
1E
100
AcDbEntity
  8
0
100
AcDbLine
 10
207.633
 20
0.0000000000000173
 30
0.0
 11
208.279
 21
0.0000000000000173
 31
0.0
  0
LINE
  5
291
330
1E
100
AcDbEntity
  8
0
100
AcDbLine
 10
207.633
 20
0.0000000000000173
 30
0.0
 11
210.0
 21
0.0000000000000172
 31
0.0
  0
LINE
  5
292
330
1E
100
AcDbEntity
  8
0
100
AcDbLine
 10
212.5
 20
0.000000000000017
 30
0.0
 11
212.5
 21
2.000000000000019
 31
0.0
  0
LINE
  5
293
330
1E
100
AcDbEntity
  8
0
100
AcDbLine
 10
210.694
 20
0.0000000000000171
 30
0.0
 11
210.694
 21
2.000000000000019
 31
0.0
  0
LINE
  5
294
330
1E
100
AcDbEntity
  8
0
100
AcDbLine
 10
219.8329999999999
 20
0.0000000000000166
 30
0.0
 11
220.99
 21
0.0000000000000165
 31
0.0
  0
LINE
  5
295
330
1E
100
AcDbEntity
  8
0
100
AcDbLine
 10
219.8329999999999
 20
0.0000000000000166
 30
0.0
 11
221.5949999999999
 21
0.0000000000000165
 31
0.0
  0
LINE
  5
296
330
1E
100
AcDbEntity
  8
0
100
AcDbLine
 10
218.583
 20
0.0000000000000167
 30
0.0
 11
219.8329999999999
 21
0.0000000000000166
 31
0.0
  0
LINE
  5
297
330
1E
100
AcDbEntity
  8
0
100
AcDbLine
 10
220.99
 20
0.0000000000000165
 30
0.0
 11
221.5949999999999
 21
0.0000000000000165
 31
0.0
  0
LINE
  5
298
330
1E
100
AcDbEntity
  8
0
100
AcDbLine
 10
221.5949999999999
 20
0.0000000000000165
 30
0.0
 11
221.5949999999999
 21
2.000000000000019
 31
0.0
  0
LINE
  5
299
330
1E
100
AcDbEntity
  8
0
100
AcDbLine
 10
219.8329999999999
 20
0.0000000000000166
 30
0.0
 11
219.8329999999999
 21
2.000000000000019
 31
0.0
  0
LINE
  5
29A
330
1E
100
AcDbEntity
  8
0
100
AcDbLine
 10
217.667
 20
0.0000000000000167
 30
0.0
 11
219.8329999999999
 21
0.0000000000000166
 31
0.0
  0
LINE
  5
29B
330
1E
100
AcDbEntity
  8
0
100
AcDbLine
 10
217.667
 20
0.0000000000000167
 30
0.0
 11
217.667
 21
2.000000000000019
 31
0.0
  0
LINE
  5
29C
330
1E
100
AcDbEntity
  8
0
100
AcDbLine
 10
216.4169999999999
 20
0.0000000000000168
 30
0.0
 11
217.667
 21
0.0000000000000167
 31
0.0
  0
LINE
  5
29D
330
1E
100
AcDbEntity
  8
0
100
AcDbLine
 10
216.4169999999999
 20
0.0000000000000168
 30
0.0
 11
216.4169999999999
 21
2.000000000000019
 31
0.0
  0
LINE
  5
29E
330
1E
100
AcDbEntity
  8
0
100
AcDbLine
 10
216.4169999999999
 20
0.0000000000000168
 30
0.0
 11
218.583
 21
0.0000000000000167
 31
0.0
  0
LINE
  5
29F
330
1E
100
AcDbEntity
  8
0
100
AcDbLine
 10
210.0
 20
0.0000000000000172
 30
0.0
 11
212.5
 21
0.000000000000017
 31
0.0
  0
LINE
  5
2A0
330
1E
100
AcDbEntity
  8
0
100
AcDbLine
 10
210.0459999999999
 20
0.0000000000000172
 30
0.0
 11
210.694
 21
0.0000000000000171
 31
0.0
  0
LINE
  5
2A1
330
1E
100
AcDbEntity
  8
0
100
AcDbLine
 10
210.4579999999999
 20
0.0000000000000171
 30
0.0
 11
210.4579999999999
 21
2.000000000000019
 31
0.0
  0
LINE
  5
2A2
330
1E
100
AcDbEntity
  8
0
100
AcDbLine
 10
210.4579999999999
 20
0.0000000000000171
 30
0.0
 11
210.694
 21
0.0000000000000171
 31
0.0
  0
LINE
  5
2A3
330
1E
100
AcDbEntity
  8
0
100
AcDbLine
 10
210.4579999999999
 20
0.0000000000000171
 30
0.0
 11
212.5
 21
0.000000000000017
 31
0.0
  0
LINE
  5
2A4
330
1E
100
AcDbEntity
  8
0
100
AcDbLine
 10
208.292
 20
0.0000000000000173
 30
0.0
 11
210.4579999999999
 21
0.0000000000000171
 31
0.0
  0
LINE
  5
2A5
330
1E
100
AcDbEntity
  8
0
100
AcDbLine
 10
208.292
 20
0.0000000000000173
 30
0.0
 11
208.292
 21
2.000000000000019
 31
0.0
  0
LINE
  5
2A6
330
1E
100
AcDbEntity
  8
0
100
AcDbLine
 10
208.292
 20
0.0000000000000173
 30
0.0
 11
210.0
 21
0.0000000000000172
 31
0.0
  0
LINE
  5
2A7
330
1E
100
AcDbEntity
  8
0
100
AcDbLine
 10
206.569
 20
0.0000000000000174
 30
0.0
 11
207.0419999999999
 21
0.0000000000000174
 31
0.0
  0
LINE
  5
2A8
330
1E
100
AcDbEntity
  8
0
100
AcDbLine
 10
206.569
 20
0.0000000000000174
 30
0.0
 11
206.569
 21
2.000000000000019
 31
0.0
  0
LINE
  5
2A9
330
1E
100
AcDbEntity
  8
0
100
AcDbLine
 10
204.801
 20
0.0000000000000175
 30
0.0
 11
206.569
 21
0.0000000000000174
 31
0.0
  0
LINE
  5
2AA
330
1E
100
AcDbEntity
  8
0
100
AcDbLine
 10
204.801
 20
0.0000000000000175
 30
0.0
 11
204.801
 21
2.000000000000019
 31
0.0
  0
LINE
  5
2AB
330
1E
100
AcDbEntity
  8
0
100
AcDbLine
 10
204.7509999999999
 20
0.0000000000000175
 30
0.0
 11
204.7509999999999
 21
2.000000000000019
 31
0.0
  0
LINE
  5
2AC
330
1E
100
AcDbEntity
  8
0
100
AcDbLine
 10
202.5859999999999
 20
0.0000000000000176
 30
0.0
 11
204.7509999999999
 21
0.0000000000000175
 31
0.0
  0
LINE
  5
2AD
330
1E
100
AcDbEntity
  8
0
100
AcDbLine
 10
203.5009999999999
 20
0.0000000000000176
 30
0.0
 11
204.7509999999999
 21
0.0000000000000175
 31
0.0
  0
LINE
  5
2AE
330
1E
100
AcDbEntity
  8
0
100
AcDbLine
 10
203.5009999999999
 20
0.0000000000000176
 30
0.0
 11
203.5009999999999
 21
2.000000000000019
 31
0.0
  0
LINE
  5
2AF
330
1E
100
AcDbEntity
  8
0
100
AcDbLine
 10
201.336
 20
0.0000000000000177
 30
0.0
 11
203.5009999999999
 21
0.0000000000000176
 31
0.0
  0
LINE
  5
2B0
330
1E
100
AcDbEntity
  8
0
100
AcDbLine
 10
201.336
 20
0.0000000000000177
 30
0.0
 11
201.336
 21
2.000000000000019
 31
0.0
  0
LINE
  5
2B1
330
1E
100
AcDbEntity
  8
0
100
AcDbLine
 10
201.336
 20
0.0000000000000177
 30
0.0
 11
202.5859999999999
 21
0.0000000000000176
 31
0.0
  0
LINE
  5
2B2
330
1E
100
AcDbEntity
  8
0
100
AcDbLine
 10
207.0419999999999
 20
0.0000000000000174
 30
0.0
 11
208.292
 21
0.0000000000000173
 31
0.0
  0
LINE
  5
2B3
330
1E
100
AcDbEntity
  8
0
100
AcDbLine
 10
207.0419999999999
 20
0.0000000000000174
 30
0.0
 11
207.0419999999999
 21
2.000000000000019
 31
0.0
  0
LINE
  5
2B4
330
1E
100
AcDbEntity
  8
0
100
AcDbLine
 10
207.0419999999999
 20
0.0000000000000174
 30
0.0
 11
209.208
 21
0.0000000000000172
 31
0.0
  0
LINE
  5
2B5
330
1E
100
AcDbEntity
  8
0
100
AcDbLine
 10
207.0419999999999
 20
0.0000000000000174
 30
0.0
 11
207.633
 21
0.0000000000000173
 31
0.0
  0
LINE
  5
2B6
330
1E
100
AcDbEntity
  8
0
100
AcDbLine
 10
201.0829999999999
 20
0.0000000000000177
 30
0.0
 11
201.0829999999999
 21
2.000000000000019
 31
0.0
  0
LINE
  5
2B7
330
1E
100
AcDbEntity
  8
0
100
AcDbLine
 10
198.917
 20
0.0000000000000179
 30
0.0
 11
201.0829999999999
 21
0.0000000000000177
 31
0.0
  0
LINE
  5
2B8
330
1E
100
AcDbEntity
  8
0
100
AcDbLine
 10
198.917
 20
0.0000000000000179
 30
0.0
 11
198.917
 21
2.000000000000019
 31
0.0
  0
LINE
  5
2B9
330
1E
100
AcDbEntity
  8
0
100
AcDbLine
 10
197.667
 20
0.0000000000000179
 30
0.0
 11
198.917
 21
0.0000000000000179
 31
0.0
  0
LINE
  5
2BA
330
1E
100
AcDbEntity
  8
0
100
AcDbLine
 10
197.667
 20
0.0000000000000179
 30
0.0
 11
197.667
 21
2.000000000000019
 31
0.0
  0
LINE
  5
2BB
330
1E
100
AcDbEntity
  8
0
100
AcDbLine
 10
197.667
 20
0.0000000000000179
 30
0.0
 11
199.8329999999999
 21
0.0000000000000178
 31
0.0
  0
LINE
  5
2BC
330
1E
100
AcDbEntity
  8
0
100
AcDbLine
 10
191.542
 20
0.0000000000000183
 30
0.0
 11
193.3099999999999
 21
0.0000000000000182
 31
0.0
  0
LINE
  5
2BD
330
1E
100
AcDbEntity
  8
0
100
AcDbLine
 10
219.8329999999999
 20
2.000000000000019
 30
0.0
 11
219.8329999999999
 21
0.0000000000000165
 31
0.0
  0
LINE
  5
2BE
330
1E
100
AcDbEntity
  8
0
100
AcDbLine
 10
190.4579999999999
 20
0.0000000000000184
 30
0.0
 11
191.708
 21
0.0000000000000183
 31
0.0
  0
LINE
  5
2BF
330
1E
100
AcDbEntity
  8
0
100
AcDbLine
 10
190.4579999999999
 20
0.0000000000000184
 30
0.0
 11
191.9359999999999
 21
0.0000000000000183
 31
0.0
  0
LINE
  5
2C0
330
1E
100
AcDbEntity
  8
0
100
AcDbLine
 10
191.708
 20
0.0000000000000183
 30
0.0
 11
191.708
 21
2.000000000000019
 31
0.0
  0
LINE
  5
2C1
330
1E
100
AcDbEntity
  8
0
100
AcDbLine
 10
191.708
 20
0.0000000000000183
 30
0.0
 11
193.3099999999999
 21
0.0000000000000182
 31
0.0
  0
LINE
  5
2C2
330
1E
100
AcDbEntity
  8
0
100
AcDbLine
 10
189.542
 20
0.0000000000000184
 30
0.0
 11
191.708
 21
0.0000000000000183
 31
0.0
  0
LINE
  5
2C3
330
1E
100
AcDbEntity
  8
0
100
AcDbLine
 10
189.542
 20
0.0000000000000184
 30
0.0
 11
189.542
 21
2.000000000000019
 31
0.0
  0
LINE
  5
2C4
330
1E
100
AcDbEntity
  8
0
100
AcDbLine
 10
206.569
 20
2.000000000000019
 30
0.0
 11
206.569
 21
0.0000000000000173
 31
0.0
  0
LINE
  5
2C5
330
1E
100
AcDbEntity
  8
0
100
AcDbLine
 10
206.569
 20
2.000000000000019
 30
0.0
 11
206.875
 21
2.000000000000019
 31
0.0
  0
LINE
  5
2C6
330
1E
100
AcDbEntity
  8
0
100
AcDbLine
 10
207.0419999999999
 20
2.000000000000019
 30
0.0
 11
207.0419999999999
 21
0.0000000000000173
 31
0.0
  0
LINE
  5
2C7
330
1E
100
AcDbEntity
  8
0
100
AcDbLine
 10
210.694
 20
2.000000000000019
 30
0.0
 11
210.694
 21
0.0000000000000171
 31
0.0
  0
LINE
  5
2C8
330
1E
100
AcDbEntity
  8
0
100
AcDbLine
 10
210.4579999999999
 20
2.000000000000019
 30
0.0
 11
210.4579999999999
 21
0.0000000000000171
 31
0.0
  0
LINE
  5
2C9
330
1E
100
AcDbEntity
  8
0
100
AcDbLine
 10
210.4579999999999
 20
2.000000000000019
 30
0.0
 11
210.694
 21
2.000000000000019
 31
0.0
  0
LINE
  5
2CA
330
1E
100
AcDbEntity
  8
0
100
AcDbLine
 10
208.292
 20
2.000000000000019
 30
0.0
 11
208.292
 21
0.0000000000000173
 31
0.0
  0
LINE
  5
2CB
330
1E
100
AcDbEntity
  8
0
100
AcDbLine
 10
216.4169999999999
 20
2.000000000000019
 30
0.0
 11
216.4169999999999
 21
0.0000000000000168
 31
0.0
  0
LINE
  5
2CC
330
1E
100
AcDbEntity
  8
0
100
AcDbLine
 10
217.667
 20
2.000000000000019
 30
0.0
 11
217.667
 21
0.0000000000000168
 31
0.0
  0
LINE
  5
2CD
330
1E
100
AcDbEntity
  8
0
100
AcDbLine
 10
212.5
 20
2.000000000000019
 30
0.0
 11
216.4169999999999
 21
2.000000000000019
 31
0.0
  0
LINE
  5
2CE
330
1E
100
AcDbEntity
  8
0
100
AcDbLine
 10
212.5
 20
2.000000000000019
 30
0.0
 11
212.5
 21
0.0000000000000171
 31
0.0
  0
LINE
  5
2CF
330
1E
100
AcDbEntity
  8
0
100
AcDbLine
 10
221.5949999999999
 20
2.000000000000019
 30
0.0
 11
224.0
 21
2.000000000000019
 31
0.0
  0
LINE
  5
2D0
330
1E
100
AcDbEntity
  8
0
100
AcDbLine
 10
221.5949999999999
 20
2.000000000000019
 30
0.0
 11
221.5949999999999
 21
0.0000000000000165
 31
0.0
  0
LINE
  5
2D1
330
1E
100
AcDbEntity
  8
0
100
AcDbLine
 10
228.75
 20
0.000000000000016
 30
0.0
 11
231.25
 21
0.0000000000000159
 31
0.0
  0
LINE
  5
2D2
330
1E
100
AcDbEntity
  8
0
100
AcDbLine
 10
234.852
 20
0.0000000000000157
 30
0.0
 11
234.852
 21
2.000000000000019
 31
0.0
  0
LINE
  5
2D3
330
1E
100
AcDbEntity
  8
0
100
AcDbLine
 10
235.0629999999999
 20
0.0000000000000156
 30
0.0
 11
237.2269999999999
 21
0.0000000000000155
 31
0.0
  0
LINE
  5
2D4
330
1E
100
AcDbEntity
  8
0
100
AcDbLine
 10
244.5749999999999
 20
0.0000000000000151
 30
0.0
 11
246.344
 21
0.000000000000015
 31
0.0
  0
LINE
  5
2D5
330
1E
100
AcDbEntity
  8
0
100
AcDbLine
 10
244.5749999999999
 20
0.0000000000000151
 30
0.0
 11
244.5749999999999
 21
2.000000000000019
 31
0.0
  0
LINE
  5
2D6
330
1E
100
AcDbEntity
  8
0
100
AcDbLine
 10
244.5009999999999
 20
0.0000000000000151
 30
0.0
 11
246.916
 21
0.0000000000000149
 31
0.0
  0
LINE
  5
2D7
330
1E
100
AcDbEntity
  8
0
100
AcDbLine
 10
244.5009999999999
 20
0.0000000000000151
 30
0.0
 11
244.5749999999999
 21
0.0000000000000151
 31
0.0
  0
LINE
  5
2D8
330
1E
100
AcDbEntity
  8
0
100
AcDbLine
 10
247.5
 20
0.0000000000000149
 30
0.0
 11
250.0
 21
0.0000000000000147
 31
0.0
  0
LINE
  5
2D9
330
1E
100
AcDbEntity
  8
0
100
AcDbLine
 10
250.0
 20
0.0000000000000147
 30
0.0
 11
250.0
 21
2.00000000000001
 31
0.0
  0
LINE
  5
2DA
330
1E
100
AcDbEntity
  8
0
100
AcDbLine
 10
248.111
 20
0.0000000000000148
 30
0.0
 11
248.111
 21
2.00000000000001
 31
0.0
  0
LINE
  5
2DB
330
1E
100
AcDbEntity
  8
0
100
AcDbLine
 10
246.344
 20
0.000000000000015
 30
0.0
 11
248.111
 21
0.0000000000000148
 31
0.0
  0
LINE
  5
2DC
330
1E
100
AcDbEntity
  8
0
100
AcDbLine
 10
246.344
 20
0.000000000000015
 30
0.0
 11
246.344
 21
2.000000000000019
 31
0.0
  0
LINE
  5
2DD
330
1E
100
AcDbEntity
  8
0
100
AcDbLine
 10
246.344
 20
0.000000000000015
 30
0.0
 11
246.916
 21
0.0000000000000149
 31
0.0
  0
LINE
  5
2DE
330
1E
100
AcDbEntity
  8
0
100
AcDbLine
 10
246.269
 20
0.000000000000015
 30
0.0
 11
246.916
 21
0.0000000000000149
 31
0.0
  0
LINE
  5
2DF
330
1E
100
AcDbEntity
  8
0
100
AcDbLine
 10
243.854
 20
0.0000000000000151
 30
0.0
 11
243.854
 21
2.000000000000019
 31
0.0
  0
LINE
  5
2E0
330
1E
100
AcDbEntity
  8
0
100
AcDbLine
 10
243.854
 20
0.0000000000000151
 30
0.0
 11
246.269
 21
0.000000000000015
 31
0.0
  0
LINE
  5
2E1
330
1E
100
AcDbEntity
  8
0
100
AcDbLine
 10
243.854
 20
0.0000000000000151
 30
0.0
 11
244.5009999999999
 21
0.0000000000000151
 31
0.0
  0
LINE
  5
2E2
330
1E
100
AcDbEntity
  8
0
100
AcDbLine
 10
262.612
 20
0.000000000000014
 30
0.0
 11
265.0269999999999
 21
0.0000000000000138
 31
0.0
  0
LINE
  5
2E3
330
1E
100
AcDbEntity
  8
0
100
AcDbLine
 10
268.75
 20
0.0000000000000136
 30
0.0
 11
269.704
 21
0.0000000000000135
 31
0.0
  0
LINE
  5
2E4
330
1E
100
AcDbEntity
  8
0
100
AcDbLine
 10
269.704
 20
0.0000000000000135
 30
0.0
 11
269.704
 21
2.00000000000001
 31
0.0
  0
LINE
  5
2E5
330
1E
100
AcDbEntity
  8
0
100
AcDbLine
 10
268.454
 20
0.0000000000000136
 30
0.0
 11
269.704
 21
0.0000000000000135
 31
0.0
  0
LINE
  5
2E6
330
1E
100
AcDbEntity
  8
0
100
AcDbLine
 10
268.454
 20
0.0000000000000136
 30
0.0
 11
268.454
 21
2.00000000000001
 31
0.0
  0
LINE
  5
2E7
330
1E
100
AcDbEntity
  8
0
100
AcDbLine
 10
266.25
 20
0.0000000000000137
 30
0.0
 11
266.25
 21
2.00000000000001
 31
0.0
  0
LINE
  5
2E8
330
1E
100
AcDbEntity
  8
0
100
AcDbLine
 10
266.2889999999999
 20
0.0000000000000137
 30
0.0
 11
268.454
 21
0.0000000000000136
 31
0.0
  0
LINE
  5
2E9
330
1E
100
AcDbEntity
  8
0
100
AcDbLine
 10
266.2889999999999
 20
0.0000000000000137
 30
0.0
 11
266.2889999999999
 21
2.00000000000001
 31
0.0
  0
LINE
  5
2EA
330
1E
100
AcDbEntity
  8
0
100
AcDbLine
 10
287.5
 20
0.0000000000000124
 30
0.0
 11
287.5
 21
2.00000000000001
 31
0.0
  0
LINE
  5
2EB
330
1E
100
AcDbEntity
  8
0
100
AcDbLine
 10
285.0
 20
0.0000000000000126
 30
0.0
 11
285.0
 21
2.00000000000001
 31
0.0
  0
LINE
  5
2EC
330
1E
100
AcDbEntity
  8
0
100
AcDbLine
 10
285.0
 20
0.0000000000000126
 30
0.0
 11
287.5
 21
0.0000000000000124
 31
0.0
  0
LINE
  5
2ED
330
1E
100
AcDbEntity
  8
0
100
AcDbLine
 10
283.139
 20
0.0000000000000127
 30
0.0
 11
283.139
 21
2.00000000000001
 31
0.0
  0
LINE
  5
2EE
330
1E
100
AcDbEntity
  8
0
100
AcDbLine
 10
280.7239999999999
 20
0.0000000000000128
 30
0.0
 11
283.139
 21
0.0000000000000127
 31
0.0
  0
LINE
  5
2EF
330
1E
100
AcDbEntity
  8
0
100
AcDbLine
 10
282.491
 20
0.0000000000000127
 30
0.0
 11
283.139
 21
0.0000000000000127
 31
0.0
  0
LINE
  5
2F0
330
1E
100
AcDbEntity
  8
0
100
AcDbLine
 10
282.491
 20
0.0000000000000127
 30
0.0
 11
282.491
 21
2.00000000000001
 31
0.0
  0
LINE
  5
2F1
330
1E
100
AcDbEntity
  8
0
100
AcDbLine
 10
280.076
 20
0.0000000000000129
 30
0.0
 11
280.076
 21
2.00000000000001
 31
0.0
  0
LINE
  5
2F2
330
1E
100
AcDbEntity
  8
0
100
AcDbLine
 10
280.076
 20
0.0000000000000129
 30
0.0
 11
282.491
 21
0.0000000000000127
 31
0.0
  0
LINE
  5
2F3
330
1E
100
AcDbEntity
  8
0
100
AcDbLine
 10
280.076
 20
0.0000000000000129
 30
0.0
 11
280.7239999999999
 21
0.0000000000000128
 31
0.0
  0
LINE
  5
2F4
330
1E
100
AcDbEntity
  8
0
100
AcDbLine
 10
265.0269999999999
 20
0.0000000000000138
 30
0.0
 11
265.0269999999999
 21
2.00000000000001
 31
0.0
  0
LINE
  5
2F5
330
1E
100
AcDbEntity
  8
0
100
AcDbLine
 10
264.38
 20
0.0000000000000138
 30
0.0
 11
265.0269999999999
 21
0.0000000000000138
 31
0.0
  0
LINE
  5
2F6
330
1E
100
AcDbEntity
  8
0
100
AcDbLine
 10
264.38
 20
0.0000000000000138
 30
0.0
 11
264.38
 21
2.00000000000001
 31
0.0
  0
LINE
  5
2F7
330
1E
100
AcDbEntity
  8
0
100
AcDbLine
 10
261.9649999999999
 20
0.000000000000014
 30
0.0
 11
261.9649999999999
 21
2.00000000000001
 31
0.0
  0
LINE
  5
2F8
330
1E
100
AcDbEntity
  8
0
100
AcDbLine
 10
261.9649999999999
 20
0.000000000000014
 30
0.0
 11
264.38
 21
0.0000000000000138
 31
0.0
  0
LINE
  5
2F9
330
1E
100
AcDbEntity
  8
0
100
AcDbLine
 10
261.9649999999999
 20
0.000000000000014
 30
0.0
 11
262.612
 21
0.000000000000014
 31
0.0
  0
LINE
  5
2FA
330
1E
100
AcDbEntity
  8
0
100
AcDbLine
 10
253.465
 20
0.0000000000000145
 30
0.0
 11
253.465
 21
2.00000000000001
 31
0.0
  0
LINE
  5
2FB
330
1E
100
AcDbEntity
  8
0
100
AcDbLine
 10
251.3
 20
0.0000000000000146
 30
0.0
 11
252.2149999999999
 21
0.0000000000000146
 31
0.0
  0
LINE
  5
2FC
330
1E
100
AcDbEntity
  8
0
100
AcDbLine
 10
252.2149999999999
 20
0.0000000000000146
 30
0.0
 11
253.465
 21
0.0000000000000145
 31
0.0
  0
LINE
  5
2FD
330
1E
100
AcDbEntity
  8
0
100
AcDbLine
 10
252.2149999999999
 20
0.0000000000000146
 30
0.0
 11
252.2149999999999
 21
2.00000000000001
 31
0.0
  0
LINE
  5
2FE
330
1E
100
AcDbEntity
  8
0
100
AcDbLine
 10
250.05
 20
0.0000000000000147
 30
0.0
 11
252.2149999999999
 21
0.0000000000000146
 31
0.0
  0
LINE
  5
2FF
330
1E
100
AcDbEntity
  8
0
100
AcDbLine
 10
250.05
 20
0.0000000000000147
 30
0.0
 11
250.05
 21
2.00000000000001
 31
0.0
  0
LINE
  5
300
330
1E
100
AcDbEntity
  8
0
100
AcDbLine
 10
250.05
 20
0.0000000000000147
 30
0.0
 11
251.3
 21
0.0000000000000146
 31
0.0
  0
LINE
  5
301
330
1E
100
AcDbEntity
  8
0
100
AcDbLine
 10
237.2269999999999
 20
0.0000000000000155
 30
0.0
 11
237.2269999999999
 21
2.000000000000019
 31
0.0
  0
LINE
  5
302
330
1E
100
AcDbEntity
  8
0
100
AcDbLine
 10
235.977
 20
0.0000000000000156
 30
0.0
 11
237.2269999999999
 21
0.0000000000000155
 31
0.0
  0
LINE
  5
303
330
1E
100
AcDbEntity
  8
0
100
AcDbLine
 10
235.977
 20
0.0000000000000156
 30
0.0
 11
235.977
 21
2.000000000000019
 31
0.0
  0
LINE
  5
304
330
1E
100
AcDbEntity
  8
0
100
AcDbLine
 10
231.25
 20
0.0000000000000159
 30
0.0
 11
231.25
 21
2.000000000000019
 31
0.0
  0
LINE
  5
305
330
1E
100
AcDbEntity
  8
0
100
AcDbLine
 10
233.085
 20
0.0000000000000158
 30
0.0
 11
234.852
 21
0.0000000000000157
 31
0.0
  0
LINE
  5
306
330
1E
100
AcDbEntity
  8
0
100
AcDbLine
 10
233.085
 20
0.0000000000000158
 30
0.0
 11
233.085
 21
2.000000000000019
 31
0.0
  0
LINE
  5
307
330
1E
100
AcDbEntity
  8
0
100
AcDbLine
 10
233.085
 20
0.0000000000000158
 30
0.0
 11
233.813
 21
0.0000000000000157
 31
0.0
  0
LINE
  5
308
330
1E
100
AcDbEntity
  8
0
100
AcDbLine
 10
231.318
 20
0.0000000000000159
 30
0.0
 11
233.085
 21
0.0000000000000158
 31
0.0
  0
LINE
  5
309
330
1E
100
AcDbEntity
  8
0
100
AcDbLine
 10
231.318
 20
0.0000000000000159
 30
0.0
 11
231.318
 21
2.000000000000019
 31
0.0
  0
LINE
  5
30A
330
1E
100
AcDbEntity
  8
0
100
AcDbLine
 10
233.813
 20
0.0000000000000157
 30
0.0
 11
235.977
 21
0.0000000000000156
 31
0.0
  0
LINE
  5
30B
330
1E
100
AcDbEntity
  8
0
100
AcDbLine
 10
233.813
 20
0.0000000000000157
 30
0.0
 11
235.0629999999999
 21
0.0000000000000156
 31
0.0
  0
LINE
  5
30C
330
1E
100
AcDbEntity
  8
0
100
AcDbLine
 10
228.805
 20
0.000000000000016
 30
0.0
 11
228.805
 21
2.000000000000019
 31
0.0
  0
LINE
  5
30D
330
1E
100
AcDbEntity
  8
0
100
AcDbLine
 10
226.39
 20
0.0000000000000162
 30
0.0
 11
228.805
 21
0.000000000000016
 31
0.0
  0
LINE
  5
30E
330
1E
100
AcDbEntity
  8
0
100
AcDbLine
 10
226.39
 20
0.0000000000000162
 30
0.0
 11
228.75
 21
0.000000000000016
 31
0.0
  0
LINE
  5
30F
330
1E
100
AcDbEntity
  8
0
100
AcDbLine
 10
228.1579999999999
 20
0.0000000000000161
 30
0.0
 11
228.805
 21
0.000000000000016
 31
0.0
  0
LINE
  5
310
330
1E
100
AcDbEntity
  8
0
100
AcDbLine
 10
228.1579999999999
 20
0.0000000000000161
 30
0.0
 11
228.1579999999999
 21
2.000000000000019
 31
0.0
  0
LINE
  5
311
330
1E
100
AcDbEntity
  8
0
100
AcDbLine
 10
225.744
 20
0.0000000000000162
 30
0.0
 11
225.744
 21
2.000000000000019
 31
0.0
  0
LINE
  5
312
330
1E
100
AcDbEntity
  8
0
100
AcDbLine
 10
225.744
 20
0.0000000000000162
 30
0.0
 11
228.1579999999999
 21
0.0000000000000161
 31
0.0
  0
LINE
  5
313
330
1E
100
AcDbEntity
  8
0
100
AcDbLine
 10
225.744
 20
0.0000000000000162
 30
0.0
 11
226.39
 21
0.0000000000000162
 31
0.0
  0
LINE
  5
314
330
1E
100
AcDbEntity
  8
0
100
AcDbLine
 10
287.5
 20
2.00000000000001
 30
0.0
 11
293.3749999999999
 21
2.00000000000001
 31
0.0
  0
LINE
  5
315
330
1E
100
AcDbEntity
  8
0
100
AcDbLine
 10
287.5
 20
2.00000000000001
 30
0.0
 11
287.5
 21
0.0000000000000124
 31
0.0
  0
LINE
  5
316
330
1E
100
AcDbEntity
  8
0
100
AcDbLine
 10
266.25
 20
2.00000000000001
 30
0.0
 11
266.25
 21
0.0000000000000137
 31
0.0
  0
LINE
  5
317
330
1E
100
AcDbEntity
  8
0
100
AcDbLine
 10
266.2889999999999
 20
2.00000000000001
 30
0.0
 11
267.75
 21
2.00000000000001
 31
0.0
  0
LINE
  5
318
330
1E
100
AcDbEntity
  8
0
100
AcDbLine
 10
266.2889999999999
 20
2.00000000000001
 30
0.0
 11
266.2889999999999
 21
0.0000000000000137
 31
0.0
  0
LINE
  5
319
330
1E
100
AcDbEntity
  8
0
100
AcDbLine
 10
268.454
 20
2.00000000000001
 30
0.0
 11
268.454
 21
0.0000000000000137
 31
0.0
  0
LINE
  5
31A
330
1E
100
AcDbEntity
  8
0
100
AcDbLine
 10
265.0269999999999
 20
2.00000000000001
 30
0.0
 11
265.0269999999999
 21
0.0000000000000137
 31
0.0
  0
LINE
  5
31B
330
1E
100
AcDbEntity
  8
0
100
AcDbLine
 10
269.704
 20
2.00000000000001
 30
0.0
 11
269.704
 21
0.0000000000000134
 31
0.0
  0
LINE
  5
31C
330
1E
100
AcDbEntity
  8
0
100
AcDbLine
 10
268.75
 20
2.00000000000001
 30
0.0
 11
278.8749999999999
 21
2.00000000000001
 31
0.0
  0
LINE
  5
31D
330
1E
100
AcDbEntity
  8
0
100
AcDbLine
 10
252.2149999999999
 20
2.00000000000001
 30
0.0
 11
252.2149999999999
 21
0.0000000000000145
 31
0.0
  0
LINE
  5
31E
330
1E
100
AcDbEntity
  8
0
100
AcDbLine
 10
252.2149999999999
 20
2.00000000000001
 30
0.0
 11
253.465
 21
2.00000000000001
 31
0.0
  0
LINE
  5
31F
330
1E
100
AcDbEntity
  8
0
100
AcDbLine
 10
248.111
 20
2.00000000000001
 30
0.0
 11
248.111
 21
0.0000000000000147
 31
0.0
  0
LINE
  5
320
330
1E
100
AcDbEntity
  8
0
100
AcDbLine
 10
250.05
 20
2.00000000000001
 30
0.0
 11
250.05
 21
0.0000000000000147
 31
0.0
  0
LINE
  5
321
330
1E
100
AcDbEntity
  8
0
100
AcDbLine
 10
244.5749999999999
 20
2.000000000000019
 30
0.0
 11
244.5749999999999
 21
0.000000000000015
 31
0.0
  0
LINE
  5
322
330
1E
100
AcDbEntity
  8
0
100
AcDbLine
 10
246.344
 20
2.000000000000019
 30
0.0
 11
246.344
 21
0.000000000000015
 31
0.0
  0
LINE
  5
323
330
1E
100
AcDbEntity
  8
0
100
AcDbLine
 10
246.344
 20
2.000000000000019
 30
0.0
 11
248.111
 21
2.00000000000001
 31
0.0
  0
LINE
  5
324
330
1E
100
AcDbEntity
  8
0
100
AcDbLine
 10
243.854
 20
2.000000000000019
 30
0.0
 11
244.5749999999999
 21
2.000000000000019
 31
0.0
  0
LINE
  5
325
330
1E
100
AcDbEntity
  8
0
100
AcDbLine
 10
243.854
 20
2.000000000000019
 30
0.0
 11
243.854
 21
0.000000000000015
 31
0.0
  0
LINE
  5
326
330
1E
100
AcDbEntity
  8
0
100
AcDbLine
 10
247.5
 20
2.000000000000019
 30
0.0
 11
250.0
 21
2.00000000000001
 31
0.0
  0
LINE
  5
327
330
1E
100
AcDbEntity
  8
0
100
AcDbLine
 10
246.916
 20
2.000000000000019
 30
0.0
 11
247.5
 21
2.000000000000019
 31
0.0
  0
LINE
  5
328
330
1E
100
AcDbEntity
  8
0
100
AcDbLine
 10
250.0
 20
2.00000000000001
 30
0.0
 11
250.05
 21
2.00000000000001
 31
0.0
  0
LINE
  5
329
330
1E
100
AcDbEntity
  8
0
100
AcDbLine
 10
250.0
 20
2.00000000000001
 30
0.0
 11
250.0
 21
0.0000000000000147
 31
0.0
  0
LINE
  5
32A
330
1E
100
AcDbEntity
  8
0
100
AcDbLine
 10
251.3
 20
2.00000000000001
 30
0.0
 11
252.2149999999999
 21
2.00000000000001
 31
0.0
  0
LINE
  5
32B
330
1E
100
AcDbEntity
  8
0
100
AcDbLine
 10
253.465
 20
2.00000000000001
 30
0.0
 11
255.0
 21
2.00000000000001
 31
0.0
  0
LINE
  5
32C
330
1E
100
AcDbEntity
  8
0
100
AcDbLine
 10
253.465
 20
2.00000000000001
 30
0.0
 11
253.465
 21
0.0000000000000145
 31
0.0
  0
LINE
  5
32D
330
1E
100
AcDbEntity
  8
0
100
AcDbLine
 10
264.38
 20
2.00000000000001
 30
0.0
 11
264.38
 21
0.000000000000014
 31
0.0
  0
LINE
  5
32E
330
1E
100
AcDbEntity
  8
0
100
AcDbLine
 10
264.38
 20
2.00000000000001
 30
0.0
 11
265.0269999999999
 21
2.00000000000001
 31
0.0
  0
LINE
  5
32F
330
1E
100
AcDbEntity
  8
0
100
AcDbLine
 10
261.9649999999999
 20
2.00000000000001
 30
0.0
 11
264.38
 21
2.00000000000001
 31
0.0
  0
LINE
  5
330
330
1E
100
AcDbEntity
  8
0
100
AcDbLine
 10
261.9649999999999
 20
2.00000000000001
 30
0.0
 11
261.9649999999999
 21
0.000000000000014
 31
0.0
  0
LINE
  5
331
330
1E
100
AcDbEntity
  8
0
100
AcDbLine
 10
255.0
 20
2.00000000000001
 30
0.0
 11
267.75
 21
2.00000000000001
 31
0.0
  0
LINE
  5
332
330
1E
100
AcDbEntity
  8
0
100
AcDbLine
 10
267.75
 20
2.00000000000001
 30
0.0
 11
278.8749999999999
 21
2.00000000000001
 31
0.0
  0
LINE
  5
333
330
1E
100
AcDbEntity
  8
0
100
AcDbLine
 10
285.0
 20
2.00000000000001
 30
0.0
 11
285.0
 21
0.0000000000000127
 31
0.0
  0
LINE
  5
334
330
1E
100
AcDbEntity
  8
0
100
AcDbLine
 10
282.491
 20
2.00000000000001
 30
0.0
 11
282.491
 21
0.0000000000000127
 31
0.0
  0
LINE
  5
335
330
1E
100
AcDbEntity
  8
0
100
AcDbLine
 10
282.491
 20
2.00000000000001
 30
0.0
 11
283.139
 21
2.00000000000001
 31
0.0
  0
LINE
  5
336
330
1E
100
AcDbEntity
  8
0
100
AcDbLine
 10
280.7239999999999
 20
2.00000000000001
 30
0.0
 11
282.491
 21
2.00000000000001
 31
0.0
  0
LINE
  5
337
330
1E
100
AcDbEntity
  8
0
100
AcDbLine
 10
280.076
 20
2.00000000000001
 30
0.0
 11
282.491
 21
2.00000000000001
 31
0.0
  0
LINE
  5
338
330
1E
100
AcDbEntity
  8
0
100
AcDbLine
 10
280.076
 20
2.00000000000001
 30
0.0
 11
280.076
 21
0.0000000000000129
 31
0.0
  0
LINE
  5
339
330
1E
100
AcDbEntity
  8
0
100
AcDbLine
 10
283.139
 20
2.00000000000001
 30
0.0
 11
285.0
 21
2.00000000000001
 31
0.0
  0
LINE
  5
33A
330
1E
100
AcDbEntity
  8
0
100
AcDbLine
 10
283.139
 20
2.00000000000001
 30
0.0
 11
283.139
 21
0.0000000000000127
 31
0.0
  0
LINE
  5
33B
330
1E
100
AcDbEntity
  8
0
100
AcDbLine
 10
278.8749999999999
 20
2.00000000000001
 30
0.0
 11
287.1249999999999
 21
2.00000000000001
 31
0.0
  0
LINE
  5
33C
330
1E
100
AcDbEntity
  8
0
100
AcDbLine
 10
278.8749999999999
 20
2.00000000000001
 30
0.0
 11
280.076
 21
2.00000000000001
 31
0.0
  0
LINE
  5
33D
330
1E
100
AcDbEntity
  8
0
100
AcDbLine
 10
287.1249999999999
 20
2.00000000000001
 30
0.0
 11
293.3749999999999
 21
2.00000000000001
 31
0.0
  0
LINE
  5
33E
330
1E
100
AcDbEntity
  8
0
100
AcDbLine
 10
293.3749999999999
 20
2.00000000000001
 30
0.0
 11
297.25
 21
2.00000000000001
 31
0.0
  0
LINE
  5
33F
330
1E
100
AcDbEntity
  8
0
100
AcDbLine
 10
297.25
 20
2.00000000000001
 30
0.0
 11
298.75
 21
2.00000000000001
 31
0.0
  0
LINE
  5
340
330
1E
100
AcDbEntity
  8
0
100
AcDbLine
 10
298.75
 20
2.00000000000001
 30
0.0
 11
300.0
 21
3.000000000000009
 31
0.0
  0
LINE
  5
341
330
1E
100
AcDbEntity
  8
0
100
AcDbLine
 10
231.25
 20
2.000000000000019
 30
0.0
 11
231.25
 21
0.0000000000000158
 31
0.0
  0
LINE
  5
342
330
1E
100
AcDbEntity
  8
0
100
AcDbLine
 10
231.318
 20
2.000000000000019
 30
0.0
 11
231.318
 21
0.0000000000000158
 31
0.0
  0
LINE
  5
343
330
1E
100
AcDbEntity
  8
0
100
AcDbLine
 10
234.852
 20
2.000000000000019
 30
0.0
 11
234.852
 21
0.0000000000000158
 31
0.0
  0
LINE
  5
344
330
1E
100
AcDbEntity
  8
0
100
AcDbLine
 10
233.085
 20
2.000000000000019
 30
0.0
 11
233.085
 21
0.0000000000000158
 31
0.0
  0
LINE
  5
345
330
1E
100
AcDbEntity
  8
0
100
AcDbLine
 10
235.977
 20
2.000000000000019
 30
0.0
 11
235.977
 21
0.0000000000000155
 31
0.0
  0
LINE
  5
346
330
1E
100
AcDbEntity
  8
0
100
AcDbLine
 10
228.1579999999999
 20
2.000000000000019
 30
0.0
 11
228.1579999999999
 21
0.000000000000016
 31
0.0
  0
LINE
  5
347
330
1E
100
AcDbEntity
  8
0
100
AcDbLine
 10
225.744
 20
2.000000000000019
 30
0.0
 11
225.744
 21
0.0000000000000163
 31
0.0
  0
LINE
  5
348
330
1E
100
AcDbEntity
  8
0
100
AcDbLine
 10
228.805
 20
2.000000000000019
 30
0.0
 11
231.318
 21
2.000000000000019
 31
0.0
  0
LINE
  5
349
330
1E
100
AcDbEntity
  8
0
100
AcDbLine
 10
228.805
 20
2.000000000000019
 30
0.0
 11
228.805
 21
0.000000000000016
 31
0.0
  0
LINE
  5
34A
330
1E
100
AcDbEntity
  8
0
100
AcDbLine
 10
228.805
 20
2.000000000000019
 30
0.0
 11
231.25
 21
2.000000000000019
 31
0.0
  0
LINE
  5
34B
330
1E
100
AcDbEntity
  8
0
100
AcDbLine
 10
237.2269999999999
 20
2.000000000000019
 30
0.0
 11
240.375
 21
2.000000000000019
 31
0.0
  0
LINE
  5
34C
330
1E
100
AcDbEntity
  8
0
100
AcDbLine
 10
237.2269999999999
 20
2.000000000000019
 30
0.0
 11
237.2269999999999
 21
0.0000000000000155
 31
0.0
  0
LINE
  5
34D
330
1E
100
AcDbEntity
  8
0
100
AcDbLine
 10
240.375
 20
2.000000000000019
 30
0.0
 11
255.0
 21
2.00000000000001
 31
0.0
  0
LINE
  5
34E
330
1E
100
AcDbEntity
  8
0
100
AcDbLine
 10
240.375
 20
2.000000000000019
 30
0.0
 11
243.854
 21
2.000000000000019
 31
0.0
  0
LINE
  5
34F
330
1E
100
AcDbEntity
  8
0
100
AcDbLine
 10
224.0
 20
2.000000000000019
 30
0.0
 11
240.375
 21
2.000000000000019
 31
0.0
  0
LINE
  5
350
330
1E
100
AcDbEntity
  8
0
100
AcDbLine
 10
224.0
 20
2.000000000000019
 30
0.0
 11
225.744
 21
2.000000000000019
 31
0.0
  0
LINE
  5
351
330
1E
100
AcDbEntity
  8
0
100
AcDbLine
 10
197.667
 20
2.000000000000019
 30
0.0
 11
198.917
 21
2.000000000000019
 31
0.0
  0
LINE
  5
352
330
1E
100
AcDbEntity
  8
0
100
AcDbLine
 10
197.667
 20
2.000000000000019
 30
0.0
 11
197.667
 21
0.0000000000000178
 31
0.0
  0
LINE
  5
353
330
1E
100
AcDbEntity
  8
0
100
AcDbLine
 10
193.3099999999999
 20
2.000000000000019
 30
0.0
 11
193.3099999999999
 21
0.0000000000000181
 31
0.0
  0
LINE
  5
354
330
1E
100
AcDbEntity
  8
0
100
AcDbLine
 10
193.3099999999999
 20
2.000000000000019
 30
0.0
 11
195.077
 21
2.000000000000019
 31
0.0
  0
LINE
  5
355
330
1E
100
AcDbEntity
  8
0
100
AcDbLine
 10
198.917
 20
2.000000000000019
 30
0.0
 11
198.917
 21
0.0000000000000178
 31
0.0
  0
LINE
  5
356
330
1E
100
AcDbEntity
  8
0
100
AcDbLine
 10
204.801
 20
2.000000000000019
 30
0.0
 11
206.569
 21
2.000000000000019
 31
0.0
  0
LINE
  5
357
330
1E
100
AcDbEntity
  8
0
100
AcDbLine
 10
204.801
 20
2.000000000000019
 30
0.0
 11
204.801
 21
0.0000000000000176
 31
0.0
  0
LINE
  5
358
330
1E
100
AcDbEntity
  8
0
100
AcDbLine
 10
203.5009999999999
 20
2.000000000000019
 30
0.0
 11
203.5009999999999
 21
0.0000000000000176
 31
0.0
  0
LINE
  5
359
330
1E
100
AcDbEntity
  8
0
100
AcDbLine
 10
201.336
 20
2.000000000000019
 30
0.0
 11
201.336
 21
0.0000000000000178
 31
0.0
  0
LINE
  5
35A
330
1E
100
AcDbEntity
  8
0
100
AcDbLine
 10
204.7509999999999
 20
2.000000000000019
 30
0.0
 11
204.801
 21
2.000000000000019
 31
0.0
  0
LINE
  5
35B
330
1E
100
AcDbEntity
  8
0
100
AcDbLine
 10
204.7509999999999
 20
2.000000000000019
 30
0.0
 11
204.7509999999999
 21
0.0000000000000176
 31
0.0
  0
LINE
  5
35C
330
1E
100
AcDbEntity
  8
0
100
AcDbLine
 10
201.0829999999999
 20
2.000000000000019
 30
0.0
 11
201.336
 21
2.000000000000019
 31
0.0
  0
LINE
  5
35D
330
1E
100
AcDbEntity
  8
0
100
AcDbLine
 10
201.0829999999999
 20
2.000000000000019
 30
0.0
 11
201.0829999999999
 21
0.0000000000000178
 31
0.0
  0
LINE
  5
35E
330
1E
100
AcDbEntity
  8
0
100
AcDbLine
 10
191.708
 20
2.000000000000019
 30
0.0
 11
191.708
 21
0.0000000000000184
 31
0.0
  0
LINE
  5
35F
330
1E
100
AcDbEntity
  8
0
100
AcDbLine
 10
191.708
 20
2.000000000000019
 30
0.0
 11
191.9359999999999
 21
2.000000000000019
 31
0.0
  0
LINE
  5
360
330
1E
100
AcDbEntity
  8
0
100
AcDbLine
 10
189.542
 20
2.000000000000019
 30
0.0
 11
189.542
 21
0.0000000000000184
 31
0.0
  0
LINE
  5
361
330
1E
100
AcDbEntity
  8
0
100
AcDbLine
 10
189.542
 20
2.000000000000019
 30
0.0
 11
191.708
 21
2.000000000000019
 31
0.0
  0
LINE
  5
362
330
1E
100
AcDbEntity
  8
0
100
AcDbLine
 10
192.5829999999999
 20
2.000000000000019
 30
0.0
 11
193.3099999999999
 21
2.000000000000019
 31
0.0
  0
LINE
  5
363
330
1E
100
AcDbEntity
  8
0
100
AcDbLine
 10
195.077
 20
2.000000000000019
 30
0.0
 11
197.667
 21
2.000000000000019
 31
0.0
  0
LINE
  5
364
330
1E
100
AcDbEntity
  8
0
100
AcDbLine
 10
195.077
 20
2.000000000000019
 30
0.0
 11
195.077
 21
0.0000000000000181
 31
0.0
  0
LINE
  5
365
330
1E
100
AcDbEntity
  8
0
100
AcDbLine
 10
188.5139999999999
 20
2.000000000000019
 30
0.0
 11
189.5209999999999
 21
2.000000000000019
 31
0.0
  0
LINE
  5
366
330
1E
100
AcDbEntity
  8
0
100
AcDbLine
 10
206.875
 20
2.000000000000019
 30
0.0
 11
224.0
 21
2.000000000000019
 31
0.0
  0
LINE
  5
367
330
1E
100
AcDbEntity
  8
0
100
AcDbLine
 10
188.375
 20
2.000000000000019
 30
0.0
 11
206.875
 21
2.000000000000019
 31
0.0
  0
LINE
  5
368
330
1E
100
AcDbEntity
  8
0
100
AcDbLine
 10
162.5309999999999
 20
2.000000000000019
 30
0.0
 11
163.583
 21
2.000000000000019
 31
0.0
  0
LINE
  5
369
330
1E
100
AcDbEntity
  8
0
100
AcDbLine
 10
163.583
 20
2.000000000000019
 30
0.0
 11
163.583
 21
0.0000000000000199
 31
0.0
  0
LINE
  5
36A
330
1E
100
AcDbEntity
  8
0
100
AcDbLine
 10
164.321
 20
2.000000000000019
 30
0.0
 11
164.969
 21
2.000000000000019
 31
0.0
  0
LINE
  5
36B
330
1E
100
AcDbEntity
  8
0
100
AcDbLine
 10
164.321
 20
2.000000000000019
 30
0.0
 11
164.321
 21
0.0000000000000199
 31
0.0
  0
LINE
  5
36C
330
1E
100
AcDbEntity
  8
0
100
AcDbLine
 10
167.384
 20
2.000000000000019
 30
0.0
 11
167.384
 21
0.0000000000000199
 31
0.0
  0
LINE
  5
36D
330
1E
100
AcDbEntity
  8
0
100
AcDbLine
 10
164.969
 20
2.000000000000019
 30
0.0
 11
164.969
 21
0.0000000000000199
 31
0.0
  0
LINE
  5
36E
330
1E
100
AcDbEntity
  8
0
100
AcDbLine
 10
162.5309999999999
 20
2.000000000000019
 30
0.0
 11
162.5309999999999
 21
0.0000000000000202
 31
0.0
  0
LINE
  5
36F
330
1E
100
AcDbEntity
  8
0
100
AcDbLine
 10
159.4689999999999
 20
2.000000000000019
 30
0.0
 11
160.116
 21
2.000000000000019
 31
0.0
  0
LINE
  5
370
330
1E
100
AcDbEntity
  8
0
100
AcDbLine
 10
159.4689999999999
 20
2.000000000000019
 30
0.0
 11
159.4689999999999
 21
0.0000000000000202
 31
0.0
  0
LINE
  5
371
330
1E
100
AcDbEntity
  8
0
100
AcDbLine
 10
160.116
 20
2.000000000000019
 30
0.0
 11
160.116
 21
0.0000000000000202
 31
0.0
  0
LINE
  5
372
330
1E
100
AcDbEntity
  8
0
100
AcDbLine
 10
160.116
 20
2.000000000000019
 30
0.0
 11
162.5309999999999
 21
2.000000000000019
 31
0.0
  0
LINE
  5
373
330
1E
100
AcDbEntity
  8
0
100
AcDbLine
 10
157.678
 20
2.000000000000019
 30
0.0
 11
157.678
 21
0.0000000000000204
 31
0.0
  0
LINE
  5
374
330
1E
100
AcDbEntity
  8
0
100
AcDbLine
 10
154.2479999999999
 20
2.000000000000019
 30
0.0
 11
154.616
 21
2.000000000000019
 31
0.0
  0
LINE
  5
375
330
1E
100
AcDbEntity
  8
0
100
AcDbLine
 10
152.976
 20
2.000000000000019
 30
0.0
 11
154.2479999999999
 21
2.000000000000019
 31
0.0
  0
LINE
  5
376
330
1E
100
AcDbEntity
  8
0
100
AcDbLine
 10
151.536
 20
2.000000000000019
 30
0.0
 11
152.976
 21
2.000000000000019
 31
0.0
  0
LINE
  5
377
330
1E
100
AcDbEntity
  8
0
100
AcDbLine
 10
154.616
 20
2.000000000000019
 30
0.0
 11
155.262
 21
2.000000000000019
 31
0.0
  0
LINE
  5
378
330
1E
100
AcDbEntity
  8
0
100
AcDbLine
 10
154.616
 20
2.000000000000019
 30
0.0
 11
154.616
 21
0.0000000000000207
 31
0.0
  0
LINE
  5
379
330
1E
100
AcDbEntity
  8
0
100
AcDbLine
 10
154.616
 20
2.000000000000019
 30
0.0
 11
155.262
 21
2.000000000000019
 31
0.0
  0
LINE
  5
37A
330
1E
100
AcDbEntity
  8
0
100
AcDbLine
 10
155.262
 20
2.000000000000019
 30
0.0
 11
155.262
 21
0.0000000000000204
 31
0.0
  0
LINE
  5
37B
330
1E
100
AcDbEntity
  8
0
100
AcDbLine
 10
155.262
 20
2.000000000000019
 30
0.0
 11
157.678
 21
2.000000000000019
 31
0.0
  0
LINE
  5
37C
330
1E
100
AcDbEntity
  8
0
100
AcDbLine
 10
151.25
 20
2.000000000000019
 30
0.0
 11
151.25
 21
0.0000000000000207
 31
0.0
  0
LINE
  5
37D
330
1E
100
AcDbEntity
  8
0
100
AcDbLine
 10
157.68
 20
17.0
 30
0.0
 11
164.88
 21
17.0
 31
0.0
  0
LINE
  5
37E
330
1E
100
AcDbEntity
  8
0
100
AcDbLine
 10
156.3
 20
22.0
 30
0.0
 11
162.0999999999999
 21
22.0
 31
0.0
  0
LINE
  5
37F
330
1E
100
AcDbEntity
  8
0
100
AcDbLine
 10
167.1999999999999
 20
22.0
 30
0.0
 11
171.1
 21
22.0
 31
0.0
  0
LINE
  5
380
330
1E
100
AcDbEntity
  8
0
100
AcDbLine
 10
162.0999999999999
 20
22.0
 30
0.0
 11
167.1999999999999
 21
22.0
 31
0.0
  0
LINE
  5
381
330
1E
100
AcDbEntity
  8
0
100
AcDbLine
 10
169.28
 20
22.38459999999999
 30
0.0
 11
170.0
 21
22.38459999999999
 31
0.0
  0
LINE
  5
382
330
1E
100
AcDbEntity
  8
0
100
AcDbLine
 10
167.36
 20
22.38459999999999
 30
0.0
 11
169.28
 21
22.38459999999999
 31
0.0
  0
LINE
  5
383
330
1E
100
AcDbEntity
  8
0
100
AcDbLine
 10
164.1599999999999
 20
22.38459999999999
 30
0.0
 11
167.36
 21
22.38459999999999
 31
0.0
  0
LINE
  5
384
330
1E
100
AcDbEntity
  8
0
100
AcDbLine
 10
159.9199999999999
 20
22.38459999999999
 30
0.0
 11
164.1599999999999
 21
22.38459999999999
 31
0.0
  0
LINE
  5
385
330
1E
100
AcDbEntity
  8
0
100
AcDbLine
 10
153.276
 20
52.0
 30
0.0
 11
156.292
 21
52.0
 31
0.0
  0
LINE
  5
386
330
1E
100
AcDbEntity
  8
0
100
AcDbLine
 10
153.276
 20
62.0
 30
0.0
 11
156.292
 21
62.0
 31
0.0
  0
LINE
  5
387
330
1E
100
AcDbEntity
  8
0
100
AcDbLine
 10
153.3279999999999
 20
61.6154
 30
0.0
 11
156.4479999999999
 21
61.6154
 31
0.0
  0
LINE
  5
388
330
1E
100
AcDbEntity
  8
0
100
AcDbLine
 10
153.3279999999999
 20
52.38459999999999
 30
0.0
 11
156.4479999999999
 21
52.38459999999999
 31
0.0
  0
LINE
  5
389
330
1E
100
AcDbEntity
  8
0
100
AcDbLine
 10
153.0729999999999
 20
52.0
 30
0.0
 11
155.966
 21
52.0
 31
0.0
  0
LINE
  5
38A
330
1E
100
AcDbEntity
  8
0
100
AcDbLine
 10
155.0399999999999
 20
42.0
 30
0.0
 11
159.6799999999999
 21
42.0
 31
0.0
  0
LINE
  5
38B
330
1E
100
AcDbEntity
  8
0
100
AcDbLine
 10
155.12
 20
41.6154
 30
0.0
 11
159.9199999999999
 21
41.6154
 31
0.0
  0
LINE
  5
38C
330
1E
100
AcDbEntity
  8
0
100
AcDbLine
 10
155.12
 20
32.38459999999999
 30
0.0
 11
159.9199999999999
 21
32.38459999999999
 31
0.0
  0
LINE
  5
38D
330
1E
100
AcDbEntity
  8
0
100
AcDbLine
 10
155.0399999999999
 20
32.0
 30
0.0
 11
159.6799999999999
 21
32.0
 31
0.0
  0
LINE
  5
38E
330
1E
100
AcDbEntity
  8
0
100
AcDbLine
 10
169.28
 20
31.6154
 30
0.0
 11
170.0
 21
31.6154
 31
0.0
  0
LINE
  5
38F
330
1E
100
AcDbEntity
  8
0
100
AcDbLine
 10
167.36
 20
31.6154
 30
0.0
 11
169.28
 21
31.6154
 31
0.0
  0
LINE
  5
390
330
1E
100
AcDbEntity
  8
0
100
AcDbLine
 10
164.1599999999999
 20
31.6154
 30
0.0
 11
167.36
 21
31.6154
 31
0.0
  0
LINE
  5
391
330
1E
100
AcDbEntity
  8
0
100
AcDbLine
 10
156.292
 20
52.0
 30
0.0
 11
158.9439999999999
 21
52.0
 31
0.0
  0
LINE
  5
392
330
1E
100
AcDbEntity
  8
0
100
AcDbLine
 10
155.966
 20
52.0
 30
0.0
 11
158.4679999999999
 21
52.0
 31
0.0
  0
LINE
  5
393
330
1E
100
AcDbEntity
  8
0
100
AcDbLine
 10
156.292
 20
62.0
 30
0.0
 11
158.9439999999999
 21
62.0
 31
0.0
  0
LINE
  5
394
330
1E
100
AcDbEntity
  8
0
100
AcDbLine
 10
156.4479999999999
 20
61.6154
 30
0.0
 11
159.204
 21
61.6154
 31
0.0
  0
LINE
  5
395
330
1E
100
AcDbEntity
  8
0
100
AcDbLine
 10
156.4479999999999
 20
52.38459999999999
 30
0.0
 11
159.204
 21
52.38459999999999
 31
0.0
  0
LINE
  5
396
330
1E
100
AcDbEntity
  8
0
100
AcDbLine
 10
158.4679999999999
 20
52.0
 30
0.0
 11
160.3839999999999
 21
52.0
 31
0.0
  0
LINE
  5
397
330
1E
100
AcDbEntity
  8
0
100
AcDbLine
 10
158.873127904706
 20
47.7180327534245
 30
0.0
 11
165.0
 21
42.0
 31
0.0
  0
LINE
  5
398
330
1E
100
AcDbEntity
  8
0
100
AcDbLine
 10
158.9439999999999
 20
52.0
 30
0.0
 11
160.972
 21
52.0
 31
0.0
  0
LINE
  5
399
330
1E
100
AcDbEntity
  8
0
100
AcDbLine
 10
158.9439999999999
 20
62.0
 30
0.0
 11
160.972
 21
62.0
 31
0.0
  0
LINE
  5
39A
330
1E
100
AcDbEntity
  8
0
100
AcDbLine
 10
159.204
 20
61.6154
 30
0.0
 11
161.284
 21
61.6154
 31
0.0
  0
LINE
  5
39B
330
1E
100
AcDbEntity
  8
0
100
AcDbLine
 10
159.204
 20
52.38459999999999
 30
0.0
 11
161.284
 21
52.38459999999999
 31
0.0
  0
LINE
  5
39C
330
1E
100
AcDbEntity
  8
0
100
AcDbLine
 10
159.127
 20
47.907
 30
0.0
 11
161.493
 21
50.8837
 31
0.0
  0
LINE
  5
39D
330
1E
100
AcDbEntity
  8
0
100
AcDbLine
 10
158.868594290705
 20
47.69367545990229
 30
0.0
 11
159.127
 21
47.907
 31
0.0
  0
LINE
  5
39E
330
1E
100
AcDbEntity
  8
0
100
AcDbLine
 10
159.6799999999999
 20
42.0
 30
0.0
 11
163.7599999999999
 21
42.0
 31
0.0
  0
LINE
  5
39F
330
1E
100
AcDbEntity
  8
0
100
AcDbLine
 10
168.8
 20
32.0
 30
0.0
 11
169.5199999999999
 21
32.0
 31
0.0
  0
LINE
  5
3A0
330
1E
100
AcDbEntity
  8
0
100
AcDbLine
 10
166.88
 20
32.0
 30
0.0
 11
168.8
 21
32.0
 31
0.0
  0
LINE
  5
3A1
330
1E
100
AcDbEntity
  8
0
100
AcDbLine
 10
159.9199999999999
 20
41.6154
 30
0.0
 11
164.1599999999999
 21
41.6154
 31
0.0
  0
LINE
  5
3A2
330
1E
100
AcDbEntity
  8
0
100
AcDbLine
 10
169.28
 20
32.38459999999999
 30
0.0
 11
170.0
 21
32.38459999999999
 31
0.0
  0
LINE
  5
3A3
330
1E
100
AcDbEntity
  8
0
100
AcDbLine
 10
167.36
 20
32.38459999999999
 30
0.0
 11
169.28
 21
32.38459999999999
 31
0.0
  0
LINE
  5
3A4
330
1E
100
AcDbEntity
  8
0
100
AcDbLine
 10
160.972
 20
52.0
 30
0.0
 11
162.22
 21
52.0
 31
0.0
  0
LINE
  5
3A5
330
1E
100
AcDbEntity
  8
0
100
AcDbLine
 10
160.972
 20
62.0
 30
0.0
 11
162.22
 21
62.0
 31
0.0
  0
LINE
  5
3A6
330
1E
100
AcDbEntity
  8
0
100
AcDbLine
 10
161.284
 20
61.6154
 30
0.0
 11
162.532
 21
61.6154
 31
0.0
  0
LINE
  5
3A7
330
1E
100
AcDbEntity
  8
0
100
AcDbLine
 10
161.284
 20
52.38459999999999
 30
0.0
 11
162.532
 21
52.38459999999999
 31
0.0
  0
LINE
  5
3A8
330
1E
100
AcDbEntity
  8
0
100
AcDbLine
 10
160.3839999999999
 20
52.0
 30
0.0
 11
161.5739999999999
 21
52.0
 31
0.0
  0
LINE
  5
3A9
330
1E
100
AcDbEntity
  8
0
100
AcDbLine
 10
162.6879999999999
 20
52.0
 30
0.0
 11
163.0
 21
52.38459999999999
 31
0.0
  0
LINE
  5
3AA
330
1E
100
AcDbEntity
  8
0
100
AcDbLine
 10
162.22
 20
52.0
 30
0.0
 11
162.6879999999999
 21
52.0
 31
0.0
  0
LINE
  5
3AB
330
1E
100
AcDbEntity
  8
0
100
AcDbLine
 10
162.0
 20
52.0
 30
0.0
 11
162.22
 21
52.0
 31
0.0
  0
LINE
  5
3AC
330
1E
100
AcDbEntity
  8
0
100
AcDbLine
 10
162.22
 20
62.0
 30
0.0
 11
162.6879999999999
 21
62.0
 31
0.0
  0
LINE
  5
3AD
330
1E
100
AcDbEntity
  8
0
100
AcDbLine
 10
162.532
 20
61.6154
 30
0.0
 11
163.0
 21
61.6154
 31
0.0
  0
LINE
  5
3AE
330
1E
100
AcDbEntity
  8
0
100
AcDbLine
 10
162.532
 20
52.38459999999999
 30
0.0
 11
163.0
 21
52.38459999999999
 31
0.0
  0
LINE
  5
3AF
330
1E
100
AcDbEntity
  8
0
100
AcDbLine
 10
163.0
 20
52.38459999999999
 30
0.0
 11
163.0
 21
61.6154
 31
0.0
  0
LINE
  5
3B0
330
1E
100
AcDbEntity
  8
0
100
AcDbLine
 10
163.0
 20
61.6154
 30
0.0
 11
163.0
 21
52.38459999999999
 31
0.0
  0
LINE
  5
3B1
330
1E
100
AcDbEntity
  8
0
100
AcDbLine
 10
162.6879999999999
 20
62.0
 30
0.0
 11
163.0
 21
61.6154
 31
0.0
  0
LINE
  5
3B2
330
1E
100
AcDbEntity
  8
0
100
AcDbLine
 10
161.5739999999999
 20
52.0
 30
0.0
 11
162.0
 21
52.0
 31
0.0
  0
LINE
  5
3B3
330
1E
100
AcDbEntity
  8
0
100
AcDbLine
 10
161.493
 20
50.8837
 30
0.0
 11
162.0
 21
52.0
 31
0.0
  0
LINE
  5
3B4
330
1E
100
AcDbEntity
  8
0
100
AcDbLine
 10
163.7599999999999
 20
42.0
 30
0.0
 11
166.88
 21
42.0
 31
0.0
  0
LINE
  5
3B5
330
1E
100
AcDbEntity
  8
0
100
AcDbLine
 10
169.28
 20
41.6154
 30
0.0
 11
170.0
 21
41.6154
 31
0.0
  0
LINE
  5
3B6
330
1E
100
AcDbEntity
  8
0
100
AcDbLine
 10
168.8
 20
42.0
 30
0.0
 11
169.5199999999999
 21
42.0
 31
0.0
  0
LINE
  5
3B7
330
1E
100
AcDbEntity
  8
0
100
AcDbLine
 10
166.88
 20
42.0
 30
0.0
 11
168.8
 21
42.0
 31
0.0
  0
LINE
  5
3B8
330
1E
100
AcDbEntity
  8
0
100
AcDbLine
 10
167.36
 20
41.6154
 30
0.0
 11
169.28
 21
41.6154
 31
0.0
  0
LINE
  5
3B9
330
1E
100
AcDbEntity
  8
0
100
AcDbLine
 10
164.1599999999999
 20
41.6154
 30
0.0
 11
167.36
 21
41.6154
 31
0.0
  0
LINE
  5
3BA
330
1E
100
AcDbEntity
  8
0
100
AcDbLine
 10
164.1599999999999
 20
32.38459999999999
 30
0.0
 11
167.36
 21
32.38459999999999
 31
0.0
  0
LINE
  5
3BB
330
1E
100
AcDbEntity
  8
0
100
AcDbLine
 10
159.9199999999999
 20
32.38459999999999
 30
0.0
 11
164.1599999999999
 21
32.38459999999999
 31
0.0
  0
LINE
  5
3BC
330
1E
100
AcDbEntity
  8
0
100
AcDbLine
 10
163.7599999999999
 20
32.0
 30
0.0
 11
166.88
 21
32.0
 31
0.0
  0
LINE
  5
3BD
330
1E
100
AcDbEntity
  8
0
100
AcDbLine
 10
159.6799999999999
 20
32.0
 30
0.0
 11
163.7599999999999
 21
32.0
 31
0.0
  0
LINE
  5
3BE
330
1E
100
AcDbEntity
  8
0
100
AcDbLine
 10
159.9199999999999
 20
31.6154
 30
0.0
 11
164.1599999999999
 21
31.6154
 31
0.0
  0
LINE
  5
3BF
330
1E
100
AcDbEntity
  8
0
100
AcDbLine
 10
155.12
 20
31.6154
 30
0.0
 11
159.9199999999999
 21
31.6154
 31
0.0
  0
LINE
  5
3C0
330
1E
100
AcDbEntity
  8
0
100
AcDbLine
 10
155.12
 20
22.38459999999999
 30
0.0
 11
159.9199999999999
 21
22.38459999999999
 31
0.0
  0
LINE
  5
3C1
330
1E
100
AcDbEntity
  8
0
100
AcDbLine
 10
169.5
 20
17.0
 30
0.0
 11
188.375
 21
17.0
 31
0.0
  0
LINE
  5
3C2
330
1E
100
AcDbEntity
  8
0
100
AcDbLine
 10
169.5
 20
16.0
 30
0.0
 11
188.75
 21
16.0
 31
0.0
  0
LINE
  5
3C3
330
1E
100
AcDbEntity
  8
0
100
AcDbLine
 10
300.0
 20
3.000000000000009
 30
0.0
 11
300.0
 21
16.0
 31
0.0
  0
LINE
  5
3C4
330
1E
100
AcDbEntity
  8
0
100
AcDbLine
 10
294.625
 20
3.000000000000009
 30
0.0
 11
298.4999999999999
 21
3.000000000000009
 31
0.0
  0
LINE
  5
3C5
330
1E
100
AcDbEntity
  8
0
100
AcDbLine
 10
255.8749999999999
 20
3.000000000000009
 30
0.0
 11
268.75
 21
3.000000000000009
 31
0.0
  0
LINE
  5
3C6
330
1E
100
AcDbEntity
  8
0
100
AcDbLine
 10
268.75
 20
3.000000000000009
 30
0.0
 11
279.875
 21
3.000000000000009
 31
0.0
  0
LINE
  5
3C7
330
1E
100
AcDbEntity
  8
0
100
AcDbLine
 10
279.875
 20
3.000000000000009
 30
0.0
 11
288.2499999999999
 21
3.000000000000009
 31
0.0
  0
LINE
  5
3C8
330
1E
100
AcDbEntity
  8
0
100
AcDbLine
 10
288.2499999999999
 20
3.000000000000009
 30
0.0
 11
294.625
 21
3.000000000000009
 31
0.0
  0
LINE
  5
3C9
330
1E
100
AcDbEntity
  8
0
100
AcDbLine
 10
298.4999999999999
 20
3.000000000000009
 30
0.0
 11
300.0
 21
3.000000000000009
 31
0.0
  0
LINE
  5
3CA
330
1E
100
AcDbEntity
  8
0
100
AcDbLine
 10
241.1249999999999
 20
3.00000000000002
 30
0.0
 11
255.8749999999999
 21
3.000000000000009
 31
0.0
  0
LINE
  5
3CB
330
1E
100
AcDbEntity
  8
0
100
AcDbLine
 10
224.6249999999999
 20
3.00000000000002
 30
0.0
 11
241.1249999999999
 21
3.00000000000002
 31
0.0
  0
LINE
  5
3CC
330
1E
100
AcDbEntity
  8
0
100
AcDbLine
 10
207.25
 20
3.00000000000002
 30
0.0
 11
224.6249999999999
 21
3.00000000000002
 31
0.0
  0
LINE
  5
3CD
330
1E
100
AcDbEntity
  8
0
100
AcDbLine
 10
169.5199999999999
 20
42.0
 30
0.0
 11
170.0
 21
41.6154
 31
0.0
  0
LINE
  5
3CE
330
1E
100
AcDbEntity
  8
0
100
AcDbLine
 10
169.5199999999999
 20
22.0
 30
0.0
 11
170.0
 21
22.38459999999999
 31
0.0
  0
LINE
  5
3CF
330
1E
100
AcDbEntity
  8
0
100
AcDbLine
 10
173.5
 20
22.0
 30
0.0
 11
174.3999999999999
 21
22.0
 31
0.0
  0
LINE
  5
3D0
330
1E
100
AcDbEntity
  8
0
100
AcDbLine
 10
171.1
 20
22.0
 30
0.0
 11
173.5
 21
22.0
 31
0.0
  0
LINE
  5
3D1
330
1E
100
AcDbEntity
  8
0
100
AcDbLine
 10
175.0
 20
21.6154
 30
0.0
 11
180.0
 21
17.0
 31
0.0
  0
LINE
  5
3D2
330
1E
100
AcDbEntity
  8
0
100
AcDbLine
 10
174.3999999999999
 20
22.0
 30
0.0
 11
175.0
 21
21.6154
 31
0.0
  0
LINE
  5
3D3
330
1E
100
AcDbEntity
  8
0
100
AcDbLine
 10
170.0
 20
22.38459999999999
 30
0.0
 11
170.0
 21
31.6154
 31
0.0
  0
LINE
  5
3D4
330
1E
100
AcDbEntity
  8
0
100
AcDbLine
 10
170.0
 20
32.38459999999999
 30
0.0
 11
170.0
 21
41.6154
 31
0.0
  0
LINE
  5
3D5
330
1E
100
AcDbEntity
  8
0
100
AcDbLine
 10
170.0
 20
41.6154
 30
0.0
 11
170.0
 21
32.38459999999999
 31
0.0
  0
LINE
  5
3D6
330
1E
100
AcDbEntity
  8
0
100
AcDbLine
 10
170.0
 20
31.6154
 30
0.0
 11
170.0
 21
22.38459999999999
 31
0.0
  0
LINE
  5
3D7
330
1E
100
AcDbEntity
  8
0
100
AcDbLine
 10
169.5199999999999
 20
32.0
 30
0.0
 11
170.0
 21
31.6154
 31
0.0
  0
LINE
  5
3D8
330
1E
100
AcDbEntity
  8
0
100
AcDbLine
 10
169.5199999999999
 20
32.0
 30
0.0
 11
170.0
 21
32.38459999999999
 31
0.0
  0
LINE
  5
3D9
330
1E
100
AcDbEntity
  8
0
100
AcDbLine
 10
188.375
 20
17.0
 30
0.0
 11
206.875
 21
17.0
 31
0.0
  0
LINE
  5
3DA
330
1E
100
AcDbEntity
  8
0
100
AcDbLine
 10
279.875
 20
16.0
 30
0.0
 11
288.2499999999999
 21
16.0
 31
0.0
  0
LINE
  5
3DB
330
1E
100
AcDbEntity
  8
0
100
AcDbLine
 10
288.2499999999999
 20
16.0
 30
0.0
 11
294.625
 21
16.0
 31
0.0
  0
LINE
  5
3DC
330
1E
100
AcDbEntity
  8
0
100
AcDbLine
 10
255.8749999999999
 20
16.0
 30
0.0
 11
268.75
 21
16.0
 31
0.0
  0
LINE
  5
3DD
330
1E
100
AcDbEntity
  8
0
100
AcDbLine
 10
268.75
 20
16.0
 30
0.0
 11
279.875
 21
16.0
 31
0.0
  0
LINE
  5
3DE
330
1E
100
AcDbEntity
  8
0
100
AcDbLine
 10
294.625
 20
16.0
 30
0.0
 11
298.4999999999999
 21
16.0
 31
0.0
  0
LINE
  5
3DF
330
1E
100
AcDbEntity
  8
0
100
AcDbLine
 10
300.0
 20
16.0
 30
0.0
 11
300.0
 21
3.000000000000009
 31
0.0
  0
LINE
  5
3E0
330
1E
100
AcDbEntity
  8
0
100
AcDbLine
 10
298.4999999999999
 20
16.0
 30
0.0
 11
300.0
 21
16.0
 31
0.0
  0
LINE
  5
3E1
330
1E
100
AcDbEntity
  8
0
100
AcDbLine
 10
241.1249999999999
 20
16.0
 30
0.0
 11
255.8749999999999
 21
16.0
 31
0.0
  0
LINE
  5
3E2
330
1E
100
AcDbEntity
  8
0
100
AcDbLine
 10
224.6249999999999
 20
16.0
 30
0.0
 11
241.1249999999999
 21
16.0
 31
0.0
  0
LINE
  5
3E3
330
1E
100
AcDbEntity
  8
0
100
AcDbLine
 10
297.25
 20
17.0
 30
0.0
 11
298.75
 21
17.0
 31
0.0
  0
LINE
  5
3E4
330
1E
100
AcDbEntity
  8
0
100
AcDbLine
 10
267.75
 20
17.0
 30
0.0
 11
278.8749999999999
 21
17.0
 31
0.0
  0
LINE
  5
3E5
330
1E
100
AcDbEntity
  8
0
100
AcDbLine
 10
278.8749999999999
 20
17.0
 30
0.0
 11
287.1249999999999
 21
17.0
 31
0.0
  0
LINE
  5
3E6
330
1E
100
AcDbEntity
  8
0
100
AcDbLine
 10
255.0
 20
17.0
 30
0.0
 11
267.75
 21
17.0
 31
0.0
  0
LINE
  5
3E7
330
1E
100
AcDbEntity
  8
0
100
AcDbLine
 10
287.1249999999999
 20
17.0
 30
0.0
 11
293.3749999999999
 21
17.0
 31
0.0
  0
LINE
  5
3E8
330
1E
100
AcDbEntity
  8
0
100
AcDbLine
 10
293.3749999999999
 20
17.0
 30
0.0
 11
297.25
 21
17.0
 31
0.0
  0
LINE
  5
3E9
330
1E
100
AcDbEntity
  8
0
100
AcDbLine
 10
298.75
 20
17.0
 30
0.0
 11
300.0
 21
16.0
 31
0.0
  0
LINE
  5
3EA
330
1E
100
AcDbEntity
  8
0
100
AcDbLine
 10
240.375
 20
17.0
 30
0.0
 11
255.0
 21
17.0
 31
0.0
  0
LINE
  5
3EB
330
1E
100
AcDbEntity
  8
0
100
AcDbLine
 10
224.0
 20
17.0
 30
0.0
 11
240.375
 21
17.0
 31
0.0
  0
LINE
  5
3EC
330
1E
100
AcDbEntity
  8
0
100
AcDbLine
 10
206.875
 20
17.0
 30
0.0
 11
224.0
 21
17.0
 31
0.0
  0
LINE
  5
3ED
330
1E
100
AcDbEntity
  8
0
100
AcDbLine
 10
207.25
 20
16.0
 30
0.0
 11
224.6249999999999
 21
16.0
 31
0.0
  0
LINE
  5
3EE
330
1E
100
AcDbEntity
  8
0
100
AcDbLine
 10
188.75
 20
16.0
 30
0.0
 11
207.25
 21
16.0
 31
0.0
  0
LINE
  5
3EF
330
1E
100
AcDbEntity
  8
0
100
AcDbLine
 10
188.75
 20
3.00000000000002
 30
0.0
 11
207.25
 21
3.00000000000002
 31
0.0
  0
LINE
  5
3F0
330
1E
100
AcDbEntity
  8
0
100
AcDbLine
 10
169.5
 20
3.00000000000002
 30
0.0
 11
188.75
 21
3.00000000000002
 31
0.0
  0
LINE
  5
3F1
330
1E
100
AcDbEntity
  8
0
100
AcDbLine
 10
169.5
 20
2.000000000000019
 30
0.0
 11
188.375
 21
2.000000000000019
 31
0.0
  0
LINE
  5
3F2
330
1E
100
AcDbEntity
  8
0
100
AcDbLine
 10
150.0
 20
2.000000000000019
 30
0.0
 11
169.5
 21
2.000000000000019
 31
0.0
  0
LINE
  5
3F3
330
1E
100
AcDbEntity
  8
0
100
AcDbLine
 10
162.0
 20
62.0
 30
0.0
 11
162.0
 21
81.0
 31
0.0
  0
LINE
  5
3F4
330
1E
100
AcDbEntity
  8
0
100
AcDbLine
 10
138.0
 20
62.0
 30
0.0
 11
138.0
 21
81.0
 31
0.0
  0
LINE
  5
3F5
330
1E
100
AcDbEntity
  8
0
100
AcDbLine
 10
597.0
 20
71.4
 30
0.0
 11
597.0
 21
69.95999999999999
 31
0.0
  0
LINE
  5
3F6
330
1E
100
AcDbEntity
  8
0
100
AcDbLine
 10
597.0
 20
71.4
 30
0.0
 11
597.0
 21
75.24
 31
0.0
  0
LINE
  5
3F7
330
1E
100
AcDbEntity
  8
0
100
AcDbLine
 10
597.0
 20
69.95999999999999
 30
0.0
 11
597.72
 21
69.0
 31
0.0
  0
LINE
  5
3F8
330
1E
100
AcDbEntity
  8
0
100
AcDbLine
 10
597.0
 20
69.95999999999999
 30
0.0
 11
597.0
 21
71.4
 31
0.0
  0
LINE
  5
3F9
330
1E
100
AcDbEntity
  8
0
100
AcDbLine
 10
597.72
 20
74.28
 30
0.0
 11
597.72
 21
70.44
 31
0.0
  0
LINE
  5
3FA
330
1E
100
AcDbEntity
  8
0
100
AcDbLine
 10
597.72
 20
74.28
 30
0.0
 11
597.72
 21
80.68000000000001
 31
0.0
  0
LINE
  5
3FB
330
1E
100
AcDbEntity
  8
0
100
AcDbLine
 10
597.72
 20
69.0
 30
0.0
 11
609.0
 21
69.0
 31
0.0
  0
LINE
  5
3FC
330
1E
100
AcDbEntity
  8
0
100
AcDbLine
 10
597.72
 20
69.0
 30
0.0
 11
597.72
 21
70.44
 31
0.0
  0
LINE
  5
3FD
330
1E
100
AcDbEntity
  8
0
100
AcDbLine
 10
609.0
 20
69.0
 30
0.0
 11
609.0
 21
70.44
 31
0.0
  0
LINE
  5
3FE
330
1E
100
AcDbEntity
  8
0
100
AcDbLine
 10
597.72
 20
70.44
 30
0.0
 11
597.72
 21
69.0
 31
0.0
  0
LINE
  5
3FF
330
1E
100
AcDbEntity
  8
0
100
AcDbLine
 10
597.72
 20
70.44
 30
0.0
 11
597.72
 21
74.28
 31
0.0
  0
LINE
  5
400
330
1E
100
AcDbEntity
  8
0
100
AcDbLine
 10
138.0
 20
81.0
 30
0.0
 11
139.4
 21
91.4
 31
0.0
  0
LINE
  5
401
330
1E
100
AcDbEntity
  8
0
100
AcDbLine
 10
138.0
 20
81.0
 30
0.0
 11
138.0
 21
62.0
 31
0.0
  0
LINE
  5
402
330
1E
100
AcDbEntity
  8
0
100
AcDbLine
 10
162.0
 20
81.0
 30
0.0
 11
162.0
 21
62.0
 31
0.0
  0
LINE
  5
403
330
1E
100
AcDbEntity
  8
0
100
AcDbLine
 10
162.0
 20
81.0
 30
0.0
 11
162.5
 21
85.09999999999999
 31
0.0
  0
LINE
  5
404
330
1E
100
AcDbEntity
  8
0
100
AcDbLine
 10
164.1
 20
89.0
 30
0.0
 11
166.6999999999999
 21
92.3
 31
0.0
  0
LINE
  5
405
330
1E
100
AcDbEntity
  8
0
100
AcDbLine
 10
162.5
 20
85.09999999999999
 30
0.0
 11
164.1
 21
89.0
 31
0.0
  0
LINE
  5
406
330
1E
100
AcDbEntity
  8
0
100
AcDbLine
 10
597.0
 20
81.48000000000001
 30
0.0
 11
597.0
 21
89.64
 31
0.0
  0
LINE
  5
407
330
1E
100
AcDbEntity
  8
0
100
AcDbLine
 10
597.0
 20
81.48000000000001
 30
0.0
 11
597.0
 21
75.24
 31
0.0
  0
LINE
  5
408
330
1E
100
AcDbEntity
  8
0
100
AcDbLine
 10
597.0
 20
75.24
 30
0.0
 11
597.0
 21
71.4
 31
0.0
  0
LINE
  5
409
330
1E
100
AcDbEntity
  8
0
100
AcDbLine
 10
597.0
 20
75.24
 30
0.0
 11
597.0
 21
81.48000000000001
 31
0.0
  0
LINE
  5
40A
330
1E
100
AcDbEntity
  8
0
100
AcDbLine
 10
597.72
 20
89.16
 30
0.0
 11
597.72
 21
80.68000000000001
 31
0.0
  0
LINE
  5
40B
330
1E
100
AcDbEntity
  8
0
100
AcDbLine
 10
597.72
 20
89.16
 30
0.0
 11
597.72
 21
98.76000000000001
 31
0.0
  0
LINE
  5
40C
330
1E
100
AcDbEntity
  8
0
100
AcDbLine
 10
597.72
 20
80.68000000000001
 30
0.0
 11
597.72
 21
74.28
 31
0.0
  0
LINE
  5
40D
330
1E
100
AcDbEntity
  8
0
100
AcDbLine
 10
597.72
 20
80.68000000000001
 30
0.0
 11
597.72
 21
89.16
 31
0.0
  0
LINE
  5
40E
330
1E
100
AcDbEntity
  8
0
100
AcDbLine
 10
166.6999999999999
 20
92.3
 30
0.0
 11
170.0
 21
94.9
 31
0.0
  0
LINE
  5
40F
330
1E
100
AcDbEntity
  8
0
100
AcDbLine
 10
170.0
 20
94.9
 30
0.0
 11
173.9
 21
96.5
 31
0.0
  0
LINE
  5
410
330
1E
100
AcDbEntity
  8
0
100
AcDbLine
 10
173.9
 20
96.5
 30
0.0
 11
178.0
 21
97.0
 31
0.0
  0
LINE
  5
411
330
1E
100
AcDbEntity
  8
0
100
AcDbLine
 10
139.4
 20
91.4
 30
0.0
 11
143.4
 21
101.0
 31
0.0
  0
LINE
  5
412
330
1E
100
AcDbEntity
  8
0
100
AcDbLine
 10
178.0
 20
97.0
 30
0.0
 11
597.0
 21
97.0
 31
0.0
  0
LINE
  5
413
330
1E
100
AcDbEntity
  8
0
100
AcDbLine
 10
597.0
 20
97.40000000000001
 30
0.0
 11
597.0
 21
98.59999999999999
 31
0.0
  0
LINE
  5
414
330
1E
100
AcDbEntity
  8
0
100
AcDbLine
 10
597.0
 20
98.59999999999999
 30
0.0
 11
597.0
 21
100.5
 31
0.0
  0
LINE
  5
415
330
1E
100
AcDbEntity
  8
0
100
AcDbLine
 10
597.0
 20
100.5
 30
0.0
 11
597.0
 21
103.0
 31
0.0
  0
LINE
  5
416
330
1E
100
AcDbEntity
  8
0
100
AcDbLine
 10
597.0
 20
103.0
 30
0.0
 11
597.0
 21
105.9
 31
0.0
  0
LINE
  5
417
330
1E
100
AcDbEntity
  8
0
100
AcDbLine
 10
597.0
 20
105.9
 30
0.0
 11
597.0
 21
109.0
 31
0.0
  0
LINE
  5
418
330
1E
100
AcDbEntity
  8
0
100
AcDbLine
 10
178.0
 20
97.0
 30
0.0
 11
597.0
 21
97.0
 31
0.0
  0
LINE
  5
419
330
1E
100
AcDbEntity
  8
0
100
AcDbLine
 10
143.4
 20
101.0
 30
0.0
 11
149.6999999999999
 21
109.2999999999999
 31
0.0
  0
LINE
  5
41A
330
1E
100
AcDbEntity
  8
0
100
AcDbLine
 10
597.0
 20
97.0
 30
0.0
 11
597.0
 21
89.64
 31
0.0
  0
LINE
  5
41B
330
1E
100
AcDbEntity
  8
0
100
AcDbLine
 10
597.0
 20
97.0
 30
0.0
 11
597.0
 21
97.40000000000001
 31
0.0
  0
LINE
  5
41C
330
1E
100
AcDbEntity
  8
0
100
AcDbLine
 10
597.0
 20
89.64
 30
0.0
 11
597.0
 21
98.92000000000001
 31
0.0
  0
LINE
  5
41D
330
1E
100
AcDbEntity
  8
0
100
AcDbLine
 10
597.0
 20
89.64
 30
0.0
 11
597.0
 21
97.0
 31
0.0
  0
LINE
  5
41E
330
1E
100
AcDbEntity
  8
0
100
AcDbLine
 10
597.0
 20
89.64
 30
0.0
 11
597.0
 21
81.48000000000001
 31
0.0
  0
LINE
  5
41F
330
1E
100
AcDbEntity
  8
0
100
AcDbLine
 10
597.0
 20
109.0
 30
0.0
 11
597.0
 21
98.92000000000001
 31
0.0
  0
LINE
  5
420
330
1E
100
AcDbEntity
  8
0
100
AcDbLine
 10
597.0
 20
109.0
 30
0.0
 11
597.0
 21
119.08
 31
0.0
  0
LINE
  5
421
330
1E
100
AcDbEntity
  8
0
100
AcDbLine
 10
597.0
 20
109.0
 30
0.0
 11
597.0
 21
112.0999999999999
 31
0.0
  0
LINE
  5
422
330
1E
100
AcDbEntity
  8
0
100
AcDbLine
 10
597.0
 20
98.92000000000001
 30
0.0
 11
597.0
 21
89.64
 31
0.0
  0
LINE
  5
423
330
1E
100
AcDbEntity
  8
0
100
AcDbLine
 10
597.0
 20
98.92000000000001
 30
0.0
 11
597.0
 21
109.0
 31
0.0
  0
LINE
  5
424
330
1E
100
AcDbEntity
  8
0
100
AcDbLine
 10
597.72
 20
109.0
 30
0.0
 11
597.72
 21
98.76000000000001
 31
0.0
  0
LINE
  5
425
330
1E
100
AcDbEntity
  8
0
100
AcDbLine
 10
597.72
 20
109.0
 30
0.0
 11
597.72
 21
119.2399999999999
 31
0.0
  0
LINE
  5
426
330
1E
100
AcDbEntity
  8
0
100
AcDbLine
 10
597.72
 20
98.76000000000001
 30
0.0
 11
597.72
 21
89.16
 31
0.0
  0
LINE
  5
427
330
1E
100
AcDbEntity
  8
0
100
AcDbLine
 10
597.72
 20
98.76000000000001
 30
0.0
 11
597.72
 21
109.0
 31
0.0
  0
LINE
  5
428
330
1E
100
AcDbEntity
  8
0
100
AcDbLine
 10
149.6999999999999
 20
109.2999999999999
 30
0.0
 11
158.0
 21
115.5999999999999
 31
0.0
  0
LINE
  5
429
330
1E
100
AcDbEntity
  8
0
100
AcDbLine
 10
597.0
 20
112.0999999999999
 30
0.0
 11
597.0
 21
115.0
 31
0.0
  0
LINE
  5
42A
330
1E
100
AcDbEntity
  8
0
100
AcDbLine
 10
597.0
 20
115.0
 30
0.0
 11
597.0
 21
117.5
 31
0.0
  0
LINE
  5
42B
330
1E
100
AcDbEntity
  8
0
100
AcDbLine
 10
597.0
 20
117.5
 30
0.0
 11
597.0
 21
119.4
 31
0.0
  0
LINE
  5
42C
330
1E
100
AcDbEntity
  8
0
100
AcDbLine
 10
158.0
 20
115.5999999999999
 30
0.0
 11
167.5999999999999
 21
119.5999999999999
 31
0.0
  0
LINE
  5
42D
330
1E
100
AcDbEntity
  8
0
100
AcDbLine
 10
597.0
 20
119.08
 30
0.0
 11
597.0
 21
109.0
 31
0.0
  0
LINE
  5
42E
330
1E
100
AcDbEntity
  8
0
100
AcDbLine
 10
597.0
 20
119.08
 30
0.0
 11
597.0
 21
128.36
 31
0.0
  0
LINE
  5
42F
330
1E
100
AcDbEntity
  8
0
100
AcDbLine
 10
597.72
 20
119.2399999999999
 30
0.0
 11
597.72
 21
109.0
 31
0.0
  0
LINE
  5
430
330
1E
100
AcDbEntity
  8
0
100
AcDbLine
 10
597.72
 20
119.2399999999999
 30
0.0
 11
597.72
 21
128.8399999999999
 31
0.0
  0
LINE
  5
431
330
1E
100
AcDbEntity
  8
0
100
AcDbLine
 10
597.0
 20
119.4
 30
0.0
 11
597.0
 21
120.5999999999999
 31
0.0
  0
LINE
  5
432
330
1E
100
AcDbEntity
  8
0
100
AcDbLine
 10
597.0
 20
120.5999999999999
 30
0.0
 11
597.0
 21
121.0
 31
0.0
  0
LINE
  5
433
330
1E
100
AcDbEntity
  8
0
100
AcDbLine
 10
167.5999999999999
 20
119.5999999999999
 30
0.0
 11
178.0
 21
121.0
 31
0.0
  0
LINE
  5
434
330
1E
100
AcDbEntity
  8
0
100
AcDbLine
 10
178.0
 20
121.0
 30
0.0
 11
597.0
 21
121.0
 31
0.0
  0
LINE
  5
435
330
1E
100
AcDbEntity
  8
0
100
AcDbLine
 10
178.0
 20
121.0
 30
0.0
 11
597.0
 21
121.0
 31
0.0
  0
LINE
  5
436
330
1E
100
AcDbEntity
  8
0
100
AcDbLine
 10
597.0
 20
121.0
 30
0.0
 11
597.0
 21
128.36
 31
0.0
  0
LINE
  5
437
330
1E
100
AcDbEntity
  8
0
100
AcDbLine
 10
597.0
 20
128.36
 30
0.0
 11
597.0
 21
119.08
 31
0.0
  0
LINE
  5
438
330
1E
100
AcDbEntity
  8
0
100
AcDbLine
 10
597.0
 20
128.36
 30
0.0
 11
597.0
 21
136.52
 31
0.0
  0
LINE
  5
439
330
1E
100
AcDbEntity
  8
0
100
AcDbLine
 10
597.0
 20
128.36
 30
0.0
 11
597.0
 21
121.0
 31
0.0
  0
LINE
  5
43A
330
1E
100
AcDbEntity
  8
0
100
AcDbLine
 10
597.0
 20
136.52
 30
0.0
 11
597.0
 21
128.36
 31
0.0
  0
LINE
  5
43B
330
1E
100
AcDbEntity
  8
0
100
AcDbLine
 10
597.0
 20
136.52
 30
0.0
 11
597.0
 21
142.7599999999999
 31
0.0
  0
LINE
  5
43C
330
1E
100
AcDbEntity
  8
0
100
AcDbLine
 10
597.72
 20
128.8399999999999
 30
0.0
 11
597.72
 21
119.2399999999999
 31
0.0
  0
LINE
  5
43D
330
1E
100
AcDbEntity
  8
0
100
AcDbLine
 10
597.72
 20
128.8399999999999
 30
0.0
 11
597.72
 21
137.3199999999999
 31
0.0
  0
LINE
  5
43E
330
1E
100
AcDbEntity
  8
0
100
AcDbLine
 10
597.72
 20
137.3199999999999
 30
0.0
 11
597.72
 21
128.8399999999999
 31
0.0
  0
LINE
  5
43F
330
1E
100
AcDbEntity
  8
0
100
AcDbLine
 10
597.72
 20
137.3199999999999
 30
0.0
 11
597.72
 21
143.7199999999999
 31
0.0
  0
LINE
  5
440
330
1E
100
AcDbEntity
  8
0
100
AcDbLine
 10
609.0
 20
119.2399999999999
 30
0.0
 11
609.0
 21
109.0
 31
0.0
  0
LINE
  5
441
330
1E
100
AcDbEntity
  8
0
100
AcDbLine
 10
609.0
 20
119.2399999999999
 30
0.0
 11
609.0
 21
128.8399999999999
 31
0.0
  0
LINE
  5
442
330
1E
100
AcDbEntity
  8
0
100
AcDbLine
 10
609.0
 20
128.8399999999999
 30
0.0
 11
609.0
 21
119.2399999999999
 31
0.0
  0
LINE
  5
443
330
1E
100
AcDbEntity
  8
0
100
AcDbLine
 10
609.0
 20
128.8399999999999
 30
0.0
 11
609.0
 21
137.3199999999999
 31
0.0
  0
LINE
  5
444
330
1E
100
AcDbEntity
  8
0
100
AcDbLine
 10
597.0
 20
142.7599999999999
 30
0.0
 11
597.0
 21
146.6
 31
0.0
  0
LINE
  5
445
330
1E
100
AcDbEntity
  8
0
100
AcDbLine
 10
597.0
 20
142.7599999999999
 30
0.0
 11
597.0
 21
136.52
 31
0.0
  0
LINE
  5
446
330
1E
100
AcDbEntity
  8
0
100
AcDbLine
 10
597.0
 20
146.6
 30
0.0
 11
597.0
 21
142.7599999999999
 31
0.0
  0
LINE
  5
447
330
1E
100
AcDbEntity
  8
0
100
AcDbLine
 10
597.0
 20
146.6
 30
0.0
 11
597.0
 21
148.0399999999999
 31
0.0
  0
LINE
  5
448
330
1E
100
AcDbEntity
  8
0
100
AcDbLine
 10
597.72
 20
143.7199999999999
 30
0.0
 11
597.72
 21
137.3199999999999
 31
0.0
  0
LINE
  5
449
330
1E
100
AcDbEntity
  8
0
100
AcDbLine
 10
597.72
 20
143.7199999999999
 30
0.0
 11
597.72
 21
147.56
 31
0.0
  0
LINE
  5
44A
330
1E
100
AcDbEntity
  8
0
100
AcDbLine
 10
597.72
 20
147.56
 30
0.0
 11
597.72
 21
143.7199999999999
 31
0.0
  0
LINE
  5
44B
330
1E
100
AcDbEntity
  8
0
100
AcDbLine
 10
597.72
 20
147.56
 30
0.0
 11
597.72
 21
149.0
 31
0.0
  0
LINE
  5
44C
330
1E
100
AcDbEntity
  8
0
100
AcDbLine
 10
609.0
 20
137.3199999999999
 30
0.0
 11
609.0
 21
128.8399999999999
 31
0.0
  0
LINE
  5
44D
330
1E
100
AcDbEntity
  8
0
100
AcDbLine
 10
609.0
 20
137.3199999999999
 30
0.0
 11
609.0
 21
143.7199999999999
 31
0.0
  0
LINE
  5
44E
330
1E
100
AcDbEntity
  8
0
100
AcDbLine
 10
609.0
 20
143.7199999999999
 30
0.0
 11
609.0
 21
137.3199999999999
 31
0.0
  0
LINE
  5
44F
330
1E
100
AcDbEntity
  8
0
100
AcDbLine
 10
609.0
 20
143.7199999999999
 30
0.0
 11
609.0
 21
147.56
 31
0.0
  0
LINE
  5
450
330
1E
100
AcDbEntity
  8
0
100
AcDbLine
 10
597.0
 20
148.0399999999999
 30
0.0
 11
597.0
 21
146.6
 31
0.0
  0
LINE
  5
451
330
1E
100
AcDbEntity
  8
0
100
AcDbLine
 10
597.0
 20
148.0399999999999
 30
0.0
 11
597.72
 21
149.0
 31
0.0
  0
LINE
  5
452
330
1E
100
AcDbEntity
  8
0
100
AcDbLine
 10
597.72
 20
149.0
 30
0.0
 11
597.72
 21
147.56
 31
0.0
  0
LINE
  5
453
330
1E
100
AcDbEntity
  8
0
100
AcDbLine
 10
597.72
 20
149.0
 30
0.0
 11
609.0
 21
149.0
 31
0.0
  0
LINE
  5
454
330
1E
100
AcDbEntity
  8
0
100
AcDbLine
 10
609.0
 20
147.56
 30
0.0
 11
609.0
 21
143.7199999999999
 31
0.0
  0
LINE
  5
455
330
1E
100
AcDbEntity
  8
0
100
AcDbLine
 10
609.0
 20
147.56
 30
0.0
 11
609.0
 21
149.0
 31
0.0
  0
LINE
  5
456
330
1E
100
AcDbEntity
  8
0
100
AcDbLine
 10
609.0
 20
149.0
 30
0.0
 11
609.0
 21
147.56
 31
0.0
  0
LINE
  5
457
330
1E
100
AcDbEntity
  8
0
100
AcDbLine
 10
609.0
 20
109.0
 30
0.0
 11
609.0
 21
98.76000000000001
 31
0.0
  0
LINE
  5
458
330
1E
100
AcDbEntity
  8
0
100
AcDbLine
 10
609.0
 20
109.0
 30
0.0
 11
609.0
 21
119.2399999999999
 31
0.0
  0
LINE
  5
459
330
1E
100
AcDbEntity
  8
0
100
AcDbLine
 10
609.0
 20
98.76000000000001
 30
0.0
 11
609.0
 21
89.16
 31
0.0
  0
LINE
  5
45A
330
1E
100
AcDbEntity
  8
0
100
AcDbLine
 10
609.0
 20
98.76000000000001
 30
0.0
 11
609.0
 21
109.0
 31
0.0
  0
LINE
  5
45B
330
1E
100
AcDbEntity
  8
0
100
AcDbLine
 10
609.0
 20
89.16
 30
0.0
 11
609.0
 21
80.68000000000001
 31
0.0
  0
LINE
  5
45C
330
1E
100
AcDbEntity
  8
0
100
AcDbLine
 10
609.0
 20
89.16
 30
0.0
 11
609.0
 21
98.76000000000001
 31
0.0
  0
LINE
  5
45D
330
1E
100
AcDbEntity
  8
0
100
AcDbLine
 10
609.0
 20
80.68000000000001
 30
0.0
 11
609.0
 21
74.28
 31
0.0
  0
LINE
  5
45E
330
1E
100
AcDbEntity
  8
0
100
AcDbLine
 10
609.0
 20
80.68000000000001
 30
0.0
 11
609.0
 21
89.16
 31
0.0
  0
LINE
  5
45F
330
1E
100
AcDbEntity
  8
0
100
AcDbLine
 10
609.0
 20
74.28
 30
0.0
 11
609.0
 21
70.44
 31
0.0
  0
LINE
  5
460
330
1E
100
AcDbEntity
  8
0
100
AcDbLine
 10
609.0
 20
74.28
 30
0.0
 11
609.0
 21
80.68000000000001
 31
0.0
  0
LINE
  5
461
330
1E
100
AcDbEntity
  8
0
100
AcDbLine
 10
609.0
 20
70.44
 30
0.0
 11
609.0
 21
69.0
 31
0.0
  0
LINE
  5
462
330
1E
100
AcDbEntity
  8
0
100
AcDbLine
 10
609.0
 20
70.44
 30
0.0
 11
609.0
 21
74.28
 31
0.0
  0
ENDSEC
  0
SECTION
  2
OBJECTS
  0
DICTIONARY
  5
C
330
0
100
AcDbDictionary
281
     1
  3
ACAD_GROUP
350
D
  3
ACAD_LAYOUT
350
19
  3
ACAD_MLINESTYLE
350
16
  3
ACAD_PLOTSETTINGS
350
18
  3
ACAD_PLOTSTYLENAME
350
E
  3
AcDbVariableDictionary
350
467
  0
DICTIONARY
  5
D
102
{ACAD_REACTORS
330
C
102
}
330
C
100
AcDbDictionary
281
     1
  0
DICTIONARY
  5
19
102
{ACAD_REACTORS
330
C
102
}
330
C
100
AcDbDictionary
281
     1
  3
Layout1
350
1D
  3
Model
350
21
  0
DICTIONARY
  5
16
102
{ACAD_REACTORS
330
C
102
}
330
C
100
AcDbDictionary
281
     1
  3
Standard
350
17
  0
DICTIONARY
  5
18
102
{ACAD_REACTORS
330
C
102
}
330
C
100
AcDbDictionary
281
     1
  0
ACDBDICTIONARYWDFLT
  5
E
102
{ACAD_REACTORS
330
C
102
}
330
C
100
AcDbDictionary
281
     1
  3
Normal
350
F
100
AcDbDictionaryWithDefault
340
F
  0
DICTIONARY
  5
467
102
{ACAD_REACTORS
330
C
102
}
330
C
100
AcDbDictionary
281
     1
  3
DIMASSOC
350
468
  0
LAYOUT
  5
1D
102
{ACAD_REACTORS
330
19
102
}
330
19
100
AcDbPlotSettings
  1

  2
hp deskjet 980c series
  4

  6

 40
0.0
 41
0.0
 42
0.0
 43
0.0
 44
0.0
 45
0.0
 46
0.0
 47
0.0
 48
0.0
 49
0.0
140
0.0
141
0.0
142
1.0
143
1.0
 70
   688
 72
     0
 73
     0
 74
     5
  7

 75
    16
147
1.0
148
0.0
149
0.0
100
AcDbLayout
  1
Layout1
 70
     1
 71
     1
 10
0.0
 20
0.0
 11
12.0
 21
9.0
 12
0.0
 22
0.0
 32
0.0
 14
1.000000000000000E+20
 24
1.000000000000000E+20
 34
1.000000000000000E+20
 15
-1.000000000000000E+20
 25
-1.000000000000000E+20
 35
-1.000000000000000E+20
146
0.0
 13
0.0
 23
0.0
 33
0.0
 16
1.0
 26
0.0
 36
0.0
 17
0.0
 27
1.0
 37
0.0
 76
     0
330
1A
  0
LAYOUT
  5
21
102
{ACAD_REACTORS
330
19
102
}
330
19
100
AcDbPlotSettings
  1

  2
hp deskjet 980c series
  4

  6

 40
0.0
 41
0.0
 42
0.0
 43
0.0
 44
0.0
 45
0.0
 46
0.0
 47
0.0
 48
0.0
 49
0.0
140
0.0
141
0.0
142
1.0
143
1.0
 70
  1712
 72
     0
 73
     0
 74
     0
  7

 75
     0
147
1.0
148
0.0
149
0.0
100
AcDbLayout
  1
Model
 70
     1
 71
     0
 10
0.0
 20
0.0
 11
12.0
 21
9.0
 12
0.0
 22
0.0
 32
0.0
 14
0.0
 24
0.0
 34
0.0
 15
0.0
 25
0.0
 35
0.0
146
0.0
 13
0.0
 23
0.0
 33
0.0
 16
1.0
 26
0.0
 36
0.0
 17
0.0
 27
1.0
 37
0.0
 76
     0
330
1E
  0
MLINESTYLE
  5
17
102
{ACAD_REACTORS
330
16
102
}
330
16
100
AcDbMlineStyle
  2
STANDARD
 70
     0
  3

 62
   256
 51
90.0
 52
90.0
 71
     2
 49
0.5
 62
   256
  6
BYLAYER
 49
-0.5
 62
   256
  6
BYLAYER
  0
ACDBPLACEHOLDER
  5
F
102
{ACAD_REACTORS
330
E
102
}
330
E
  0
DICTIONARYVAR
  5
468
102
{ACAD_REACTORS
330
467
102
}
330
467
100
DictionaryVariables
280
     0
  1
1
  0
ENDSEC
  0
EOF
