  0
SECTION
  2
HEADER
  9
$ACADVER
  1
AC1015
  9
$ACADMAINTVER
 70
    13
  9
$DWGCODEPAGE
  3
ANSI_1252
  9
$INSBASE
 10
0.0
 20
0.0
 30
0.0
  9
$EXTMIN
 10
-0.0000000000000098
 20
0.0000000000000011
 30
0.0
  9
$EXTMAX
 10
473.0
 20
135.0
 30
0.0
  9
$LIMMIN
 10
0.0
 20
0.0
  9
$LIMMAX
 10
12.0
 20
9.0
  9
$ORTHOMODE
 70
     0
  9
$REGENMODE
 70
     1
  9
$FILLMODE
 70
     1
  9
$QTEXTMODE
 70
     0
  9
$MIRRTEXT
 70
     1
  9
$LTSCALE
 40
1.0
  9
$ATTMODE
 70
     1
  9
$TEXTSIZE
 40
0.2
  9
$TRACEWID
 40
0.05
  9
$TEXTSTYLE
  7
Standard
  9
$CLAYER
  8
0
  9
$CELTYPE
  6
Continuous
  9
$CECOLOR
 62
   256
  9
$CELTSCALE
 40
1.0
  9
$DISPSILH
 70
     0
  9
$DIMSCALE
 40
1.0
  9
$DIMASZ
 40
0.18
  9
$DIMEXO
 40
0.0625
  9
$DIMDLI
 40
0.38
  9
$DIMRND
 40
0.0
  9
$DIMDLE
 40
0.0
  9
$DIMEXE
 40
0.18
  9
$DIMTP
 40
0.0
  9
$DIMTM
 40
0.0
  9
$DIMTXT
 40
0.18
  9
$DIMCEN
 40
0.09
  9
$DIMTSZ
 40
0.0
  9
$DIMTOL
 70
     0
  9
$DIMLIM
 70
     0
  9
$DIMTIH
 70
     1
  9
$DIMTOH
 70
     1
  9
$DIMSE1
 70
     0
  9
$DIMSE2
 70
     0
  9
$DIMTAD
 70
     0
  9
$DIMZIN
 70
     0
  9
$DIMBLK
  1

  9
$DIMASO
 70
     1
  9
$DIMSHO
 70
     1
  9
$DIMPOST
  1

  9
$DIMAPOST
  1

  9
$DIMALT
 70
     0
  9
$DIMALTD
 70
     2
  9
$DIMALTF
 40
25.4
  9
$DIMLFAC
 40
1.0
  9
$DIMTOFL
 70
     0
  9
$DIMTVP
 40
0.0
  9
$DIMTIX
 70
     0
  9
$DIMSOXD
 70
     0
  9
$DIMSAH
 70
     0
  9
$DIMBLK1
  1

  9
$DIMBLK2
  1

  9
$DIMSTYLE
  2
Standard
  9
$DIMCLRD
 70
     0
  9
$DIMCLRE
 70
     0
  9
$DIMCLRT
 70
     0
  9
$DIMTFAC
 40
1.0
  9
$DIMGAP
 40
0.09
  9
$DIMJUST
 70
     0
  9
$DIMSD1
 70
     0
  9
$DIMSD2
 70
     0
  9
$DIMTOLJ
 70
     1
  9
$DIMTZIN
 70
     0
  9
$DIMALTZ
 70
     0
  9
$DIMALTTZ
 70
     0
  9
$DIMUPT
 70
     0
  9
$DIMDEC
 70
     4
  9
$DIMTDEC
 70
     4
  9
$DIMALTU
 70
     2
  9
$DIMALTTD
 70
     2
  9
$DIMTXSTY
  7
Standard
  9
$DIMAUNIT
 70
     0
  9
$DIMADEC
 70
     0
  9
$DIMALTRND
 40
0.0
  9
$DIMAZIN
 70
     0
  9
$DIMDSEP
 70
    46
  9
$DIMATFIT
 70
     3
  9
$DIMFRAC
 70
     0
  9
$DIMLDRBLK
  1

  9
$DIMLUNIT
 70
     2
  9
$DIMLWD
 70
    -2
  9
$DIMLWE
 70
    -2
  9
$DIMTMOVE
 70
     0
  9
$LUNITS
 70
     2
  9
$LUPREC
 70
     4
  9
$SKETCHINC
 40
0.1
  9
$FILLETRAD
 40
0.0
  9
$AUNITS
 70
     0
  9
$AUPREC
 70
     0
  9
$MENU
  1
.
  9
$ELEVATION
 40
0.0
  9
$PELEVATION
 40
0.0
  9
$THICKNESS
 40
0.0
  9
$LIMCHECK
 70
     0
  9
$CHAMFERA
 40
0.0
  9
$CHAMFERB
 40
0.0
  9
$CHAMFERC
 40
0.0
  9
$CHAMFERD
 40
0.0
  9
$SKPOLY
 70
     0
  9
$TDCREATE
 40
2454741.415490312
  9
$TDUCREATE
 40
2454741.332156979
  9
$TDUPDATE
 40
2454741.418000254
  9
$TDUUPDATE
 40
2454741.334666921
  9
$TDINDWG
 40
0.0025099421
  9
$TDUSRTIMER
 40
0.0025099421
  9
$USRTIMER
 70
     1
  9
$ANGBASE
 50
0.0
  9
$ANGDIR
 70
     0
  9
$PDMODE
 70
     0
  9
$PDSIZE
 40
0.0
  9
$PLINEWID
 40
0.0
  9
$SPLFRAME
 70
     0
  9
$SPLINETYPE
 70
     6
  9
$SPLINESEGS
 70
     8
  9
$HANDSEED
  5
439
  9
$SURFTAB1
 70
     6
  9
$SURFTAB2
 70
     6
  9
$SURFTYPE
 70
     6
  9
$SURFU
 70
     6
  9
$SURFV
 70
     6
  9
$UCSBASE
  2

  9
$UCSNAME
  2

  9
$UCSORG
 10
0.0
 20
0.0
 30
0.0
  9
$UCSXDIR
 10
1.0
 20
0.0
 30
0.0
  9
$UCSYDIR
 10
0.0
 20
1.0
 30
0.0
  9
$UCSORTHOREF
  2

  9
$UCSORTHOVIEW
 70
     1
  9
$UCSORGTOP
 10
0.0
 20
0.0
 30
0.0
  9
$UCSORGBOTTOM
 10
0.0
 20
0.0
 30
0.0
  9
$UCSORGLEFT
 10
0.0
 20
0.0
 30
0.0
  9
$UCSORGRIGHT
 10
0.0
 20
0.0
 30
0.0
  9
$UCSORGFRONT
 10
0.0
 20
0.0
 30
0.0
  9
$UCSORGBACK
 10
0.0
 20
0.0
 30
0.0
  9
$PUCSBASE
  2

  9
$PUCSNAME
  2

  9
$PUCSORG
 10
0.0
 20
0.0
 30
0.0
  9
$PUCSXDIR
 10
1.0
 20
0.0
 30
0.0
  9
$PUCSYDIR
 10
0.0
 20
1.0
 30
0.0
  9
$PUCSORTHOREF
  2

  9
$PUCSORTHOVIEW
 70
     0
  9
$PUCSORGTOP
 10
0.0
 20
0.0
 30
0.0
  9
$PUCSORGBOTTOM
 10
0.0
 20
0.0
 30
0.0
  9
$PUCSORGLEFT
 10
0.0
 20
0.0
 30
0.0
  9
$PUCSORGRIGHT
 10
0.0
 20
0.0
 30
0.0
  9
$PUCSORGFRONT
 10
0.0
 20
0.0
 30
0.0
  9
$PUCSORGBACK
 10
0.0
 20
0.0
 30
0.0
  9
$USERI1
 70
     0
  9
$USERI2
 70
     0
  9
$USERI3
 70
     0
  9
$USERI4
 70
     0
  9
$USERI5
 70
     0
  9
$USERR1
 40
0.0
  9
$USERR2
 40
0.0
  9
$USERR3
 40
0.0
  9
$USERR4
 40
0.0
  9
$USERR5
 40
0.0
  9
$WORLDVIEW
 70
     1
  9
$SHADEDGE
 70
     3
  9
$SHADEDIF
 70
    70
  9
$TILEMODE
 70
     1
  9
$MAXACTVP
 70
    64
  9
$PINSBASE
 10
0.0
 20
0.0
 30
0.0
  9
$PLIMCHECK
 70
     0
  9
$PEXTMIN
 10
1.000000000000000E+20
 20
1.000000000000000E+20
 30
1.000000000000000E+20
  9
$PEXTMAX
 10
-1.000000000000000E+20
 20
-1.000000000000000E+20
 30
-1.000000000000000E+20
  9
$PLIMMIN
 10
0.0
 20
0.0
  9
$PLIMMAX
 10
12.0
 20
9.0
  9
$UNITMODE
 70
     0
  9
$VISRETAIN
 70
     1
  9
$PLINEGEN
 70
     0
  9
$PSLTSCALE
 70
     1
  9
$TREEDEPTH
 70
  3020
  9
$CMLSTYLE
  2
Standard
  9
$CMLJUST
 70
     0
  9
$CMLSCALE
 40
1.0
  9
$PROXYGRAPHICS
 70
     1
  9
$MEASUREMENT
 70
     0
  9
$CELWEIGHT
370
    -1
  9
$ENDCAPS
280
     0
  9
$JOINSTYLE
280
     0
  9
$LWDISPLAY
290
     0
  9
$INSUNITS
 70
     0
  9
$HYPERLINKBASE
  1

  9
$STYLESHEET
  1

  9
$XEDIT
290
     1
  9
$CEPSNTYPE
380
     0
  9
$PSTYLEMODE
290
     1
  9
$FINGERPRINTGUID
  2
{3A00BFD5-AB20-4F23-8DD0-40999E7A6C8A}
  9
$VERSIONGUID
  2
{055AEB71-FC7C-4B7B-9826-2469D96E8E6B}
  9
$EXTNAMES
290
     1
  9
$PSVPSCALE
 40
0.0
  9
$OLESTARTUP
290
     0
  0
ENDSEC
  0
SECTION
  2
CLASSES
  0
CLASS
  1
ACDBDICTIONARYWDFLT
  2
AcDbDictionaryWithDefault
  3
AutoCAD 2000
 90
        0
280
     0
281
     0
  0
CLASS
  1
ACDBPLACEHOLDER
  2
AcDbPlaceHolder
  3
AutoCAD 2000
 90
        0
280
     0
281
     0
  0
CLASS
  1
LAYOUT
  2
AcDbLayout
  3
AutoCAD 2000
 90
        0
280
     0
281
     0
  0
CLASS
  1
DICTIONARYVAR
  2
AcDbDictionaryVar
  3
AutoCAD 2000
 90
        0
280
     0
281
     0
  0
ENDSEC
  0
SECTION
  2
TABLES
  0
TABLE
  2
VPORT
  5
8
330
0
100
AcDbSymbolTable
 70
     2
  0
VPORT
  5
438
330
8
100
AcDbSymbolTableRecord
100
AcDbViewportTableRecord
  2
*Active
 70
     0
 10
0.0
 20
0.0
 11
1.0
 21
1.0
 12
236.5
 22
67.5
 13
0.0
 23
0.0
 14
1.0
 24
1.0
 15
0.0
 25
0.0
 16
0.0
 26
0.0
 36
1.0
 17
0.0
 27
0.0
 37
0.0
 40
228.4521419314108
 41
2.078104993597951
 42
50.0
 43
0.0
 44
0.0
 50
0.0
 51
0.0
 71
     0
 72
   100
 73
     1
 74
     3
 75
     0
 76
     0
 77
     0
 78
     0
281
     0
 65
     1
110
0.0
120
0.0
130
0.0
111
1.0
121
0.0
131
0.0
112
0.0
122
1.0
132
0.0
 79
     1
146
0.0
  0
ENDTAB
  0
TABLE
  2
LTYPE
  5
5
330
0
100
AcDbSymbolTable
 70
     1
  0
LTYPE
  5
13
330
5
100
AcDbSymbolTableRecord
100
AcDbLinetypeTableRecord
  2
ByBlock
 70
     0
  3

 72
    65
 73
     0
 40
0.0
  0
LTYPE
  5
14
330
5
100
AcDbSymbolTableRecord
100
AcDbLinetypeTableRecord
  2
ByLayer
 70
     0
  3

 72
    65
 73
     0
 40
0.0
  0
LTYPE
  5
15
330
5
100
AcDbSymbolTableRecord
100
AcDbLinetypeTableRecord
  2
Continuous
 70
     0
  3
Solid line
 72
    65
 73
     0
 40
0.0
  0
ENDTAB
  0
TABLE
  2
LAYER
  5
2
330
0
100
AcDbSymbolTable
 70
     1
  0
LAYER
  5
10
330
2
100
AcDbSymbolTableRecord
100
AcDbLayerTableRecord
  2
0
 70
     0
 62
     7
  6
Continuous
370
    -3
390
F
  0
ENDTAB
  0
TABLE
  2
STYLE
  5
3
330
0
100
AcDbSymbolTable
 70
     1
  0
STYLE
  5
11
330
3
100
AcDbSymbolTableRecord
100
AcDbTextStyleTableRecord
  2
Standard
 70
     0
 40
0.0
 41
1.0
 50
0.0
 71
     0
 42
0.2
  3
txt
  4

  0
ENDTAB
  0
TABLE
  2
VIEW
  5
6
330
0
100
AcDbSymbolTable
 70
     0
  0
ENDTAB
  0
TABLE
  2
UCS
  5
7
330
0
100
AcDbSymbolTable
 70
     0
  0
ENDTAB
  0
TABLE
  2
APPID
  5
9
330
0
100
AcDbSymbolTable
 70
     1
  0
APPID
  5
12
330
9
100
AcDbSymbolTableRecord
100
AcDbRegAppTableRecord
  2
ACAD
 70
     0
  0
ENDTAB
  0
TABLE
  2
DIMSTYLE
  5
A
330
0
100
AcDbSymbolTable
 70
     1
100
AcDbDimStyleTable
 71
     0
  0
DIMSTYLE
105
432
330
A
100
AcDbSymbolTableRecord
100
AcDbDimStyleTableRecord
  2
Standard
 70
     0
340
11
  0
ENDTAB
  0
TABLE
  2
BLOCK_RECORD
  5
1
330
0
100
AcDbSymbolTable
 70
     0
  0
BLOCK_RECORD
  5
1E
330
1
100
AcDbSymbolTableRecord
100
AcDbBlockTableRecord
  2
*Model_Space
340
21
  0
BLOCK_RECORD
  5
1A
330
1
100
AcDbSymbolTableRecord
100
AcDbBlockTableRecord
  2
*Paper_Space
340
1D
  0
ENDTAB
  0
ENDSEC
  0
SECTION
  2
BLOCKS
  0
BLOCK
  5
1F
330
1E
100
AcDbEntity
  8
0
100
AcDbBlockBegin
  2
*Model_Space
 70
     0
 10
0.0
 20
0.0
 30
0.0
  3
*Model_Space
  1

  0
ENDBLK
  5
20
330
1E
100
AcDbEntity
  8
0
100
AcDbBlockEnd
  0
BLOCK
  5
1B
330
1A
100
AcDbEntity
 67
     1
  8
0
100
AcDbBlockBegin
  2
*Paper_Space
 70
     0
 10
0.0
 20
0.0
 30
0.0
  3
*Paper_Space
  1

  0
ENDBLK
  5
1C
330
1A
100
AcDbEntity
 67
     1
  8
0
100
AcDbBlockEnd
  0
ENDSEC
  0
SECTION
  2
ENTITIES
  0
LINE
  5
22
330
1E
100
AcDbEntity
  8
0
100
AcDbLine
 10
72.6718
 20
0.0000000000000072
 30
0.0
 11
72.6718
 21
2.00000000000001
 31
0.0
  0
LINE
  5
23
330
1E
100
AcDbEntity
  8
0
100
AcDbLine
 10
73.02939999999999
 20
0.0000000000000072
 30
0.0
 11
73.02939999999999
 21
2.00000000000001
 31
0.0
  0
LINE
  5
24
330
1E
100
AcDbEntity
  8
0
100
AcDbLine
 10
72.28360000000001
 20
0.0000000000000072
 30
0.0
 11
72.6718
 21
0.0000000000000072
 31
0.0
  0
LINE
  5
25
330
1E
100
AcDbEntity
  8
0
100
AcDbLine
 10
72.28360000000001
 20
0.0000000000000072
 30
0.0
 11
72.28360000000001
 21
2.00000000000001
 31
0.0
  0
LINE
  5
26
330
1E
100
AcDbEntity
  8
0
100
AcDbLine
 10
72.6495
 20
0.0000000000000072
 30
0.0
 11
73.02939999999999
 21
0.0000000000000072
 31
0.0
  0
LINE
  5
27
330
1E
100
AcDbEntity
  8
0
100
AcDbLine
 10
71.9688
 20
0.0000000000000072
 30
0.0
 11
73.02939999999999
 21
0.0000000000000072
 31
0.0
  0
LINE
  5
28
330
1E
100
AcDbEntity
  8
0
100
AcDbLine
 10
49.3995
 20
0.0000000000000086
 30
0.0
 11
50.1495
 21
0.0000000000000086
 31
0.0
  0
LINE
  5
29
330
1E
100
AcDbEntity
  8
0
100
AcDbLine
 10
49.3995
 20
0.0000000000000086
 30
0.0
 11
49.3995
 21
2.00000000000001
 31
0.0
  0
LINE
  5
2A
330
1E
100
AcDbEntity
  8
0
100
AcDbLine
 10
10.117
 20
0.000000000000011
 30
0.0
 11
10.117
 21
2.00000000000001
 31
0.0
  0
LINE
  5
2B
330
1E
100
AcDbEntity
  8
0
100
AcDbLine
 10
8.999999999999991
 20
0.0000000000000111
 30
0.0
 11
8.999999999999991
 21
2.00000000000001
 31
0.0
  0
LINE
  5
2C
330
1E
100
AcDbEntity
  8
0
100
AcDbLine
 10
7.49999999999999
 20
0.0000000000000112
 30
0.0
 11
7.49999999999999
 21
2.00000000000001
 31
0.0
  0
LINE
  5
2D
330
1E
100
AcDbEntity
  8
0
100
AcDbLine
 10
7.49999999999999
 20
0.0000000000000112
 30
0.0
 11
8.999999999999991
 21
0.0000000000000111
 31
0.0
  0
LINE
  5
2E
330
1E
100
AcDbEntity
  8
0
100
AcDbLine
 10
11.9541
 20
0.0000000000000109
 30
0.0
 11
11.9541
 21
2.00000000000001
 31
0.0
  0
LINE
  5
2F
330
1E
100
AcDbEntity
  8
0
100
AcDbLine
 10
10.5052
 20
0.000000000000011
 30
0.0
 11
10.5052
 21
2.00000000000001
 31
0.0
  0
LINE
  5
30
330
1E
100
AcDbEntity
  8
0
100
AcDbLine
 10
10.5052
 20
0.000000000000011
 30
0.0
 11
10.5052
 21
2.00000000000001
 31
0.0
  0
LINE
  5
31
330
1E
100
AcDbEntity
  8
0
100
AcDbLine
 10
10.5052
 20
0.000000000000011
 30
0.0
 11
11.9541
 21
0.0000000000000109
 31
0.0
  0
LINE
  5
32
330
1E
100
AcDbEntity
  8
0
100
AcDbLine
 10
10.117
 20
0.000000000000011
 30
0.0
 11
10.5052
 21
0.000000000000011
 31
0.0
  0
LINE
  5
33
330
1E
100
AcDbEntity
  8
0
100
AcDbLine
 10
10.117
 20
0.000000000000011
 30
0.0
 11
10.117
 21
2.00000000000001
 31
0.0
  0
LINE
  5
34
330
1E
100
AcDbEntity
  8
0
100
AcDbLine
 10
10.117
 20
0.000000000000011
 30
0.0
 11
10.5052
 21
0.000000000000011
 31
0.0
  0
LINE
  5
35
330
1E
100
AcDbEntity
  8
0
100
AcDbLine
 10
18.1779
 20
0.0000000000000105
 30
0.0
 11
18.1779
 21
2.00000000000001
 31
0.0
  0
LINE
  5
36
330
1E
100
AcDbEntity
  8
0
100
AcDbLine
 10
31.8503
 20
0.0000000000000097
 30
0.0
 11
33.29919999999999
 21
0.0000000000000096
 31
0.0
  0
LINE
  5
37
330
1E
100
AcDbEntity
  8
0
100
AcDbLine
 10
31.8503
 20
0.0000000000000097
 30
0.0
 11
32.194
 21
0.0000000000000097
 31
0.0
  0
LINE
  5
38
330
1E
100
AcDbEntity
  8
0
100
AcDbLine
 10
39.0883
 20
0.0000000000000092
 30
0.0
 11
40.14899999999999
 21
0.0000000000000092
 31
0.0
  0
LINE
  5
39
330
1E
100
AcDbEntity
  8
0
100
AcDbLine
 10
39.0883
 20
0.0000000000000092
 30
0.0
 11
39.0883
 21
2.00000000000001
 31
0.0
  0
LINE
  5
3A
330
1E
100
AcDbEntity
  8
0
100
AcDbLine
 10
38.9625
 20
0.0000000000000093
 30
0.0
 11
39.71249999999999
 21
0.0000000000000092
 31
0.0
  0
LINE
  5
3B
330
1E
100
AcDbEntity
  8
0
100
AcDbLine
 10
38.4135
 20
0.0000000000000093
 30
0.0
 11
39.71249999999999
 21
0.0000000000000092
 31
0.0
  0
LINE
  5
3C
330
1E
100
AcDbEntity
  8
0
100
AcDbLine
 10
38.4135
 20
0.0000000000000093
 30
0.0
 11
38.4135
 21
2.00000000000001
 31
0.0
  0
LINE
  5
3D
330
1E
100
AcDbEntity
  8
0
100
AcDbLine
 10
33.6875
 20
0.0000000000000096
 30
0.0
 11
33.6875
 21
2.00000000000001
 31
0.0
  0
LINE
  5
3E
330
1E
100
AcDbEntity
  8
0
100
AcDbLine
 10
33.2547
 20
0.0000000000000096
 30
0.0
 11
33.6875
 21
0.0000000000000096
 31
0.0
  0
LINE
  5
3F
330
1E
100
AcDbEntity
  8
0
100
AcDbLine
 10
33.2547
 20
0.0000000000000096
 30
0.0
 11
33.2547
 21
2.00000000000001
 31
0.0
  0
LINE
  5
40
330
1E
100
AcDbEntity
  8
0
100
AcDbLine
 10
37.6635
 20
0.0000000000000093
 30
0.0
 11
38.9625
 21
0.0000000000000093
 31
0.0
  0
LINE
  5
41
330
1E
100
AcDbEntity
  8
0
100
AcDbLine
 10
37.6635
 20
0.0000000000000093
 30
0.0
 11
37.6635
 21
2.00000000000001
 31
0.0
  0
LINE
  5
42
330
1E
100
AcDbEntity
  8
0
100
AcDbLine
 10
37.6635
 20
0.0000000000000093
 30
0.0
 11
38.4135
 21
0.0000000000000093
 31
0.0
  0
LINE
  5
43
330
1E
100
AcDbEntity
  8
0
100
AcDbLine
 10
32.194
 20
0.0000000000000097
 30
0.0
 11
33.2547
 21
0.0000000000000096
 31
0.0
  0
LINE
  5
44
330
1E
100
AcDbEntity
  8
0
100
AcDbLine
 10
32.194
 20
0.0000000000000097
 30
0.0
 11
32.194
 21
2.00000000000001
 31
0.0
  0
LINE
  5
45
330
1E
100
AcDbEntity
  8
0
100
AcDbLine
 10
20.24999999999999
 20
0.0000000000000104
 30
0.0
 11
20.24999999999999
 21
2.00000000000001
 31
0.0
  0
LINE
  5
46
330
1E
100
AcDbEntity
  8
0
100
AcDbLine
 10
20.2269
 20
0.0000000000000104
 30
0.0
 11
20.2269
 21
2.00000000000001
 31
0.0
  0
LINE
  5
47
330
1E
100
AcDbEntity
  8
0
100
AcDbLine
 10
22.8208
 20
0.0000000000000102
 30
0.0
 11
22.8208
 21
2.00000000000001
 31
0.0
  0
LINE
  5
48
330
1E
100
AcDbEntity
  8
0
100
AcDbLine
 10
29.9697
 20
0.0000000000000098
 30
0.0
 11
29.9697
 21
2.00000000000001
 31
0.0
  0
LINE
  5
49
330
1E
100
AcDbEntity
  8
0
100
AcDbLine
 10
29.9697
 20
0.0000000000000098
 30
0.0
 11
29.9697
 21
2.00000000000001
 31
0.0
  0
LINE
  5
4A
330
1E
100
AcDbEntity
  8
0
100
AcDbLine
 10
31.1334
 20
0.0000000000000097
 30
0.0
 11
32.194
 21
0.0000000000000097
 31
0.0
  0
LINE
  5
4B
330
1E
100
AcDbEntity
  8
0
100
AcDbLine
 10
31.1334
 20
0.0000000000000097
 30
0.0
 11
31.1334
 21
2.00000000000001
 31
0.0
  0
LINE
  5
4C
330
1E
100
AcDbEntity
  8
0
100
AcDbLine
 10
30.0
 20
0.0000000000000098
 30
0.0
 11
30.0
 21
2.00000000000001
 31
0.0
  0
LINE
  5
4D
330
1E
100
AcDbEntity
  8
0
100
AcDbLine
 10
30.0
 20
0.0000000000000098
 30
0.0
 11
31.5
 21
0.0000000000000097
 31
0.0
  0
LINE
  5
4E
330
1E
100
AcDbEntity
  8
0
100
AcDbLine
 10
28.6707
 20
0.0000000000000099
 30
0.0
 11
29.9697
 21
0.0000000000000098
 31
0.0
  0
LINE
  5
4F
330
1E
100
AcDbEntity
  8
0
100
AcDbLine
 10
28.6707
 20
0.0000000000000099
 30
0.0
 11
28.6707
 21
2.00000000000001
 31
0.0
  0
LINE
  5
50
330
1E
100
AcDbEntity
  8
0
100
AcDbLine
 10
29.21969999999999
 20
0.0000000000000098
 30
0.0
 11
29.9697
 21
0.0000000000000098
 31
0.0
  0
LINE
  5
51
330
1E
100
AcDbEntity
  8
0
100
AcDbLine
 10
27.9207
 20
0.0000000000000099
 30
0.0
 11
29.21969999999999
 21
0.0000000000000098
 31
0.0
  0
LINE
  5
52
330
1E
100
AcDbEntity
  8
0
100
AcDbLine
 10
27.9207
 20
0.0000000000000099
 30
0.0
 11
27.9207
 21
2.00000000000001
 31
0.0
  0
LINE
  5
53
330
1E
100
AcDbEntity
  8
0
100
AcDbLine
 10
27.9207
 20
0.0000000000000099
 30
0.0
 11
28.6707
 21
0.0000000000000099
 31
0.0
  0
LINE
  5
54
330
1E
100
AcDbEntity
  8
0
100
AcDbLine
 10
21.37189999999999
 20
0.0000000000000103
 30
0.0
 11
22.4326
 21
0.0000000000000103
 31
0.0
  0
LINE
  5
55
330
1E
100
AcDbEntity
  8
0
100
AcDbLine
 10
21.37189999999999
 20
0.0000000000000103
 30
0.0
 11
21.37189999999999
 21
2.00000000000001
 31
0.0
  0
LINE
  5
56
330
1E
100
AcDbEntity
  8
0
100
AcDbLine
 10
21.37189999999999
 20
0.0000000000000103
 30
0.0
 11
22.8208
 21
0.0000000000000102
 31
0.0
  0
LINE
  5
57
330
1E
100
AcDbEntity
  8
0
100
AcDbLine
 10
20.9837
 20
0.0000000000000104
 30
0.0
 11
20.9837
 21
2.00000000000001
 31
0.0
  0
LINE
  5
58
330
1E
100
AcDbEntity
  8
0
100
AcDbLine
 10
20.9837
 20
0.0000000000000104
 30
0.0
 11
21.37189999999999
 21
0.0000000000000103
 31
0.0
  0
LINE
  5
59
330
1E
100
AcDbEntity
  8
0
100
AcDbLine
 10
20.9837
 20
0.0000000000000104
 30
0.0
 11
22.4326
 21
0.0000000000000103
 31
0.0
  0
LINE
  5
5A
330
1E
100
AcDbEntity
  8
0
100
AcDbLine
 10
31.5
 20
0.0000000000000097
 30
0.0
 11
32.194
 21
0.0000000000000097
 31
0.0
  0
LINE
  5
5B
330
1E
100
AcDbEntity
  8
0
100
AcDbLine
 10
44.55409999999999
 20
0.0000000000000089
 30
0.0
 11
44.55409999999999
 21
2.00000000000001
 31
0.0
  0
LINE
  5
5C
330
1E
100
AcDbEntity
  8
0
100
AcDbLine
 10
43.1052
 20
0.000000000000009
 30
0.0
 11
44.55409999999999
 21
0.0000000000000089
 31
0.0
  0
LINE
  5
5D
330
1E
100
AcDbEntity
  8
0
100
AcDbLine
 10
43.1052
 20
0.000000000000009
 30
0.0
 11
43.1052
 21
2.00000000000001
 31
0.0
  0
LINE
  5
5E
330
1E
100
AcDbEntity
  8
0
100
AcDbLine
 10
41.2096
 20
0.0000000000000091
 30
0.0
 11
41.2096
 21
2.00000000000001
 31
0.0
  0
LINE
  5
5F
330
1E
100
AcDbEntity
  8
0
100
AcDbLine
 10
42.717
 20
0.000000000000009
 30
0.0
 11
43.1052
 21
0.000000000000009
 31
0.0
  0
LINE
  5
60
330
1E
100
AcDbEntity
  8
0
100
AcDbLine
 10
42.717
 20
0.000000000000009
 30
0.0
 11
42.717
 21
2.00000000000001
 31
0.0
  0
LINE
  5
61
330
1E
100
AcDbEntity
  8
0
100
AcDbLine
 10
42.717
 20
0.000000000000009
 30
0.0
 11
44.1659
 21
0.0000000000000089
 31
0.0
  0
LINE
  5
62
330
1E
100
AcDbEntity
  8
0
100
AcDbLine
 10
41.25
 20
0.0000000000000091
 30
0.0
 11
41.25
 21
2.00000000000001
 31
0.0
  0
LINE
  5
63
330
1E
100
AcDbEntity
  8
0
100
AcDbLine
 10
41.25
 20
0.0000000000000091
 30
0.0
 11
42.75
 21
0.000000000000009
 31
0.0
  0
LINE
  5
64
330
1E
100
AcDbEntity
  8
0
100
AcDbLine
 10
42.75
 20
0.000000000000009
 30
0.0
 11
43.1052
 21
0.000000000000009
 31
0.0
  0
LINE
  5
65
330
1E
100
AcDbEntity
  8
0
100
AcDbLine
 10
48.85049999999999
 20
0.0000000000000086
 30
0.0
 11
50.1495
 21
0.0000000000000086
 31
0.0
  0
LINE
  5
66
330
1E
100
AcDbEntity
  8
0
100
AcDbLine
 10
48.1005
 20
0.0000000000000087
 30
0.0
 11
49.3995
 21
0.0000000000000086
 31
0.0
  0
LINE
  5
67
330
1E
100
AcDbEntity
  8
0
100
AcDbLine
 10
48.1005
 20
0.0000000000000087
 30
0.0
 11
48.1005
 21
2.00000000000001
 31
0.0
  0
LINE
  5
68
330
1E
100
AcDbEntity
  8
0
100
AcDbLine
 10
48.1005
 20
0.0000000000000087
 30
0.0
 11
48.85049999999999
 21
0.0000000000000086
 31
0.0
  0
LINE
  5
69
330
1E
100
AcDbEntity
  8
0
100
AcDbLine
 10
48.1039
 20
0.0000000000000087
 30
0.0
 11
48.7053
 21
0.0000000000000087
 31
0.0
  0
LINE
  5
6A
330
1E
100
AcDbEntity
  8
0
100
AcDbLine
 10
48.1039
 20
0.0000000000000087
 30
0.0
 11
48.85049999999999
 21
0.0000000000000086
 31
0.0
  0
LINE
  5
6B
330
1E
100
AcDbEntity
  8
0
100
AcDbLine
 10
47.0433
 20
0.0000000000000088
 30
0.0
 11
47.4063
 21
0.0000000000000087
 31
0.0
  0
LINE
  5
6C
330
1E
100
AcDbEntity
  8
0
100
AcDbLine
 10
47.0433
 20
0.0000000000000088
 30
0.0
 11
47.0433
 21
2.00000000000001
 31
0.0
  0
LINE
  5
6D
330
1E
100
AcDbEntity
  8
0
100
AcDbLine
 10
47.0433
 20
0.0000000000000088
 30
0.0
 11
48.1005
 21
0.0000000000000087
 31
0.0
  0
LINE
  5
6E
330
1E
100
AcDbEntity
  8
0
100
AcDbLine
 10
40.14899999999999
 20
0.0000000000000092
 30
0.0
 11
41.2096
 21
0.0000000000000091
 31
0.0
  0
LINE
  5
6F
330
1E
100
AcDbEntity
  8
0
100
AcDbLine
 10
40.14899999999999
 20
0.0000000000000092
 30
0.0
 11
40.14899999999999
 21
2.00000000000001
 31
0.0
  0
LINE
  5
70
330
1E
100
AcDbEntity
  8
0
100
AcDbLine
 10
39.71249999999999
 20
0.0000000000000092
 30
0.0
 11
40.14899999999999
 21
0.0000000000000092
 31
0.0
  0
LINE
  5
71
330
1E
100
AcDbEntity
  8
0
100
AcDbLine
 10
18.9279
 20
0.0000000000000105
 30
0.0
 11
20.2269
 21
0.0000000000000104
 31
0.0
  0
LINE
  5
72
330
1E
100
AcDbEntity
  8
0
100
AcDbLine
 10
18.9279
 20
0.0000000000000105
 30
0.0
 11
18.9279
 21
2.00000000000001
 31
0.0
  0
LINE
  5
73
330
1E
100
AcDbEntity
  8
0
100
AcDbLine
 10
19.4769
 20
0.0000000000000104
 30
0.0
 11
20.2269
 21
0.0000000000000104
 31
0.0
  0
LINE
  5
74
330
1E
100
AcDbEntity
  8
0
100
AcDbLine
 10
18.1779
 20
0.0000000000000105
 30
0.0
 11
19.4769
 21
0.0000000000000104
 31
0.0
  0
LINE
  5
75
330
1E
100
AcDbEntity
  8
0
100
AcDbLine
 10
18.1779
 20
0.0000000000000105
 30
0.0
 11
18.1779
 21
2.00000000000001
 31
0.0
  0
LINE
  5
76
330
1E
100
AcDbEntity
  8
0
100
AcDbLine
 10
18.1779
 20
0.0000000000000105
 30
0.0
 11
18.9279
 21
0.0000000000000105
 31
0.0
  0
LINE
  5
77
330
1E
100
AcDbEntity
  8
0
100
AcDbLine
 10
49.1646
 20
0.0000000000000086
 30
0.0
 11
50.1495
 21
0.0000000000000086
 31
0.0
  0
LINE
  5
78
330
1E
100
AcDbEntity
  8
0
100
AcDbLine
 10
60.10049999999999
 20
0.000000000000008
 30
0.0
 11
60.6495
 21
0.0000000000000079
 31
0.0
  0
LINE
  5
79
330
1E
100
AcDbEntity
  8
0
100
AcDbLine
 10
69.76009999999999
 20
0.0000000000000074
 30
0.0
 11
69.76009999999999
 21
2.00000000000001
 31
0.0
  0
LINE
  5
7A
330
1E
100
AcDbEntity
  8
0
100
AcDbLine
 10
67.923
 20
0.0000000000000075
 30
0.0
 11
67.923
 21
2.00000000000001
 31
0.0
  0
LINE
  5
7B
330
1E
100
AcDbEntity
  8
0
100
AcDbLine
 10
67.923
 20
0.0000000000000075
 30
0.0
 11
69.3719
 21
0.0000000000000074
 31
0.0
  0
LINE
  5
7C
330
1E
100
AcDbEntity
  8
0
100
AcDbLine
 10
69.3719
 20
0.0000000000000074
 30
0.0
 11
69.76009999999999
 21
0.0000000000000074
 31
0.0
  0
LINE
  5
7D
330
1E
100
AcDbEntity
  8
0
100
AcDbLine
 10
69.3719
 20
0.0000000000000074
 30
0.0
 11
69.3719
 21
2.00000000000001
 31
0.0
  0
LINE
  5
7E
330
1E
100
AcDbEntity
  8
0
100
AcDbLine
 10
67.6418
 20
0.0000000000000075
 30
0.0
 11
67.6418
 21
2.00000000000001
 31
0.0
  0
LINE
  5
7F
330
1E
100
AcDbEntity
  8
0
100
AcDbLine
 10
67.0245
 20
0.0000000000000075
 30
0.0
 11
67.0245
 21
2.00000000000001
 31
0.0
  0
LINE
  5
80
330
1E
100
AcDbEntity
  8
0
100
AcDbLine
 10
66.8918
 20
0.0000000000000075
 30
0.0
 11
67.6418
 21
0.0000000000000075
 31
0.0
  0
LINE
  5
81
330
1E
100
AcDbEntity
  8
0
100
AcDbLine
 10
66.8918
 20
0.0000000000000075
 30
0.0
 11
67.6418
 21
0.0000000000000075
 31
0.0
  0
LINE
  5
82
330
1E
100
AcDbEntity
  8
0
100
AcDbLine
 10
67.6418
 20
0.0000000000000075
 30
0.0
 11
68.9409
 21
0.0000000000000074
 31
0.0
  0
LINE
  5
83
330
1E
100
AcDbEntity
  8
0
100
AcDbLine
 10
67.6418
 20
0.0000000000000075
 30
0.0
 11
67.6418
 21
2.00000000000001
 31
0.0
  0
LINE
  5
84
330
1E
100
AcDbEntity
  8
0
100
AcDbLine
 10
70.6005
 20
0.0000000000000073
 30
0.0
 11
71.35049999999999
 21
0.0000000000000073
 31
0.0
  0
LINE
  5
85
330
1E
100
AcDbEntity
  8
0
100
AcDbLine
 10
70.6005
 20
0.0000000000000073
 30
0.0
 11
70.6005
 21
2.00000000000001
 31
0.0
  0
LINE
  5
86
330
1E
100
AcDbEntity
  8
0
100
AcDbLine
 10
70.6005
 20
0.0000000000000073
 30
0.0
 11
71.22289999999999
 21
0.0000000000000073
 31
0.0
  0
LINE
  5
87
330
1E
100
AcDbEntity
  8
0
100
AcDbLine
 10
61.3995
 20
0.0000000000000079
 30
0.0
 11
61.3995
 21
2.00000000000001
 31
0.0
  0
LINE
  5
88
330
1E
100
AcDbEntity
  8
0
100
AcDbLine
 10
64.9755
 20
0.0000000000000077
 30
0.0
 11
66.2745
 21
0.0000000000000076
 31
0.0
  0
LINE
  5
89
330
1E
100
AcDbEntity
  8
0
100
AcDbLine
 10
64.9755
 20
0.0000000000000077
 30
0.0
 11
64.9755
 21
2.00000000000001
 31
0.0
  0
LINE
  5
8A
330
1E
100
AcDbEntity
  8
0
100
AcDbLine
 10
63.75
 20
0.0000000000000077
 30
0.0
 11
64.9755
 21
0.0000000000000077
 31
0.0
  0
LINE
  5
8B
330
1E
100
AcDbEntity
  8
0
100
AcDbLine
 10
64.0138
 20
0.0000000000000077
 30
0.0
 11
64.9755
 21
0.0000000000000077
 31
0.0
  0
LINE
  5
8C
330
1E
100
AcDbEntity
  8
0
100
AcDbLine
 10
64.0138
 20
0.0000000000000077
 30
0.0
 11
64.9755
 21
0.0000000000000077
 31
0.0
  0
LINE
  5
8D
330
1E
100
AcDbEntity
  8
0
100
AcDbLine
 10
64.0138
 20
0.0000000000000077
 30
0.0
 11
64.0138
 21
2.00000000000001
 31
0.0
  0
LINE
  5
8E
330
1E
100
AcDbEntity
  8
0
100
AcDbLine
 10
64.4503
 20
0.0000000000000077
 30
0.0
 11
64.9755
 21
0.0000000000000077
 31
0.0
  0
LINE
  5
8F
330
1E
100
AcDbEntity
  8
0
100
AcDbLine
 10
64.83859999999999
 20
0.0000000000000077
 30
0.0
 11
64.9755
 21
0.0000000000000077
 31
0.0
  0
LINE
  5
90
330
1E
100
AcDbEntity
  8
0
100
AcDbLine
 10
62.9532
 20
0.0000000000000078
 30
0.0
 11
64.0138
 21
0.0000000000000077
 31
0.0
  0
LINE
  5
91
330
1E
100
AcDbEntity
  8
0
100
AcDbLine
 10
62.9532
 20
0.0000000000000078
 30
0.0
 11
62.9532
 21
2.00000000000001
 31
0.0
  0
LINE
  5
92
330
1E
100
AcDbEntity
  8
0
100
AcDbLine
 10
66.2745
 20
0.0000000000000076
 30
0.0
 11
66.8918
 21
0.0000000000000075
 31
0.0
  0
LINE
  5
93
330
1E
100
AcDbEntity
  8
0
100
AcDbLine
 10
66.2745
 20
0.0000000000000076
 30
0.0
 11
67.0245
 21
0.0000000000000075
 31
0.0
  0
LINE
  5
94
330
1E
100
AcDbEntity
  8
0
100
AcDbLine
 10
66.2745
 20
0.0000000000000076
 30
0.0
 11
66.2745
 21
2.00000000000001
 31
0.0
  0
LINE
  5
95
330
1E
100
AcDbEntity
  8
0
100
AcDbLine
 10
60.6495
 20
0.0000000000000079
 30
0.0
 11
61.3995
 21
0.0000000000000079
 31
0.0
  0
LINE
  5
96
330
1E
100
AcDbEntity
  8
0
100
AcDbLine
 10
60.6495
 20
0.0000000000000079
 30
0.0
 11
60.6495
 21
2.00000000000001
 31
0.0
  0
LINE
  5
97
330
1E
100
AcDbEntity
  8
0
100
AcDbLine
 10
57.89899999999999
 20
0.0000000000000081
 30
0.0
 11
59.1981
 21
0.000000000000008
 31
0.0
  0
LINE
  5
98
330
1E
100
AcDbEntity
  8
0
100
AcDbLine
 10
57.89899999999999
 20
0.0000000000000081
 30
0.0
 11
57.89899999999999
 21
2.00000000000001
 31
0.0
  0
LINE
  5
99
330
1E
100
AcDbEntity
  8
0
100
AcDbLine
 10
59.1981
 20
0.000000000000008
 30
0.0
 11
59.1981
 21
2.00000000000001
 31
0.0
  0
LINE
  5
9A
330
1E
100
AcDbEntity
  8
0
100
AcDbLine
 10
58.44809999999999
 20
0.0000000000000081
 30
0.0
 11
59.1981
 21
0.000000000000008
 31
0.0
  0
LINE
  5
9B
330
1E
100
AcDbEntity
  8
0
100
AcDbLine
 10
53.7255
 20
0.0000000000000083
 30
0.0
 11
55.0245
 21
0.0000000000000083
 31
0.0
  0
LINE
  5
9C
330
1E
100
AcDbEntity
  8
0
100
AcDbLine
 10
53.7255
 20
0.0000000000000083
 30
0.0
 11
53.7255
 21
2.00000000000001
 31
0.0
  0
LINE
  5
9D
330
1E
100
AcDbEntity
  8
0
100
AcDbLine
 10
53.7255
 20
0.0000000000000083
 30
0.0
 11
54.47549999999999
 21
0.0000000000000083
 31
0.0
  0
LINE
  5
9E
330
1E
100
AcDbEntity
  8
0
100
AcDbLine
 10
50.1495
 20
0.0000000000000086
 30
0.0
 11
50.1495
 21
2.00000000000001
 31
0.0
  0
LINE
  5
9F
330
1E
100
AcDbEntity
  8
0
100
AcDbLine
 10
52.5
 20
0.0000000000000084
 30
0.0
 11
52.5
 21
2.00000000000001
 31
0.0
  0
LINE
  5
A0
330
1E
100
AcDbEntity
  8
0
100
AcDbLine
 10
52.5
 20
0.0000000000000084
 30
0.0
 11
54.0
 21
0.0000000000000083
 31
0.0
  0
LINE
  5
A1
330
1E
100
AcDbEntity
  8
0
100
AcDbLine
 10
53.5837
 20
0.0000000000000084
 30
0.0
 11
53.7255
 21
0.0000000000000083
 31
0.0
  0
LINE
  5
A2
330
1E
100
AcDbEntity
  8
0
100
AcDbLine
 10
53.5837
 20
0.0000000000000084
 30
0.0
 11
53.5837
 21
2.00000000000001
 31
0.0
  0
LINE
  5
A3
330
1E
100
AcDbEntity
  8
0
100
AcDbLine
 10
54.99819999999999
 20
0.0000000000000083
 30
0.0
 11
56.0589
 21
0.0000000000000082
 31
0.0
  0
LINE
  5
A4
330
1E
100
AcDbEntity
  8
0
100
AcDbLine
 10
55.0245
 20
0.0000000000000083
 30
0.0
 11
55.7745
 21
0.0000000000000082
 31
0.0
  0
LINE
  5
A5
330
1E
100
AcDbEntity
  8
0
100
AcDbLine
 10
55.0245
 20
0.0000000000000083
 30
0.0
 11
55.0245
 21
2.00000000000001
 31
0.0
  0
LINE
  5
A6
330
1E
100
AcDbEntity
  8
0
100
AcDbLine
 10
53.9719
 20
0.0000000000000083
 30
0.0
 11
55.4208
 21
0.0000000000000082
 31
0.0
  0
LINE
  5
A7
330
1E
100
AcDbEntity
  8
0
100
AcDbLine
 10
55.0326
 20
0.0000000000000083
 30
0.0
 11
55.4208
 21
0.0000000000000082
 31
0.0
  0
LINE
  5
A8
330
1E
100
AcDbEntity
  8
0
100
AcDbLine
 10
57.1195
 20
0.0000000000000081
 30
0.0
 11
57.1195
 21
2.00000000000001
 31
0.0
  0
LINE
  5
A9
330
1E
100
AcDbEntity
  8
0
100
AcDbLine
 10
56.0589
 20
0.0000000000000082
 30
0.0
 11
57.1195
 21
0.0000000000000081
 31
0.0
  0
LINE
  5
AA
330
1E
100
AcDbEntity
  8
0
100
AcDbLine
 10
56.0589
 20
0.0000000000000082
 30
0.0
 11
56.0589
 21
2.00000000000001
 31
0.0
  0
LINE
  5
AB
330
1E
100
AcDbEntity
  8
0
100
AcDbLine
 10
55.7745
 20
0.0000000000000082
 30
0.0
 11
56.0589
 21
0.0000000000000082
 31
0.0
  0
LINE
  5
AC
330
1E
100
AcDbEntity
  8
0
100
AcDbLine
 10
55.7745
 20
0.0000000000000082
 30
0.0
 11
55.7745
 21
2.00000000000001
 31
0.0
  0
LINE
  5
AD
330
1E
100
AcDbEntity
  8
0
100
AcDbLine
 10
55.4208
 20
0.0000000000000082
 30
0.0
 11
56.0589
 21
0.0000000000000082
 31
0.0
  0
LINE
  5
AE
330
1E
100
AcDbEntity
  8
0
100
AcDbLine
 10
57.149
 20
0.0000000000000081
 30
0.0
 11
58.44809999999999
 21
0.0000000000000081
 31
0.0
  0
LINE
  5
AF
330
1E
100
AcDbEntity
  8
0
100
AcDbLine
 10
57.149
 20
0.0000000000000081
 30
0.0
 11
57.149
 21
2.00000000000001
 31
0.0
  0
LINE
  5
B0
330
1E
100
AcDbEntity
  8
0
100
AcDbLine
 10
57.149
 20
0.0000000000000081
 30
0.0
 11
57.89899999999999
 21
0.0000000000000081
 31
0.0
  0
LINE
  5
B1
330
1E
100
AcDbEntity
  8
0
100
AcDbLine
 10
70.8347
 20
2.00000000000001
 30
0.0
 11
70.8347
 21
0.0000000000000073
 31
0.0
  0
LINE
  5
B2
330
1E
100
AcDbEntity
  8
0
100
AcDbLine
 10
72.28360000000001
 20
2.00000000000001
 30
0.0
 11
72.28360000000001
 21
0.0000000000000073
 31
0.0
  0
LINE
  5
B3
330
1E
100
AcDbEntity
  8
0
100
AcDbLine
 10
72.6718
 20
2.00000000000001
 30
0.0
 11
72.6718
 21
0.0000000000000073
 31
0.0
  0
LINE
  5
B4
330
1E
100
AcDbEntity
  8
0
100
AcDbLine
 10
73.02939999999999
 20
2.00000000000001
 30
0.0
 11
73.02939999999999
 21
0.0000000000000073
 31
0.0
  0
LINE
  5
B5
330
1E
100
AcDbEntity
  8
0
100
AcDbLine
 10
70.6005
 20
2.00000000000001
 30
0.0
 11
70.6005
 21
0.0000000000000073
 31
0.0
  0
LINE
  5
B6
330
1E
100
AcDbEntity
  8
0
100
AcDbLine
 10
59.3505
 20
0.000000000000008
 30
0.0
 11
59.3505
 21
2.00000000000001
 31
0.0
  0
LINE
  5
B7
330
1E
100
AcDbEntity
  8
0
100
AcDbLine
 10
59.3505
 20
0.000000000000008
 30
0.0
 11
60.6495
 21
0.0000000000000079
 31
0.0
  0
LINE
  5
B8
330
1E
100
AcDbEntity
  8
0
100
AcDbLine
 10
49.4553
 20
0.0000000000000086
 30
0.0
 11
50.1495
 21
0.0000000000000086
 31
0.0
  0
LINE
  5
B9
330
1E
100
AcDbEntity
  8
0
100
AcDbLine
 10
70.8347
 20
0.0000000000000073
 30
0.0
 11
71.9688
 21
0.0000000000000072
 31
0.0
  0
LINE
  5
BA
330
1E
100
AcDbEntity
  8
0
100
AcDbLine
 10
70.8347
 20
0.0000000000000073
 30
0.0
 11
70.90810000000001
 21
0.0000000000000073
 31
0.0
  0
LINE
  5
BB
330
1E
100
AcDbEntity
  8
0
100
AcDbLine
 10
70.8347
 20
0.0000000000000073
 30
0.0
 11
70.8347
 21
2.00000000000001
 31
0.0
  0
LINE
  5
BC
330
1E
100
AcDbEntity
  8
0
100
AcDbLine
 10
70.8347
 20
0.0000000000000073
 30
0.0
 11
72.28360000000001
 21
0.0000000000000072
 31
0.0
  0
LINE
  5
BD
330
1E
100
AcDbEntity
  8
0
100
AcDbLine
 10
74.1346
 20
0.0000000000000071
 30
0.0
 11
75.1953
 21
0.000000000000007
 31
0.0
  0
LINE
  5
BE
330
1E
100
AcDbEntity
  8
0
100
AcDbLine
 10
74.1346
 20
0.0000000000000071
 30
0.0
 11
75.1953
 21
0.000000000000007
 31
0.0
  0
LINE
  5
BF
330
1E
100
AcDbEntity
  8
0
100
AcDbLine
 10
73.74639999999999
 20
2.00000000000001
 30
0.0
 11
73.74639999999999
 21
0.000000000000007
 31
0.0
  0
LINE
  5
C0
330
1E
100
AcDbEntity
  8
0
100
AcDbLine
 10
73.74639999999999
 20
2.00000000000001
 30
0.0
 11
75.1953
 21
2.00000000000001
 31
0.0
  0
LINE
  5
C1
330
1E
100
AcDbEntity
  8
0
100
AcDbLine
 10
73.74639999999999
 20
0.0000000000000071
 30
0.0
 11
74.1346
 21
0.0000000000000071
 31
0.0
  0
LINE
  5
C2
330
1E
100
AcDbEntity
  8
0
100
AcDbLine
 10
73.74639999999999
 20
0.0000000000000071
 30
0.0
 11
73.74639999999999
 21
2.00000000000001
 31
0.0
  0
LINE
  5
C3
330
1E
100
AcDbEntity
  8
0
100
AcDbLine
 10
73.74639999999999
 20
0.0000000000000071
 30
0.0
 11
75.1953
 21
0.000000000000007
 31
0.0
  0
LINE
  5
C4
330
1E
100
AcDbEntity
  8
0
100
AcDbLine
 10
73.02939999999999
 20
2.00000000000001
 30
0.0
 11
73.74639999999999
 21
2.00000000000001
 31
0.0
  0
LINE
  5
C5
330
1E
100
AcDbEntity
  8
0
100
AcDbLine
 10
39.0883
 20
2.00000000000001
 30
0.0
 11
40.14899999999999
 21
2.00000000000001
 31
0.0
  0
LINE
  5
C6
330
1E
100
AcDbEntity
  8
0
100
AcDbLine
 10
39.0883
 20
2.00000000000001
 30
0.0
 11
39.0883
 21
0.0000000000000091
 31
0.0
  0
LINE
  5
C7
330
1E
100
AcDbEntity
  8
0
100
AcDbLine
 10
40.14899999999999
 20
2.00000000000001
 30
0.0
 11
41.2096
 21
2.00000000000001
 31
0.0
  0
LINE
  5
C8
330
1E
100
AcDbEntity
  8
0
100
AcDbLine
 10
40.14899999999999
 20
2.00000000000001
 30
0.0
 11
40.14899999999999
 21
0.0000000000000091
 31
0.0
  0
LINE
  5
C9
330
1E
100
AcDbEntity
  8
0
100
AcDbLine
 10
38.4135
 20
2.00000000000001
 30
0.0
 11
38.4135
 21
0.0000000000000094
 31
0.0
  0
LINE
  5
CA
330
1E
100
AcDbEntity
  8
0
100
AcDbLine
 10
37.6635
 20
2.00000000000001
 30
0.0
 11
37.6635
 21
0.0000000000000094
 31
0.0
  0
LINE
  5
CB
330
1E
100
AcDbEntity
  8
0
100
AcDbLine
 10
43.1052
 20
2.00000000000001
 30
0.0
 11
44.55409999999999
 21
2.00000000000001
 31
0.0
  0
LINE
  5
CC
330
1E
100
AcDbEntity
  8
0
100
AcDbLine
 10
43.1052
 20
2.00000000000001
 30
0.0
 11
43.1052
 21
0.0000000000000089
 31
0.0
  0
LINE
  5
CD
330
1E
100
AcDbEntity
  8
0
100
AcDbLine
 10
42.717
 20
2.00000000000001
 30
0.0
 11
43.1052
 21
2.00000000000001
 31
0.0
  0
LINE
  5
CE
330
1E
100
AcDbEntity
  8
0
100
AcDbLine
 10
42.717
 20
2.00000000000001
 30
0.0
 11
42.717
 21
0.0000000000000091
 31
0.0
  0
LINE
  5
CF
330
1E
100
AcDbEntity
  8
0
100
AcDbLine
 10
42.717
 20
2.00000000000001
 30
0.0
 11
43.1052
 21
2.00000000000001
 31
0.0
  0
LINE
  5
D0
330
1E
100
AcDbEntity
  8
0
100
AcDbLine
 10
41.25
 20
2.00000000000001
 30
0.0
 11
41.25
 21
0.0000000000000091
 31
0.0
  0
LINE
  5
D1
330
1E
100
AcDbEntity
  8
0
100
AcDbLine
 10
44.55409999999999
 20
2.00000000000001
 30
0.0
 11
45.6
 21
2.00000000000001
 31
0.0
  0
LINE
  5
D2
330
1E
100
AcDbEntity
  8
0
100
AcDbLine
 10
44.55409999999999
 20
2.00000000000001
 30
0.0
 11
44.55409999999999
 21
0.0000000000000089
 31
0.0
  0
LINE
  5
D3
330
1E
100
AcDbEntity
  8
0
100
AcDbLine
 10
41.2096
 20
2.00000000000001
 30
0.0
 11
41.2096
 21
0.0000000000000091
 31
0.0
  0
LINE
  5
D4
330
1E
100
AcDbEntity
  8
0
100
AcDbLine
 10
1.649999999999989
 20
2.00000000000001
 30
0.0
 11
3.97499999999999
 21
2.00000000000001
 31
0.0
  0
LINE
  5
D5
330
1E
100
AcDbEntity
  8
0
100
AcDbLine
 10
7.49999999999999
 20
2.00000000000001
 30
0.0
 11
8.999999999999991
 21
2.00000000000001
 31
0.0
  0
LINE
  5
D6
330
1E
100
AcDbEntity
  8
0
100
AcDbLine
 10
7.49999999999999
 20
2.00000000000001
 30
0.0
 11
7.49999999999999
 21
0.0000000000000112
 31
0.0
  0
LINE
  5
D7
330
1E
100
AcDbEntity
  8
0
100
AcDbLine
 10
18.1779
 20
2.00000000000001
 30
0.0
 11
18.9279
 21
2.00000000000001
 31
0.0
  0
LINE
  5
D8
330
1E
100
AcDbEntity
  8
0
100
AcDbLine
 10
18.9279
 20
2.00000000000001
 30
0.0
 11
20.2269
 21
2.00000000000001
 31
0.0
  0
LINE
  5
D9
330
1E
100
AcDbEntity
  8
0
100
AcDbLine
 10
18.9279
 20
2.00000000000001
 30
0.0
 11
18.9279
 21
0.0000000000000105
 31
0.0
  0
LINE
  5
DA
330
1E
100
AcDbEntity
  8
0
100
AcDbLine
 10
18.9279
 20
2.00000000000001
 30
0.0
 11
19.35
 21
2.00000000000001
 31
0.0
  0
LINE
  5
DB
330
1E
100
AcDbEntity
  8
0
100
AcDbLine
 10
19.35
 20
2.00000000000001
 30
0.0
 11
27.0
 21
2.00000000000001
 31
0.0
  0
LINE
  5
DC
330
1E
100
AcDbEntity
  8
0
100
AcDbLine
 10
12.675
 20
2.00000000000001
 30
0.0
 11
19.35
 21
2.00000000000001
 31
0.0
  0
LINE
  5
DD
330
1E
100
AcDbEntity
  8
0
100
AcDbLine
 10
21.37189999999999
 20
2.00000000000001
 30
0.0
 11
22.8208
 21
2.00000000000001
 31
0.0
  0
LINE
  5
DE
330
1E
100
AcDbEntity
  8
0
100
AcDbLine
 10
21.37189999999999
 20
2.00000000000001
 30
0.0
 11
21.37189999999999
 21
0.0000000000000103
 31
0.0
  0
LINE
  5
DF
330
1E
100
AcDbEntity
  8
0
100
AcDbLine
 10
20.24999999999999
 20
2.00000000000001
 30
0.0
 11
20.24999999999999
 21
0.0000000000000103
 31
0.0
  0
LINE
  5
E0
330
1E
100
AcDbEntity
  8
0
100
AcDbLine
 10
20.2269
 20
2.00000000000001
 30
0.0
 11
20.2269
 21
0.0000000000000103
 31
0.0
  0
LINE
  5
E1
330
1E
100
AcDbEntity
  8
0
100
AcDbLine
 10
20.9837
 20
2.00000000000001
 30
0.0
 11
20.9837
 21
0.0000000000000103
 31
0.0
  0
LINE
  5
E2
330
1E
100
AcDbEntity
  8
0
100
AcDbLine
 10
20.9837
 20
2.00000000000001
 30
0.0
 11
21.37189999999999
 21
2.00000000000001
 31
0.0
  0
LINE
  5
E3
330
1E
100
AcDbEntity
  8
0
100
AcDbLine
 10
28.6707
 20
2.00000000000001
 30
0.0
 11
29.9697
 21
2.00000000000001
 31
0.0
  0
LINE
  5
E4
330
1E
100
AcDbEntity
  8
0
100
AcDbLine
 10
28.6707
 20
2.00000000000001
 30
0.0
 11
28.6707
 21
0.0000000000000098
 31
0.0
  0
LINE
  5
E5
330
1E
100
AcDbEntity
  8
0
100
AcDbLine
 10
32.194
 20
2.00000000000001
 30
0.0
 11
33.2547
 21
2.00000000000001
 31
0.0
  0
LINE
  5
E6
330
1E
100
AcDbEntity
  8
0
100
AcDbLine
 10
32.194
 20
2.00000000000001
 30
0.0
 11
32.194
 21
0.0000000000000096
 31
0.0
  0
LINE
  5
E7
330
1E
100
AcDbEntity
  8
0
100
AcDbLine
 10
33.2547
 20
2.00000000000001
 30
0.0
 11
33.2547
 21
0.0000000000000096
 31
0.0
  0
LINE
  5
E8
330
1E
100
AcDbEntity
  8
0
100
AcDbLine
 10
31.1334
 20
2.00000000000001
 30
0.0
 11
31.1334
 21
0.0000000000000098
 31
0.0
  0
LINE
  5
E9
330
1E
100
AcDbEntity
  8
0
100
AcDbLine
 10
33.6875
 20
2.00000000000001
 30
0.0
 11
33.6875
 21
0.0000000000000096
 31
0.0
  0
LINE
  5
EA
330
1E
100
AcDbEntity
  8
0
100
AcDbLine
 10
30.0
 20
2.00000000000001
 30
0.0
 11
30.0
 21
0.0000000000000098
 31
0.0
  0
LINE
  5
EB
330
1E
100
AcDbEntity
  8
0
100
AcDbLine
 10
27.9207
 20
2.00000000000001
 30
0.0
 11
27.9207
 21
0.0000000000000098
 31
0.0
  0
LINE
  5
EC
330
1E
100
AcDbEntity
  8
0
100
AcDbLine
 10
27.9207
 20
2.00000000000001
 30
0.0
 11
28.6707
 21
2.00000000000001
 31
0.0
  0
LINE
  5
ED
330
1E
100
AcDbEntity
  8
0
100
AcDbLine
 10
27.0
 20
2.00000000000001
 30
0.0
 11
35.775
 21
2.00000000000001
 31
0.0
  0
LINE
  5
EE
330
1E
100
AcDbEntity
  8
0
100
AcDbLine
 10
22.8208
 20
2.00000000000001
 30
0.0
 11
27.0
 21
2.00000000000001
 31
0.0
  0
LINE
  5
EF
330
1E
100
AcDbEntity
  8
0
100
AcDbLine
 10
22.8208
 20
2.00000000000001
 30
0.0
 11
22.8208
 21
0.0000000000000103
 31
0.0
  0
LINE
  5
F0
330
1E
100
AcDbEntity
  8
0
100
AcDbLine
 10
19.4769
 20
2.00000000000001
 30
0.0
 11
20.9837
 21
2.00000000000001
 31
0.0
  0
LINE
  5
F1
330
1E
100
AcDbEntity
  8
0
100
AcDbLine
 10
11.9541
 20
2.00000000000001
 30
0.0
 11
11.9541
 21
0.000000000000011
 31
0.0
  0
LINE
  5
F2
330
1E
100
AcDbEntity
  8
0
100
AcDbLine
 10
8.999999999999991
 20
2.00000000000001
 30
0.0
 11
8.999999999999991
 21
0.000000000000011
 31
0.0
  0
LINE
  5
F3
330
1E
100
AcDbEntity
  8
0
100
AcDbLine
 10
11.9541
 20
2.00000000000001
 30
0.0
 11
12.675
 21
2.00000000000001
 31
0.0
  0
LINE
  5
F4
330
1E
100
AcDbEntity
  8
0
100
AcDbLine
 10
7.72499999999999
 20
2.00000000000001
 30
0.0
 11
10.117
 21
2.00000000000001
 31
0.0
  0
LINE
  5
F5
330
1E
100
AcDbEntity
  8
0
100
AcDbLine
 10
7.72499999999999
 20
2.00000000000001
 30
0.0
 11
12.675
 21
2.00000000000001
 31
0.0
  0
LINE
  5
F6
330
1E
100
AcDbEntity
  8
0
100
AcDbLine
 10
3.97499999999999
 20
2.00000000000001
 30
0.0
 11
7.72499999999999
 21
2.00000000000001
 31
0.0
  0
LINE
  5
F7
330
1E
100
AcDbEntity
  8
0
100
AcDbLine
 10
1.649999999999989
 20
2.00000000000001
 30
0.0
 11
3.97499999999999
 21
2.00000000000001
 31
0.0
  0
LINE
  5
F8
330
1E
100
AcDbEntity
  8
0
100
AcDbLine
 10
-0.0000000000000098
 20
3.000000000000009
 30
0.0
 11
-0.0000000000000093
 21
11.0
 31
0.0
  0
LINE
  5
F9
330
1E
100
AcDbEntity
  8
0
100
AcDbLine
 10
-0.0000000000000098
 20
3.000000000000009
 30
0.0
 11
0.7499999999999901
 21
2.00000000000001
 31
0.0
  0
LINE
  5
FA
330
1E
100
AcDbEntity
  8
0
100
AcDbLine
 10
-0.0000000000000098
 20
3.000000000000009
 30
0.0
 11
0.89999999999999
 21
3.000000000000009
 31
0.0
  0
LINE
  5
FB
330
1E
100
AcDbEntity
  8
0
100
AcDbLine
 10
-0.0000000000000092
 20
11.0
 30
0.0
 11
0.8999999999999909
 21
11.0
 31
0.0
  0
LINE
  5
FC
330
1E
100
AcDbEntity
  8
0
100
AcDbLine
 10
-0.0000000000000092
 20
11.0
 30
0.0
 11
0.749999999999991
 21
12.0
 31
0.0
  0
LINE
  5
FD
330
1E
100
AcDbEntity
  8
0
100
AcDbLine
 10
26.475
 20
3.000000000000009
 30
0.0
 11
35.325
 21
3.000000000000009
 31
0.0
  0
LINE
  5
FE
330
1E
100
AcDbEntity
  8
0
100
AcDbLine
 10
35.325
 20
3.000000000000009
 30
0.0
 11
45.22499999999999
 21
3.000000000000009
 31
0.0
  0
LINE
  5
FF
330
1E
100
AcDbEntity
  8
0
100
AcDbLine
 10
45.22499999999999
 20
3.000000000000009
 30
0.0
 11
55.65
 21
3.000000000000009
 31
0.0
  0
LINE
  5
100
330
1E
100
AcDbEntity
  8
0
100
AcDbLine
 10
18.75
 20
3.000000000000009
 30
0.0
 11
26.475
 21
3.000000000000009
 31
0.0
  0
LINE
  5
101
330
1E
100
AcDbEntity
  8
0
100
AcDbLine
 10
12.075
 20
3.000000000000009
 30
0.0
 11
18.75
 21
3.000000000000009
 31
0.0
  0
LINE
  5
102
330
1E
100
AcDbEntity
  8
0
100
AcDbLine
 10
7.04999999999999
 20
3.000000000000009
 30
0.0
 11
12.075
 21
3.000000000000009
 31
0.0
  0
LINE
  5
103
330
1E
100
AcDbEntity
  8
0
100
AcDbLine
 10
3.22499999999999
 20
11.0
 30
0.0
 11
7.04999999999999
 21
11.0
 31
0.0
  0
LINE
  5
104
330
1E
100
AcDbEntity
  8
0
100
AcDbLine
 10
0.8999999999999909
 20
11.0
 30
0.0
 11
3.22499999999999
 21
11.0
 31
0.0
  0
LINE
  5
105
330
1E
100
AcDbEntity
  8
0
100
AcDbLine
 10
26.475
 20
11.0
 30
0.0
 11
35.325
 21
11.0
 31
0.0
  0
LINE
  5
106
330
1E
100
AcDbEntity
  8
0
100
AcDbLine
 10
35.325
 20
11.0
 30
0.0
 11
45.22499999999999
 21
11.0
 31
0.0
  0
LINE
  5
107
330
1E
100
AcDbEntity
  8
0
100
AcDbLine
 10
45.22499999999999
 20
11.0
 30
0.0
 11
55.65
 21
11.0
 31
0.0
  0
LINE
  5
108
330
1E
100
AcDbEntity
  8
0
100
AcDbLine
 10
18.75
 20
11.0
 30
0.0
 11
26.475
 21
11.0
 31
0.0
  0
LINE
  5
109
330
1E
100
AcDbEntity
  8
0
100
AcDbLine
 10
12.075
 20
11.0
 30
0.0
 11
18.75
 21
11.0
 31
0.0
  0
LINE
  5
10A
330
1E
100
AcDbEntity
  8
0
100
AcDbLine
 10
7.04999999999999
 20
11.0
 30
0.0
 11
12.075
 21
11.0
 31
0.0
  0
LINE
  5
10B
330
1E
100
AcDbEntity
  8
0
100
AcDbLine
 10
3.22499999999999
 20
11.0
 30
0.0
 11
7.04999999999999
 21
11.0
 31
0.0
  0
LINE
  5
10C
330
1E
100
AcDbEntity
  8
0
100
AcDbLine
 10
0.8999999999999909
 20
11.0
 30
0.0
 11
3.22499999999999
 21
11.0
 31
0.0
  0
LINE
  5
10D
330
1E
100
AcDbEntity
  8
0
100
AcDbLine
 10
3.22499999999999
 20
3.000000000000009
 30
0.0
 11
7.04999999999999
 21
3.000000000000009
 31
0.0
  0
LINE
  5
10E
330
1E
100
AcDbEntity
  8
0
100
AcDbLine
 10
0.89999999999999
 20
3.000000000000009
 30
0.0
 11
3.22499999999999
 21
3.000000000000009
 31
0.0
  0
LINE
  5
10F
330
1E
100
AcDbEntity
  8
0
100
AcDbLine
 10
27.0
 20
12.0
 30
0.0
 11
35.775
 21
12.0
 31
0.0
  0
LINE
  5
110
330
1E
100
AcDbEntity
  8
0
100
AcDbLine
 10
35.775
 20
12.0
 30
0.0
 11
45.6
 21
12.0
 31
0.0
  0
LINE
  5
111
330
1E
100
AcDbEntity
  8
0
100
AcDbLine
 10
19.35
 20
12.0
 30
0.0
 11
27.0
 21
12.0
 31
0.0
  0
LINE
  5
112
330
1E
100
AcDbEntity
  8
0
100
AcDbLine
 10
12.675
 20
12.0
 30
0.0
 11
19.35
 21
12.0
 31
0.0
  0
LINE
  5
113
330
1E
100
AcDbEntity
  8
0
100
AcDbLine
 10
7.72499999999999
 20
12.0
 30
0.0
 11
12.675
 21
12.0
 31
0.0
  0
LINE
  5
114
330
1E
100
AcDbEntity
  8
0
100
AcDbLine
 10
3.97499999999999
 20
12.0
 30
0.0
 11
7.72499999999999
 21
12.0
 31
0.0
  0
LINE
  5
115
330
1E
100
AcDbEntity
  8
0
100
AcDbLine
 10
1.649999999999989
 20
12.0
 30
0.0
 11
3.97499999999999
 21
12.0
 31
0.0
  0
LINE
  5
116
330
1E
100
AcDbEntity
  8
0
100
AcDbLine
 10
0.749999999999991
 20
12.0
 30
0.0
 11
1.649999999999989
 21
12.0
 31
0.0
  0
LINE
  5
117
330
1E
100
AcDbEntity
  8
0
100
AcDbLine
 10
-0.0000000000000093
 20
11.0
 30
0.0
 11
0.749999999999991
 21
12.0
 31
0.0
  0
LINE
  5
118
330
1E
100
AcDbEntity
  8
0
100
AcDbLine
 10
-0.0000000000000093
 20
11.0
 30
0.0
 11
0.8999999999999909
 21
11.0
 31
0.0
  0
LINE
  5
119
330
1E
100
AcDbEntity
  8
0
100
AcDbLine
 10
-0.0000000000000097
 20
3.000000000000009
 30
0.0
 11
0.7499999999999901
 21
2.00000000000001
 31
0.0
  0
LINE
  5
11A
330
1E
100
AcDbEntity
  8
0
100
AcDbLine
 10
-0.0000000000000097
 20
3.000000000000009
 30
0.0
 11
0.89999999999999
 21
3.000000000000009
 31
0.0
  0
LINE
  5
11B
330
1E
100
AcDbEntity
  8
0
100
AcDbLine
 10
0.7499999999999901
 20
2.00000000000001
 30
0.0
 11
1.649999999999989
 21
2.00000000000001
 31
0.0
  0
LINE
  5
11C
330
1E
100
AcDbEntity
  8
0
100
AcDbLine
 10
45.6
 20
12.0
 30
0.0
 11
55.875
 21
12.0
 31
0.0
  0
LINE
  5
11D
330
1E
100
AcDbEntity
  8
0
100
AcDbLine
 10
35.775
 20
2.00000000000001
 30
0.0
 11
37.6635
 21
2.00000000000001
 31
0.0
  0
LINE
  5
11E
330
1E
100
AcDbEntity
  8
0
100
AcDbLine
 10
35.775
 20
2.00000000000001
 30
0.0
 11
45.6
 21
2.00000000000001
 31
0.0
  0
LINE
  5
11F
330
1E
100
AcDbEntity
  8
0
100
AcDbLine
 10
55.0245
 20
2.00000000000001
 30
0.0
 11
55.7745
 21
2.00000000000001
 31
0.0
  0
LINE
  5
120
330
1E
100
AcDbEntity
  8
0
100
AcDbLine
 10
55.0245
 20
2.00000000000001
 30
0.0
 11
55.0245
 21
0.0000000000000082
 31
0.0
  0
LINE
  5
121
330
1E
100
AcDbEntity
  8
0
100
AcDbLine
 10
56.0589
 20
2.00000000000001
 30
0.0
 11
56.0589
 21
0.0000000000000082
 31
0.0
  0
LINE
  5
122
330
1E
100
AcDbEntity
  8
0
100
AcDbLine
 10
57.1195
 20
2.00000000000001
 30
0.0
 11
57.1195
 21
0.0000000000000082
 31
0.0
  0
LINE
  5
123
330
1E
100
AcDbEntity
  8
0
100
AcDbLine
 10
55.7745
 20
2.00000000000001
 30
0.0
 11
55.7745
 21
0.0000000000000082
 31
0.0
  0
LINE
  5
124
330
1E
100
AcDbEntity
  8
0
100
AcDbLine
 10
55.7745
 20
2.00000000000001
 30
0.0
 11
55.875
 21
2.00000000000001
 31
0.0
  0
LINE
  5
125
330
1E
100
AcDbEntity
  8
0
100
AcDbLine
 10
57.89899999999999
 20
2.00000000000001
 30
0.0
 11
59.1981
 21
2.00000000000001
 31
0.0
  0
LINE
  5
126
330
1E
100
AcDbEntity
  8
0
100
AcDbLine
 10
57.89899999999999
 20
2.00000000000001
 30
0.0
 11
57.89899999999999
 21
0.0000000000000082
 31
0.0
  0
LINE
  5
127
330
1E
100
AcDbEntity
  8
0
100
AcDbLine
 10
59.1981
 20
2.00000000000001
 30
0.0
 11
59.1981
 21
0.000000000000008
 31
0.0
  0
LINE
  5
128
330
1E
100
AcDbEntity
  8
0
100
AcDbLine
 10
57.149
 20
2.00000000000001
 30
0.0
 11
57.149
 21
0.0000000000000082
 31
0.0
  0
LINE
  5
129
330
1E
100
AcDbEntity
  8
0
100
AcDbLine
 10
64.9755
 20
2.00000000000001
 30
0.0
 11
66.2745
 21
2.00000000000001
 31
0.0
  0
LINE
  5
12A
330
1E
100
AcDbEntity
  8
0
100
AcDbLine
 10
64.9755
 20
2.00000000000001
 30
0.0
 11
64.9755
 21
0.0000000000000077
 31
0.0
  0
LINE
  5
12B
330
1E
100
AcDbEntity
  8
0
100
AcDbLine
 10
66.2745
 20
2.00000000000001
 30
0.0
 11
66.97499999999999
 21
2.00000000000001
 31
0.0
  0
LINE
  5
12C
330
1E
100
AcDbEntity
  8
0
100
AcDbLine
 10
66.2745
 20
2.00000000000001
 30
0.0
 11
66.2745
 21
0.0000000000000075
 31
0.0
  0
LINE
  5
12D
330
1E
100
AcDbEntity
  8
0
100
AcDbLine
 10
64.0138
 20
2.00000000000001
 30
0.0
 11
64.0138
 21
0.0000000000000077
 31
0.0
  0
LINE
  5
12E
330
1E
100
AcDbEntity
  8
0
100
AcDbLine
 10
60.6495
 20
2.00000000000001
 30
0.0
 11
60.6495
 21
0.000000000000008
 31
0.0
  0
LINE
  5
12F
330
1E
100
AcDbEntity
  8
0
100
AcDbLine
 10
61.3995
 20
2.00000000000001
 30
0.0
 11
61.3995
 21
0.000000000000008
 31
0.0
  0
LINE
  5
130
330
1E
100
AcDbEntity
  8
0
100
AcDbLine
 10
62.9532
 20
2.00000000000001
 30
0.0
 11
62.9532
 21
0.0000000000000077
 31
0.0
  0
LINE
  5
131
330
1E
100
AcDbEntity
  8
0
100
AcDbLine
 10
59.3505
 20
2.00000000000001
 30
0.0
 11
59.3505
 21
0.000000000000008
 31
0.0
  0
LINE
  5
132
330
1E
100
AcDbEntity
  8
0
100
AcDbLine
 10
53.7255
 20
2.00000000000001
 30
0.0
 11
53.7255
 21
0.0000000000000084
 31
0.0
  0
LINE
  5
133
330
1E
100
AcDbEntity
  8
0
100
AcDbLine
 10
52.5
 20
2.00000000000001
 30
0.0
 11
52.5
 21
0.0000000000000084
 31
0.0
  0
LINE
  5
134
330
1E
100
AcDbEntity
  8
0
100
AcDbLine
 10
48.1005
 20
2.00000000000001
 30
0.0
 11
49.3995
 21
2.00000000000001
 31
0.0
  0
LINE
  5
135
330
1E
100
AcDbEntity
  8
0
100
AcDbLine
 10
48.1005
 20
2.00000000000001
 30
0.0
 11
48.1005
 21
0.0000000000000087
 31
0.0
  0
LINE
  5
136
330
1E
100
AcDbEntity
  8
0
100
AcDbLine
 10
49.3995
 20
2.00000000000001
 30
0.0
 11
49.3995
 21
0.0000000000000087
 31
0.0
  0
LINE
  5
137
330
1E
100
AcDbEntity
  8
0
100
AcDbLine
 10
53.5837
 20
2.00000000000001
 30
0.0
 11
53.5837
 21
0.0000000000000084
 31
0.0
  0
LINE
  5
138
330
1E
100
AcDbEntity
  8
0
100
AcDbLine
 10
47.0433
 20
2.00000000000001
 30
0.0
 11
47.0433
 21
0.0000000000000087
 31
0.0
  0
LINE
  5
139
330
1E
100
AcDbEntity
  8
0
100
AcDbLine
 10
47.0433
 20
2.00000000000001
 30
0.0
 11
48.1005
 21
2.00000000000001
 31
0.0
  0
LINE
  5
13A
330
1E
100
AcDbEntity
  8
0
100
AcDbLine
 10
55.875
 20
2.00000000000001
 30
0.0
 11
66.97499999999999
 21
2.00000000000001
 31
0.0
  0
LINE
  5
13B
330
1E
100
AcDbEntity
  8
0
100
AcDbLine
 10
67.923
 20
2.00000000000001
 30
0.0
 11
67.923
 21
0.0000000000000075
 31
0.0
  0
LINE
  5
13C
330
1E
100
AcDbEntity
  8
0
100
AcDbLine
 10
69.3719
 20
2.00000000000001
 30
0.0
 11
69.3719
 21
0.0000000000000075
 31
0.0
  0
LINE
  5
13D
330
1E
100
AcDbEntity
  8
0
100
AcDbLine
 10
67.0245
 20
2.00000000000001
 30
0.0
 11
67.0245
 21
0.0000000000000075
 31
0.0
  0
LINE
  5
13E
330
1E
100
AcDbEntity
  8
0
100
AcDbLine
 10
66.97499999999999
 20
2.00000000000001
 30
0.0
 11
78.3
 21
2.00000000000001
 31
0.0
  0
LINE
  5
13F
330
1E
100
AcDbEntity
  8
0
100
AcDbLine
 10
52.5
 20
15.0
 30
0.0
 11
52.5
 21
12.0
 31
0.0
  0
LINE
  5
140
330
1E
100
AcDbEntity
  8
0
100
AcDbLine
 10
52.5
 20
15.0
 30
0.0
 11
52.875
 21
15.0
 31
0.0
  0
LINE
  5
141
330
1E
100
AcDbEntity
  8
0
100
AcDbLine
 10
55.875
 20
12.0
 30
0.0
 11
66.97499999999999
 21
12.0
 31
0.0
  0
LINE
  5
142
330
1E
100
AcDbEntity
  8
0
100
AcDbLine
 10
55.65
 20
11.0
 30
0.0
 11
66.75
 21
11.0
 31
0.0
  0
LINE
  5
143
330
1E
100
AcDbEntity
  8
0
100
AcDbLine
 10
55.65
 20
3.000000000000009
 30
0.0
 11
66.75
 21
3.000000000000009
 31
0.0
  0
LINE
  5
144
330
1E
100
AcDbEntity
  8
0
100
AcDbLine
 10
63.525
 20
15.0
 30
0.0
 11
67.2
 21
15.0
 31
0.0
  0
LINE
  5
145
330
1E
100
AcDbEntity
  8
0
100
AcDbLine
 10
66.75
 20
11.0
 30
0.0
 11
78.3
 21
11.0
 31
0.0
  0
LINE
  5
146
330
1E
100
AcDbEntity
  8
0
100
AcDbLine
 10
67.2
 20
15.0
 30
0.0
 11
71.325
 21
15.0
 31
0.0
  0
LINE
  5
147
330
1E
100
AcDbEntity
  8
0
100
AcDbLine
 10
71.325
 20
15.0
 30
0.0
 11
75.67499999999999
 21
15.0
 31
0.0
  0
LINE
  5
148
330
1E
100
AcDbEntity
  8
0
100
AcDbLine
 10
66.97499999999999
 20
12.0
 30
0.0
 11
78.3
 21
12.0
 31
0.0
  0
LINE
  5
149
330
1E
100
AcDbEntity
  8
0
100
AcDbLine
 10
66.75
 20
3.000000000000009
 30
0.0
 11
78.3
 21
3.000000000000009
 31
0.0
  0
LINE
  5
14A
330
1E
100
AcDbEntity
  8
0
100
AcDbLine
 10
60.3
 20
15.0
 30
0.0
 11
63.525
 21
15.0
 31
0.0
  0
LINE
  5
14B
330
1E
100
AcDbEntity
  8
0
100
AcDbLine
 10
57.525
 20
15.0
 30
0.0
 11
60.3
 21
15.0
 31
0.0
  0
LINE
  5
14C
330
1E
100
AcDbEntity
  8
0
100
AcDbLine
 10
55.425
 20
15.0
 30
0.0
 11
57.525
 21
15.0
 31
0.0
  0
LINE
  5
14D
330
1E
100
AcDbEntity
  8
0
100
AcDbLine
 10
53.85
 20
15.0
 30
0.0
 11
55.425
 21
15.0
 31
0.0
  0
LINE
  5
14E
330
1E
100
AcDbEntity
  8
0
100
AcDbLine
 10
52.875
 20
15.0
 30
0.0
 11
53.85
 21
15.0
 31
0.0
  0
LINE
  5
14F
330
1E
100
AcDbEntity
  8
0
100
AcDbLine
 10
52.5
 20
12.0
 30
0.0
 11
52.5
 21
15.0
 31
0.0
  0
LINE
  5
150
330
1E
100
AcDbEntity
  8
0
100
AcDbLine
 10
50.1495
 20
2.00000000000001
 30
0.0
 11
52.5
 21
2.00000000000001
 31
0.0
  0
LINE
  5
151
330
1E
100
AcDbEntity
  8
0
100
AcDbLine
 10
50.1495
 20
2.00000000000001
 30
0.0
 11
50.1495
 21
0.0000000000000087
 31
0.0
  0
LINE
  5
152
330
1E
100
AcDbEntity
  8
0
100
AcDbLine
 10
45.6
 20
2.00000000000001
 30
0.0
 11
47.0433
 21
2.00000000000001
 31
0.0
  0
LINE
  5
153
330
1E
100
AcDbEntity
  8
0
100
AcDbLine
 10
45.6
 20
2.00000000000001
 30
0.0
 11
55.875
 21
2.00000000000001
 31
0.0
  0
LINE
  5
154
330
1E
100
AcDbEntity
  8
0
100
AcDbLine
 10
69.76009999999999
 20
2.00000000000001
 30
0.0
 11
70.6005
 21
2.00000000000001
 31
0.0
  0
LINE
  5
155
330
1E
100
AcDbEntity
  8
0
100
AcDbLine
 10
69.76009999999999
 20
2.00000000000001
 30
0.0
 11
69.76009999999999
 21
0.0000000000000073
 31
0.0
  0
LINE
  5
156
330
1E
100
AcDbEntity
  8
0
100
AcDbLine
 10
75.1953
 20
2.00000000000001
 30
0.0
 11
75.1953
 21
0.000000000000007
 31
0.0
  0
LINE
  5
157
330
1E
100
AcDbEntity
  8
0
100
AcDbLine
 10
75.1953
 20
0.000000000000007
 30
0.0
 11
75.5835
 21
0.000000000000007
 31
0.0
  0
LINE
  5
158
330
1E
100
AcDbEntity
  8
0
100
AcDbLine
 10
75.1953
 20
0.000000000000007
 30
0.0
 11
75.1953
 21
2.00000000000001
 31
0.0
  0
LINE
  5
159
330
1E
100
AcDbEntity
  8
0
100
AcDbLine
 10
75.31699999999999
 20
0.000000000000007
 30
0.0
 11
76.2255
 21
0.000000000000007
 31
0.0
  0
LINE
  5
15A
330
1E
100
AcDbEntity
  8
0
100
AcDbLine
 10
75.31699999999999
 20
0.000000000000007
 30
0.0
 11
76.7659
 21
0.0000000000000069
 31
0.0
  0
LINE
  5
15B
330
1E
100
AcDbEntity
  8
0
100
AcDbLine
 10
75.31699999999999
 20
0.000000000000007
 30
0.0
 11
75.70520000000001
 21
0.000000000000007
 31
0.0
  0
LINE
  5
15C
330
1E
100
AcDbEntity
  8
0
100
AcDbLine
 10
75.0
 20
15.0
 30
0.0
 11
75.0
 21
26.66
 31
0.0
  0
LINE
  5
15D
330
1E
100
AcDbEntity
  8
0
100
AcDbLine
 10
75.0
 20
26.66
 30
0.0
 11
75.54000000000001
 21
26.66
 31
0.0
  0
LINE
  5
15E
330
1E
100
AcDbEntity
  8
0
100
AcDbLine
 10
75.0
 20
26.66
 30
0.0
 11
75.36
 21
27.0
 31
0.0
  0
LINE
  5
15F
330
1E
100
AcDbEntity
  8
0
100
AcDbLine
 10
75.0
 20
26.66
 30
0.0
 11
75.0
 21
15.0
 31
0.0
  0
LINE
  5
160
330
1E
100
AcDbEntity
  8
0
100
AcDbLine
 10
75.54000000000001
 20
26.66
 30
0.0
 11
76.98
 21
26.66
 31
0.0
  0
LINE
  5
161
330
1E
100
AcDbEntity
  8
0
100
AcDbLine
 10
75.36
 20
27.0
 30
0.0
 11
75.9
 21
27.0
 31
0.0
  0
LINE
  5
162
330
1E
100
AcDbEntity
  8
0
100
AcDbLine
 10
75.0
 20
27.38459999999999
 30
0.0
 11
75.0
 21
36.6154
 31
0.0
  0
LINE
  5
163
330
1E
100
AcDbEntity
  8
0
100
AcDbLine
 10
75.0
 20
27.38459999999999
 30
0.0
 11
75.54000000000001
 21
27.38459999999999
 31
0.0
  0
LINE
  5
164
330
1E
100
AcDbEntity
  8
0
100
AcDbLine
 10
75.0
 20
27.38459999999999
 30
0.0
 11
75.36
 21
27.0
 31
0.0
  0
LINE
  5
165
330
1E
100
AcDbEntity
  8
0
100
AcDbLine
 10
75.54000000000001
 20
27.38459999999999
 30
0.0
 11
76.98
 21
27.38459999999999
 31
0.0
  0
LINE
  5
166
330
1E
100
AcDbEntity
  8
0
100
AcDbLine
 10
75.0
 20
36.6154
 30
0.0
 11
75.36
 21
37.0
 31
0.0
  0
LINE
  5
167
330
1E
100
AcDbEntity
  8
0
100
AcDbLine
 10
75.0
 20
36.6154
 30
0.0
 11
75.54000000000001
 21
36.6154
 31
0.0
  0
LINE
  5
168
330
1E
100
AcDbEntity
  8
0
100
AcDbLine
 10
75.0
 20
36.6154
 30
0.0
 11
75.0
 21
27.38459999999999
 31
0.0
  0
LINE
  5
169
330
1E
100
AcDbEntity
  8
0
100
AcDbLine
 10
75.5835
 20
0.000000000000007
 30
0.0
 11
75.5835
 21
2.00000000000001
 31
0.0
  0
LINE
  5
16A
330
1E
100
AcDbEntity
  8
0
100
AcDbLine
 10
75.5835
 20
2.00000000000001
 30
0.0
 11
75.5835
 21
0.000000000000007
 31
0.0
  0
LINE
  5
16B
330
1E
100
AcDbEntity
  8
0
100
AcDbLine
 10
75.70520000000001
 20
2.00000000000001
 30
0.0
 11
75.70520000000001
 21
0.000000000000007
 31
0.0
  0
LINE
  5
16C
330
1E
100
AcDbEntity
  8
0
100
AcDbLine
 10
76.6581
 20
0.0000000000000069
 30
0.0
 11
76.6581
 21
2.00000000000001
 31
0.0
  0
LINE
  5
16D
330
1E
100
AcDbEntity
  8
0
100
AcDbLine
 10
76.6581
 20
0.0000000000000069
 30
0.0
 11
78.107
 21
0.0000000000000069
 31
0.0
  0
LINE
  5
16E
330
1E
100
AcDbEntity
  8
0
100
AcDbLine
 10
76.97549999999999
 20
0.0000000000000069
 30
0.0
 11
77.5245
 21
0.0000000000000069
 31
0.0
  0
LINE
  5
16F
330
1E
100
AcDbEntity
  8
0
100
AcDbLine
 10
76.97549999999999
 20
0.0000000000000069
 30
0.0
 11
78.2745
 21
0.0000000000000068
 31
0.0
  0
LINE
  5
170
330
1E
100
AcDbEntity
  8
0
100
AcDbLine
 10
76.2255
 20
2.00000000000001
 30
0.0
 11
76.2255
 21
0.000000000000007
 31
0.0
  0
LINE
  5
171
330
1E
100
AcDbEntity
  8
0
100
AcDbLine
 10
76.6581
 20
2.00000000000001
 30
0.0
 11
76.6581
 21
0.000000000000007
 31
0.0
  0
LINE
  5
172
330
1E
100
AcDbEntity
  8
0
100
AcDbLine
 10
76.2255
 20
0.000000000000007
 30
0.0
 11
77.04640000000001
 21
0.0000000000000069
 31
0.0
  0
LINE
  5
173
330
1E
100
AcDbEntity
  8
0
100
AcDbLine
 10
76.2255
 20
0.000000000000007
 30
0.0
 11
76.2255
 21
2.00000000000001
 31
0.0
  0
LINE
  5
174
330
1E
100
AcDbEntity
  8
0
100
AcDbLine
 10
76.2255
 20
0.000000000000007
 30
0.0
 11
76.6581
 21
0.0000000000000069
 31
0.0
  0
LINE
  5
175
330
1E
100
AcDbEntity
  8
0
100
AcDbLine
 10
75.70520000000001
 20
0.000000000000007
 30
0.0
 11
75.70520000000001
 21
2.00000000000001
 31
0.0
  0
LINE
  5
176
330
1E
100
AcDbEntity
  8
0
100
AcDbLine
 10
75.70520000000001
 20
0.000000000000007
 30
0.0
 11
76.2255
 21
0.000000000000007
 31
0.0
  0
LINE
  5
177
330
1E
100
AcDbEntity
  8
0
100
AcDbLine
 10
75.67499999999999
 20
15.0
 30
0.0
 11
80.325
 21
15.0
 31
0.0
  0
LINE
  5
178
330
1E
100
AcDbEntity
  8
0
100
AcDbLine
 10
77.04640000000001
 20
0.0000000000000069
 30
0.0
 11
78.4952
 21
0.0000000000000068
 31
0.0
  0
LINE
  5
179
330
1E
100
AcDbEntity
  8
0
100
AcDbLine
 10
76.98
 20
26.66
 30
0.0
 11
79.37999999999999
 21
26.66
 31
0.0
  0
LINE
  5
17A
330
1E
100
AcDbEntity
  8
0
100
AcDbLine
 10
75.9
 20
27.0
 30
0.0
 11
77.34
 21
27.0
 31
0.0
  0
LINE
  5
17B
330
1E
100
AcDbEntity
  8
0
100
AcDbLine
 10
77.5245
 20
0.0000000000000069
 30
0.0
 11
78.2745
 21
0.0000000000000068
 31
0.0
  0
LINE
  5
17C
330
1E
100
AcDbEntity
  8
0
100
AcDbLine
 10
77.34
 20
27.0
 30
0.0
 11
79.68
 21
27.0
 31
0.0
  0
LINE
  5
17D
330
1E
100
AcDbEntity
  8
0
100
AcDbLine
 10
76.98
 20
27.38459999999999
 30
0.0
 11
79.37999999999999
 21
27.38459999999999
 31
0.0
  0
LINE
  5
17E
330
1E
100
AcDbEntity
  8
0
100
AcDbLine
 10
75.54000000000001
 20
36.6154
 30
0.0
 11
76.98
 21
36.6154
 31
0.0
  0
LINE
  5
17F
330
1E
100
AcDbEntity
  8
0
100
AcDbLine
 10
75.36
 20
37.0
 30
0.0
 11
75.9
 21
37.0
 31
0.0
  0
LINE
  5
180
330
1E
100
AcDbEntity
  8
0
100
AcDbLine
 10
75.9
 20
37.0
 30
0.0
 11
77.34
 21
37.0
 31
0.0
  0
LINE
  5
181
330
1E
100
AcDbEntity
  8
0
100
AcDbLine
 10
77.34
 20
37.0
 30
0.0
 11
79.68
 21
37.0
 31
0.0
  0
LINE
  5
182
330
1E
100
AcDbEntity
  8
0
100
AcDbLine
 10
76.98
 20
36.6154
 30
0.0
 11
79.37999999999999
 21
36.6154
 31
0.0
  0
LINE
  5
183
330
1E
100
AcDbEntity
  8
0
100
AcDbLine
 10
78.107
 20
2.00000000000001
 30
0.0
 11
78.3
 21
2.00000000000001
 31
0.0
  0
LINE
  5
184
330
1E
100
AcDbEntity
  8
0
100
AcDbLine
 10
78.107
 20
2.00000000000001
 30
0.0
 11
78.107
 21
0.0000000000000068
 31
0.0
  0
LINE
  5
185
330
1E
100
AcDbEntity
  8
0
100
AcDbLine
 10
78.107
 20
0.0000000000000069
 30
0.0
 11
78.2745
 21
0.0000000000000068
 31
0.0
  0
LINE
  5
186
330
1E
100
AcDbEntity
  8
0
100
AcDbLine
 10
78.107
 20
0.0000000000000069
 30
0.0
 11
78.4952
 21
0.0000000000000068
 31
0.0
  0
LINE
  5
187
330
1E
100
AcDbEntity
  8
0
100
AcDbLine
 10
78.107
 20
0.0000000000000069
 30
0.0
 11
78.107
 21
2.00000000000001
 31
0.0
  0
LINE
  5
188
330
1E
100
AcDbEntity
  8
0
100
AcDbLine
 10
78.2745
 20
0.0000000000000068
 30
0.0
 11
78.4952
 21
0.0000000000000068
 31
0.0
  0
LINE
  5
189
330
1E
100
AcDbEntity
  8
0
100
AcDbLine
 10
78.3
 20
11.0
 30
0.0
 11
90.0
 21
11.0
 31
0.0
  0
LINE
  5
18A
330
1E
100
AcDbEntity
  8
0
100
AcDbLine
 10
78.3
 20
3.000000000000009
 30
0.0
 11
90.0
 21
3.000000000000009
 31
0.0
  0
LINE
  5
18B
330
1E
100
AcDbEntity
  8
0
100
AcDbLine
 10
78.4952
 20
0.0000000000000068
 30
0.0
 11
78.4952
 21
2.00000000000001
 31
0.0
  0
LINE
  5
18C
330
1E
100
AcDbEntity
  8
0
100
AcDbLine
 10
78.6837
 20
0.0000000000000068
 30
0.0
 11
78.6837
 21
2.00000000000001
 31
0.0
  0
LINE
  5
18D
330
1E
100
AcDbEntity
  8
0
100
AcDbLine
 10
78.4952
 20
2.00000000000001
 30
0.0
 11
78.4952
 21
0.0000000000000068
 31
0.0
  0
LINE
  5
18E
330
1E
100
AcDbEntity
  8
0
100
AcDbLine
 10
78.6837
 20
2.00000000000001
 30
0.0
 11
78.6837
 21
0.0000000000000068
 31
0.0
  0
LINE
  5
18F
330
1E
100
AcDbEntity
  8
0
100
AcDbLine
 10
78.4952
 20
0.0000000000000068
 30
0.0
 11
78.6837
 21
0.0000000000000068
 31
0.0
  0
LINE
  5
190
330
1E
100
AcDbEntity
  8
0
100
AcDbLine
 10
78.8631
 20
2.00000000000001
 30
0.0
 11
78.8631
 21
0.0000000000000068
 31
0.0
  0
LINE
  5
191
330
1E
100
AcDbEntity
  8
0
100
AcDbLine
 10
78.8631
 20
0.0000000000000068
 30
0.0
 11
79.9237
 21
0.0000000000000067
 31
0.0
  0
LINE
  5
192
330
1E
100
AcDbEntity
  8
0
100
AcDbLine
 10
78.8631
 20
0.0000000000000068
 30
0.0
 11
78.8631
 21
2.00000000000001
 31
0.0
  0
LINE
  5
193
330
1E
100
AcDbEntity
  8
0
100
AcDbLine
 10
78.3
 20
2.00000000000001
 30
0.0
 11
90.0
 21
2.00000000000001
 31
0.0
  0
LINE
  5
194
330
1E
100
AcDbEntity
  8
0
100
AcDbLine
 10
78.3
 20
12.0
 30
0.0
 11
80.325
 21
12.0
 31
0.0
  0
LINE
  5
195
330
1E
100
AcDbEntity
  8
0
100
AcDbLine
 10
78.3
 20
12.0
 30
0.0
 11
90.0
 21
12.0
 31
0.0
  0
LINE
  5
196
330
1E
100
AcDbEntity
  8
0
100
AcDbLine
 10
78.0
 20
44.0
 30
0.0
 11
78.4
 21
44.0
 31
0.0
  0
LINE
  5
197
330
1E
100
AcDbEntity
  8
0
100
AcDbLine
 10
78.0
 20
44.0
 30
0.0
 11
78.0
 21
52.0
 31
0.0
  0
LINE
  5
198
330
1E
100
AcDbEntity
  8
0
100
AcDbLine
 10
78.0
 20
58.0
 30
0.0
 11
78.0
 21
54.0
 31
0.0
  0
LINE
  5
199
330
1E
100
AcDbEntity
  8
0
100
AcDbLine
 10
78.0
 20
58.0
 30
0.0
 11
78.0
 21
76.0
 31
0.0
  0
LINE
  5
19A
330
1E
100
AcDbEntity
  8
0
100
AcDbLine
 10
78.0
 20
54.0
 30
0.0
 11
79.0
 21
53.0
 31
0.0
  0
LINE
  5
19B
330
1E
100
AcDbEntity
  8
0
100
AcDbLine
 10
78.0
 20
54.0
 30
0.0
 11
78.0
 21
58.0
 31
0.0
  0
LINE
  5
19C
330
1E
100
AcDbEntity
  8
0
100
AcDbLine
 10
78.0
 20
54.0
 30
0.0
 11
78.4
 21
54.0
 31
0.0
  0
LINE
  5
19D
330
1E
100
AcDbEntity
  8
0
100
AcDbLine
 10
78.0
 20
76.0
 30
0.0
 11
79.40000000000001
 21
86.4
 31
0.0
  0
LINE
  5
19E
330
1E
100
AcDbEntity
  8
0
100
AcDbLine
 10
78.4
 20
54.0
 30
0.0
 11
79.59999999999999
 21
54.0
 31
0.0
  0
LINE
  5
19F
330
1E
100
AcDbEntity
  8
0
100
AcDbLine
 10
79.0
 20
53.0
 30
0.0
 11
79.40000000000001
 21
53.0
 31
0.0
  0
LINE
  5
1A0
330
1E
100
AcDbEntity
  8
0
100
AcDbLine
 10
78.4
 20
52.0
 30
0.0
 11
79.59999999999999
 21
52.0
 31
0.0
  0
LINE
  5
1A1
330
1E
100
AcDbEntity
  8
0
100
AcDbLine
 10
78.0
 20
52.0
 30
0.0
 11
79.0
 21
53.0
 31
0.0
  0
LINE
  5
1A2
330
1E
100
AcDbEntity
  8
0
100
AcDbLine
 10
78.0
 20
52.0
 30
0.0
 11
78.0
 21
44.0
 31
0.0
  0
LINE
  5
1A3
330
1E
100
AcDbEntity
  8
0
100
AcDbLine
 10
78.0
 20
52.0
 30
0.0
 11
78.4
 21
52.0
 31
0.0
  0
LINE
  5
1A4
330
1E
100
AcDbEntity
  8
0
100
AcDbLine
 10
78.4
 20
44.0
 30
0.0
 11
79.0
 21
44.0
 31
0.0
  0
LINE
  5
1A5
330
1E
100
AcDbEntity
  8
0
100
AcDbLine
 10
78.4
 20
44.0
 30
0.0
 11
79.59999999999999
 21
44.0
 31
0.0
  0
LINE
  5
1A6
330
1E
100
AcDbEntity
  8
0
100
AcDbLine
 10
79.37999999999999
 20
26.66
 30
0.0
 11
82.56
 21
26.66
 31
0.0
  0
LINE
  5
1A7
330
1E
100
AcDbEntity
  8
0
100
AcDbLine
 10
79.5698
 20
2.00000000000001
 30
0.0
 11
79.5698
 21
0.0000000000000068
 31
0.0
  0
LINE
  5
1A8
330
1E
100
AcDbEntity
  8
0
100
AcDbLine
 10
79.5698
 20
0.0000000000000068
 30
0.0
 11
79.5698
 21
2.00000000000001
 31
0.0
  0
LINE
  5
1A9
330
1E
100
AcDbEntity
  8
0
100
AcDbLine
 10
79.5698
 20
0.0000000000000068
 30
0.0
 11
81.01869999999999
 21
0.0000000000000067
 31
0.0
  0
LINE
  5
1AA
330
1E
100
AcDbEntity
  8
0
100
AcDbLine
 10
79.5698
 20
0.0000000000000068
 30
0.0
 11
79.9581
 21
0.0000000000000067
 31
0.0
  0
LINE
  5
1AB
330
1E
100
AcDbEntity
  8
0
100
AcDbLine
 10
79.37999999999999
 20
27.38459999999999
 30
0.0
 11
82.56
 21
27.38459999999999
 31
0.0
  0
LINE
  5
1AC
330
1E
100
AcDbEntity
  8
0
100
AcDbLine
 10
79.37999999999999
 20
36.6154
 30
0.0
 11
82.56
 21
36.6154
 31
0.0
  0
LINE
  5
1AD
330
1E
100
AcDbEntity
  8
0
100
AcDbLine
 10
79.9237
 20
0.0000000000000067
 30
0.0
 11
80.9844
 21
0.0000000000000067
 31
0.0
  0
LINE
  5
1AE
330
1E
100
AcDbEntity
  8
0
100
AcDbLine
 10
79.9581
 20
0.0000000000000067
 30
0.0
 11
80.9844
 21
0.0000000000000067
 31
0.0
  0
LINE
  5
1AF
330
1E
100
AcDbEntity
  8
0
100
AcDbLine
 10
80.325
 20
15.0
 30
0.0
 11
85.12500000000001
 21
15.0
 31
0.0
  0
LINE
  5
1B0
330
1E
100
AcDbEntity
  8
0
100
AcDbLine
 10
79.68
 20
27.0
 30
0.0
 11
82.73999999999999
 21
27.0
 31
0.0
  0
LINE
  5
1B1
330
1E
100
AcDbEntity
  8
0
100
AcDbLine
 10
79.68
 20
37.0
 30
0.0
 11
82.73999999999999
 21
37.0
 31
0.0
  0
LINE
  5
1B2
330
1E
100
AcDbEntity
  8
0
100
AcDbLine
 10
79.59999999999999
 20
44.0
 30
0.0
 11
81.5
 21
44.0
 31
0.0
  0
LINE
  5
1B3
330
1E
100
AcDbEntity
  8
0
100
AcDbLine
 10
79.40000000000001
 20
44.0
 30
0.0
 11
80.5
 21
44.0
 31
0.0
  0
LINE
  5
1B4
330
1E
100
AcDbEntity
  8
0
100
AcDbLine
 10
81.407
 20
0.0000000000000067
 30
0.0
 11
81.407
 21
2.00000000000001
 31
0.0
  0
LINE
  5
1B5
330
1E
100
AcDbEntity
  8
0
100
AcDbLine
 10
81.01869999999999
 20
2.00000000000001
 30
0.0
 11
81.407
 21
2.00000000000001
 31
0.0
  0
LINE
  5
1B6
330
1E
100
AcDbEntity
  8
0
100
AcDbLine
 10
81.01869999999999
 20
2.00000000000001
 30
0.0
 11
81.01869999999999
 21
0.0000000000000068
 31
0.0
  0
LINE
  5
1B7
330
1E
100
AcDbEntity
  8
0
100
AcDbLine
 10
81.407
 20
2.00000000000001
 30
0.0
 11
81.407
 21
0.0000000000000066
 31
0.0
  0
LINE
  5
1B8
330
1E
100
AcDbEntity
  8
0
100
AcDbLine
 10
81.01869999999999
 20
0.0000000000000067
 30
0.0
 11
81.407
 21
0.0000000000000067
 31
0.0
  0
LINE
  5
1B9
330
1E
100
AcDbEntity
  8
0
100
AcDbLine
 10
81.01869999999999
 20
0.0000000000000067
 30
0.0
 11
81.01869999999999
 21
2.00000000000001
 31
0.0
  0
LINE
  5
1BA
330
1E
100
AcDbEntity
  8
0
100
AcDbLine
 10
82.4816
 20
2.00000000000001
 30
0.0
 11
82.4816
 21
0.0000000000000066
 31
0.0
  0
LINE
  5
1BB
330
1E
100
AcDbEntity
  8
0
100
AcDbLine
 10
81.8505
 20
2.00000000000001
 30
0.0
 11
81.8505
 21
0.0000000000000066
 31
0.0
  0
LINE
  5
1BC
330
1E
100
AcDbEntity
  8
0
100
AcDbLine
 10
81.8505
 20
0.0000000000000066
 30
0.0
 11
82.4816
 21
0.0000000000000066
 31
0.0
  0
LINE
  5
1BD
330
1E
100
AcDbEntity
  8
0
100
AcDbLine
 10
81.8505
 20
0.0000000000000066
 30
0.0
 11
81.8505
 21
2.00000000000001
 31
0.0
  0
LINE
  5
1BE
330
1E
100
AcDbEntity
  8
0
100
AcDbLine
 10
81.8505
 20
0.0000000000000066
 30
0.0
 11
82.4816
 21
0.0000000000000066
 31
0.0
  0
LINE
  5
1BF
330
1E
100
AcDbEntity
  8
0
100
AcDbLine
 10
82.4816
 20
0.0000000000000066
 30
0.0
 11
82.60049999999999
 21
0.0000000000000066
 31
0.0
  0
LINE
  5
1C0
330
1E
100
AcDbEntity
  8
0
100
AcDbLine
 10
82.4816
 20
0.0000000000000066
 30
0.0
 11
82.4816
 21
2.00000000000001
 31
0.0
  0
LINE
  5
1C1
330
1E
100
AcDbEntity
  8
0
100
AcDbLine
 10
82.4816
 20
0.0000000000000066
 30
0.0
 11
83.9304
 21
0.0000000000000065
 31
0.0
  0
LINE
  5
1C2
330
1E
100
AcDbEntity
  8
0
100
AcDbLine
 10
82.56
 20
26.66
 30
0.0
 11
86.15999999999999
 21
26.66
 31
0.0
  0
LINE
  5
1C3
330
1E
100
AcDbEntity
  8
0
100
AcDbLine
 10
83.14950000000001
 20
0.0000000000000065
 30
0.0
 11
83.8995
 21
0.0000000000000065
 31
0.0
  0
LINE
  5
1C4
330
1E
100
AcDbEntity
  8
0
100
AcDbLine
 10
84.31870000000001
 20
0.0000000000000065
 30
0.0
 11
84.31870000000001
 21
2.00000000000001
 31
0.0
  0
LINE
  5
1C5
330
1E
100
AcDbEntity
  8
0
100
AcDbLine
 10
83.9304
 20
2.00000000000001
 30
0.0
 11
83.9304
 21
0.0000000000000066
 31
0.0
  0
LINE
  5
1C6
330
1E
100
AcDbEntity
  8
0
100
AcDbLine
 10
84.31870000000001
 20
2.00000000000001
 30
0.0
 11
84.31870000000001
 21
0.0000000000000066
 31
0.0
  0
LINE
  5
1C7
330
1E
100
AcDbEntity
  8
0
100
AcDbLine
 10
83.9304
 20
0.0000000000000065
 30
0.0
 11
84.31870000000001
 21
0.0000000000000065
 31
0.0
  0
LINE
  5
1C8
330
1E
100
AcDbEntity
  8
0
100
AcDbLine
 10
83.9304
 20
0.0000000000000065
 30
0.0
 11
84.31870000000001
 21
0.0000000000000065
 31
0.0
  0
LINE
  5
1C9
330
1E
100
AcDbEntity
  8
0
100
AcDbLine
 10
83.9304
 20
0.0000000000000065
 30
0.0
 11
83.9304
 21
2.00000000000001
 31
0.0
  0
LINE
  5
1CA
330
1E
100
AcDbEntity
  8
0
100
AcDbLine
 10
82.73999999999999
 20
27.0
 30
0.0
 11
86.21999999999999
 21
27.0
 31
0.0
  0
LINE
  5
1CB
330
1E
100
AcDbEntity
  8
0
100
AcDbLine
 10
82.56
 20
27.38459999999999
 30
0.0
 11
86.15999999999999
 21
27.38459999999999
 31
0.0
  0
LINE
  5
1CC
330
1E
100
AcDbEntity
  8
0
100
AcDbLine
 10
82.73999999999999
 20
37.0
 30
0.0
 11
86.21999999999999
 21
37.0
 31
0.0
  0
LINE
  5
1CD
330
1E
100
AcDbEntity
  8
0
100
AcDbLine
 10
82.56
 20
36.6154
 30
0.0
 11
86.15999999999999
 21
36.6154
 31
0.0
  0
LINE
  5
1CE
330
1E
100
AcDbEntity
  8
0
100
AcDbLine
 10
81.5
 20
44.0
 30
0.0
 11
84.0
 21
44.0
 31
0.0
  0
LINE
  5
1CF
330
1E
100
AcDbEntity
  8
0
100
AcDbLine
 10
84.0
 20
44.0
 30
0.0
 11
86.90000000000001
 21
44.0
 31
0.0
  0
LINE
  5
1D0
330
1E
100
AcDbEntity
  8
0
100
AcDbLine
 10
80.5
 20
44.0
 30
0.0
 11
82.2
 21
44.0
 31
0.0
  0
LINE
  5
1D1
330
1E
100
AcDbEntity
  8
0
100
AcDbLine
 10
82.2
 20
44.0
 30
0.0
 11
84.50000000000001
 21
44.0
 31
0.0
  0
LINE
  5
1D2
330
1E
100
AcDbEntity
  8
0
100
AcDbLine
 10
85.78149999999999
 20
0.0000000000000064
 30
0.0
 11
87.23040000000001
 21
0.0000000000000063
 31
0.0
  0
LINE
  5
1D3
330
1E
100
AcDbEntity
  8
0
100
AcDbLine
 10
85.39329999999999
 20
2.00000000000001
 30
0.0
 11
85.39329999999999
 21
0.0000000000000063
 31
0.0
  0
LINE
  5
1D4
330
1E
100
AcDbEntity
  8
0
100
AcDbLine
 10
85.39329999999999
 20
0.0000000000000064
 30
0.0
 11
85.39329999999999
 21
2.00000000000001
 31
0.0
  0
LINE
  5
1D5
330
1E
100
AcDbEntity
  8
0
100
AcDbLine
 10
85.39329999999999
 20
0.0000000000000064
 30
0.0
 11
86.84220000000001
 21
0.0000000000000063
 31
0.0
  0
LINE
  5
1D6
330
1E
100
AcDbEntity
  8
0
100
AcDbLine
 10
85.12500000000001
 20
15.0
 30
0.0
 11
90.0
 21
15.0
 31
0.0
  0
LINE
  5
1D7
330
1E
100
AcDbEntity
  8
0
100
AcDbLine
 10
86.15999999999999
 20
26.66
 30
0.0
 11
90.0
 21
26.66
 31
0.0
  0
LINE
  5
1D8
330
1E
100
AcDbEntity
  8
0
100
AcDbLine
 10
87.23040000000001
 20
0.0000000000000063
 30
0.0
 11
87.23040000000001
 21
2.00000000000001
 31
0.0
  0
LINE
  5
1D9
330
1E
100
AcDbEntity
  8
0
100
AcDbLine
 10
86.84220000000001
 20
0.0000000000000063
 30
0.0
 11
87.23040000000001
 21
0.0000000000000063
 31
0.0
  0
LINE
  5
1DA
330
1E
100
AcDbEntity
  8
0
100
AcDbLine
 10
86.84220000000001
 20
0.0000000000000063
 30
0.0
 11
86.84220000000001
 21
2.00000000000001
 31
0.0
  0
LINE
  5
1DB
330
1E
100
AcDbEntity
  8
0
100
AcDbLine
 10
86.84220000000001
 20
2.00000000000001
 30
0.0
 11
86.84220000000001
 21
0.0000000000000063
 31
0.0
  0
LINE
  5
1DC
330
1E
100
AcDbEntity
  8
0
100
AcDbLine
 10
87.23040000000001
 20
2.00000000000001
 30
0.0
 11
87.23040000000001
 21
0.0000000000000063
 31
0.0
  0
LINE
  5
1DD
330
1E
100
AcDbEntity
  8
0
100
AcDbLine
 10
89.25
 20
2.00000000000001
 30
0.0
 11
89.25
 21
0.0000000000000061
 31
0.0
  0
LINE
  5
1DE
330
1E
100
AcDbEntity
  8
0
100
AcDbLine
 10
89.25
 20
2.00000000000001
 30
0.0
 11
90.0
 21
2.00000000000001
 31
0.0
  0
LINE
  5
1DF
330
1E
100
AcDbEntity
  8
0
100
AcDbLine
 10
90.0
 20
15.0
 30
0.0
 11
94.875
 21
15.0
 31
0.0
  0
LINE
  5
1E0
330
1E
100
AcDbEntity
  8
0
100
AcDbLine
 10
90.0
 20
12.0
 30
0.0
 11
101.7
 21
12.0
 31
0.0
  0
LINE
  5
1E1
330
1E
100
AcDbEntity
  8
0
100
AcDbLine
 10
90.0
 20
11.0
 30
0.0
 11
101.7
 21
11.0
 31
0.0
  0
LINE
  5
1E2
330
1E
100
AcDbEntity
  8
0
100
AcDbLine
 10
90.0
 20
3.000000000000009
 30
0.0
 11
101.7
 21
3.000000000000009
 31
0.0
  0
LINE
  5
1E3
330
1E
100
AcDbEntity
  8
0
100
AcDbLine
 10
90.0
 20
2.00000000000001
 30
0.0
 11
101.7
 21
2.00000000000001
 31
0.0
  0
LINE
  5
1E4
330
1E
100
AcDbEntity
  8
0
100
AcDbLine
 10
89.25
 20
0.0000000000000062
 30
0.0
 11
89.25
 21
2.00000000000001
 31
0.0
  0
LINE
  5
1E5
330
1E
100
AcDbEntity
  8
0
100
AcDbLine
 10
89.25
 20
0.0000000000000062
 30
0.0
 11
90.75000000000001
 21
0.0000000000000061
 31
0.0
  0
LINE
  5
1E6
330
1E
100
AcDbEntity
  8
0
100
AcDbLine
 10
90.0
 20
26.66
 30
0.0
 11
93.84
 21
26.66
 31
0.0
  0
LINE
  5
1E7
330
1E
100
AcDbEntity
  8
0
100
AcDbLine
 10
90.0
 20
27.0
 30
0.0
 11
93.78
 21
27.0
 31
0.0
  0
LINE
  5
1E8
330
1E
100
AcDbEntity
  8
0
100
AcDbLine
 10
90.0
 20
27.38459999999999
 30
0.0
 11
93.84
 21
27.38459999999999
 31
0.0
  0
LINE
  5
1E9
330
1E
100
AcDbEntity
  8
0
100
AcDbLine
 10
86.21999999999999
 20
27.0
 30
0.0
 11
90.0
 21
27.0
 31
0.0
  0
LINE
  5
1EA
330
1E
100
AcDbEntity
  8
0
100
AcDbLine
 10
86.15999999999999
 20
27.38459999999999
 30
0.0
 11
90.0
 21
27.38459999999999
 31
0.0
  0
LINE
  5
1EB
330
1E
100
AcDbEntity
  8
0
100
AcDbLine
 10
90.0
 20
36.6154
 30
0.0
 11
93.84
 21
36.6154
 31
0.0
  0
LINE
  5
1EC
330
1E
100
AcDbEntity
  8
0
100
AcDbLine
 10
90.0
 20
37.0
 30
0.0
 11
93.78
 21
37.0
 31
0.0
  0
LINE
  5
1ED
330
1E
100
AcDbEntity
  8
0
100
AcDbLine
 10
86.21999999999999
 20
37.0
 30
0.0
 11
90.0
 21
37.0
 31
0.0
  0
LINE
  5
1EE
330
1E
100
AcDbEntity
  8
0
100
AcDbLine
 10
86.15999999999999
 20
36.6154
 30
0.0
 11
90.0
 21
36.6154
 31
0.0
  0
LINE
  5
1EF
330
1E
100
AcDbEntity
  8
0
100
AcDbLine
 10
92.7696
 20
0.000000000000006
 30
0.0
 11
93.1578
 21
0.0000000000000059
 31
0.0
  0
LINE
  5
1F0
330
1E
100
AcDbEntity
  8
0
100
AcDbLine
 10
92.7696
 20
0.000000000000006
 30
0.0
 11
92.7696
 21
2.00000000000001
 31
0.0
  0
LINE
  5
1F1
330
1E
100
AcDbEntity
  8
0
100
AcDbLine
 10
93.1578
 20
0.0000000000000059
 30
0.0
 11
93.1578
 21
2.00000000000001
 31
0.0
  0
LINE
  5
1F2
330
1E
100
AcDbEntity
  8
0
100
AcDbLine
 10
93.1578
 20
0.0000000000000059
 30
0.0
 11
94.6067
 21
0.0000000000000058
 31
0.0
  0
LINE
  5
1F3
330
1E
100
AcDbEntity
  8
0
100
AcDbLine
 10
93.1578
 20
0.0000000000000059
 30
0.0
 11
94.2185
 21
0.0000000000000059
 31
0.0
  0
LINE
  5
1F4
330
1E
100
AcDbEntity
  8
0
100
AcDbLine
 10
93.1578
 20
2.00000000000001
 30
0.0
 11
93.1578
 21
0.0000000000000059
 31
0.0
  0
LINE
  5
1F5
330
1E
100
AcDbEntity
  8
0
100
AcDbLine
 10
93.1578
 20
2.00000000000001
 30
0.0
 11
94.6067
 21
2.00000000000001
 31
0.0
  0
LINE
  5
1F6
330
1E
100
AcDbEntity
  8
0
100
AcDbLine
 10
92.7696
 20
2.00000000000001
 30
0.0
 11
92.7696
 21
0.0000000000000059
 31
0.0
  0
LINE
  5
1F7
330
1E
100
AcDbEntity
  8
0
100
AcDbLine
 10
92.7696
 20
2.00000000000001
 30
0.0
 11
93.1578
 21
2.00000000000001
 31
0.0
  0
LINE
  5
1F8
330
1E
100
AcDbEntity
  8
0
100
AcDbLine
 10
90.75000000000001
 20
2.00000000000001
 30
0.0
 11
90.75000000000001
 21
0.0000000000000061
 31
0.0
  0
LINE
  5
1F9
330
1E
100
AcDbEntity
  8
0
100
AcDbLine
 10
90.75000000000001
 20
2.00000000000001
 30
0.0
 11
92.7696
 21
2.00000000000001
 31
0.0
  0
LINE
  5
1FA
330
1E
100
AcDbEntity
  8
0
100
AcDbLine
 10
90.75000000000001
 20
0.0000000000000061
 30
0.0
 11
90.75000000000001
 21
2.00000000000001
 31
0.0
  0
LINE
  5
1FB
330
1E
100
AcDbEntity
  8
0
100
AcDbLine
 10
93.84
 20
26.66
 30
0.0
 11
97.43999999999999
 21
26.66
 31
0.0
  0
LINE
  5
1FC
330
1E
100
AcDbEntity
  8
0
100
AcDbLine
 10
93.78
 20
27.0
 30
0.0
 11
100.3199999999999
 21
27.0
 31
0.0
  0
LINE
  5
1FD
330
1E
100
AcDbEntity
  8
0
100
AcDbLine
 10
93.78
 20
27.0
 30
0.0
 11
97.26
 21
27.0
 31
0.0
  0
LINE
  5
1FE
330
1E
100
AcDbEntity
  8
0
100
AcDbLine
 10
93.84
 20
27.38459999999999
 30
0.0
 11
97.43999999999999
 21
27.38459999999999
 31
0.0
  0
LINE
  5
1FF
330
1E
100
AcDbEntity
  8
0
100
AcDbLine
 10
93.78
 20
37.0
 30
0.0
 11
97.26
 21
37.0
 31
0.0
  0
LINE
  5
200
330
1E
100
AcDbEntity
  8
0
100
AcDbLine
 10
94.875
 20
15.0
 30
0.0
 11
99.67500000000001
 21
15.0
 31
0.0
  0
LINE
  5
201
330
1E
100
AcDbEntity
  8
0
100
AcDbLine
 10
94.6067
 20
2.00000000000001
 30
0.0
 11
94.6067
 21
0.0000000000000059
 31
0.0
  0
LINE
  5
202
330
1E
100
AcDbEntity
  8
0
100
AcDbLine
 10
94.6067
 20
2.00000000000001
 30
0.0
 11
95.6813
 21
2.00000000000001
 31
0.0
  0
LINE
  5
203
330
1E
100
AcDbEntity
  8
0
100
AcDbLine
 10
94.2185
 20
0.0000000000000059
 30
0.0
 11
94.6067
 21
0.0000000000000058
 31
0.0
  0
LINE
  5
204
330
1E
100
AcDbEntity
  8
0
100
AcDbLine
 10
94.6067
 20
0.0000000000000058
 30
0.0
 11
94.6067
 21
2.00000000000001
 31
0.0
  0
LINE
  5
205
330
1E
100
AcDbEntity
  8
0
100
AcDbLine
 10
93.84
 20
36.6154
 30
0.0
 11
97.43999999999999
 21
36.6154
 31
0.0
  0
LINE
  5
206
330
1E
100
AcDbEntity
  8
0
100
AcDbLine
 10
93.1
 20
44.0
 30
0.0
 11
96.0
 21
44.0
 31
0.0
  0
LINE
  5
207
330
1E
100
AcDbEntity
  8
0
100
AcDbLine
 10
97.1302
 20
0.0000000000000057
 30
0.0
 11
97.51840000000001
 21
0.0000000000000057
 31
0.0
  0
LINE
  5
208
330
1E
100
AcDbEntity
  8
0
100
AcDbLine
 10
97.1302
 20
0.0000000000000057
 30
0.0
 11
98.14950000000001
 21
0.0000000000000056
 31
0.0
  0
LINE
  5
209
330
1E
100
AcDbEntity
  8
0
100
AcDbLine
 10
97.1302
 20
0.0000000000000057
 30
0.0
 11
97.3995
 21
0.0000000000000057
 31
0.0
  0
LINE
  5
20A
330
1E
100
AcDbEntity
  8
0
100
AcDbLine
 10
95.6813
 20
2.00000000000001
 30
0.0
 11
95.6813
 21
0.0000000000000059
 31
0.0
  0
LINE
  5
20B
330
1E
100
AcDbEntity
  8
0
100
AcDbLine
 10
96.0696
 20
2.00000000000001
 30
0.0
 11
96.0696
 21
0.0000000000000059
 31
0.0
  0
LINE
  5
20C
330
1E
100
AcDbEntity
  8
0
100
AcDbLine
 10
96.0696
 20
2.00000000000001
 30
0.0
 11
97.51840000000001
 21
2.00000000000001
 31
0.0
  0
LINE
  5
20D
330
1E
100
AcDbEntity
  8
0
100
AcDbLine
 10
95.6813
 20
0.0000000000000058
 30
0.0
 11
96.0696
 21
0.0000000000000058
 31
0.0
  0
LINE
  5
20E
330
1E
100
AcDbEntity
  8
0
100
AcDbLine
 10
95.6813
 20
0.0000000000000058
 30
0.0
 11
97.1302
 21
0.0000000000000057
 31
0.0
  0
LINE
  5
20F
330
1E
100
AcDbEntity
  8
0
100
AcDbLine
 10
95.6813
 20
0.0000000000000058
 30
0.0
 11
95.6813
 21
2.00000000000001
 31
0.0
  0
LINE
  5
210
330
1E
100
AcDbEntity
  8
0
100
AcDbLine
 10
96.0696
 20
0.0000000000000058
 30
0.0
 11
96.0696
 21
2.00000000000001
 31
0.0
  0
LINE
  5
211
330
1E
100
AcDbEntity
  8
0
100
AcDbLine
 10
96.0696
 20
0.0000000000000058
 30
0.0
 11
97.51840000000001
 21
0.0000000000000057
 31
0.0
  0
LINE
  5
212
330
1E
100
AcDbEntity
  8
0
100
AcDbLine
 10
97.3995
 20
0.0000000000000057
 30
0.0
 11
98.14950000000001
 21
0.0000000000000056
 31
0.0
  0
LINE
  5
213
330
1E
100
AcDbEntity
  8
0
100
AcDbLine
 10
97.43999999999999
 20
26.66
 30
0.0
 11
100.6199999999999
 21
26.66
 31
0.0
  0
LINE
  5
214
330
1E
100
AcDbEntity
  8
0
100
AcDbLine
 10
97.26
 20
27.0
 30
0.0
 11
102.6599999999999
 21
27.0
 31
0.0
  0
LINE
  5
215
330
1E
100
AcDbEntity
  8
0
100
AcDbLine
 10
97.26
 20
27.0
 30
0.0
 11
104.0999999999999
 21
27.0
 31
0.0
  0
LINE
  5
216
330
1E
100
AcDbEntity
  8
0
100
AcDbLine
 10
97.26
 20
27.0
 30
0.0
 11
104.6399999999999
 21
27.0
 31
0.0
  0
LINE
  5
217
330
1E
100
AcDbEntity
  8
0
100
AcDbLine
 10
97.26
 20
27.0
 30
0.0
 11
100.3199999999999
 21
27.0
 31
0.0
  0
LINE
  5
218
330
1E
100
AcDbEntity
  8
0
100
AcDbLine
 10
97.43999999999999
 20
27.38459999999999
 30
0.0
 11
100.6199999999999
 21
27.38459999999999
 31
0.0
  0
LINE
  5
219
330
1E
100
AcDbEntity
  8
0
100
AcDbLine
 10
97.26
 20
37.0
 30
0.0
 11
100.3199999999999
 21
37.0
 31
0.0
  0
LINE
  5
21A
330
1E
100
AcDbEntity
  8
0
100
AcDbLine
 10
98.14950000000001
 20
0.0000000000000056
 30
0.0
 11
98.14950000000001
 21
2.00000000000001
 31
0.0
  0
LINE
  5
21B
330
1E
100
AcDbEntity
  8
0
100
AcDbLine
 10
98.59299999999999
 20
0.0000000000000056
 30
0.0
 11
98.98130000000001
 21
0.0000000000000056
 31
0.0
  0
LINE
  5
21C
330
1E
100
AcDbEntity
  8
0
100
AcDbLine
 10
98.59299999999999
 20
0.0000000000000056
 30
0.0
 11
98.59299999999999
 21
2.00000000000001
 31
0.0
  0
LINE
  5
21D
330
1E
100
AcDbEntity
  8
0
100
AcDbLine
 10
99.01560000000001
 20
0.0000000000000056
 30
0.0
 11
100.076
 21
0.0000000000000055
 31
0.0
  0
LINE
  5
21E
330
1E
100
AcDbEntity
  8
0
100
AcDbLine
 10
98.98130000000001
 20
0.0000000000000056
 30
0.0
 11
98.98130000000001
 21
2.00000000000001
 31
0.0
  0
LINE
  5
21F
330
1E
100
AcDbEntity
  8
0
100
AcDbLine
 10
98.98130000000001
 20
0.0000000000000056
 30
0.0
 11
100.43
 21
0.0000000000000055
 31
0.0
  0
LINE
  5
220
330
1E
100
AcDbEntity
  8
0
100
AcDbLine
 10
98.14950000000001
 20
2.00000000000001
 30
0.0
 11
98.14950000000001
 21
0.0000000000000056
 31
0.0
  0
LINE
  5
221
330
1E
100
AcDbEntity
  8
0
100
AcDbLine
 10
98.14950000000001
 20
2.00000000000001
 30
0.0
 11
98.59299999999999
 21
2.00000000000001
 31
0.0
  0
LINE
  5
222
330
1E
100
AcDbEntity
  8
0
100
AcDbLine
 10
98.98130000000001
 20
2.00000000000001
 30
0.0
 11
98.98130000000001
 21
0.0000000000000056
 31
0.0
  0
LINE
  5
223
330
1E
100
AcDbEntity
  8
0
100
AcDbLine
 10
98.59299999999999
 20
2.00000000000001
 30
0.0
 11
98.59299999999999
 21
0.0000000000000056
 31
0.0
  0
LINE
  5
224
330
1E
100
AcDbEntity
  8
0
100
AcDbLine
 10
97.51840000000001
 20
2.00000000000001
 30
0.0
 11
97.51840000000001
 21
0.0000000000000056
 31
0.0
  0
LINE
  5
225
330
1E
100
AcDbEntity
  8
0
100
AcDbLine
 10
97.51840000000001
 20
2.00000000000001
 30
0.0
 11
98.14950000000001
 21
2.00000000000001
 31
0.0
  0
LINE
  5
226
330
1E
100
AcDbEntity
  8
0
100
AcDbLine
 10
97.51840000000001
 20
0.0000000000000057
 30
0.0
 11
97.51840000000001
 21
2.00000000000001
 31
0.0
  0
LINE
  5
227
330
1E
100
AcDbEntity
  8
0
100
AcDbLine
 10
97.51840000000001
 20
0.0000000000000057
 30
0.0
 11
98.14950000000001
 21
0.0000000000000056
 31
0.0
  0
LINE
  5
228
330
1E
100
AcDbEntity
  8
0
100
AcDbLine
 10
97.43999999999999
 20
36.6154
 30
0.0
 11
100.6199999999999
 21
36.6154
 31
0.0
  0
LINE
  5
229
330
1E
100
AcDbEntity
  8
0
100
AcDbLine
 10
98.50000000000001
 20
44.0
 30
0.0
 11
100.4
 21
44.0
 31
0.0
  0
LINE
  5
22A
330
1E
100
AcDbEntity
  8
0
100
AcDbLine
 10
96.0
 20
44.0
 30
0.0
 11
98.50000000000001
 21
44.0
 31
0.0
  0
LINE
  5
22B
330
1E
100
AcDbEntity
  8
0
100
AcDbLine
 10
98.2
 20
37.0
 30
0.0
 11
101.0
 21
44.0
 31
0.0
  0
LINE
  5
22C
330
1E
100
AcDbEntity
  8
0
100
AcDbLine
 10
99.67500000000001
 20
15.0
 30
0.0
 11
104.325
 21
15.0
 31
0.0
  0
LINE
  5
22D
330
1E
100
AcDbEntity
  8
0
100
AcDbLine
 10
100.076
 20
0.0000000000000055
 30
0.0
 11
101.137
 21
0.0000000000000054
 31
0.0
  0
LINE
  5
22E
330
1E
100
AcDbEntity
  8
0
100
AcDbLine
 10
100.3199999999999
 20
27.0
 30
0.0
 11
102.6599999999999
 21
27.0
 31
0.0
  0
LINE
  5
22F
330
1E
100
AcDbEntity
  8
0
100
AcDbLine
 10
100.3199999999999
 20
37.0
 30
0.0
 11
102.6599999999999
 21
37.0
 31
0.0
  0
LINE
  5
230
330
1E
100
AcDbEntity
  8
0
100
AcDbLine
 10
100.43
 20
2.00000000000001
 30
0.0
 11
100.43
 21
0.0000000000000054
 31
0.0
  0
LINE
  5
231
330
1E
100
AcDbEntity
  8
0
100
AcDbLine
 10
100.43
 20
0.0000000000000055
 30
0.0
 11
100.43
 21
2.00000000000001
 31
0.0
  0
LINE
  5
232
330
1E
100
AcDbEntity
  8
0
100
AcDbLine
 10
100.6199999999999
 20
26.66
 30
0.0
 11
103.02
 21
26.66
 31
0.0
  0
LINE
  5
233
330
1E
100
AcDbEntity
  8
0
100
AcDbLine
 10
100.6199999999999
 20
27.38459999999999
 30
0.0
 11
103.02
 21
27.38459999999999
 31
0.0
  0
LINE
  5
234
330
1E
100
AcDbEntity
  8
0
100
AcDbLine
 10
101.137
 20
2.00000000000001
 30
0.0
 11
101.137
 21
0.0000000000000054
 31
0.0
  0
LINE
  5
235
330
1E
100
AcDbEntity
  8
0
100
AcDbLine
 10
101.137
 20
2.00000000000001
 30
0.0
 11
101.316
 21
2.00000000000001
 31
0.0
  0
LINE
  5
236
330
1E
100
AcDbEntity
  8
0
100
AcDbLine
 10
101.137
 20
0.0000000000000054
 30
0.0
 11
101.137
 21
2.00000000000001
 31
0.0
  0
LINE
  5
237
330
1E
100
AcDbEntity
  8
0
100
AcDbLine
 10
101.316
 20
2.00000000000001
 30
0.0
 11
101.316
 21
0.0000000000000054
 31
0.0
  0
LINE
  5
238
330
1E
100
AcDbEntity
  8
0
100
AcDbLine
 10
101.316
 20
2.00000000000001
 30
0.0
 11
101.505
 21
2.00000000000001
 31
0.0
  0
LINE
  5
239
330
1E
100
AcDbEntity
  8
0
100
AcDbLine
 10
101.316
 20
0.0000000000000054
 30
0.0
 11
101.505
 21
0.0000000000000054
 31
0.0
  0
LINE
  5
23A
330
1E
100
AcDbEntity
  8
0
100
AcDbLine
 10
101.316
 20
0.0000000000000054
 30
0.0
 11
101.316
 21
2.00000000000001
 31
0.0
  0
LINE
  5
23B
330
1E
100
AcDbEntity
  8
0
100
AcDbLine
 10
101.505
 20
2.00000000000001
 30
0.0
 11
101.505
 21
0.0000000000000054
 31
0.0
  0
LINE
  5
23C
330
1E
100
AcDbEntity
  8
0
100
AcDbLine
 10
101.505
 20
2.00000000000001
 30
0.0
 11
101.7
 21
2.00000000000001
 31
0.0
  0
LINE
  5
23D
330
1E
100
AcDbEntity
  8
0
100
AcDbLine
 10
101.7
 20
2.00000000000001
 30
0.0
 11
113.0249999999999
 21
2.0
 31
0.0
  0
LINE
  5
23E
330
1E
100
AcDbEntity
  8
0
100
AcDbLine
 10
101.7249999999999
 20
0.0000000000000054
 30
0.0
 11
101.8929999999999
 21
0.0000000000000054
 31
0.0
  0
LINE
  5
23F
330
1E
100
AcDbEntity
  8
0
100
AcDbLine
 10
101.7
 20
12.0
 30
0.0
 11
113.0249999999999
 21
12.0
 31
0.0
  0
LINE
  5
240
330
1E
100
AcDbEntity
  8
0
100
AcDbLine
 10
101.7
 20
11.0
 30
0.0
 11
113.25
 21
11.0
 31
0.0
  0
LINE
  5
241
330
1E
100
AcDbEntity
  8
0
100
AcDbLine
 10
101.7
 20
3.000000000000009
 30
0.0
 11
113.25
 21
3.0
 31
0.0
  0
LINE
  5
242
330
1E
100
AcDbEntity
  8
0
100
AcDbLine
 10
101.8929999999999
 20
2.00000000000001
 30
0.0
 11
101.8929999999999
 21
0.0000000000000054
 31
0.0
  0
LINE
  5
243
330
1E
100
AcDbEntity
  8
0
100
AcDbLine
 10
101.505
 20
0.0000000000000054
 30
0.0
 11
101.8929999999999
 21
0.0000000000000054
 31
0.0
  0
LINE
  5
244
330
1E
100
AcDbEntity
  8
0
100
AcDbLine
 10
101.505
 20
0.0000000000000054
 30
0.0
 11
102.9539999999999
 21
0.0000000000000053
 31
0.0
  0
LINE
  5
245
330
1E
100
AcDbEntity
  8
0
100
AcDbLine
 10
101.505
 20
0.0000000000000054
 30
0.0
 11
101.505
 21
2.00000000000001
 31
0.0
  0
LINE
  5
246
330
1E
100
AcDbEntity
  8
0
100
AcDbLine
 10
101.8929999999999
 20
0.0000000000000054
 30
0.0
 11
101.8929999999999
 21
2.00000000000001
 31
0.0
  0
LINE
  5
247
330
1E
100
AcDbEntity
  8
0
100
AcDbLine
 10
101.8929999999999
 20
0.0000000000000054
 30
0.0
 11
103.342
 21
0.0000000000000053
 31
0.0
  0
LINE
  5
248
330
1E
100
AcDbEntity
  8
0
100
AcDbLine
 10
100.6199999999999
 20
36.6154
 30
0.0
 11
103.02
 21
36.6154
 31
0.0
  0
LINE
  5
249
330
1E
100
AcDbEntity
  8
0
100
AcDbLine
 10
101.0
 20
44.0
 30
0.0
 11
101.6
 21
44.0
 31
0.0
  0
LINE
  5
24A
330
1E
100
AcDbEntity
  8
0
100
AcDbLine
 10
102.066
 20
0.0000000000000054
 30
0.0
 11
102.9539999999999
 21
0.0000000000000053
 31
0.0
  0
LINE
  5
24B
330
1E
100
AcDbEntity
  8
0
100
AcDbLine
 10
103.025
 20
0.0000000000000053
 30
0.0
 11
103.775
 21
0.0000000000000053
 31
0.0
  0
LINE
  5
24C
330
1E
100
AcDbEntity
  8
0
100
AcDbLine
 10
103.342
 20
2.00000000000001
 30
0.0
 11
103.342
 21
0.0000000000000054
 31
0.0
  0
LINE
  5
24D
330
1E
100
AcDbEntity
  8
0
100
AcDbLine
 10
103.4999999999999
 20
0.0000000000000053
 30
0.0
 11
104.4159999999999
 21
0.0000000000000052
 31
0.0
  0
LINE
  5
24E
330
1E
100
AcDbEntity
  8
0
100
AcDbLine
 10
103.775
 20
2.00000000000001
 30
0.0
 11
104.295
 21
2.00000000000001
 31
0.0
  0
LINE
  5
24F
330
1E
100
AcDbEntity
  8
0
100
AcDbLine
 10
103.775
 20
0.0000000000000053
 30
0.0
 11
104.295
 21
0.0000000000000053
 31
0.0
  0
LINE
  5
250
330
1E
100
AcDbEntity
  8
0
100
AcDbLine
 10
103.775
 20
2.00000000000001
 30
0.0
 11
103.775
 21
0.0000000000000054
 31
0.0
  0
LINE
  5
251
330
1E
100
AcDbEntity
  8
0
100
AcDbLine
 10
103.775
 20
2.00000000000001
 30
0.0
 11
104.295
 21
2.00000000000001
 31
0.0
  0
LINE
  5
252
330
1E
100
AcDbEntity
  8
0
100
AcDbLine
 10
103.775
 20
0.0000000000000053
 30
0.0
 11
103.775
 21
2.00000000000001
 31
0.0
  0
LINE
  5
253
330
1E
100
AcDbEntity
  8
0
100
AcDbLine
 10
103.775
 20
0.0000000000000053
 30
0.0
 11
104.4159999999999
 21
0.0000000000000052
 31
0.0
  0
LINE
  5
254
330
1E
100
AcDbEntity
  8
0
100
AcDbLine
 10
103.342
 20
0.0000000000000053
 30
0.0
 11
103.342
 21
2.00000000000001
 31
0.0
  0
LINE
  5
255
330
1E
100
AcDbEntity
  8
0
100
AcDbLine
 10
103.342
 20
0.0000000000000053
 30
0.0
 11
103.775
 21
0.0000000000000053
 31
0.0
  0
LINE
  5
256
330
1E
100
AcDbEntity
  8
0
100
AcDbLine
 10
103.02
 20
26.66
 30
0.0
 11
104.4599999999999
 21
26.66
 31
0.0
  0
LINE
  5
257
330
1E
100
AcDbEntity
  8
0
100
AcDbLine
 10
104.295
 20
2.00000000000001
 30
0.0
 11
104.295
 21
0.0000000000000052
 31
0.0
  0
LINE
  5
258
330
1E
100
AcDbEntity
  8
0
100
AcDbLine
 10
104.295
 20
2.00000000000001
 30
0.0
 11
104.4159999999999
 21
2.00000000000001
 31
0.0
  0
LINE
  5
259
330
1E
100
AcDbEntity
  8
0
100
AcDbLine
 10
104.295
 20
0.0000000000000053
 30
0.0
 11
104.295
 21
2.00000000000001
 31
0.0
  0
LINE
  5
25A
330
1E
100
AcDbEntity
  8
0
100
AcDbLine
 10
104.295
 20
0.0000000000000053
 30
0.0
 11
104.4159999999999
 21
0.0000000000000052
 31
0.0
  0
LINE
  5
25B
330
1E
100
AcDbEntity
  8
0
100
AcDbLine
 10
104.4159999999999
 20
2.00000000000001
 30
0.0
 11
104.4159999999999
 21
0.0000000000000052
 31
0.0
  0
LINE
  5
25C
330
1E
100
AcDbEntity
  8
0
100
AcDbLine
 10
104.4159999999999
 20
2.00000000000001
 30
0.0
 11
104.805
 21
2.00000000000001
 31
0.0
  0
LINE
  5
25D
330
1E
100
AcDbEntity
  8
0
100
AcDbLine
 10
104.4159999999999
 20
0.0000000000000052
 30
0.0
 11
104.805
 21
0.0000000000000052
 31
0.0
  0
LINE
  5
25E
330
1E
100
AcDbEntity
  8
0
100
AcDbLine
 10
104.4159999999999
 20
0.0000000000000052
 30
0.0
 11
105.8649999999999
 21
0.0000000000000052
 31
0.0
  0
LINE
  5
25F
330
1E
100
AcDbEntity
  8
0
100
AcDbLine
 10
104.4159999999999
 20
0.0000000000000052
 30
0.0
 11
104.4159999999999
 21
2.00000000000001
 31
0.0
  0
LINE
  5
260
330
1E
100
AcDbEntity
  8
0
100
AcDbLine
 10
104.4599999999999
 20
15.0
 30
0.0
 11
105.0
 21
15.0
 31
0.0
  0
LINE
  5
261
330
1E
100
AcDbEntity
  8
0
100
AcDbLine
 10
104.4599999999999
 20
26.66
 30
0.0
 11
105.0
 21
26.66
 31
0.0
  0
LINE
  5
262
330
1E
100
AcDbEntity
  8
0
100
AcDbLine
 10
104.325
 20
15.0
 30
0.0
 11
104.4599999999999
 21
15.0
 31
0.0
  0
LINE
  5
263
330
1E
100
AcDbEntity
  8
0
100
AcDbLine
 10
104.325
 20
15.0
 30
0.0
 11
108.675
 21
15.0
 31
0.0
  0
LINE
  5
264
330
1E
100
AcDbEntity
  8
0
100
AcDbLine
 10
104.0999999999999
 20
27.0
 30
0.0
 11
104.6399999999999
 21
27.0
 31
0.0
  0
LINE
  5
265
330
1E
100
AcDbEntity
  8
0
100
AcDbLine
 10
102.6599999999999
 20
27.0
 30
0.0
 11
104.0999999999999
 21
27.0
 31
0.0
  0
LINE
  5
266
330
1E
100
AcDbEntity
  8
0
100
AcDbLine
 10
104.4599999999999
 20
27.38459999999999
 30
0.0
 11
105.0
 21
27.38459999999999
 31
0.0
  0
LINE
  5
267
330
1E
100
AcDbEntity
  8
0
100
AcDbLine
 10
103.02
 20
27.38459999999999
 30
0.0
 11
104.4599999999999
 21
27.38459999999999
 31
0.0
  0
LINE
  5
268
330
1E
100
AcDbEntity
  8
0
100
AcDbLine
 10
104.805
 20
2.00000000000001
 30
0.0
 11
104.805
 21
0.0000000000000052
 31
0.0
  0
LINE
  5
269
330
1E
100
AcDbEntity
  8
0
100
AcDbLine
 10
104.805
 20
0.0000000000000052
 30
0.0
 11
104.805
 21
2.00000000000001
 31
0.0
  0
LINE
  5
26A
330
1E
100
AcDbEntity
  8
0
100
AcDbLine
 10
104.805
 20
0.0000000000000052
 30
0.0
 11
106.2539999999999
 21
0.0000000000000051
 31
0.0
  0
LINE
  5
26B
330
1E
100
AcDbEntity
  8
0
100
AcDbLine
 10
105.0
 20
15.0
 30
0.0
 11
105.0
 21
26.66
 31
0.0
  0
LINE
  5
26C
330
1E
100
AcDbEntity
  8
0
100
AcDbLine
 10
106.971
 20
0.0000000000000051
 30
0.0
 11
107.328
 21
0.0000000000000051
 31
0.0
  0
LINE
  5
26D
330
1E
100
AcDbEntity
  8
0
100
AcDbLine
 10
106.971
 20
0.0000000000000051
 30
0.0
 11
106.971
 21
2.00000000000001
 31
0.0
  0
LINE
  5
26E
330
1E
100
AcDbEntity
  8
0
100
AcDbLine
 10
107.328
 20
0.0000000000000051
 30
0.0
 11
107.716
 21
0.000000000000005
 31
0.0
  0
LINE
  5
26F
330
1E
100
AcDbEntity
  8
0
100
AcDbLine
 10
107.328
 20
0.0000000000000051
 30
0.0
 11
108.777
 21
0.000000000000005
 31
0.0
  0
LINE
  5
270
330
1E
100
AcDbEntity
  8
0
100
AcDbLine
 10
107.328
 20
0.0000000000000051
 30
0.0
 11
107.328
 21
2.00000000000001
 31
0.0
  0
LINE
  5
271
330
1E
100
AcDbEntity
  8
0
100
AcDbLine
 10
107.328
 20
0.0000000000000051
 30
0.0
 11
108.65
 21
0.000000000000005
 31
0.0
  0
LINE
  5
272
330
1E
100
AcDbEntity
  8
0
100
AcDbLine
 10
109.4
 20
0.0000000000000049
 30
0.0
 11
109.4
 21
2.0
 31
0.0
  0
LINE
  5
273
330
1E
100
AcDbEntity
  8
0
100
AcDbLine
 10
110.24
 20
0.0000000000000049
 30
0.0
 11
110.6279999999999
 21
0.0000000000000049
 31
0.0
  0
LINE
  5
274
330
1E
100
AcDbEntity
  8
0
100
AcDbLine
 10
110.24
 20
0.0000000000000049
 30
0.0
 11
110.24
 21
2.0
 31
0.0
  0
LINE
  5
275
330
1E
100
AcDbEntity
  8
0
100
AcDbLine
 10
112.358
 20
0.0000000000000048
 30
0.0
 11
112.358
 21
2.0
 31
0.0
  0
LINE
  5
276
330
1E
100
AcDbEntity
  8
0
100
AcDbLine
 10
112.358
 20
0.0000000000000048
 30
0.0
 11
112.975
 21
0.0000000000000047
 31
0.0
  0
LINE
  5
277
330
1E
100
AcDbEntity
  8
0
100
AcDbLine
 10
112.975
 20
0.0000000000000047
 30
0.0
 11
113.7249999999999
 21
0.0000000000000047
 31
0.0
  0
LINE
  5
278
330
1E
100
AcDbEntity
  8
0
100
AcDbLine
 10
112.975
 20
0.0000000000000047
 30
0.0
 11
114.275
 21
0.0000000000000046
 31
0.0
  0
LINE
  5
279
330
1E
100
AcDbEntity
  8
0
100
AcDbLine
 10
112.975
 20
0.0000000000000047
 30
0.0
 11
112.975
 21
2.0
 31
0.0
  0
LINE
  5
27A
330
1E
100
AcDbEntity
  8
0
100
AcDbLine
 10
112.975
 20
0.0000000000000047
 30
0.0
 11
113.7129999999999
 21
0.0000000000000047
 31
0.0
  0
LINE
  5
27B
330
1E
100
AcDbEntity
  8
0
100
AcDbLine
 10
115.161
 20
0.0000000000000046
 30
0.0
 11
115.986
 21
0.0000000000000045
 31
0.0
  0
LINE
  5
27C
330
1E
100
AcDbEntity
  8
0
100
AcDbLine
 10
115.5499999999999
 20
0.0000000000000046
 30
0.0
 11
115.986
 21
0.0000000000000045
 31
0.0
  0
LINE
  5
27D
330
1E
100
AcDbEntity
  8
0
100
AcDbLine
 10
117.047
 20
0.0000000000000045
 30
0.0
 11
117.047
 21
2.0
 31
0.0
  0
LINE
  5
27E
330
1E
100
AcDbEntity
  8
0
100
AcDbLine
 10
115.986
 20
0.0000000000000045
 30
0.0
 11
115.986
 21
2.0
 31
0.0
  0
LINE
  5
27F
330
1E
100
AcDbEntity
  8
0
100
AcDbLine
 10
115.986
 20
0.0000000000000045
 30
0.0
 11
117.047
 21
0.0000000000000045
 31
0.0
  0
LINE
  5
280
330
1E
100
AcDbEntity
  8
0
100
AcDbLine
 10
118.5999999999999
 20
0.0000000000000044
 30
0.0
 11
119.35
 21
0.0000000000000043
 31
0.0
  0
LINE
  5
281
330
1E
100
AcDbEntity
  8
0
100
AcDbLine
 10
118.5999999999999
 20
0.0000000000000044
 30
0.0
 11
119.9
 21
0.0000000000000043
 31
0.0
  0
LINE
  5
282
330
1E
100
AcDbEntity
  8
0
100
AcDbLine
 10
118.5999999999999
 20
0.0000000000000044
 30
0.0
 11
118.5999999999999
 21
2.0
 31
0.0
  0
LINE
  5
283
330
1E
100
AcDbEntity
  8
0
100
AcDbLine
 10
121.552
 20
0.0000000000000042
 30
0.0
 11
122.8509999999999
 21
0.0000000000000041
 31
0.0
  0
LINE
  5
284
330
1E
100
AcDbEntity
  8
0
100
AcDbLine
 10
120.802
 20
0.0000000000000042
 30
0.0
 11
122.1009999999999
 21
0.0000000000000042
 31
0.0
  0
LINE
  5
285
330
1E
100
AcDbEntity
  8
0
100
AcDbLine
 10
120.802
 20
0.0000000000000042
 30
0.0
 11
121.552
 21
0.0000000000000042
 31
0.0
  0
LINE
  5
286
330
1E
100
AcDbEntity
  8
0
100
AcDbLine
 10
120.802
 20
0.0000000000000042
 30
0.0
 11
120.802
 21
2.0
 31
0.0
  0
LINE
  5
287
330
1E
100
AcDbEntity
  8
0
100
AcDbLine
 10
122.8799999999999
 20
0.0000000000000041
 30
0.0
 11
123.941
 21
0.000000000000004
 31
0.0
  0
LINE
  5
288
330
1E
100
AcDbEntity
  8
0
100
AcDbLine
 10
122.8799999999999
 20
0.0000000000000041
 30
0.0
 11
122.8799999999999
 21
2.0
 31
0.0
  0
LINE
  5
289
330
1E
100
AcDbEntity
  8
0
100
AcDbLine
 10
123.941
 20
0.000000000000004
 30
0.0
 11
123.941
 21
2.0
 31
0.0
  0
LINE
  5
28A
330
1E
100
AcDbEntity
  8
0
100
AcDbLine
 10
123.941
 20
0.000000000000004
 30
0.0
 11
124.225
 21
0.000000000000004
 31
0.0
  0
LINE
  5
28B
330
1E
100
AcDbEntity
  8
0
100
AcDbLine
 10
122.8509999999999
 20
0.0000000000000041
 30
0.0
 11
122.8509999999999
 21
2.0
 31
0.0
  0
LINE
  5
28C
330
1E
100
AcDbEntity
  8
0
100
AcDbLine
 10
122.1009999999999
 20
0.0000000000000042
 30
0.0
 11
122.1009999999999
 21
2.0
 31
0.0
  0
LINE
  5
28D
330
1E
100
AcDbEntity
  8
0
100
AcDbLine
 10
122.1009999999999
 20
0.0000000000000042
 30
0.0
 11
122.8509999999999
 21
0.0000000000000041
 31
0.0
  0
LINE
  5
28E
330
1E
100
AcDbEntity
  8
0
100
AcDbLine
 10
124.225
 20
0.000000000000004
 30
0.0
 11
124.9749999999999
 21
0.000000000000004
 31
0.0
  0
LINE
  5
28F
330
1E
100
AcDbEntity
  8
0
100
AcDbLine
 10
124.225
 20
0.000000000000004
 30
0.0
 11
125.5249999999999
 21
0.000000000000004
 31
0.0
  0
LINE
  5
290
330
1E
100
AcDbEntity
  8
0
100
AcDbLine
 10
124.225
 20
0.000000000000004
 30
0.0
 11
124.225
 21
2.0
 31
0.0
  0
LINE
  5
291
330
1E
100
AcDbEntity
  8
0
100
AcDbLine
 10
130.5449999999999
 20
0.0000000000000036
 30
0.0
 11
131.15
 21
0.0000000000000036
 31
0.0
  0
LINE
  5
292
330
1E
100
AcDbEntity
  8
0
100
AcDbLine
 10
126.4159999999999
 20
0.0000000000000039
 30
0.0
 11
127.5
 21
0.0000000000000038
 31
0.0
  0
LINE
  5
293
330
1E
100
AcDbEntity
  8
0
100
AcDbLine
 10
127.5
 20
0.0000000000000038
 30
0.0
 11
127.5
 21
2.0
 31
0.0
  0
LINE
  5
294
330
1E
100
AcDbEntity
  8
0
100
AcDbLine
 10
126.4159999999999
 20
0.0000000000000039
 30
0.0
 11
126.4159999999999
 21
2.0
 31
0.0
  0
LINE
  5
295
330
1E
100
AcDbEntity
  8
0
100
AcDbLine
 10
129.8499999999999
 20
0.0000000000000037
 30
0.0
 11
130.6
 21
0.0000000000000036
 31
0.0
  0
LINE
  5
296
330
1E
100
AcDbEntity
  8
0
100
AcDbLine
 10
129.8499999999999
 20
0.0000000000000037
 30
0.0
 11
131.15
 21
0.0000000000000036
 31
0.0
  0
LINE
  5
297
330
1E
100
AcDbEntity
  8
0
100
AcDbLine
 10
129.8499999999999
 20
0.0000000000000037
 30
0.0
 11
129.8499999999999
 21
2.0
 31
0.0
  0
LINE
  5
298
330
1E
100
AcDbEntity
  8
0
100
AcDbLine
 10
129.8499999999999
 20
0.0000000000000037
 30
0.0
 11
130.835
 21
0.0000000000000036
 31
0.0
  0
LINE
  5
299
330
1E
100
AcDbEntity
  8
0
100
AcDbLine
 10
129.8499999999999
 20
0.0000000000000037
 30
0.0
 11
130.5449999999999
 21
0.0000000000000036
 31
0.0
  0
LINE
  5
29A
330
1E
100
AcDbEntity
  8
0
100
AcDbLine
 10
132.5939999999999
 20
0.0000000000000035
 30
0.0
 11
132.9569999999999
 21
0.0000000000000035
 31
0.0
  0
LINE
  5
29B
330
1E
100
AcDbEntity
  8
0
100
AcDbLine
 10
132.9569999999999
 20
0.0000000000000035
 30
0.0
 11
132.9569999999999
 21
2.0
 31
0.0
  0
LINE
  5
29C
330
1E
100
AcDbEntity
  8
0
100
AcDbLine
 10
137.25
 20
0.0000000000000032
 30
0.0
 11
138.7499999999999
 21
0.0000000000000031
 31
0.0
  0
LINE
  5
29D
330
1E
100
AcDbEntity
  8
0
100
AcDbLine
 10
141.587
 20
0.000000000000003
 30
0.0
 11
142.337
 21
0.0000000000000029
 31
0.0
  0
LINE
  5
29E
330
1E
100
AcDbEntity
  8
0
100
AcDbLine
 10
161.8219999999999
 20
0.0000000000000017
 30
0.0
 11
161.8219999999999
 21
2.0
 31
0.0
  0
LINE
  5
29F
330
1E
100
AcDbEntity
  8
0
100
AcDbLine
 10
159.75
 20
0.0000000000000019
 30
0.0
 11
159.75
 21
2.0
 31
0.0
  0
LINE
  5
2A0
330
1E
100
AcDbEntity
  8
0
100
AcDbLine
 10
160.5229999999999
 20
0.0000000000000018
 30
0.0
 11
161.25
 21
0.0000000000000018
 31
0.0
  0
LINE
  5
2A1
330
1E
100
AcDbEntity
  8
0
100
AcDbLine
 10
160.5229999999999
 20
0.0000000000000018
 30
0.0
 11
161.072
 21
0.0000000000000018
 31
0.0
  0
LINE
  5
2A2
330
1E
100
AcDbEntity
  8
0
100
AcDbLine
 10
159.773
 20
0.0000000000000019
 30
0.0
 11
161.072
 21
0.0000000000000018
 31
0.0
  0
LINE
  5
2A3
330
1E
100
AcDbEntity
  8
0
100
AcDbLine
 10
159.773
 20
0.0000000000000019
 30
0.0
 11
159.773
 21
2.0
 31
0.0
  0
LINE
  5
2A4
330
1E
100
AcDbEntity
  8
0
100
AcDbLine
 10
161.072
 20
0.0000000000000018
 30
0.0
 11
161.072
 21
2.0
 31
0.0
  0
LINE
  5
2A5
330
1E
100
AcDbEntity
  8
0
100
AcDbLine
 10
161.072
 20
0.0000000000000018
 30
0.0
 11
161.8219999999999
 21
0.0000000000000017
 31
0.0
  0
LINE
  5
2A6
330
1E
100
AcDbEntity
  8
0
100
AcDbLine
 10
172.5
 20
0.0000000000000011
 30
0.0
 11
172.5
 21
2.0
 31
0.0
  0
LINE
  5
2A7
330
1E
100
AcDbEntity
  8
0
100
AcDbLine
 10
171.0
 20
0.0000000000000012
 30
0.0
 11
172.5
 21
0.0000000000000011
 31
0.0
  0
LINE
  5
2A8
330
1E
100
AcDbEntity
  8
0
100
AcDbLine
 10
171.0
 20
0.0000000000000012
 30
0.0
 11
171.0
 21
2.0
 31
0.0
  0
LINE
  5
2A9
330
1E
100
AcDbEntity
  8
0
100
AcDbLine
 10
169.8829999999999
 20
0.0000000000000012
 30
0.0
 11
169.8829999999999
 21
2.0
 31
0.0
  0
LINE
  5
2AA
330
1E
100
AcDbEntity
  8
0
100
AcDbLine
 10
168.434
 20
0.0000000000000013
 30
0.0
 11
169.495
 21
0.0000000000000013
 31
0.0
  0
LINE
  5
2AB
330
1E
100
AcDbEntity
  8
0
100
AcDbLine
 10
169.495
 20
0.0000000000000013
 30
0.0
 11
169.495
 21
2.0
 31
0.0
  0
LINE
  5
2AC
330
1E
100
AcDbEntity
  8
0
100
AcDbLine
 10
169.495
 20
0.0000000000000013
 30
0.0
 11
169.8829999999999
 21
0.0000000000000012
 31
0.0
  0
LINE
  5
2AD
330
1E
100
AcDbEntity
  8
0
100
AcDbLine
 10
168.046
 20
0.0000000000000013
 30
0.0
 11
169.495
 21
0.0000000000000013
 31
0.0
  0
LINE
  5
2AE
330
1E
100
AcDbEntity
  8
0
100
AcDbLine
 10
168.046
 20
0.0000000000000013
 30
0.0
 11
168.434
 21
0.0000000000000013
 31
0.0
  0
LINE
  5
2AF
330
1E
100
AcDbEntity
  8
0
100
AcDbLine
 10
168.046
 20
0.0000000000000013
 30
0.0
 11
168.046
 21
2.0
 31
0.0
  0
LINE
  5
2B0
330
1E
100
AcDbEntity
  8
0
100
AcDbLine
 10
159.016
 20
0.0000000000000019
 30
0.0
 11
159.016
 21
2.0
 31
0.0
  0
LINE
  5
2B1
330
1E
100
AcDbEntity
  8
0
100
AcDbLine
 10
158.6279999999999
 20
0.0000000000000019
 30
0.0
 11
158.6279999999999
 21
2.0
 31
0.0
  0
LINE
  5
2B2
330
1E
100
AcDbEntity
  8
0
100
AcDbLine
 10
158.6279999999999
 20
0.0000000000000019
 30
0.0
 11
159.016
 21
0.0000000000000019
 31
0.0
  0
LINE
  5
2B3
330
1E
100
AcDbEntity
  8
0
100
AcDbLine
 10
157.179
 20
0.000000000000002
 30
0.0
 11
158.6279999999999
 21
0.0000000000000019
 31
0.0
  0
LINE
  5
2B4
330
1E
100
AcDbEntity
  8
0
100
AcDbLine
 10
157.179
 20
0.000000000000002
 30
0.0
 11
157.567
 21
0.000000000000002
 31
0.0
  0
LINE
  5
2B5
330
1E
100
AcDbEntity
  8
0
100
AcDbLine
 10
157.179
 20
0.000000000000002
 30
0.0
 11
157.179
 21
2.0
 31
0.0
  0
LINE
  5
2B6
330
1E
100
AcDbEntity
  8
0
100
AcDbLine
 10
152.079
 20
0.0000000000000023
 30
0.0
 11
152.079
 21
2.0
 31
0.0
  0
LINE
  5
2B7
330
1E
100
AcDbEntity
  8
0
100
AcDbLine
 10
146.745
 20
0.0000000000000027
 30
0.0
 11
147.806
 21
0.0000000000000026
 31
0.0
  0
LINE
  5
2B8
330
1E
100
AcDbEntity
  8
0
100
AcDbLine
 10
146.745
 20
0.0000000000000027
 30
0.0
 11
146.745
 21
2.0
 31
0.0
  0
LINE
  5
2B9
330
1E
100
AcDbEntity
  8
0
100
AcDbLine
 10
146.7009999999999
 20
0.0000000000000027
 30
0.0
 11
147.806
 21
0.0000000000000026
 31
0.0
  0
LINE
  5
2BA
330
1E
100
AcDbEntity
  8
0
100
AcDbLine
 10
148.867
 20
0.0000000000000025
 30
0.0
 11
150.0
 21
0.0000000000000025
 31
0.0
  0
LINE
  5
2BB
330
1E
100
AcDbEntity
  8
0
100
AcDbLine
 10
148.5
 20
0.0000000000000025
 30
0.0
 11
150.0
 21
0.0000000000000025
 31
0.0
  0
LINE
  5
2BC
330
1E
100
AcDbEntity
  8
0
100
AcDbLine
 10
150.0
 20
0.0000000000000025
 30
0.0
 11
150.0
 21
2.0
 31
0.0
  0
LINE
  5
2BD
330
1E
100
AcDbEntity
  8
0
100
AcDbLine
 10
148.867
 20
0.0000000000000025
 30
0.0
 11
148.867
 21
2.0
 31
0.0
  0
LINE
  5
2BE
330
1E
100
AcDbEntity
  8
0
100
AcDbLine
 10
147.806
 20
0.0000000000000026
 30
0.0
 11
147.806
 21
2.0
 31
0.0
  0
LINE
  5
2BF
330
1E
100
AcDbEntity
  8
0
100
AcDbLine
 10
147.806
 20
0.0000000000000026
 30
0.0
 11
148.867
 21
0.0000000000000025
 31
0.0
  0
LINE
  5
2C0
330
1E
100
AcDbEntity
  8
0
100
AcDbLine
 10
146.3129999999999
 20
0.0000000000000027
 30
0.0
 11
147.761
 21
0.0000000000000026
 31
0.0
  0
LINE
  5
2C1
330
1E
100
AcDbEntity
  8
0
100
AcDbLine
 10
146.3129999999999
 20
0.0000000000000027
 30
0.0
 11
146.745
 21
0.0000000000000027
 31
0.0
  0
LINE
  5
2C2
330
1E
100
AcDbEntity
  8
0
100
AcDbLine
 10
146.3129999999999
 20
0.0000000000000027
 30
0.0
 11
146.7009999999999
 21
0.0000000000000027
 31
0.0
  0
LINE
  5
2C3
330
1E
100
AcDbEntity
  8
0
100
AcDbLine
 10
146.3129999999999
 20
0.0000000000000027
 30
0.0
 11
146.3129999999999
 21
2.0
 31
0.0
  0
LINE
  5
2C4
330
1E
100
AcDbEntity
  8
0
100
AcDbLine
 10
150.03
 20
0.0000000000000024
 30
0.0
 11
151.329
 21
0.0000000000000024
 31
0.0
  0
LINE
  5
2C5
330
1E
100
AcDbEntity
  8
0
100
AcDbLine
 10
150.03
 20
0.0000000000000024
 30
0.0
 11
150.78
 21
0.0000000000000024
 31
0.0
  0
LINE
  5
2C6
330
1E
100
AcDbEntity
  8
0
100
AcDbLine
 10
150.03
 20
0.0000000000000024
 30
0.0
 11
150.03
 21
2.0
 31
0.0
  0
LINE
  5
2C7
330
1E
100
AcDbEntity
  8
0
100
AcDbLine
 10
151.329
 20
0.0000000000000024
 30
0.0
 11
151.329
 21
2.0
 31
0.0
  0
LINE
  5
2C8
330
1E
100
AcDbEntity
  8
0
100
AcDbLine
 10
151.329
 20
0.0000000000000024
 30
0.0
 11
152.079
 21
0.0000000000000023
 31
0.0
  0
LINE
  5
2C9
330
1E
100
AcDbEntity
  8
0
100
AcDbLine
 10
142.337
 20
0.0000000000000029
 30
0.0
 11
142.337
 21
2.0
 31
0.0
  0
LINE
  5
2CA
330
1E
100
AcDbEntity
  8
0
100
AcDbLine
 10
140.912
 20
0.000000000000003
 30
0.0
 11
140.912
 21
2.0
 31
0.0
  0
LINE
  5
2CB
330
1E
100
AcDbEntity
  8
0
100
AcDbLine
 10
138.7499999999999
 20
0.0000000000000031
 30
0.0
 11
138.7499999999999
 21
2.0
 31
0.0
  0
LINE
  5
2CC
330
1E
100
AcDbEntity
  8
0
100
AcDbLine
 10
138.7899999999999
 20
0.0000000000000031
 30
0.0
 11
139.8509999999999
 21
0.0000000000000031
 31
0.0
  0
LINE
  5
2CD
330
1E
100
AcDbEntity
  8
0
100
AcDbLine
 10
138.7899999999999
 20
0.0000000000000031
 30
0.0
 11
138.7899999999999
 21
2.0
 31
0.0
  0
LINE
  5
2CE
330
1E
100
AcDbEntity
  8
0
100
AcDbLine
 10
139.8509999999999
 20
0.0000000000000031
 30
0.0
 11
139.8509999999999
 21
2.0
 31
0.0
  0
LINE
  5
2CF
330
1E
100
AcDbEntity
  8
0
100
AcDbLine
 10
139.8509999999999
 20
0.0000000000000031
 30
0.0
 11
140.912
 21
0.000000000000003
 31
0.0
  0
LINE
  5
2D0
330
1E
100
AcDbEntity
  8
0
100
AcDbLine
 10
140.912
 20
0.000000000000003
 30
0.0
 11
141.037
 21
0.000000000000003
 31
0.0
  0
LINE
  5
2D1
330
1E
100
AcDbEntity
  8
0
100
AcDbLine
 10
140.912
 20
0.000000000000003
 30
0.0
 11
141.587
 21
0.000000000000003
 31
0.0
  0
LINE
  5
2D2
330
1E
100
AcDbEntity
  8
0
100
AcDbLine
 10
141.587
 20
0.000000000000003
 30
0.0
 11
141.587
 21
2.0
 31
0.0
  0
LINE
  5
2D3
330
1E
100
AcDbEntity
  8
0
100
AcDbLine
 10
141.587
 20
0.000000000000003
 30
0.0
 11
142.337
 21
0.0000000000000029
 31
0.0
  0
LINE
  5
2D4
330
1E
100
AcDbEntity
  8
0
100
AcDbLine
 10
137.2829999999999
 20
0.0000000000000032
 30
0.0
 11
137.2829999999999
 21
2.0
 31
0.0
  0
LINE
  5
2D5
330
1E
100
AcDbEntity
  8
0
100
AcDbLine
 10
137.2829999999999
 20
0.0000000000000032
 30
0.0
 11
138.7499999999999
 21
0.0000000000000031
 31
0.0
  0
LINE
  5
2D6
330
1E
100
AcDbEntity
  8
0
100
AcDbLine
 10
136.895
 20
0.0000000000000033
 30
0.0
 11
136.895
 21
2.0
 31
0.0
  0
LINE
  5
2D7
330
1E
100
AcDbEntity
  8
0
100
AcDbLine
 10
136.895
 20
0.0000000000000033
 30
0.0
 11
137.2829999999999
 21
0.0000000000000032
 31
0.0
  0
LINE
  5
2D8
330
1E
100
AcDbEntity
  8
0
100
AcDbLine
 10
135.4459999999999
 20
0.0000000000000033
 30
0.0
 11
136.895
 21
0.0000000000000033
 31
0.0
  0
LINE
  5
2D9
330
1E
100
AcDbEntity
  8
0
100
AcDbLine
 10
135.4459999999999
 20
0.0000000000000033
 30
0.0
 11
135.4459999999999
 21
2.0
 31
0.0
  0
LINE
  5
2DA
330
1E
100
AcDbEntity
  8
0
100
AcDbLine
 10
131.896
 20
0.0000000000000036
 30
0.0
 11
132.9569999999999
 21
0.0000000000000035
 31
0.0
  0
LINE
  5
2DB
330
1E
100
AcDbEntity
  8
0
100
AcDbLine
 10
130.835
 20
0.0000000000000036
 30
0.0
 11
131.896
 21
0.0000000000000036
 31
0.0
  0
LINE
  5
2DC
330
1E
100
AcDbEntity
  8
0
100
AcDbLine
 10
131.9
 20
0.0000000000000036
 30
0.0
 11
131.9
 21
2.0
 31
0.0
  0
LINE
  5
2DD
330
1E
100
AcDbEntity
  8
0
100
AcDbLine
 10
130.6
 20
0.0000000000000036
 30
0.0
 11
130.6
 21
2.0
 31
0.0
  0
LINE
  5
2DE
330
1E
100
AcDbEntity
  8
0
100
AcDbLine
 10
130.6
 20
0.0000000000000036
 30
0.0
 11
131.9
 21
0.0000000000000036
 31
0.0
  0
LINE
  5
2DF
330
1E
100
AcDbEntity
  8
0
100
AcDbLine
 10
126.0279999999999
 20
0.0000000000000039
 30
0.0
 11
126.4159999999999
 21
0.0000000000000039
 31
0.0
  0
LINE
  5
2E0
330
1E
100
AcDbEntity
  8
0
100
AcDbLine
 10
125.5249999999999
 20
0.000000000000004
 30
0.0
 11
126.0279999999999
 21
0.0000000000000039
 31
0.0
  0
LINE
  5
2E1
330
1E
100
AcDbEntity
  8
0
100
AcDbLine
 10
125.5249999999999
 20
0.000000000000004
 30
0.0
 11
126.0
 21
0.0000000000000039
 31
0.0
  0
LINE
  5
2E2
330
1E
100
AcDbEntity
  8
0
100
AcDbLine
 10
126.275
 20
0.0000000000000039
 30
0.0
 11
126.275
 21
2.0
 31
0.0
  0
LINE
  5
2E3
330
1E
100
AcDbEntity
  8
0
100
AcDbLine
 10
124.9749999999999
 20
0.000000000000004
 30
0.0
 11
124.9749999999999
 21
2.0
 31
0.0
  0
LINE
  5
2E4
330
1E
100
AcDbEntity
  8
0
100
AcDbLine
 10
124.9749999999999
 20
0.000000000000004
 30
0.0
 11
126.275
 21
0.0000000000000039
 31
0.0
  0
LINE
  5
2E5
330
1E
100
AcDbEntity
  8
0
100
AcDbLine
 10
124.9749999999999
 20
0.000000000000004
 30
0.0
 11
125.5249999999999
 21
0.000000000000004
 31
0.0
  0
LINE
  5
2E6
330
1E
100
AcDbEntity
  8
0
100
AcDbLine
 10
119.9
 20
0.0000000000000043
 30
0.0
 11
120.65
 21
0.0000000000000042
 31
0.0
  0
LINE
  5
2E7
330
1E
100
AcDbEntity
  8
0
100
AcDbLine
 10
120.65
 20
0.0000000000000042
 30
0.0
 11
120.65
 21
2.0
 31
0.0
  0
LINE
  5
2E8
330
1E
100
AcDbEntity
  8
0
100
AcDbLine
 10
119.35
 20
0.0000000000000043
 30
0.0
 11
119.35
 21
2.0
 31
0.0
  0
LINE
  5
2E9
330
1E
100
AcDbEntity
  8
0
100
AcDbLine
 10
119.35
 20
0.0000000000000043
 30
0.0
 11
120.65
 21
0.0000000000000042
 31
0.0
  0
LINE
  5
2EA
330
1E
100
AcDbEntity
  8
0
100
AcDbLine
 10
114.9259999999999
 20
0.0000000000000046
 30
0.0
 11
115.986
 21
0.0000000000000045
 31
0.0
  0
LINE
  5
2EB
330
1E
100
AcDbEntity
  8
0
100
AcDbLine
 10
114.275
 20
0.0000000000000046
 30
0.0
 11
115.161
 21
0.0000000000000046
 31
0.0
  0
LINE
  5
2EC
330
1E
100
AcDbEntity
  8
0
100
AcDbLine
 10
115.0249999999999
 20
0.0000000000000046
 30
0.0
 11
115.0249999999999
 21
2.0
 31
0.0
  0
LINE
  5
2ED
330
1E
100
AcDbEntity
  8
0
100
AcDbLine
 10
113.7249999999999
 20
0.0000000000000047
 30
0.0
 11
113.7249999999999
 21
2.0
 31
0.0
  0
LINE
  5
2EE
330
1E
100
AcDbEntity
  8
0
100
AcDbLine
 10
113.7249999999999
 20
0.0000000000000047
 30
0.0
 11
115.0249999999999
 21
0.0000000000000046
 31
0.0
  0
LINE
  5
2EF
330
1E
100
AcDbEntity
  8
0
100
AcDbLine
 10
112.077
 20
0.0000000000000048
 30
0.0
 11
112.077
 21
2.0
 31
0.0
  0
LINE
  5
2F0
330
1E
100
AcDbEntity
  8
0
100
AcDbLine
 10
112.077
 20
0.0000000000000048
 30
0.0
 11
112.358
 21
0.0000000000000048
 31
0.0
  0
LINE
  5
2F1
330
1E
100
AcDbEntity
  8
0
100
AcDbLine
 10
110.6279999999999
 20
0.0000000000000049
 30
0.0
 11
110.6279999999999
 21
2.0
 31
0.0
  0
LINE
  5
2F2
330
1E
100
AcDbEntity
  8
0
100
AcDbLine
 10
110.6279999999999
 20
0.0000000000000049
 30
0.0
 11
112.077
 21
0.0000000000000048
 31
0.0
  0
LINE
  5
2F3
330
1E
100
AcDbEntity
  8
0
100
AcDbLine
 10
108.777
 20
0.000000000000005
 30
0.0
 11
109.4
 21
0.0000000000000049
 31
0.0
  0
LINE
  5
2F4
330
1E
100
AcDbEntity
  8
0
100
AcDbLine
 10
109.165
 20
0.000000000000005
 30
0.0
 11
109.165
 21
2.0
 31
0.0
  0
LINE
  5
2F5
330
1E
100
AcDbEntity
  8
0
100
AcDbLine
 10
109.165
 20
0.000000000000005
 30
0.0
 11
109.4
 21
0.0000000000000049
 31
0.0
  0
LINE
  5
2F6
330
1E
100
AcDbEntity
  8
0
100
AcDbLine
 10
107.716
 20
0.000000000000005
 30
0.0
 11
107.716
 21
2.00000000000001
 31
0.0
  0
LINE
  5
2F7
330
1E
100
AcDbEntity
  8
0
100
AcDbLine
 10
107.716
 20
0.000000000000005
 30
0.0
 11
109.165
 21
0.000000000000005
 31
0.0
  0
LINE
  5
2F8
330
1E
100
AcDbEntity
  8
0
100
AcDbLine
 10
106.971
 20
2.00000000000001
 30
0.0
 11
106.971
 21
0.0000000000000052
 31
0.0
  0
LINE
  5
2F9
330
1E
100
AcDbEntity
  8
0
100
AcDbLine
 10
109.4
 20
2.0
 30
0.0
 11
109.4
 21
0.0000000000000049
 31
0.0
  0
LINE
  5
2FA
330
1E
100
AcDbEntity
  8
0
100
AcDbLine
 10
111.0589999999999
 20
2.0
 30
0.0
 11
111.6889999999999
 21
2.0
 31
0.0
  0
LINE
  5
2FB
330
1E
100
AcDbEntity
  8
0
100
AcDbLine
 10
113.0249999999999
 20
2.0
 30
0.0
 11
124.1249999999999
 21
2.0
 31
0.0
  0
LINE
  5
2FC
330
1E
100
AcDbEntity
  8
0
100
AcDbLine
 10
112.358
 20
2.0
 30
0.0
 11
112.358
 21
0.0000000000000047
 31
0.0
  0
LINE
  5
2FD
330
1E
100
AcDbEntity
  8
0
100
AcDbLine
 10
112.358
 20
2.0
 30
0.0
 11
112.975
 21
2.0
 31
0.0
  0
LINE
  5
2FE
330
1E
100
AcDbEntity
  8
0
100
AcDbLine
 10
117.047
 20
2.0
 30
0.0
 11
117.047
 21
0.0000000000000044
 31
0.0
  0
LINE
  5
2FF
330
1E
100
AcDbEntity
  8
0
100
AcDbLine
 10
117.047
 20
2.0
 30
0.0
 11
118.5999999999999
 21
2.0
 31
0.0
  0
LINE
  5
300
330
1E
100
AcDbEntity
  8
0
100
AcDbLine
 10
115.986
 20
2.0
 30
0.0
 11
115.986
 21
0.0000000000000044
 31
0.0
  0
LINE
  5
301
330
1E
100
AcDbEntity
  8
0
100
AcDbLine
 10
115.986
 20
2.0
 30
0.0
 11
117.047
 21
2.0
 31
0.0
  0
LINE
  5
302
330
1E
100
AcDbEntity
  8
0
100
AcDbLine
 10
124.1249999999999
 20
2.0
 30
0.0
 11
134.4
 21
2.0
 31
0.0
  0
LINE
  5
303
330
1E
100
AcDbEntity
  8
0
100
AcDbLine
 10
123.941
 20
2.0
 30
0.0
 11
123.941
 21
0.000000000000004
 31
0.0
  0
LINE
  5
304
330
1E
100
AcDbEntity
  8
0
100
AcDbLine
 10
123.941
 20
2.0
 30
0.0
 11
124.1249999999999
 21
2.0
 31
0.0
  0
LINE
  5
305
330
1E
100
AcDbEntity
  8
0
100
AcDbLine
 10
127.5
 20
2.0
 30
0.0
 11
127.5
 21
0.0000000000000037
 31
0.0
  0
LINE
  5
306
330
1E
100
AcDbEntity
  8
0
100
AcDbLine
 10
126.4159999999999
 20
2.0
 30
0.0
 11
126.4159999999999
 21
0.000000000000004
 31
0.0
  0
LINE
  5
307
330
1E
100
AcDbEntity
  8
0
100
AcDbLine
 10
126.4159999999999
 20
2.0
 30
0.0
 11
127.5
 21
2.0
 31
0.0
  0
LINE
  5
308
330
1E
100
AcDbEntity
  8
0
100
AcDbLine
 10
138.7499999999999
 20
2.0
 30
0.0
 11
138.7499999999999
 21
0.000000000000003
 31
0.0
  0
LINE
  5
309
330
1E
100
AcDbEntity
  8
0
100
AcDbLine
 10
139.8509999999999
 20
2.0
 30
0.0
 11
139.8509999999999
 21
0.000000000000003
 31
0.0
  0
LINE
  5
30A
330
1E
100
AcDbEntity
  8
0
100
AcDbLine
 10
139.8509999999999
 20
2.0
 30
0.0
 11
140.912
 21
2.0
 31
0.0
  0
LINE
  5
30B
330
1E
100
AcDbEntity
  8
0
100
AcDbLine
 10
138.7899999999999
 20
2.0
 30
0.0
 11
138.7899999999999
 21
0.000000000000003
 31
0.0
  0
LINE
  5
30C
330
1E
100
AcDbEntity
  8
0
100
AcDbLine
 10
138.7899999999999
 20
2.0
 30
0.0
 11
139.8509999999999
 21
2.0
 31
0.0
  0
LINE
  5
30D
330
1E
100
AcDbEntity
  8
0
100
AcDbLine
 10
150.0
 20
2.0
 30
0.0
 11
150.0
 21
0.0000000000000023
 31
0.0
  0
LINE
  5
30E
330
1E
100
AcDbEntity
  8
0
100
AcDbLine
 10
153.0
 20
2.0
 30
0.0
 11
160.65
 21
2.0
 31
0.0
  0
LINE
  5
30F
330
1E
100
AcDbEntity
  8
0
100
AcDbLine
 10
153.0
 20
2.0
 30
0.0
 11
158.6279999999999
 21
2.0
 31
0.0
  0
LINE
  5
310
330
1E
100
AcDbEntity
  8
0
100
AcDbLine
 10
167.3249999999999
 20
2.0
 30
0.0
 11
172.275
 21
2.0
 31
0.0
  0
LINE
  5
311
330
1E
100
AcDbEntity
  8
0
100
AcDbLine
 10
172.275
 20
2.0
 30
0.0
 11
176.025
 21
2.0
 31
0.0
  0
LINE
  5
312
330
1E
100
AcDbEntity
  8
0
100
AcDbLine
 10
176.025
 20
2.0
 30
0.0
 11
178.35
 21
2.0
 31
0.0
  0
LINE
  5
313
330
1E
100
AcDbEntity
  8
0
100
AcDbLine
 10
179.2499999999999
 20
2.0
 30
0.0
 11
180.0
 21
3.0
 31
0.0
  0
LINE
  5
314
330
1E
100
AcDbEntity
  8
0
100
AcDbLine
 10
178.35
 20
2.0
 30
0.0
 11
179.2499999999999
 21
2.0
 31
0.0
  0
LINE
  5
315
330
1E
100
AcDbEntity
  8
0
100
AcDbLine
 10
172.5
 20
2.0
 30
0.0
 11
172.5
 21
0.0000000000000012
 31
0.0
  0
LINE
  5
316
330
1E
100
AcDbEntity
  8
0
100
AcDbLine
 10
172.5
 20
2.0
 30
0.0
 11
176.025
 21
2.0
 31
0.0
  0
LINE
  5
317
330
1E
100
AcDbEntity
  8
0
100
AcDbLine
 10
171.0
 20
2.0
 30
0.0
 11
171.0
 21
0.0000000000000012
 31
0.0
  0
LINE
  5
318
330
1E
100
AcDbEntity
  8
0
100
AcDbLine
 10
171.0
 20
2.0
 30
0.0
 11
172.275
 21
2.0
 31
0.0
  0
LINE
  5
319
330
1E
100
AcDbEntity
  8
0
100
AcDbLine
 10
169.8829999999999
 20
2.0
 30
0.0
 11
169.8829999999999
 21
0.0000000000000012
 31
0.0
  0
LINE
  5
31A
330
1E
100
AcDbEntity
  8
0
100
AcDbLine
 10
169.495
 20
2.0
 30
0.0
 11
169.495
 21
0.0000000000000012
 31
0.0
  0
LINE
  5
31B
330
1E
100
AcDbEntity
  8
0
100
AcDbLine
 10
169.495
 20
2.0
 30
0.0
 11
169.8829999999999
 21
2.0
 31
0.0
  0
LINE
  5
31C
330
1E
100
AcDbEntity
  8
0
100
AcDbLine
 10
159.75
 20
2.0
 30
0.0
 11
159.75
 21
0.0000000000000019
 31
0.0
  0
LINE
  5
31D
330
1E
100
AcDbEntity
  8
0
100
AcDbLine
 10
161.25
 20
2.0
 30
0.0
 11
167.3249999999999
 21
2.0
 31
0.0
  0
LINE
  5
31E
330
1E
100
AcDbEntity
  8
0
100
AcDbLine
 10
160.65
 20
2.0
 30
0.0
 11
167.3249999999999
 21
2.0
 31
0.0
  0
LINE
  5
31F
330
1E
100
AcDbEntity
  8
0
100
AcDbLine
 10
161.8219999999999
 20
2.0
 30
0.0
 11
161.8219999999999
 21
0.0000000000000016
 31
0.0
  0
LINE
  5
320
330
1E
100
AcDbEntity
  8
0
100
AcDbLine
 10
161.072
 20
2.0
 30
0.0
 11
161.072
 21
0.0000000000000019
 31
0.0
  0
LINE
  5
321
330
1E
100
AcDbEntity
  8
0
100
AcDbLine
 10
159.773
 20
2.0
 30
0.0
 11
159.773
 21
0.0000000000000019
 31
0.0
  0
LINE
  5
322
330
1E
100
AcDbEntity
  8
0
100
AcDbLine
 10
159.773
 20
2.0
 30
0.0
 11
160.65
 21
2.0
 31
0.0
  0
LINE
  5
323
330
1E
100
AcDbEntity
  8
0
100
AcDbLine
 10
168.046
 20
2.0
 30
0.0
 11
168.046
 21
0.0000000000000014
 31
0.0
  0
LINE
  5
324
330
1E
100
AcDbEntity
  8
0
100
AcDbLine
 10
159.016
 20
2.0
 30
0.0
 11
159.016
 21
0.0000000000000019
 31
0.0
  0
LINE
  5
325
330
1E
100
AcDbEntity
  8
0
100
AcDbLine
 10
159.016
 20
2.0
 30
0.0
 11
159.75
 21
2.0
 31
0.0
  0
LINE
  5
326
330
1E
100
AcDbEntity
  8
0
100
AcDbLine
 10
158.6279999999999
 20
2.0
 30
0.0
 11
158.6279999999999
 21
0.0000000000000019
 31
0.0
  0
LINE
  5
327
330
1E
100
AcDbEntity
  8
0
100
AcDbLine
 10
158.6279999999999
 20
2.0
 30
0.0
 11
159.016
 21
2.0
 31
0.0
  0
LINE
  5
328
330
1E
100
AcDbEntity
  8
0
100
AcDbLine
 10
157.179
 20
2.0
 30
0.0
 11
157.179
 21
0.0000000000000021
 31
0.0
  0
LINE
  5
329
330
1E
100
AcDbEntity
  8
0
100
AcDbLine
 10
157.179
 20
2.0
 30
0.0
 11
158.6279999999999
 21
2.0
 31
0.0
  0
LINE
  5
32A
330
1E
100
AcDbEntity
  8
0
100
AcDbLine
 10
152.079
 20
2.0
 30
0.0
 11
152.079
 21
0.0000000000000023
 31
0.0
  0
LINE
  5
32B
330
1E
100
AcDbEntity
  8
0
100
AcDbLine
 10
152.079
 20
2.0
 30
0.0
 11
153.0
 21
2.0
 31
0.0
  0
LINE
  5
32C
330
1E
100
AcDbEntity
  8
0
100
AcDbLine
 10
151.329
 20
2.0
 30
0.0
 11
151.329
 21
0.0000000000000023
 31
0.0
  0
LINE
  5
32D
330
1E
100
AcDbEntity
  8
0
100
AcDbLine
 10
151.329
 20
2.0
 30
0.0
 11
152.079
 21
2.0
 31
0.0
  0
LINE
  5
32E
330
1E
100
AcDbEntity
  8
0
100
AcDbLine
 10
144.225
 20
2.0
 30
0.0
 11
153.0
 21
2.0
 31
0.0
  0
LINE
  5
32F
330
1E
100
AcDbEntity
  8
0
100
AcDbLine
 10
144.225
 20
2.0
 30
0.0
 11
146.3129999999999
 21
2.0
 31
0.0
  0
LINE
  5
330
330
1E
100
AcDbEntity
  8
0
100
AcDbLine
 10
148.867
 20
2.0
 30
0.0
 11
148.867
 21
0.0000000000000026
 31
0.0
  0
LINE
  5
331
330
1E
100
AcDbEntity
  8
0
100
AcDbLine
 10
148.867
 20
2.0
 30
0.0
 11
150.0
 21
2.0
 31
0.0
  0
LINE
  5
332
330
1E
100
AcDbEntity
  8
0
100
AcDbLine
 10
148.867
 20
2.0
 30
0.0
 11
150.78
 21
2.0
 31
0.0
  0
LINE
  5
333
330
1E
100
AcDbEntity
  8
0
100
AcDbLine
 10
147.806
 20
2.0
 30
0.0
 11
147.806
 21
0.0000000000000026
 31
0.0
  0
LINE
  5
334
330
1E
100
AcDbEntity
  8
0
100
AcDbLine
 10
147.806
 20
2.0
 30
0.0
 11
148.867
 21
2.0
 31
0.0
  0
LINE
  5
335
330
1E
100
AcDbEntity
  8
0
100
AcDbLine
 10
146.745
 20
2.0
 30
0.0
 11
146.745
 21
0.0000000000000026
 31
0.0
  0
LINE
  5
336
330
1E
100
AcDbEntity
  8
0
100
AcDbLine
 10
146.745
 20
2.0
 30
0.0
 11
147.806
 21
2.0
 31
0.0
  0
LINE
  5
337
330
1E
100
AcDbEntity
  8
0
100
AcDbLine
 10
146.3129999999999
 20
2.0
 30
0.0
 11
146.3129999999999
 21
0.0000000000000026
 31
0.0
  0
LINE
  5
338
330
1E
100
AcDbEntity
  8
0
100
AcDbLine
 10
146.3129999999999
 20
2.0
 30
0.0
 11
146.745
 21
2.0
 31
0.0
  0
LINE
  5
339
330
1E
100
AcDbEntity
  8
0
100
AcDbLine
 10
150.03
 20
2.0
 30
0.0
 11
150.03
 21
0.0000000000000023
 31
0.0
  0
LINE
  5
33A
330
1E
100
AcDbEntity
  8
0
100
AcDbLine
 10
150.03
 20
2.0
 30
0.0
 11
151.329
 21
2.0
 31
0.0
  0
LINE
  5
33B
330
1E
100
AcDbEntity
  8
0
100
AcDbLine
 10
142.337
 20
2.0
 30
0.0
 11
142.337
 21
0.0000000000000028
 31
0.0
  0
LINE
  5
33C
330
1E
100
AcDbEntity
  8
0
100
AcDbLine
 10
141.587
 20
2.0
 30
0.0
 11
141.587
 21
0.000000000000003
 31
0.0
  0
LINE
  5
33D
330
1E
100
AcDbEntity
  8
0
100
AcDbLine
 10
141.587
 20
2.0
 30
0.0
 11
142.337
 21
2.0
 31
0.0
  0
LINE
  5
33E
330
1E
100
AcDbEntity
  8
0
100
AcDbLine
 10
140.912
 20
2.0
 30
0.0
 11
141.587
 21
2.0
 31
0.0
  0
LINE
  5
33F
330
1E
100
AcDbEntity
  8
0
100
AcDbLine
 10
140.912
 20
2.0
 30
0.0
 11
140.912
 21
0.000000000000003
 31
0.0
  0
LINE
  5
340
330
1E
100
AcDbEntity
  8
0
100
AcDbLine
 10
137.2829999999999
 20
2.0
 30
0.0
 11
137.2829999999999
 21
0.0000000000000033
 31
0.0
  0
LINE
  5
341
330
1E
100
AcDbEntity
  8
0
100
AcDbLine
 10
136.895
 20
2.0
 30
0.0
 11
136.895
 21
0.0000000000000033
 31
0.0
  0
LINE
  5
342
330
1E
100
AcDbEntity
  8
0
100
AcDbLine
 10
136.895
 20
2.0
 30
0.0
 11
137.2829999999999
 21
2.0
 31
0.0
  0
LINE
  5
343
330
1E
100
AcDbEntity
  8
0
100
AcDbLine
 10
134.4
 20
2.0
 30
0.0
 11
144.225
 21
2.0
 31
0.0
  0
LINE
  5
344
330
1E
100
AcDbEntity
  8
0
100
AcDbLine
 10
132.9569999999999
 20
2.0
 30
0.0
 11
132.9569999999999
 21
0.0000000000000035
 31
0.0
  0
LINE
  5
345
330
1E
100
AcDbEntity
  8
0
100
AcDbLine
 10
135.4459999999999
 20
2.0
 30
0.0
 11
135.4459999999999
 21
0.0000000000000033
 31
0.0
  0
LINE
  5
346
330
1E
100
AcDbEntity
  8
0
100
AcDbLine
 10
135.4459999999999
 20
2.0
 30
0.0
 11
136.895
 21
2.0
 31
0.0
  0
LINE
  5
347
330
1E
100
AcDbEntity
  8
0
100
AcDbLine
 10
131.9
 20
2.0
 30
0.0
 11
131.9
 21
0.0000000000000035
 31
0.0
  0
LINE
  5
348
330
1E
100
AcDbEntity
  8
0
100
AcDbLine
 10
131.9
 20
2.0
 30
0.0
 11
132.9569999999999
 21
2.0
 31
0.0
  0
LINE
  5
349
330
1E
100
AcDbEntity
  8
0
100
AcDbLine
 10
130.6
 20
2.0
 30
0.0
 11
130.6
 21
0.0000000000000037
 31
0.0
  0
LINE
  5
34A
330
1E
100
AcDbEntity
  8
0
100
AcDbLine
 10
129.8499999999999
 20
2.0
 30
0.0
 11
129.8499999999999
 21
0.0000000000000037
 31
0.0
  0
LINE
  5
34B
330
1E
100
AcDbEntity
  8
0
100
AcDbLine
 10
126.275
 20
2.0
 30
0.0
 11
126.275
 21
0.000000000000004
 31
0.0
  0
LINE
  5
34C
330
1E
100
AcDbEntity
  8
0
100
AcDbLine
 10
124.9749999999999
 20
2.0
 30
0.0
 11
124.9749999999999
 21
0.000000000000004
 31
0.0
  0
LINE
  5
34D
330
1E
100
AcDbEntity
  8
0
100
AcDbLine
 10
122.8799999999999
 20
2.0
 30
0.0
 11
122.8799999999999
 21
0.0000000000000042
 31
0.0
  0
LINE
  5
34E
330
1E
100
AcDbEntity
  8
0
100
AcDbLine
 10
122.8509999999999
 20
2.0
 30
0.0
 11
122.8509999999999
 21
0.0000000000000042
 31
0.0
  0
LINE
  5
34F
330
1E
100
AcDbEntity
  8
0
100
AcDbLine
 10
122.1009999999999
 20
2.0
 30
0.0
 11
122.1009999999999
 21
0.0000000000000042
 31
0.0
  0
LINE
  5
350
330
1E
100
AcDbEntity
  8
0
100
AcDbLine
 10
120.802
 20
2.0
 30
0.0
 11
120.802
 21
0.0000000000000042
 31
0.0
  0
LINE
  5
351
330
1E
100
AcDbEntity
  8
0
100
AcDbLine
 10
124.225
 20
2.0
 30
0.0
 11
124.225
 21
0.000000000000004
 31
0.0
  0
LINE
  5
352
330
1E
100
AcDbEntity
  8
0
100
AcDbLine
 10
120.65
 20
2.0
 30
0.0
 11
120.65
 21
0.0000000000000042
 31
0.0
  0
LINE
  5
353
330
1E
100
AcDbEntity
  8
0
100
AcDbLine
 10
120.65
 20
2.0
 30
0.0
 11
120.802
 21
2.0
 31
0.0
  0
LINE
  5
354
330
1E
100
AcDbEntity
  8
0
100
AcDbLine
 10
119.35
 20
2.0
 30
0.0
 11
119.35
 21
0.0000000000000042
 31
0.0
  0
LINE
  5
355
330
1E
100
AcDbEntity
  8
0
100
AcDbLine
 10
119.35
 20
2.0
 30
0.0
 11
120.65
 21
2.0
 31
0.0
  0
LINE
  5
356
330
1E
100
AcDbEntity
  8
0
100
AcDbLine
 10
118.5999999999999
 20
2.0
 30
0.0
 11
118.5999999999999
 21
0.0000000000000044
 31
0.0
  0
LINE
  5
357
330
1E
100
AcDbEntity
  8
0
100
AcDbLine
 10
118.5999999999999
 20
2.0
 30
0.0
 11
119.35
 21
2.0
 31
0.0
  0
LINE
  5
358
330
1E
100
AcDbEntity
  8
0
100
AcDbLine
 10
115.0249999999999
 20
2.0
 30
0.0
 11
115.0249999999999
 21
0.0000000000000047
 31
0.0
  0
LINE
  5
359
330
1E
100
AcDbEntity
  8
0
100
AcDbLine
 10
113.7249999999999
 20
2.0
 30
0.0
 11
113.7249999999999
 21
0.0000000000000047
 31
0.0
  0
LINE
  5
35A
330
1E
100
AcDbEntity
  8
0
100
AcDbLine
 10
112.975
 20
2.0
 30
0.0
 11
112.975
 21
0.0000000000000047
 31
0.0
  0
LINE
  5
35B
330
1E
100
AcDbEntity
  8
0
100
AcDbLine
 10
112.077
 20
2.0
 30
0.0
 11
112.077
 21
0.0000000000000047
 31
0.0
  0
LINE
  5
35C
330
1E
100
AcDbEntity
  8
0
100
AcDbLine
 10
112.077
 20
2.0
 30
0.0
 11
112.358
 21
2.0
 31
0.0
  0
LINE
  5
35D
330
1E
100
AcDbEntity
  8
0
100
AcDbLine
 10
110.6279999999999
 20
2.0
 30
0.0
 11
110.6279999999999
 21
0.0000000000000049
 31
0.0
  0
LINE
  5
35E
330
1E
100
AcDbEntity
  8
0
100
AcDbLine
 10
110.6279999999999
 20
2.0
 30
0.0
 11
112.077
 21
2.0
 31
0.0
  0
LINE
  5
35F
330
1E
100
AcDbEntity
  8
0
100
AcDbLine
 10
110.24
 20
2.0
 30
0.0
 11
110.24
 21
0.0000000000000049
 31
0.0
  0
LINE
  5
360
330
1E
100
AcDbEntity
  8
0
100
AcDbLine
 10
109.165
 20
2.0
 30
0.0
 11
109.165
 21
0.0000000000000049
 31
0.0
  0
LINE
  5
361
330
1E
100
AcDbEntity
  8
0
100
AcDbLine
 10
109.165
 20
2.0
 30
0.0
 11
109.4
 21
2.0
 31
0.0
  0
LINE
  5
362
330
1E
100
AcDbEntity
  8
0
100
AcDbLine
 10
107.716
 20
2.00000000000001
 30
0.0
 11
107.716
 21
0.0000000000000052
 31
0.0
  0
LINE
  5
363
330
1E
100
AcDbEntity
  8
0
100
AcDbLine
 10
112.7999999999999
 20
15.0
 30
0.0
 11
116.4749999999999
 21
15.0
 31
0.0
  0
LINE
  5
364
330
1E
100
AcDbEntity
  8
0
100
AcDbLine
 10
108.675
 20
15.0
 30
0.0
 11
112.7999999999999
 21
15.0
 31
0.0
  0
LINE
  5
365
330
1E
100
AcDbEntity
  8
0
100
AcDbLine
 10
113.0249999999999
 20
12.0
 30
0.0
 11
124.1249999999999
 21
12.0
 31
0.0
  0
LINE
  5
366
330
1E
100
AcDbEntity
  8
0
100
AcDbLine
 10
113.25
 20
11.0
 30
0.0
 11
124.35
 21
11.0
 31
0.0
  0
LINE
  5
367
330
1E
100
AcDbEntity
  8
0
100
AcDbLine
 10
172.9499999999999
 20
3.0
 30
0.0
 11
176.775
 21
3.0
 31
0.0
  0
LINE
  5
368
330
1E
100
AcDbEntity
  8
0
100
AcDbLine
 10
153.525
 20
3.0
 30
0.0
 11
161.25
 21
3.0
 31
0.0
  0
LINE
  5
369
330
1E
100
AcDbEntity
  8
0
100
AcDbLine
 10
161.25
 20
3.0
 30
0.0
 11
167.925
 21
3.0
 31
0.0
  0
LINE
  5
36A
330
1E
100
AcDbEntity
  8
0
100
AcDbLine
 10
167.925
 20
3.0
 30
0.0
 11
172.9499999999999
 21
3.0
 31
0.0
  0
LINE
  5
36B
330
1E
100
AcDbEntity
  8
0
100
AcDbLine
 10
176.775
 20
3.0
 30
0.0
 11
179.0999999999999
 21
3.0
 31
0.0
  0
LINE
  5
36C
330
1E
100
AcDbEntity
  8
0
100
AcDbLine
 10
180.0
 20
3.0
 30
0.0
 11
180.0
 21
11.0
 31
0.0
  0
LINE
  5
36D
330
1E
100
AcDbEntity
  8
0
100
AcDbLine
 10
179.0999999999999
 20
3.0
 30
0.0
 11
180.0
 21
3.0
 31
0.0
  0
LINE
  5
36E
330
1E
100
AcDbEntity
  8
0
100
AcDbLine
 10
144.675
 20
3.0
 30
0.0
 11
153.525
 21
3.0
 31
0.0
  0
LINE
  5
36F
330
1E
100
AcDbEntity
  8
0
100
AcDbLine
 10
134.775
 20
3.0
 30
0.0
 11
144.675
 21
3.0
 31
0.0
  0
LINE
  5
370
330
1E
100
AcDbEntity
  8
0
100
AcDbLine
 10
119.7
 20
12.0
 30
0.0
 11
124.1249999999999
 21
12.0
 31
0.0
  0
LINE
  5
371
330
1E
100
AcDbEntity
  8
0
100
AcDbLine
 10
116.4749999999999
 20
15.0
 30
0.0
 11
119.7
 21
15.0
 31
0.0
  0
LINE
  5
372
330
1E
100
AcDbEntity
  8
0
100
AcDbLine
 10
119.7
 20
15.0
 30
0.0
 11
122.475
 21
15.0
 31
0.0
  0
LINE
  5
373
330
1E
100
AcDbEntity
  8
0
100
AcDbLine
 10
122.475
 20
15.0
 30
0.0
 11
124.575
 21
15.0
 31
0.0
  0
LINE
  5
374
330
1E
100
AcDbEntity
  8
0
100
AcDbLine
 10
124.1249999999999
 20
12.0
 30
0.0
 11
134.4
 21
12.0
 31
0.0
  0
LINE
  5
375
330
1E
100
AcDbEntity
  8
0
100
AcDbLine
 10
167.925
 20
11.0
 30
0.0
 11
172.9499999999999
 21
11.0
 31
0.0
  0
LINE
  5
376
330
1E
100
AcDbEntity
  8
0
100
AcDbLine
 10
172.9499999999999
 20
11.0
 30
0.0
 11
176.775
 21
11.0
 31
0.0
  0
LINE
  5
377
330
1E
100
AcDbEntity
  8
0
100
AcDbLine
 10
180.0
 20
11.0
 30
0.0
 11
180.0
 21
3.0
 31
0.0
  0
LINE
  5
378
330
1E
100
AcDbEntity
  8
0
100
AcDbLine
 10
176.775
 20
11.0
 30
0.0
 11
179.0999999999999
 21
11.0
 31
0.0
  0
LINE
  5
379
330
1E
100
AcDbEntity
  8
0
100
AcDbLine
 10
153.525
 20
11.0
 30
0.0
 11
161.25
 21
11.0
 31
0.0
  0
LINE
  5
37A
330
1E
100
AcDbEntity
  8
0
100
AcDbLine
 10
161.25
 20
11.0
 30
0.0
 11
167.925
 21
11.0
 31
0.0
  0
LINE
  5
37B
330
1E
100
AcDbEntity
  8
0
100
AcDbLine
 10
179.0999999999999
 20
11.0
 30
0.0
 11
180.0
 21
11.0
 31
0.0
  0
LINE
  5
37C
330
1E
100
AcDbEntity
  8
0
100
AcDbLine
 10
144.675
 20
11.0
 30
0.0
 11
153.525
 21
11.0
 31
0.0
  0
LINE
  5
37D
330
1E
100
AcDbEntity
  8
0
100
AcDbLine
 10
124.575
 20
15.0
 30
0.0
 11
126.15
 21
15.0
 31
0.0
  0
LINE
  5
37E
330
1E
100
AcDbEntity
  8
0
100
AcDbLine
 10
126.15
 20
15.0
 30
0.0
 11
127.1249999999999
 21
15.0
 31
0.0
  0
LINE
  5
37F
330
1E
100
AcDbEntity
  8
0
100
AcDbLine
 10
127.5
 20
15.0
 30
0.0
 11
127.5
 21
12.0
 31
0.0
  0
LINE
  5
380
330
1E
100
AcDbEntity
  8
0
100
AcDbLine
 10
127.1249999999999
 20
15.0
 30
0.0
 11
127.5
 21
15.0
 31
0.0
  0
LINE
  5
381
330
1E
100
AcDbEntity
  8
0
100
AcDbLine
 10
127.5
 20
12.0
 30
0.0
 11
127.5
 21
15.0
 31
0.0
  0
LINE
  5
382
330
1E
100
AcDbEntity
  8
0
100
AcDbLine
 10
176.025
 20
12.0
 30
0.0
 11
178.35
 21
12.0
 31
0.0
  0
LINE
  5
383
330
1E
100
AcDbEntity
  8
0
100
AcDbLine
 10
153.0
 20
12.0
 30
0.0
 11
160.65
 21
12.0
 31
0.0
  0
LINE
  5
384
330
1E
100
AcDbEntity
  8
0
100
AcDbLine
 10
160.65
 20
12.0
 30
0.0
 11
167.3249999999999
 21
12.0
 31
0.0
  0
LINE
  5
385
330
1E
100
AcDbEntity
  8
0
100
AcDbLine
 10
167.3249999999999
 20
12.0
 30
0.0
 11
172.275
 21
12.0
 31
0.0
  0
LINE
  5
386
330
1E
100
AcDbEntity
  8
0
100
AcDbLine
 10
172.275
 20
12.0
 30
0.0
 11
176.025
 21
12.0
 31
0.0
  0
LINE
  5
387
330
1E
100
AcDbEntity
  8
0
100
AcDbLine
 10
178.35
 20
12.0
 30
0.0
 11
179.2499999999999
 21
12.0
 31
0.0
  0
LINE
  5
388
330
1E
100
AcDbEntity
  8
0
100
AcDbLine
 10
179.2499999999999
 20
12.0
 30
0.0
 11
180.0
 21
11.0
 31
0.0
  0
LINE
  5
389
330
1E
100
AcDbEntity
  8
0
100
AcDbLine
 10
144.225
 20
12.0
 30
0.0
 11
153.0
 21
12.0
 31
0.0
  0
LINE
  5
38A
330
1E
100
AcDbEntity
  8
0
100
AcDbLine
 10
134.4
 20
12.0
 30
0.0
 11
144.225
 21
12.0
 31
0.0
  0
LINE
  5
38B
330
1E
100
AcDbEntity
  8
0
100
AcDbLine
 10
134.775
 20
11.0
 30
0.0
 11
144.675
 21
11.0
 31
0.0
  0
LINE
  5
38C
330
1E
100
AcDbEntity
  8
0
100
AcDbLine
 10
124.35
 20
11.0
 30
0.0
 11
134.775
 21
11.0
 31
0.0
  0
LINE
  5
38D
330
1E
100
AcDbEntity
  8
0
100
AcDbLine
 10
124.35
 20
3.0
 30
0.0
 11
134.775
 21
3.0
 31
0.0
  0
LINE
  5
38E
330
1E
100
AcDbEntity
  8
0
100
AcDbLine
 10
113.25
 20
3.0
 30
0.0
 11
124.35
 21
3.0
 31
0.0
  0
LINE
  5
38F
330
1E
100
AcDbEntity
  8
0
100
AcDbLine
 10
107.328
 20
2.00000000000001
 30
0.0
 11
107.328
 21
0.0000000000000052
 31
0.0
  0
LINE
  5
390
330
1E
100
AcDbEntity
  8
0
100
AcDbLine
 10
106.2539999999999
 20
2.00000000000001
 30
0.0
 11
106.2539999999999
 21
0.0000000000000052
 31
0.0
  0
LINE
  5
391
330
1E
100
AcDbEntity
  8
0
100
AcDbLine
 10
106.2539999999999
 20
0.0000000000000051
 30
0.0
 11
106.2539999999999
 21
2.00000000000001
 31
0.0
  0
LINE
  5
392
330
1E
100
AcDbEntity
  8
0
100
AcDbLine
 10
105.0
 20
26.66
 30
0.0
 11
105.0
 21
15.0
 31
0.0
  0
LINE
  5
393
330
1E
100
AcDbEntity
  8
0
100
AcDbLine
 10
105.0
 20
27.38459999999999
 30
0.0
 11
105.0
 21
36.6154
 31
0.0
  0
LINE
  5
394
330
1E
100
AcDbEntity
  8
0
100
AcDbLine
 10
104.6399999999999
 20
27.0
 30
0.0
 11
105.0
 21
27.38459999999999
 31
0.0
  0
LINE
  5
395
330
1E
100
AcDbEntity
  8
0
100
AcDbLine
 10
104.6399999999999
 20
27.0
 30
0.0
 11
105.0
 21
26.66
 31
0.0
  0
LINE
  5
396
330
1E
100
AcDbEntity
  8
0
100
AcDbLine
 10
105.0
 20
36.6154
 30
0.0
 11
105.0
 21
27.38459999999999
 31
0.0
  0
LINE
  5
397
330
1E
100
AcDbEntity
  8
0
100
AcDbLine
 10
104.4599999999999
 20
36.6154
 30
0.0
 11
105.0
 21
36.6154
 31
0.0
  0
LINE
  5
398
330
1E
100
AcDbEntity
  8
0
100
AcDbLine
 10
104.0999999999999
 20
37.0
 30
0.0
 11
104.6399999999999
 21
37.0
 31
0.0
  0
LINE
  5
399
330
1E
100
AcDbEntity
  8
0
100
AcDbLine
 10
104.6399999999999
 20
37.0
 30
0.0
 11
105.0
 21
36.6154
 31
0.0
  0
LINE
  5
39A
330
1E
100
AcDbEntity
  8
0
100
AcDbLine
 10
102.6599999999999
 20
37.0
 30
0.0
 11
104.0999999999999
 21
37.0
 31
0.0
  0
LINE
  5
39B
330
1E
100
AcDbEntity
  8
0
100
AcDbLine
 10
103.02
 20
36.6154
 30
0.0
 11
104.4599999999999
 21
36.6154
 31
0.0
  0
LINE
  5
39C
330
1E
100
AcDbEntity
  8
0
100
AcDbLine
 10
102.0
 20
44.0
 30
0.0
 11
102.0
 21
52.0
 31
0.0
  0
LINE
  5
39D
330
1E
100
AcDbEntity
  8
0
100
AcDbLine
 10
101.6
 20
44.0
 30
0.0
 11
102.0
 21
44.0
 31
0.0
  0
LINE
  5
39E
330
1E
100
AcDbEntity
  8
0
100
AcDbLine
 10
100.4
 20
44.0
 30
0.0
 11
101.6
 21
44.0
 31
0.0
  0
LINE
  5
39F
330
1E
100
AcDbEntity
  8
0
100
AcDbLine
 10
100.6
 20
44.0
 30
0.0
 11
101.0
 21
44.0
 31
0.0
  0
LINE
  5
3A0
330
1E
100
AcDbEntity
  8
0
100
AcDbLine
 10
99.50000000000001
 20
44.0
 30
0.0
 11
100.6
 21
44.0
 31
0.0
  0
LINE
  5
3A1
330
1E
100
AcDbEntity
  8
0
100
AcDbLine
 10
98.50000000000001
 20
44.0
 30
0.0
 11
99.50000000000001
 21
44.0
 31
0.0
  0
LINE
  5
3A2
330
1E
100
AcDbEntity
  8
0
100
AcDbLine
 10
95.5
 20
44.0
 30
0.0
 11
96.0
 21
44.0
 31
0.0
  0
LINE
  5
3A3
330
1E
100
AcDbEntity
  8
0
100
AcDbLine
 10
92.79999999999999
 20
44.0
 30
0.0
 11
95.5
 21
44.0
 31
0.0
  0
LINE
  5
3A4
330
1E
100
AcDbEntity
  8
0
100
AcDbLine
 10
90.0
 20
44.0
 30
0.0
 11
92.79999999999999
 21
44.0
 31
0.0
  0
LINE
  5
3A5
330
1E
100
AcDbEntity
  8
0
100
AcDbLine
 10
90.0
 20
44.0
 30
0.0
 11
93.1
 21
44.0
 31
0.0
  0
LINE
  5
3A6
330
1E
100
AcDbEntity
  8
0
100
AcDbLine
 10
86.90000000000001
 20
44.0
 30
0.0
 11
90.0
 21
44.0
 31
0.0
  0
LINE
  5
3A7
330
1E
100
AcDbEntity
  8
0
100
AcDbLine
 10
84.50000000000001
 20
44.0
 30
0.0
 11
87.2
 21
44.0
 31
0.0
  0
LINE
  5
3A8
330
1E
100
AcDbEntity
  8
0
100
AcDbLine
 10
79.59999999999999
 20
52.0
 30
0.0
 11
81.5
 21
52.0
 31
0.0
  0
LINE
  5
3A9
330
1E
100
AcDbEntity
  8
0
100
AcDbLine
 10
81.5
 20
52.0
 30
0.0
 11
84.0
 21
52.0
 31
0.0
  0
LINE
  5
3AA
330
1E
100
AcDbEntity
  8
0
100
AcDbLine
 10
79.40000000000001
 20
53.0
 30
0.0
 11
80.5
 21
53.0
 31
0.0
  0
LINE
  5
3AB
330
1E
100
AcDbEntity
  8
0
100
AcDbLine
 10
80.5
 20
53.0
 30
0.0
 11
82.2
 21
53.0
 31
0.0
  0
LINE
  5
3AC
330
1E
100
AcDbEntity
  8
0
100
AcDbLine
 10
79.59999999999999
 20
54.0
 30
0.0
 11
81.5
 21
54.0
 31
0.0
  0
LINE
  5
3AD
330
1E
100
AcDbEntity
  8
0
100
AcDbLine
 10
83.40000000000001
 20
96.0
 30
0.0
 11
89.7
 21
104.2999999999999
 31
0.0
  0
LINE
  5
3AE
330
1E
100
AcDbEntity
  8
0
100
AcDbLine
 10
79.40000000000001
 20
86.4
 30
0.0
 11
83.40000000000001
 21
96.0
 31
0.0
  0
LINE
  5
3AF
330
1E
100
AcDbEntity
  8
0
100
AcDbLine
 10
81.5
 20
54.0
 30
0.0
 11
84.0
 21
54.0
 31
0.0
  0
LINE
  5
3B0
330
1E
100
AcDbEntity
  8
0
100
AcDbLine
 10
84.0
 20
54.0
 30
0.0
 11
86.90000000000001
 21
54.0
 31
0.0
  0
LINE
  5
3B1
330
1E
100
AcDbEntity
  8
0
100
AcDbLine
 10
82.2
 20
53.0
 30
0.0
 11
84.50000000000001
 21
53.0
 31
0.0
  0
LINE
  5
3B2
330
1E
100
AcDbEntity
  8
0
100
AcDbLine
 10
86.90000000000001
 20
54.0
 30
0.0
 11
90.0
 21
54.0
 31
0.0
  0
LINE
  5
3B3
330
1E
100
AcDbEntity
  8
0
100
AcDbLine
 10
84.50000000000001
 20
53.0
 30
0.0
 11
87.2
 21
53.0
 31
0.0
  0
LINE
  5
3B4
330
1E
100
AcDbEntity
  8
0
100
AcDbLine
 10
84.0
 20
52.0
 30
0.0
 11
86.90000000000001
 21
52.0
 31
0.0
  0
LINE
  5
3B5
330
1E
100
AcDbEntity
  8
0
100
AcDbLine
 10
90.0
 20
53.0
 30
0.0
 11
92.79999999999999
 21
53.0
 31
0.0
  0
LINE
  5
3B6
330
1E
100
AcDbEntity
  8
0
100
AcDbLine
 10
102.0
 20
52.0
 30
0.0
 11
102.0
 21
44.0
 31
0.0
  0
LINE
  5
3B7
330
1E
100
AcDbEntity
  8
0
100
AcDbLine
 10
101.6
 20
52.0
 30
0.0
 11
102.0
 21
52.0
 31
0.0
  0
LINE
  5
3B8
330
1E
100
AcDbEntity
  8
0
100
AcDbLine
 10
100.4
 20
52.0
 30
0.0
 11
101.6
 21
52.0
 31
0.0
  0
LINE
  5
3B9
330
1E
100
AcDbEntity
  8
0
100
AcDbLine
 10
98.50000000000001
 20
52.0
 30
0.0
 11
100.4
 21
52.0
 31
0.0
  0
LINE
  5
3BA
330
1E
100
AcDbEntity
  8
0
100
AcDbLine
 10
96.0
 20
52.0
 30
0.0
 11
98.50000000000001
 21
52.0
 31
0.0
  0
LINE
  5
3BB
330
1E
100
AcDbEntity
  8
0
100
AcDbLine
 10
100.6
 20
53.0
 30
0.0
 11
101.0
 21
53.0
 31
0.0
  0
LINE
  5
3BC
330
1E
100
AcDbEntity
  8
0
100
AcDbLine
 10
101.0
 20
53.0
 30
0.0
 11
102.0
 21
52.0
 31
0.0
  0
LINE
  5
3BD
330
1E
100
AcDbEntity
  8
0
100
AcDbLine
 10
101.0
 20
53.0
 30
0.0
 11
102.0
 21
54.0
 31
0.0
  0
LINE
  5
3BE
330
1E
100
AcDbEntity
  8
0
100
AcDbLine
 10
99.50000000000001
 20
53.0
 30
0.0
 11
100.6
 21
53.0
 31
0.0
  0
LINE
  5
3BF
330
1E
100
AcDbEntity
  8
0
100
AcDbLine
 10
97.80000000000001
 20
53.0
 30
0.0
 11
99.50000000000001
 21
53.0
 31
0.0
  0
LINE
  5
3C0
330
1E
100
AcDbEntity
  8
0
100
AcDbLine
 10
95.5
 20
53.0
 30
0.0
 11
97.80000000000001
 21
53.0
 31
0.0
  0
LINE
  5
3C1
330
1E
100
AcDbEntity
  8
0
100
AcDbLine
 10
92.79999999999999
 20
53.0
 30
0.0
 11
95.5
 21
53.0
 31
0.0
  0
LINE
  5
3C2
330
1E
100
AcDbEntity
  8
0
100
AcDbLine
 10
93.1
 20
52.0
 30
0.0
 11
96.0
 21
52.0
 31
0.0
  0
LINE
  5
3C3
330
1E
100
AcDbEntity
  8
0
100
AcDbLine
 10
90.0
 20
52.0
 30
0.0
 11
93.1
 21
52.0
 31
0.0
  0
LINE
  5
3C4
330
1E
100
AcDbEntity
  8
0
100
AcDbLine
 10
89.7
 20
104.2999999999999
 30
0.0
 11
98.0
 21
110.5999999999999
 31
0.0
  0
LINE
  5
3C5
330
1E
100
AcDbEntity
  8
0
100
AcDbLine
 10
102.0
 20
54.0
 30
0.0
 11
102.0
 21
58.0
 31
0.0
  0
LINE
  5
3C6
330
1E
100
AcDbEntity
  8
0
100
AcDbLine
 10
101.6
 20
54.0
 30
0.0
 11
102.0
 21
54.0
 31
0.0
  0
LINE
  5
3C7
330
1E
100
AcDbEntity
  8
0
100
AcDbLine
 10
100.4
 20
54.0
 30
0.0
 11
101.6
 21
54.0
 31
0.0
  0
LINE
  5
3C8
330
1E
100
AcDbEntity
  8
0
100
AcDbLine
 10
98.50000000000001
 20
54.0
 30
0.0
 11
100.4
 21
54.0
 31
0.0
  0
LINE
  5
3C9
330
1E
100
AcDbEntity
  8
0
100
AcDbLine
 10
96.0
 20
54.0
 30
0.0
 11
98.50000000000001
 21
54.0
 31
0.0
  0
LINE
  5
3CA
330
1E
100
AcDbEntity
  8
0
100
AcDbLine
 10
98.0
 20
110.5999999999999
 30
0.0
 11
107.6
 21
114.5999999999999
 31
0.0
  0
LINE
  5
3CB
330
1E
100
AcDbEntity
  8
0
100
AcDbLine
 10
102.0
 20
76.0
 30
0.0
 11
102.0
 21
58.0
 31
0.0
  0
LINE
  5
3CC
330
1E
100
AcDbEntity
  8
0
100
AcDbLine
 10
102.0
 20
76.0
 30
0.0
 11
102.4999999999999
 21
80.09999999999999
 31
0.0
  0
LINE
  5
3CD
330
1E
100
AcDbEntity
  8
0
100
AcDbLine
 10
470.0
 20
73.0
 30
0.0
 11
470.0
 21
74.08249999999999
 31
0.0
  0
LINE
  5
3CE
330
1E
100
AcDbEntity
  8
0
100
AcDbLine
 10
470.0
 20
73.0
 30
0.0
 11
473.0
 21
73.0
 31
0.0
  0
LINE
  5
3CF
330
1E
100
AcDbEntity
  8
0
100
AcDbLine
 10
470.0
 20
74.08249999999999
 30
0.0
 11
470.0
 21
77.1333
 31
0.0
  0
LINE
  5
3D0
330
1E
100
AcDbEntity
  8
0
100
AcDbLine
 10
470.0
 20
74.08249999999999
 30
0.0
 11
470.0
 21
73.0
 31
0.0
  0
LINE
  5
3D1
330
1E
100
AcDbEntity
  8
0
100
AcDbLine
 10
473.0
 20
73.0
 30
0.0
 11
473.0
 21
74.08249999999999
 31
0.0
  0
LINE
  5
3D2
330
1E
100
AcDbEntity
  8
0
100
AcDbLine
 10
473.0
 20
74.08249999999999
 30
0.0
 11
473.0
 21
77.1333
 31
0.0
  0
LINE
  5
3D3
330
1E
100
AcDbEntity
  8
0
100
AcDbLine
 10
473.0
 20
74.08249999999999
 30
0.0
 11
473.0
 21
73.0
 31
0.0
  0
LINE
  5
3D4
330
1E
100
AcDbEntity
  8
0
100
AcDbLine
 10
473.0
 20
77.1333
 30
0.0
 11
473.0
 21
82.15239999999999
 31
0.0
  0
LINE
  5
3D5
330
1E
100
AcDbEntity
  8
0
100
AcDbLine
 10
473.0
 20
77.1333
 30
0.0
 11
473.0
 21
74.08249999999999
 31
0.0
  0
LINE
  5
3D6
330
1E
100
AcDbEntity
  8
0
100
AcDbLine
 10
470.0
 20
77.1333
 30
0.0
 11
470.0
 21
82.15239999999999
 31
0.0
  0
LINE
  5
3D7
330
1E
100
AcDbEntity
  8
0
100
AcDbLine
 10
470.0
 20
77.1333
 30
0.0
 11
470.0
 21
74.08249999999999
 31
0.0
  0
LINE
  5
3D8
330
1E
100
AcDbEntity
  8
0
100
AcDbLine
 10
106.6999999999999
 20
87.3
 30
0.0
 11
110.0
 21
89.9
 31
0.0
  0
LINE
  5
3D9
330
1E
100
AcDbEntity
  8
0
100
AcDbLine
 10
110.0
 20
89.9
 30
0.0
 11
113.9
 21
91.5
 31
0.0
  0
LINE
  5
3DA
330
1E
100
AcDbEntity
  8
0
100
AcDbLine
 10
118.0
 20
92.0
 30
0.0
 11
468.0
 21
92.0
 31
0.0
  0
LINE
  5
3DB
330
1E
100
AcDbEntity
  8
0
100
AcDbLine
 10
113.9
 20
91.5
 30
0.0
 11
118.0
 21
92.0
 31
0.0
  0
LINE
  5
3DC
330
1E
100
AcDbEntity
  8
0
100
AcDbLine
 10
118.0
 20
116.0
 30
0.0
 11
468.0
 21
116.0
 31
0.0
  0
LINE
  5
3DD
330
1E
100
AcDbEntity
  8
0
100
AcDbLine
 10
107.6
 20
114.5999999999999
 30
0.0
 11
118.0
 21
116.0
 31
0.0
  0
LINE
  5
3DE
330
1E
100
AcDbEntity
  8
0
100
AcDbLine
 10
468.0
 20
90.71429999999999
 30
0.0
 11
470.0
 21
73.0
 31
0.0
  0
LINE
  5
3DF
330
1E
100
AcDbEntity
  8
0
100
AcDbLine
 10
468.0
 20
90.71429999999999
 30
0.0
 11
468.0
 21
91.2063
 31
0.0
  0
LINE
  5
3E0
330
1E
100
AcDbEntity
  8
0
100
AcDbLine
 10
468.0
 20
91.2063
 30
0.0
 11
468.0
 21
92.48569999999999
 31
0.0
  0
LINE
  5
3E1
330
1E
100
AcDbEntity
  8
0
100
AcDbLine
 10
468.0
 20
91.2063
 30
0.0
 11
468.0
 21
90.71429999999999
 31
0.0
  0
LINE
  5
3E2
330
1E
100
AcDbEntity
  8
0
100
AcDbLine
 10
468.0
 20
92.0
 30
0.0
 11
468.0
 21
92.4
 31
0.0
  0
LINE
  5
3E3
330
1E
100
AcDbEntity
  8
0
100
AcDbLine
 10
468.0
 20
94.6508
 30
0.0
 11
468.0
 21
92.48569999999999
 31
0.0
  0
LINE
  5
3E4
330
1E
100
AcDbEntity
  8
0
100
AcDbLine
 10
468.0
 20
92.48569999999999
 30
0.0
 11
468.0
 21
94.6508
 31
0.0
  0
LINE
  5
3E5
330
1E
100
AcDbEntity
  8
0
100
AcDbLine
 10
468.0
 20
92.48569999999999
 30
0.0
 11
468.0
 21
91.2063
 31
0.0
  0
LINE
  5
3E6
330
1E
100
AcDbEntity
  8
0
100
AcDbLine
 10
468.0
 20
92.4
 30
0.0
 11
468.0
 21
93.59999999999999
 31
0.0
  0
LINE
  5
3E7
330
1E
100
AcDbEntity
  8
0
100
AcDbLine
 10
468.0
 20
93.59999999999999
 30
0.0
 11
468.0
 21
95.5
 31
0.0
  0
LINE
  5
3E8
330
1E
100
AcDbEntity
  8
0
100
AcDbLine
 10
468.0
 20
100.556
 30
0.0
 11
468.0
 21
97.40630000000001
 31
0.0
  0
LINE
  5
3E9
330
1E
100
AcDbEntity
  8
0
100
AcDbLine
 10
468.0
 20
97.40630000000001
 30
0.0
 11
468.0
 21
100.556
 31
0.0
  0
LINE
  5
3EA
330
1E
100
AcDbEntity
  8
0
100
AcDbLine
 10
468.0
 20
95.5
 30
0.0
 11
468.0
 21
98.0
 31
0.0
  0
LINE
  5
3EB
330
1E
100
AcDbEntity
  8
0
100
AcDbLine
 10
468.0
 20
98.0
 30
0.0
 11
468.0
 21
100.9
 31
0.0
  0
LINE
  5
3EC
330
1E
100
AcDbEntity
  8
0
100
AcDbLine
 10
468.0
 20
100.9
 30
0.0
 11
468.0
 21
104.0
 31
0.0
  0
LINE
  5
3ED
330
1E
100
AcDbEntity
  8
0
100
AcDbLine
 10
468.0
 20
104.0
 30
0.0
 11
468.0
 21
107.0999999999999
 31
0.0
  0
LINE
  5
3EE
330
1E
100
AcDbEntity
  8
0
100
AcDbLine
 10
468.0
 20
104.0
 30
0.0
 11
468.0
 21
107.444
 31
0.0
  0
LINE
  5
3EF
330
1E
100
AcDbEntity
  8
0
100
AcDbLine
 10
468.0
 20
107.444
 30
0.0
 11
468.0
 21
104.0
 31
0.0
  0
LINE
  5
3F0
330
1E
100
AcDbEntity
  8
0
100
AcDbLine
 10
468.0
 20
110.5939999999999
 30
0.0
 11
468.0
 21
113.3489999999999
 31
0.0
  0
LINE
  5
3F1
330
1E
100
AcDbEntity
  8
0
100
AcDbLine
 10
468.0
 20
107.0999999999999
 30
0.0
 11
468.0
 21
110.0
 31
0.0
  0
LINE
  5
3F2
330
1E
100
AcDbEntity
  8
0
100
AcDbLine
 10
468.0
 20
110.0
 30
0.0
 11
468.0
 21
112.5
 31
0.0
  0
LINE
  5
3F3
330
1E
100
AcDbEntity
  8
0
100
AcDbLine
 10
468.0
 20
115.514
 30
0.0
 11
468.0
 21
113.3489999999999
 31
0.0
  0
LINE
  5
3F4
330
1E
100
AcDbEntity
  8
0
100
AcDbLine
 10
468.0
 20
113.3489999999999
 30
0.0
 11
468.0
 21
115.514
 31
0.0
  0
LINE
  5
3F5
330
1E
100
AcDbEntity
  8
0
100
AcDbLine
 10
468.0
 20
113.3489999999999
 30
0.0
 11
468.0
 21
110.5939999999999
 31
0.0
  0
LINE
  5
3F6
330
1E
100
AcDbEntity
  8
0
100
AcDbLine
 10
468.0
 20
112.5
 30
0.0
 11
468.0
 21
114.4
 31
0.0
  0
LINE
  5
3F7
330
1E
100
AcDbEntity
  8
0
100
AcDbLine
 10
470.0
 20
82.15239999999999
 30
0.0
 11
470.0
 21
88.54919999999999
 31
0.0
  0
LINE
  5
3F8
330
1E
100
AcDbEntity
  8
0
100
AcDbLine
 10
470.0
 20
82.15239999999999
 30
0.0
 11
470.0
 21
77.1333
 31
0.0
  0
LINE
  5
3F9
330
1E
100
AcDbEntity
  8
0
100
AcDbLine
 10
473.0
 20
82.15239999999999
 30
0.0
 11
473.0
 21
88.54919999999999
 31
0.0
  0
LINE
  5
3FA
330
1E
100
AcDbEntity
  8
0
100
AcDbLine
 10
473.0
 20
82.15239999999999
 30
0.0
 11
473.0
 21
77.1333
 31
0.0
  0
LINE
  5
3FB
330
1E
100
AcDbEntity
  8
0
100
AcDbLine
 10
473.0
 20
88.54919999999999
 30
0.0
 11
473.0
 21
96.02859999999999
 31
0.0
  0
LINE
  5
3FC
330
1E
100
AcDbEntity
  8
0
100
AcDbLine
 10
473.0
 20
88.54919999999999
 30
0.0
 11
473.0
 21
82.15239999999999
 31
0.0
  0
LINE
  5
3FD
330
1E
100
AcDbEntity
  8
0
100
AcDbLine
 10
473.0
 20
96.02859999999999
 30
0.0
 11
473.0
 21
104.0
 31
0.0
  0
LINE
  5
3FE
330
1E
100
AcDbEntity
  8
0
100
AcDbLine
 10
473.0
 20
96.02859999999999
 30
0.0
 11
473.0
 21
88.54919999999999
 31
0.0
  0
LINE
  5
3FF
330
1E
100
AcDbEntity
  8
0
100
AcDbLine
 10
470.0
 20
88.54919999999999
 30
0.0
 11
470.0
 21
96.02859999999999
 31
0.0
  0
LINE
  5
400
330
1E
100
AcDbEntity
  8
0
100
AcDbLine
 10
470.0
 20
88.54919999999999
 30
0.0
 11
470.0
 21
82.15239999999999
 31
0.0
  0
LINE
  5
401
330
1E
100
AcDbEntity
  8
0
100
AcDbLine
 10
470.0
 20
96.02859999999999
 30
0.0
 11
470.0
 21
104.0
 31
0.0
  0
LINE
  5
402
330
1E
100
AcDbEntity
  8
0
100
AcDbLine
 10
470.0
 20
96.02859999999999
 30
0.0
 11
470.0
 21
88.54919999999999
 31
0.0
  0
LINE
  5
403
330
1E
100
AcDbEntity
  8
0
100
AcDbLine
 10
473.0
 20
104.0
 30
0.0
 11
473.0
 21
111.9709999999999
 31
0.0
  0
LINE
  5
404
330
1E
100
AcDbEntity
  8
0
100
AcDbLine
 10
473.0
 20
104.0
 30
0.0
 11
473.0
 21
96.02859999999999
 31
0.0
  0
LINE
  5
405
330
1E
100
AcDbEntity
  8
0
100
AcDbLine
 10
473.0
 20
111.9709999999999
 30
0.0
 11
473.0
 21
119.451
 31
0.0
  0
LINE
  5
406
330
1E
100
AcDbEntity
  8
0
100
AcDbLine
 10
473.0
 20
111.9709999999999
 30
0.0
 11
473.0
 21
104.0
 31
0.0
  0
LINE
  5
407
330
1E
100
AcDbEntity
  8
0
100
AcDbLine
 10
470.0
 20
111.9709999999999
 30
0.0
 11
470.0
 21
119.451
 31
0.0
  0
LINE
  5
408
330
1E
100
AcDbEntity
  8
0
100
AcDbLine
 10
470.0
 20
111.9709999999999
 30
0.0
 11
470.0
 21
104.0
 31
0.0
  0
LINE
  5
409
330
1E
100
AcDbEntity
  8
0
100
AcDbLine
 10
470.0
 20
104.0
 30
0.0
 11
470.0
 21
111.9709999999999
 31
0.0
  0
LINE
  5
40A
330
1E
100
AcDbEntity
  8
0
100
AcDbLine
 10
470.0
 20
104.0
 30
0.0
 11
470.0
 21
96.02859999999999
 31
0.0
  0
LINE
  5
40B
330
1E
100
AcDbEntity
  8
0
100
AcDbLine
 10
468.0
 20
114.4
 30
0.0
 11
468.0
 21
115.5999999999999
 31
0.0
  0
LINE
  5
40C
330
1E
100
AcDbEntity
  8
0
100
AcDbLine
 10
468.0
 20
116.0
 30
0.0
 11
468.0
 21
116.7939999999999
 31
0.0
  0
LINE
  5
40D
330
1E
100
AcDbEntity
  8
0
100
AcDbLine
 10
468.0
 20
115.5999999999999
 30
0.0
 11
468.0
 21
116.0
 31
0.0
  0
LINE
  5
40E
330
1E
100
AcDbEntity
  8
0
100
AcDbLine
 10
118.0
 20
92.0
 30
0.0
 11
468.0
 21
92.0
 31
0.0
  0
LINE
  5
40F
330
1E
100
AcDbEntity
  8
0
100
AcDbLine
 10
468.0
 20
117.286
 30
0.0
 11
470.0
 21
135.0
 31
0.0
  0
LINE
  5
410
330
1E
100
AcDbEntity
  8
0
100
AcDbLine
 10
468.0
 20
117.286
 30
0.0
 11
468.0
 21
116.7939999999999
 31
0.0
  0
LINE
  5
411
330
1E
100
AcDbEntity
  8
0
100
AcDbLine
 10
470.0
 20
133.9169999999999
 30
0.0
 11
470.0
 21
135.0
 31
0.0
  0
LINE
  5
412
330
1E
100
AcDbEntity
  8
0
100
AcDbLine
 10
470.0
 20
133.9169999999999
 30
0.0
 11
470.0
 21
130.867
 31
0.0
  0
LINE
  5
413
330
1E
100
AcDbEntity
  8
0
100
AcDbLine
 10
470.0
 20
130.867
 30
0.0
 11
470.0
 21
133.9169999999999
 31
0.0
  0
LINE
  5
414
330
1E
100
AcDbEntity
  8
0
100
AcDbLine
 10
470.0
 20
130.867
 30
0.0
 11
470.0
 21
125.848
 31
0.0
  0
LINE
  5
415
330
1E
100
AcDbEntity
  8
0
100
AcDbLine
 10
470.0
 20
125.848
 30
0.0
 11
470.0
 21
130.867
 31
0.0
  0
LINE
  5
416
330
1E
100
AcDbEntity
  8
0
100
AcDbLine
 10
470.0
 20
125.848
 30
0.0
 11
470.0
 21
119.451
 31
0.0
  0
LINE
  5
417
330
1E
100
AcDbEntity
  8
0
100
AcDbLine
 10
473.0
 20
135.0
 30
0.0
 11
473.0
 21
133.9169999999999
 31
0.0
  0
LINE
  5
418
330
1E
100
AcDbEntity
  8
0
100
AcDbLine
 10
473.0
 20
133.9169999999999
 30
0.0
 11
473.0
 21
135.0
 31
0.0
  0
LINE
  5
419
330
1E
100
AcDbEntity
  8
0
100
AcDbLine
 10
473.0
 20
133.9169999999999
 30
0.0
 11
473.0
 21
130.867
 31
0.0
  0
LINE
  5
41A
330
1E
100
AcDbEntity
  8
0
100
AcDbLine
 10
473.0
 20
130.867
 30
0.0
 11
473.0
 21
133.9169999999999
 31
0.0
  0
LINE
  5
41B
330
1E
100
AcDbEntity
  8
0
100
AcDbLine
 10
473.0
 20
130.867
 30
0.0
 11
473.0
 21
125.848
 31
0.0
  0
LINE
  5
41C
330
1E
100
AcDbEntity
  8
0
100
AcDbLine
 10
473.0
 20
125.848
 30
0.0
 11
473.0
 21
130.867
 31
0.0
  0
LINE
  5
41D
330
1E
100
AcDbEntity
  8
0
100
AcDbLine
 10
473.0
 20
125.848
 30
0.0
 11
473.0
 21
119.451
 31
0.0
  0
LINE
  5
41E
330
1E
100
AcDbEntity
  8
0
100
AcDbLine
 10
473.0
 20
119.451
 30
0.0
 11
473.0
 21
125.848
 31
0.0
  0
LINE
  5
41F
330
1E
100
AcDbEntity
  8
0
100
AcDbLine
 10
473.0
 20
119.451
 30
0.0
 11
473.0
 21
111.9709999999999
 31
0.0
  0
LINE
  5
420
330
1E
100
AcDbEntity
  8
0
100
AcDbLine
 10
470.0
 20
119.451
 30
0.0
 11
470.0
 21
125.848
 31
0.0
  0
LINE
  5
421
330
1E
100
AcDbEntity
  8
0
100
AcDbLine
 10
470.0
 20
119.451
 30
0.0
 11
470.0
 21
111.9709999999999
 31
0.0
  0
LINE
  5
422
330
1E
100
AcDbEntity
  8
0
100
AcDbLine
 10
470.0
 20
135.0
 30
0.0
 11
473.0
 21
135.0
 31
0.0
  0
LINE
  5
423
330
1E
100
AcDbEntity
  8
0
100
AcDbLine
 10
470.0
 20
135.0
 30
0.0
 11
470.0
 21
133.9169999999999
 31
0.0
  0
LINE
  5
424
330
1E
100
AcDbEntity
  8
0
100
AcDbLine
 10
468.0
 20
116.7939999999999
 30
0.0
 11
468.0
 21
116.0
 31
0.0
  0
LINE
  5
425
330
1E
100
AcDbEntity
  8
0
100
AcDbLine
 10
468.0
 20
116.7939999999999
 30
0.0
 11
468.0
 21
117.286
 31
0.0
  0
LINE
  5
426
330
1E
100
AcDbEntity
  8
0
100
AcDbLine
 10
118.0
 20
116.0
 30
0.0
 11
468.0
 21
116.0
 31
0.0
  0
LINE
  5
427
330
1E
100
AcDbEntity
  8
0
100
AcDbLine
 10
104.0999999999999
 20
84.0
 30
0.0
 11
106.6999999999999
 21
87.3
 31
0.0
  0
LINE
  5
428
330
1E
100
AcDbEntity
  8
0
100
AcDbLine
 10
102.4999999999999
 20
80.09999999999999
 30
0.0
 11
104.0999999999999
 21
84.0
 31
0.0
  0
LINE
  5
429
330
1E
100
AcDbEntity
  8
0
100
AcDbLine
 10
102.0
 20
58.0
 30
0.0
 11
102.0
 21
54.0
 31
0.0
  0
LINE
  5
42A
330
1E
100
AcDbEntity
  8
0
100
AcDbLine
 10
102.0
 20
58.0
 30
0.0
 11
102.0
 21
76.0
 31
0.0
  0
LINE
  5
42B
330
1E
100
AcDbEntity
  8
0
100
AcDbLine
 10
93.1
 20
54.0
 30
0.0
 11
96.0
 21
54.0
 31
0.0
  0
LINE
  5
42C
330
1E
100
AcDbEntity
  8
0
100
AcDbLine
 10
90.0
 20
54.0
 30
0.0
 11
93.1
 21
54.0
 31
0.0
  0
LINE
  5
42D
330
1E
100
AcDbEntity
  8
0
100
AcDbLine
 10
87.2
 20
53.0
 30
0.0
 11
90.0
 21
53.0
 31
0.0
  0
LINE
  5
42E
330
1E
100
AcDbEntity
  8
0
100
AcDbLine
 10
86.90000000000001
 20
52.0
 30
0.0
 11
90.0
 21
52.0
 31
0.0
  0
LINE
  5
42F
330
1E
100
AcDbEntity
  8
0
100
AcDbLine
 10
87.2
 20
44.0
 30
0.0
 11
90.0
 21
44.0
 31
0.0
  0
LINE
  5
430
330
1E
100
AcDbEntity
  8
0
100
AcDbLine
 10
79.0
 20
44.0
 30
0.0
 11
81.79999999999999
 21
37.0
 31
0.0
  0
LINE
  5
431
330
1E
100
AcDbEntity
  8
0
100
AcDbLine
 10
79.0
 20
44.0
 30
0.0
 11
79.40000000000001
 21
44.0
 31
0.0
  0
ENDSEC
  0
SECTION
  2
OBJECTS
  0
DICTIONARY
  5
C
330
0
100
AcDbDictionary
281
     1
  3
ACAD_GROUP
350
D
  3
ACAD_LAYOUT
350
19
  3
ACAD_MLINESTYLE
350
16
  3
ACAD_PLOTSETTINGS
350
18
  3
ACAD_PLOTSTYLENAME
350
E
  3
AcDbVariableDictionary
350
436
  0
DICTIONARY
  5
D
102
{ACAD_REACTORS
330
C
102
}
330
C
100
AcDbDictionary
281
     1
  0
DICTIONARY
  5
19
102
{ACAD_REACTORS
330
C
102
}
330
C
100
AcDbDictionary
281
     1
  3
Layout1
350
1D
  3
Model
350
21
  0
DICTIONARY
  5
16
102
{ACAD_REACTORS
330
C
102
}
330
C
100
AcDbDictionary
281
     1
  3
Standard
350
17
  0
DICTIONARY
  5
18
102
{ACAD_REACTORS
330
C
102
}
330
C
100
AcDbDictionary
281
     1
  0
ACDBDICTIONARYWDFLT
  5
E
102
{ACAD_REACTORS
330
C
102
}
330
C
100
AcDbDictionary
281
     1
  3
Normal
350
F
100
AcDbDictionaryWithDefault
340
F
  0
DICTIONARY
  5
436
102
{ACAD_REACTORS
330
C
102
}
330
C
100
AcDbDictionary
281
     1
  3
DIMASSOC
350
437
  0
LAYOUT
  5
1D
102
{ACAD_REACTORS
330
19
102
}
330
19
100
AcDbPlotSettings
  1

  2
hp deskjet 980c series
  4

  6

 40
0.0
 41
0.0
 42
0.0
 43
0.0
 44
0.0
 45
0.0
 46
0.0
 47
0.0
 48
0.0
 49
0.0
140
0.0
141
0.0
142
1.0
143
1.0
 70
   688
 72
     0
 73
     0
 74
     5
  7

 75
    16
147
1.0
148
0.0
149
0.0
100
AcDbLayout
  1
Layout1
 70
     1
 71
     1
 10
0.0
 20
0.0
 11
12.0
 21
9.0
 12
0.0
 22
0.0
 32
0.0
 14
1.000000000000000E+20
 24
1.000000000000000E+20
 34
1.000000000000000E+20
 15
-1.000000000000000E+20
 25
-1.000000000000000E+20
 35
-1.000000000000000E+20
146
0.0
 13
0.0
 23
0.0
 33
0.0
 16
1.0
 26
0.0
 36
0.0
 17
0.0
 27
1.0
 37
0.0
 76
     0
330
1A
  0
LAYOUT
  5
21
102
{ACAD_REACTORS
330
19
102
}
330
19
100
AcDbPlotSettings
  1

  2
hp deskjet 980c series
  4

  6

 40
0.0
 41
0.0
 42
0.0
 43
0.0
 44
0.0
 45
0.0
 46
0.0
 47
0.0
 48
0.0
 49
0.0
140
0.0
141
0.0
142
1.0
143
1.0
 70
  1712
 72
     0
 73
     0
 74
     0
  7

 75
     0
147
1.0
148
0.0
149
0.0
100
AcDbLayout
  1
Model
 70
     1
 71
     0
 10
0.0
 20
0.0
 11
12.0
 21
9.0
 12
0.0
 22
0.0
 32
0.0
 14
0.0
 24
0.0
 34
0.0
 15
0.0
 25
0.0
 35
0.0
146
0.0
 13
0.0
 23
0.0
 33
0.0
 16
1.0
 26
0.0
 36
0.0
 17
0.0
 27
1.0
 37
0.0
 76
     0
330
1E
  0
MLINESTYLE
  5
17
102
{ACAD_REACTORS
330
16
102
}
330
16
100
AcDbMlineStyle
  2
STANDARD
 70
     0
  3

 62
   256
 51
90.0
 52
90.0
 71
     2
 49
0.5
 62
   256
  6
BYLAYER
 49
-0.5
 62
   256
  6
BYLAYER
  0
ACDBPLACEHOLDER
  5
F
102
{ACAD_REACTORS
330
E
102
}
330
E
  0
DICTIONARYVAR
  5
437
102
{ACAD_REACTORS
330
436
102
}
330
436
100
DictionaryVariables
280
     0
  1
1
  0
ENDSEC
  0
EOF
