  0
SECTION
  2
HEADER
  9
$ACADVER
  1
AC1015
  9
$ACADMAINTVER
 70
    13
  9
$DWGCODEPAGE
  3
ANSI_1252
  9
$INSBASE
 10
0.0
 20
0.0
 30
0.0
  9
$EXTMIN
 10
-0.0000000000000052
 20
0.0000000000000105
 30
0.0
  9
$EXTMAX
 10
270.0
 20
524.0
 30
0.0
  9
$LIMMIN
 10
0.0
 20
0.0
  9
$LIMMAX
 10
12.0
 20
9.0
  9
$ORTHOMODE
 70
     0
  9
$REGENMODE
 70
     1
  9
$FILLMODE
 70
     1
  9
$QTEXTMODE
 70
     0
  9
$MIRRTEXT
 70
     1
  9
$LTSCALE
 40
1.0
  9
$ATTMODE
 70
     1
  9
$TEXTSIZE
 40
0.2
  9
$TRACEWID
 40
0.05
  9
$TEXTSTYLE
  7
Standard
  9
$CLAYER
  8
0
  9
$CELTYPE
  6
Continuous
  9
$CECOLOR
 62
   256
  9
$CELTSCALE
 40
1.0
  9
$DISPSILH
 70
     0
  9
$DIMSCALE
 40
1.0
  9
$DIMASZ
 40
0.18
  9
$DIMEXO
 40
0.0625
  9
$DIMDLI
 40
0.38
  9
$DIMRND
 40
0.0
  9
$DIMDLE
 40
0.0
  9
$DIMEXE
 40
0.18
  9
$DIMTP
 40
0.0
  9
$DIMTM
 40
0.0
  9
$DIMTXT
 40
0.18
  9
$DIMCEN
 40
0.09
  9
$DIMTSZ
 40
0.0
  9
$DIMTOL
 70
     0
  9
$DIMLIM
 70
     0
  9
$DIMTIH
 70
     1
  9
$DIMTOH
 70
     1
  9
$DIMSE1
 70
     0
  9
$DIMSE2
 70
     0
  9
$DIMTAD
 70
     0
  9
$DIMZIN
 70
     0
  9
$DIMBLK
  1

  9
$DIMASO
 70
     1
  9
$DIMSHO
 70
     1
  9
$DIMPOST
  1

  9
$DIMAPOST
  1

  9
$DIMALT
 70
     0
  9
$DIMALTD
 70
     2
  9
$DIMALTF
 40
25.4
  9
$DIMLFAC
 40
1.0
  9
$DIMTOFL
 70
     0
  9
$DIMTVP
 40
0.0
  9
$DIMTIX
 70
     0
  9
$DIMSOXD
 70
     0
  9
$DIMSAH
 70
     0
  9
$DIMBLK1
  1

  9
$DIMBLK2
  1

  9
$DIMSTYLE
  2
Standard
  9
$DIMCLRD
 70
     0
  9
$DIMCLRE
 70
     0
  9
$DIMCLRT
 70
     0
  9
$DIMTFAC
 40
1.0
  9
$DIMGAP
 40
0.09
  9
$DIMJUST
 70
     0
  9
$DIMSD1
 70
     0
  9
$DIMSD2
 70
     0
  9
$DIMTOLJ
 70
     1
  9
$DIMTZIN
 70
     0
  9
$DIMALTZ
 70
     0
  9
$DIMALTTZ
 70
     0
  9
$DIMUPT
 70
     0
  9
$DIMDEC
 70
     4
  9
$DIMTDEC
 70
     4
  9
$DIMALTU
 70
     2
  9
$DIMALTTD
 70
     2
  9
$DIMTXSTY
  7
Standard
  9
$DIMAUNIT
 70
     0
  9
$DIMADEC
 70
     0
  9
$DIMALTRND
 40
0.0
  9
$DIMAZIN
 70
     0
  9
$DIMDSEP
 70
    46
  9
$DIMATFIT
 70
     3
  9
$DIMFRAC
 70
     0
  9
$DIMLDRBLK
  1

  9
$DIMLUNIT
 70
     2
  9
$DIMLWD
 70
    -2
  9
$DIMLWE
 70
    -2
  9
$DIMTMOVE
 70
     0
  9
$LUNITS
 70
     2
  9
$LUPREC
 70
     4
  9
$SKETCHINC
 40
0.1
  9
$FILLETRAD
 40
0.0
  9
$AUNITS
 70
     0
  9
$AUPREC
 70
     0
  9
$MENU
  1
.
  9
$ELEVATION
 40
0.0
  9
$PELEVATION
 40
0.0
  9
$THICKNESS
 40
0.0
  9
$LIMCHECK
 70
     0
  9
$CHAMFERA
 40
0.0
  9
$CHAMFERB
 40
0.0
  9
$CHAMFERC
 40
0.0
  9
$CHAMFERD
 40
0.0
  9
$SKPOLY
 70
     0
  9
$TDCREATE
 40
2454737.931048715
  9
$TDUCREATE
 40
2454737.847715382
  9
$TDUPDATE
 40
2454737.934576632
  9
$TDUUPDATE
 40
2454737.851243298
  9
$TDINDWG
 40
0.0035279167
  9
$TDUSRTIMER
 40
0.0035279167
  9
$USRTIMER
 70
     1
  9
$ANGBASE
 50
0.0
  9
$ANGDIR
 70
     0
  9
$PDMODE
 70
     0
  9
$PDSIZE
 40
0.0
  9
$PLINEWID
 40
0.0
  9
$SPLFRAME
 70
     0
  9
$SPLINETYPE
 70
     6
  9
$SPLINESEGS
 70
     8
  9
$HANDSEED
  5
13A
  9
$SURFTAB1
 70
     6
  9
$SURFTAB2
 70
     6
  9
$SURFTYPE
 70
     6
  9
$SURFU
 70
     6
  9
$SURFV
 70
     6
  9
$UCSBASE
  2

  9
$UCSNAME
  2

  9
$UCSORG
 10
0.0
 20
0.0
 30
0.0
  9
$UCSXDIR
 10
1.0
 20
0.0
 30
0.0
  9
$UCSYDIR
 10
0.0
 20
1.0
 30
0.0
  9
$UCSORTHOREF
  2

  9
$UCSORTHOVIEW
 70
     1
  9
$UCSORGTOP
 10
0.0
 20
0.0
 30
0.0
  9
$UCSORGBOTTOM
 10
0.0
 20
0.0
 30
0.0
  9
$UCSORGLEFT
 10
0.0
 20
0.0
 30
0.0
  9
$UCSORGRIGHT
 10
0.0
 20
0.0
 30
0.0
  9
$UCSORGFRONT
 10
0.0
 20
0.0
 30
0.0
  9
$UCSORGBACK
 10
0.0
 20
0.0
 30
0.0
  9
$PUCSBASE
  2

  9
$PUCSNAME
  2

  9
$PUCSORG
 10
0.0
 20
0.0
 30
0.0
  9
$PUCSXDIR
 10
1.0
 20
0.0
 30
0.0
  9
$PUCSYDIR
 10
0.0
 20
1.0
 30
0.0
  9
$PUCSORTHOREF
  2

  9
$PUCSORTHOVIEW
 70
     0
  9
$PUCSORGTOP
 10
0.0
 20
0.0
 30
0.0
  9
$PUCSORGBOTTOM
 10
0.0
 20
0.0
 30
0.0
  9
$PUCSORGLEFT
 10
0.0
 20
0.0
 30
0.0
  9
$PUCSORGRIGHT
 10
0.0
 20
0.0
 30
0.0
  9
$PUCSORGFRONT
 10
0.0
 20
0.0
 30
0.0
  9
$PUCSORGBACK
 10
0.0
 20
0.0
 30
0.0
  9
$USERI1
 70
     0
  9
$USERI2
 70
     0
  9
$USERI3
 70
     0
  9
$USERI4
 70
     0
  9
$USERI5
 70
     0
  9
$USERR1
 40
0.0
  9
$USERR2
 40
0.0
  9
$USERR3
 40
0.0
  9
$USERR4
 40
0.0
  9
$USERR5
 40
0.0
  9
$WORLDVIEW
 70
     1
  9
$SHADEDGE
 70
     3
  9
$SHADEDIF
 70
    70
  9
$TILEMODE
 70
     1
  9
$MAXACTVP
 70
    64
  9
$PINSBASE
 10
0.0
 20
0.0
 30
0.0
  9
$PLIMCHECK
 70
     0
  9
$PEXTMIN
 10
1.000000000000000E+20
 20
1.000000000000000E+20
 30
1.000000000000000E+20
  9
$PEXTMAX
 10
-1.000000000000000E+20
 20
-1.000000000000000E+20
 30
-1.000000000000000E+20
  9
$PLIMMIN
 10
0.0
 20
0.0
  9
$PLIMMAX
 10
12.0
 20
9.0
  9
$UNITMODE
 70
     0
  9
$VISRETAIN
 70
     1
  9
$PLINEGEN
 70
     0
  9
$PSLTSCALE
 70
     1
  9
$TREEDEPTH
 70
  3020
  9
$CMLSTYLE
  2
Standard
  9
$CMLJUST
 70
     0
  9
$CMLSCALE
 40
1.0
  9
$PROXYGRAPHICS
 70
     1
  9
$MEASUREMENT
 70
     0
  9
$CELWEIGHT
370
    -1
  9
$ENDCAPS
280
     0
  9
$JOINSTYLE
280
     0
  9
$LWDISPLAY
290
     0
  9
$INSUNITS
 70
     0
  9
$HYPERLINKBASE
  1

  9
$STYLESHEET
  1

  9
$XEDIT
290
     1
  9
$CEPSNTYPE
380
     0
  9
$PSTYLEMODE
290
     1
  9
$FINGERPRINTGUID
  2
{666D9AB2-EC37-425E-89C7-07CC6673B497}
  9
$VERSIONGUID
  2
{2B2CF188-1B36-4502-8FFF-AD598922A85A}
  9
$EXTNAMES
290
     1
  9
$PSVPSCALE
 40
0.0
  9
$OLESTARTUP
290
     0
  0
ENDSEC
  0
SECTION
  2
CLASSES
  0
CLASS
  1
ACDBDICTIONARYWDFLT
  2
AcDbDictionaryWithDefault
  3
AutoCAD 2000
 90
        0
280
     0
281
     0
  0
CLASS
  1
ACDBPLACEHOLDER
  2
AcDbPlaceHolder
  3
AutoCAD 2000
 90
        0
280
     0
281
     0
  0
CLASS
  1
LAYOUT
  2
AcDbLayout
  3
AutoCAD 2000
 90
        0
280
     0
281
     0
  0
CLASS
  1
DICTIONARYVAR
  2
AcDbDictionaryVar
  3
AutoCAD 2000
 90
        0
280
     0
281
     0
  0
ENDSEC
  0
SECTION
  2
TABLES
  0
TABLE
  2
VPORT
  5
8
330
0
100
AcDbSymbolTable
 70
     2
  0
VPORT
  5
139
330
8
100
AcDbSymbolTableRecord
100
AcDbViewportTableRecord
  2
*Active
 70
     0
 10
0.0
 20
0.0
 11
1.0
 21
1.0
 12
135.0
 22
262.0
 13
0.0
 23
0.0
 14
1.0
 24
1.0
 15
0.0
 25
0.0
 16
0.0
 26
0.0
 36
1.0
 17
0.0
 27
0.0
 37
0.0
 40
528.0204603580563
 41
2.078104993597951
 42
50.0
 43
0.0
 44
0.0
 50
0.0
 51
0.0
 71
     0
 72
   100
 73
     1
 74
     3
 75
     0
 76
     0
 77
     0
 78
     0
281
     0
 65
     1
110
0.0
120
0.0
130
0.0
111
1.0
121
0.0
131
0.0
112
0.0
122
1.0
132
0.0
 79
     1
146
0.0
  0
ENDTAB
  0
TABLE
  2
LTYPE
  5
5
330
0
100
AcDbSymbolTable
 70
     1
  0
LTYPE
  5
13
330
5
100
AcDbSymbolTableRecord
100
AcDbLinetypeTableRecord
  2
ByBlock
 70
     0
  3

 72
    65
 73
     0
 40
0.0
  0
LTYPE
  5
14
330
5
100
AcDbSymbolTableRecord
100
AcDbLinetypeTableRecord
  2
ByLayer
 70
     0
  3

 72
    65
 73
     0
 40
0.0
  0
LTYPE
  5
15
330
5
100
AcDbSymbolTableRecord
100
AcDbLinetypeTableRecord
  2
Continuous
 70
     0
  3
Solid line
 72
    65
 73
     0
 40
0.0
  0
ENDTAB
  0
TABLE
  2
LAYER
  5
2
330
0
100
AcDbSymbolTable
 70
     1
  0
LAYER
  5
10
330
2
100
AcDbSymbolTableRecord
100
AcDbLayerTableRecord
  2
0
 70
     0
 62
     7
  6
Continuous
370
    -3
390
F
  0
ENDTAB
  0
TABLE
  2
STYLE
  5
3
330
0
100
AcDbSymbolTable
 70
     1
  0
STYLE
  5
11
330
3
100
AcDbSymbolTableRecord
100
AcDbTextStyleTableRecord
  2
Standard
 70
     0
 40
0.0
 41
1.0
 50
0.0
 71
     0
 42
0.2
  3
txt
  4

  0
ENDTAB
  0
TABLE
  2
VIEW
  5
6
330
0
100
AcDbSymbolTable
 70
     0
  0
ENDTAB
  0
TABLE
  2
UCS
  5
7
330
0
100
AcDbSymbolTable
 70
     0
  0
ENDTAB
  0
TABLE
  2
APPID
  5
9
330
0
100
AcDbSymbolTable
 70
     1
  0
APPID
  5
12
330
9
100
AcDbSymbolTableRecord
100
AcDbRegAppTableRecord
  2
ACAD
 70
     0
  0
ENDTAB
  0
TABLE
  2
DIMSTYLE
  5
A
330
0
100
AcDbSymbolTable
 70
     1
100
AcDbDimStyleTable
 71
     0
  0
DIMSTYLE
105
12A
330
A
100
AcDbSymbolTableRecord
100
AcDbDimStyleTableRecord
  2
Standard
 70
     0
340
11
  0
ENDTAB
  0
TABLE
  2
BLOCK_RECORD
  5
1
330
0
100
AcDbSymbolTable
 70
     0
  0
BLOCK_RECORD
  5
1E
330
1
100
AcDbSymbolTableRecord
100
AcDbBlockTableRecord
  2
*Model_Space
340
21
  0
BLOCK_RECORD
  5
1A
330
1
100
AcDbSymbolTableRecord
100
AcDbBlockTableRecord
  2
*Paper_Space
340
1D
  0
ENDTAB
  0
ENDSEC
  0
SECTION
  2
BLOCKS
  0
BLOCK
  5
1F
330
1E
100
AcDbEntity
  8
0
100
AcDbBlockBegin
  2
*Model_Space
 70
     0
 10
0.0
 20
0.0
 30
0.0
  3
*Model_Space
  1

  0
ENDBLK
  5
20
330
1E
100
AcDbEntity
  8
0
100
AcDbBlockEnd
  0
BLOCK
  5
1B
330
1A
100
AcDbEntity
 67
     1
  8
0
100
AcDbBlockBegin
  2
*Paper_Space
 70
     0
 10
0.0
 20
0.0
 30
0.0
  3
*Paper_Space
  1

  0
ENDBLK
  5
1C
330
1A
100
AcDbEntity
 67
     1
  8
0
100
AcDbBlockEnd
  0
ENDSEC
  0
SECTION
  2
ENTITIES
  0
LINE
  5
22
330
1E
100
AcDbEntity
  8
0
100
AcDbLine
 10
4.9
 20
100.2
 30
0.0
 11
10.5
 21
83.40000000000001
 31
0.0
  0
LINE
  5
23
330
1E
100
AcDbEntity
  8
0
100
AcDbLine
 10
1.399999999999989
 20
117.4
 30
0.0
 11
4.9
 21
100.2
 31
0.0
  0
LINE
  5
24
330
1E
100
AcDbEntity
  8
0
100
AcDbLine
 10
13.1
 20
102.4
 30
0.0
 11
18.39999999999999
 21
86.69999999999999
 31
0.0
  0
LINE
  5
25
330
1E
100
AcDbEntity
  8
0
100
AcDbLine
 10
9.8
 20
118.5999999999999
 30
0.0
 11
13.1
 21
102.4
 31
0.0
  0
LINE
  5
26
330
1E
100
AcDbEntity
  8
0
100
AcDbLine
 10
10.5
 20
83.40000000000001
 30
0.0
 11
18.1
 21
67.8
 31
0.0
  0
LINE
  5
27
330
1E
100
AcDbEntity
  8
0
100
AcDbLine
 10
34.79999999999999
 20
58.1
 30
0.0
 11
45.7
 21
45.7
 31
0.0
  0
LINE
  5
28
330
1E
100
AcDbEntity
  8
0
100
AcDbLine
 10
25.4
 20
72.0
 30
0.0
 11
34.79999999999999
 21
58.1
 31
0.0
  0
LINE
  5
29
330
1E
100
AcDbEntity
  8
0
100
AcDbLine
 10
18.39999999999999
 20
86.69999999999999
 30
0.0
 11
25.4
 21
72.0
 31
0.0
  0
LINE
  5
2A
330
1E
100
AcDbEntity
  8
0
100
AcDbLine
 10
28.1
 20
52.9
 30
0.0
 11
39.7
 21
39.7
 31
0.0
  0
LINE
  5
2B
330
1E
100
AcDbEntity
  8
0
100
AcDbLine
 10
18.1
 20
67.8
 30
0.0
 11
28.1
 21
52.9
 31
0.0
  0
LINE
  5
2C
330
1E
100
AcDbEntity
  8
0
100
AcDbLine
 10
39.7
 20
39.7
 30
0.0
 11
52.9
 21
28.1
 31
0.0
  0
LINE
  5
2D
330
1E
100
AcDbEntity
  8
0
100
AcDbLine
 10
8.499999999999991
 20
135.0
 30
0.0
 11
9.8
 21
151.4
 31
0.0
  0
LINE
  5
2E
330
1E
100
AcDbEntity
  8
0
100
AcDbLine
 10
8.499999999999991
 20
135.0
 30
0.0
 11
9.8
 21
118.5999999999999
 31
0.0
  0
LINE
  5
2F
330
1E
100
AcDbEntity
  8
0
100
AcDbLine
 10
9.8
 20
151.4
 30
0.0
 11
13.1
 21
167.5999999999999
 31
0.0
  0
LINE
  5
30
330
1E
100
AcDbEntity
  8
0
100
AcDbLine
 10
18.39999999999999
 20
183.3
 30
0.0
 11
25.4
 21
198.0
 31
0.0
  0
LINE
  5
31
330
1E
100
AcDbEntity
  8
0
100
AcDbLine
 10
13.1
 20
167.5999999999999
 30
0.0
 11
18.39999999999999
 21
183.3
 31
0.0
  0
LINE
  5
32
330
1E
100
AcDbEntity
  8
0
100
AcDbLine
 10
25.4
 20
198.0
 30
0.0
 11
34.79999999999999
 21
211.9
 31
0.0
  0
LINE
  5
33
330
1E
100
AcDbEntity
  8
0
100
AcDbLine
 10
18.1
 20
202.1999999999999
 30
0.0
 11
28.1
 21
217.0999999999999
 31
0.0
  0
LINE
  5
34
330
1E
100
AcDbEntity
  8
0
100
AcDbLine
 10
4.9
 20
169.8
 30
0.0
 11
10.5
 21
186.5999999999999
 31
0.0
  0
LINE
  5
35
330
1E
100
AcDbEntity
  8
0
100
AcDbLine
 10
1.399999999999989
 20
152.5999999999999
 30
0.0
 11
4.9
 21
169.8
 31
0.0
  0
LINE
  5
36
330
1E
100
AcDbEntity
  8
0
100
AcDbLine
 10
34.79999999999999
 20
211.9
 30
0.0
 11
45.7
 21
224.3
 31
0.0
  0
LINE
  5
37
330
1E
100
AcDbEntity
  8
0
100
AcDbLine
 10
28.1
 20
217.0999999999999
 30
0.0
 11
39.7
 21
230.3
 31
0.0
  0
LINE
  5
38
330
1E
100
AcDbEntity
  8
0
100
AcDbLine
 10
-0.0000000000000052
 20
135.0
 30
0.0
 11
1.399999999999989
 21
152.5999999999999
 31
0.0
  0
LINE
  5
39
330
1E
100
AcDbEntity
  8
0
100
AcDbLine
 10
-0.0000000000000052
 20
135.0
 30
0.0
 11
1.399999999999989
 21
117.4
 31
0.0
  0
LINE
  5
3A
330
1E
100
AcDbEntity
  8
0
100
AcDbLine
 10
45.7
 20
45.7
 30
0.0
 11
58.1
 21
34.79999999999999
 31
0.0
  0
LINE
  5
3B
330
1E
100
AcDbEntity
  8
0
100
AcDbLine
 10
58.1
 20
34.79999999999999
 30
0.0
 11
72.0
 21
25.4
 31
0.0
  0
LINE
  5
3C
330
1E
100
AcDbEntity
  8
0
100
AcDbLine
 10
52.9
 20
28.1
 30
0.0
 11
67.8
 21
18.1
 31
0.0
  0
LINE
  5
3D
330
1E
100
AcDbEntity
  8
0
100
AcDbLine
 10
72.0
 20
25.4
 30
0.0
 11
86.69999999999999
 21
18.39999999999999
 31
0.0
  0
LINE
  5
3E
330
1E
100
AcDbEntity
  8
0
100
AcDbLine
 10
86.69999999999999
 20
18.39999999999999
 30
0.0
 11
102.4
 21
13.1
 31
0.0
  0
LINE
  5
3F
330
1E
100
AcDbEntity
  8
0
100
AcDbLine
 10
67.8
 20
18.1
 30
0.0
 11
83.40000000000001
 21
10.5
 31
0.0
  0
LINE
  5
40
330
1E
100
AcDbEntity
  8
0
100
AcDbLine
 10
83.40000000000001
 20
10.5
 30
0.0
 11
100.2
 21
4.900000000000009
 31
0.0
  0
LINE
  5
41
330
1E
100
AcDbEntity
  8
0
100
AcDbLine
 10
45.7
 20
224.3
 30
0.0
 11
58.1
 21
235.1999999999999
 31
0.0
  0
LINE
  5
42
330
1E
100
AcDbEntity
  8
0
100
AcDbLine
 10
58.1
 20
235.1999999999999
 30
0.0
 11
72.0
 21
244.6
 31
0.0
  0
LINE
  5
43
330
1E
100
AcDbEntity
  8
0
100
AcDbLine
 10
39.7
 20
230.3
 30
0.0
 11
52.9
 21
241.9
 31
0.0
  0
LINE
  5
44
330
1E
100
AcDbEntity
  8
0
100
AcDbLine
 10
72.0
 20
244.6
 30
0.0
 11
86.69999999999999
 21
251.6
 31
0.0
  0
LINE
  5
45
330
1E
100
AcDbEntity
  8
0
100
AcDbLine
 10
86.69999999999999
 20
251.6
 30
0.0
 11
102.4
 21
256.8999999999999
 31
0.0
  0
LINE
  5
46
330
1E
100
AcDbEntity
  8
0
100
AcDbLine
 10
83.40000000000001
 20
259.5
 30
0.0
 11
100.2
 21
265.1
 31
0.0
  0
LINE
  5
47
330
1E
100
AcDbEntity
  8
0
100
AcDbLine
 10
52.9
 20
241.9
 30
0.0
 11
67.8
 21
251.9
 31
0.0
  0
LINE
  5
48
330
1E
100
AcDbEntity
  8
0
100
AcDbLine
 10
100.2
 20
4.900000000000009
 30
0.0
 11
117.4
 21
1.40000000000001
 31
0.0
  0
LINE
  5
49
330
1E
100
AcDbEntity
  8
0
100
AcDbLine
 10
100.2
 20
4.900000000000009
 30
0.0
 11
117.4
 21
1.40000000000001
 31
0.0
  0
LINE
  5
4B
330
1E
100
AcDbEntity
  8
0
100
AcDbLine
 10
100.2
 20
265.1
 30
0.0
 11
117.4
 21
268.6
 31
0.0
  0
LINE
  5
4C
330
1E
100
AcDbEntity
  8
0
100
AcDbLine
 10
102.4
 20
13.1
 30
0.0
 11
118.5999999999999
 21
9.800000000000009
 31
0.0
  0
LINE
  5
4D
330
1E
100
AcDbEntity
  8
0
100
AcDbLine
 10
102.4
 20
256.8999999999999
 30
0.0
 11
118.5999999999999
 21
260.1999999999999
 31
0.0
  0
LINE
  5
4E
330
1E
100
AcDbEntity
  8
0
100
AcDbLine
 10
101.2399999999999
 20
512.0
 30
0.0
 11
107.4799999999999
 21
512.0
 31
0.0
  0
LINE
  5
4F
330
1E
100
AcDbEntity
  8
0
100
AcDbLine
 10
107.4799999999999
 20
512.0
 30
0.0
 11
115.64
 21
512.0
 31
0.0
  0
LINE
  5
50
330
1E
100
AcDbEntity
  8
0
100
AcDbLine
 10
95.96
 20
512.0
 30
0.0
 11
97.40000000000001
 21
512.0
 31
0.0
  0
LINE
  5
51
330
1E
100
AcDbEntity
  8
0
100
AcDbLine
 10
97.40000000000001
 20
512.0
 30
0.0
 11
101.2399999999999
 21
512.0
 31
0.0
  0
LINE
  5
52
330
1E
100
AcDbEntity
  8
0
100
AcDbLine
 10
135.0
 20
0.0000000000000105
 30
0.0
 11
152.5999999999999
 21
1.40000000000001
 31
0.0
  0
LINE
  5
53
330
1E
100
AcDbEntity
  8
0
100
AcDbLine
 10
135.0
 20
0.0000000000000105
 30
0.0
 11
152.5999999999999
 21
1.40000000000001
 31
0.0
  0
LINE
  5
54
330
1E
100
AcDbEntity
  8
0
100
AcDbLine
 10
135.0
 20
8.500000000000008
 30
0.0
 11
151.4
 21
9.800000000000009
 31
0.0
  0
LINE
  5
55
330
1E
100
AcDbEntity
  8
0
100
AcDbLine
 10
135.0
 20
118.03
 30
0.0
 11
139.3479999999999
 21
118.667
 31
0.0
  0
LINE
  5
56
330
1E
100
AcDbEntity
  8
0
100
AcDbLine
 10
135.0
 20
117.5
 30
0.0
 11
139.454
 21
118.136
 31
0.0
  0
LINE
  5
57
330
1E
100
AcDbEntity
  8
0
100
AcDbLine
 10
123.015
 20
123.015
 30
0.0
 11
126.5149999999999
 21
120.2579999999999
 31
0.0
  0
LINE
  5
58
330
1E
100
AcDbEntity
  8
0
100
AcDbLine
 10
135.0
 20
121.742
 30
0.0
 11
138.394
 21
122.273
 31
0.0
  0
LINE
  5
59
330
1E
100
AcDbEntity
  8
0
100
AcDbLine
 10
135.0
 20
122.273
 30
0.0
 11
138.2879999999999
 21
122.697
 31
0.0
  0
LINE
  5
5A
330
1E
100
AcDbEntity
  8
0
100
AcDbLine
 10
135.0
 20
122.273
 30
0.0
 11
138.2879999999999
 21
122.697
 31
0.0
  0
LINE
  5
5B
330
1E
100
AcDbEntity
  8
0
100
AcDbLine
 10
128.6359999999999
 20
123.97
 30
0.0
 11
131.712
 21
122.697
 31
0.0
  0
LINE
  5
5C
330
1E
100
AcDbEntity
  8
0
100
AcDbLine
 10
131.712
 20
122.697
 30
0.0
 11
135.0
 21
122.273
 31
0.0
  0
LINE
  5
5D
330
1E
100
AcDbEntity
  8
0
100
AcDbLine
 10
128.6359999999999
 20
123.97
 30
0.0
 11
131.712
 21
122.697
 31
0.0
  0
LINE
  5
5E
330
1E
100
AcDbEntity
  8
0
100
AcDbLine
 10
131.712
 20
122.697
 30
0.0
 11
135.0
 21
122.273
 31
0.0
  0
LINE
  5
5F
330
1E
100
AcDbEntity
  8
0
100
AcDbLine
 10
128.424
 20
123.5449999999999
 30
0.0
 11
131.606
 21
122.273
 31
0.0
  0
LINE
  5
60
330
1E
100
AcDbEntity
  8
0
100
AcDbLine
 10
131.606
 20
122.273
 30
0.0
 11
135.0
 21
121.742
 31
0.0
  0
LINE
  5
61
330
1E
100
AcDbEntity
  8
0
100
AcDbLine
 10
126.5149999999999
 20
120.2579999999999
 30
0.0
 11
130.652
 21
118.667
 31
0.0
  0
LINE
  5
62
330
1E
100
AcDbEntity
  8
0
100
AcDbLine
 10
130.652
 20
118.667
 30
0.0
 11
135.0
 21
118.03
 31
0.0
  0
LINE
  5
63
330
1E
100
AcDbEntity
  8
0
100
AcDbLine
 10
126.303
 20
119.833
 30
0.0
 11
130.5459999999999
 21
118.136
 31
0.0
  0
LINE
  5
64
330
1E
100
AcDbEntity
  8
0
100
AcDbLine
 10
130.5459999999999
 20
118.136
 30
0.0
 11
135.0
 21
117.5
 31
0.0
  0
LINE
  5
65
330
1E
100
AcDbEntity
  8
0
100
AcDbLine
 10
122.591
 20
122.591
 30
0.0
 11
126.303
 21
119.833
 31
0.0
  0
LINE
  5
66
330
1E
100
AcDbEntity
  8
0
100
AcDbLine
 10
118.5999999999999
 20
9.800000000000009
 30
0.0
 11
135.0
 21
8.500000000000008
 31
0.0
  0
LINE
  5
67
330
1E
100
AcDbEntity
  8
0
100
AcDbLine
 10
117.4
 20
1.40000000000001
 30
0.0
 11
135.0
 21
0.0000000000000105
 31
0.0
  0
LINE
  5
68
330
1E
100
AcDbEntity
  8
0
100
AcDbLine
 10
117.4
 20
1.40000000000001
 30
0.0
 11
135.0
 21
0.0000000000000105
 31
0.0
  0
LINE
  5
69
330
1E
100
AcDbEntity
  8
0
100
AcDbLine
 10
138.2879999999999
 20
122.697
 30
0.0
 11
141.364
 21
123.97
 31
0.0
  0
LINE
  5
6A
330
1E
100
AcDbEntity
  8
0
100
AcDbLine
 10
138.2879999999999
 20
122.697
 30
0.0
 11
141.364
 21
123.97
 31
0.0
  0
LINE
  5
6B
330
1E
100
AcDbEntity
  8
0
100
AcDbLine
 10
138.394
 20
122.273
 30
0.0
 11
141.5759999999999
 21
123.5449999999999
 31
0.0
  0
LINE
  5
6C
330
1E
100
AcDbEntity
  8
0
100
AcDbLine
 10
139.3479999999999
 20
118.667
 30
0.0
 11
143.485
 21
120.2579999999999
 31
0.0
  0
LINE
  5
6D
330
1E
100
AcDbEntity
  8
0
100
AcDbLine
 10
141.364
 20
123.97
 30
0.0
 11
144.0149999999999
 21
125.9849999999999
 31
0.0
  0
LINE
  5
6E
330
1E
100
AcDbEntity
  8
0
100
AcDbLine
 10
141.364
 20
123.97
 30
0.0
 11
144.0149999999999
 21
125.9849999999999
 31
0.0
  0
LINE
  5
6F
330
1E
100
AcDbEntity
  8
0
100
AcDbLine
 10
141.5759999999999
 20
123.5449999999999
 30
0.0
 11
144.333
 21
125.6669999999999
 31
0.0
  0
LINE
  5
70
330
1E
100
AcDbEntity
  8
0
100
AcDbLine
 10
143.485
 20
120.2579999999999
 30
0.0
 11
146.985
 21
123.015
 31
0.0
  0
LINE
  5
71
330
1E
100
AcDbEntity
  8
0
100
AcDbLine
 10
143.697
 20
119.833
 30
0.0
 11
147.4089999999999
 21
122.591
 31
0.0
  0
LINE
  5
72
330
1E
100
AcDbEntity
  8
0
100
AcDbLine
 10
139.454
 20
118.136
 30
0.0
 11
143.697
 21
119.833
 31
0.0
  0
LINE
  5
73
330
1E
100
AcDbEntity
  8
0
100
AcDbLine
 10
141.0
 20
124.5999999999999
 30
0.0
 11
143.5
 21
126.5
 31
0.0
  0
LINE
  5
74
330
1E
100
AcDbEntity
  8
0
100
AcDbLine
 10
138.1
 20
123.3999999999999
 30
0.0
 11
141.0
 21
124.5999999999999
 31
0.0
  0
LINE
  5
75
330
1E
100
AcDbEntity
  8
0
100
AcDbLine
 10
125.9849999999999
 20
125.9849999999999
 30
0.0
 11
128.6359999999999
 21
123.97
 31
0.0
  0
LINE
  5
76
330
1E
100
AcDbEntity
  8
0
100
AcDbLine
 10
125.9849999999999
 20
125.9849999999999
 30
0.0
 11
128.6359999999999
 21
123.97
 31
0.0
  0
LINE
  5
77
330
1E
100
AcDbEntity
  8
0
100
AcDbLine
 10
125.6669999999999
 20
125.6669999999999
 30
0.0
 11
128.424
 21
123.5449999999999
 31
0.0
  0
LINE
  5
78
330
1E
100
AcDbEntity
  8
0
100
AcDbLine
 10
123.97
 20
128.6359999999999
 30
0.0
 11
125.9849999999999
 21
125.9849999999999
 31
0.0
  0
LINE
  5
79
330
1E
100
AcDbEntity
  8
0
100
AcDbLine
 10
123.5449999999999
 20
128.424
 30
0.0
 11
125.6669999999999
 21
125.6669999999999
 31
0.0
  0
LINE
  5
7A
330
1E
100
AcDbEntity
  8
0
100
AcDbLine
 10
120.2579999999999
 20
126.5149999999999
 30
0.0
 11
123.015
 21
123.015
 31
0.0
  0
LINE
  5
7B
330
1E
100
AcDbEntity
  8
0
100
AcDbLine
 10
119.833
 20
126.303
 30
0.0
 11
122.591
 21
122.591
 31
0.0
  0
LINE
  5
7C
330
1E
100
AcDbEntity
  8
0
100
AcDbLine
 10
122.697
 20
131.712
 30
0.0
 11
123.97
 21
128.6359999999999
 31
0.0
  0
LINE
  5
7D
330
1E
100
AcDbEntity
  8
0
100
AcDbLine
 10
122.273
 20
135.0
 30
0.0
 11
122.697
 21
131.712
 31
0.0
  0
LINE
  5
7E
330
1E
100
AcDbEntity
  8
0
100
AcDbLine
 10
122.273
 20
135.0
 30
0.0
 11
122.697
 21
138.2879999999999
 31
0.0
  0
LINE
  5
7F
330
1E
100
AcDbEntity
  8
0
100
AcDbLine
 10
122.273
 20
131.606
 30
0.0
 11
123.5449999999999
 21
128.424
 31
0.0
  0
LINE
  5
80
330
1E
100
AcDbEntity
  8
0
100
AcDbLine
 10
121.742
 20
135.0
 30
0.0
 11
122.273
 21
131.606
 31
0.0
  0
LINE
  5
81
330
1E
100
AcDbEntity
  8
0
100
AcDbLine
 10
121.742
 20
135.0
 30
0.0
 11
122.273
 21
138.394
 31
0.0
  0
LINE
  5
82
330
1E
100
AcDbEntity
  8
0
100
AcDbLine
 10
118.667
 20
130.652
 30
0.0
 11
120.2579999999999
 21
126.5149999999999
 31
0.0
  0
LINE
  5
83
330
1E
100
AcDbEntity
  8
0
100
AcDbLine
 10
118.03
 20
135.0
 30
0.0
 11
118.667
 21
130.652
 31
0.0
  0
LINE
  5
84
330
1E
100
AcDbEntity
  8
0
100
AcDbLine
 10
118.03
 20
135.0
 30
0.0
 11
118.667
 21
139.3479999999999
 31
0.0
  0
LINE
  5
85
330
1E
100
AcDbEntity
  8
0
100
AcDbLine
 10
118.136
 20
130.5459999999999
 30
0.0
 11
119.833
 21
126.303
 31
0.0
  0
LINE
  5
86
330
1E
100
AcDbEntity
  8
0
100
AcDbLine
 10
117.5
 20
135.0
 30
0.0
 11
118.136
 21
130.5459999999999
 31
0.0
  0
LINE
  5
87
330
1E
100
AcDbEntity
  8
0
100
AcDbLine
 10
117.5
 20
135.0
 30
0.0
 11
118.136
 21
139.454
 31
0.0
  0
LINE
  5
88
330
1E
100
AcDbEntity
  8
0
100
AcDbLine
 10
122.697
 20
138.2879999999999
 30
0.0
 11
123.0
 21
139.0201508248229
 31
0.0
  0
LINE
  5
89
330
1E
100
AcDbEntity
  8
0
100
AcDbLine
 10
122.273
 20
138.394
 30
0.0
 11
123.0
 21
140.212643081761
 31
0.0
  0
LINE
  5
8A
330
1E
100
AcDbEntity
  8
0
100
AcDbLine
 10
120.2579999999999
 20
143.485
 30
0.0
 11
123.0
 21
146.965957562568
 31
0.0
  0
LINE
  5
8B
330
1E
100
AcDbEntity
  8
0
100
AcDbLine
 10
118.667
 20
139.3479999999999
 30
0.0
 11
120.2579999999999
 21
143.485
 31
0.0
  0
LINE
  5
8C
330
1E
100
AcDbEntity
  8
0
100
AcDbLine
 10
119.833
 20
143.697
 30
0.0
 11
122.591
 21
147.4089999999999
 31
0.0
  0
LINE
  5
8D
330
1E
100
AcDbEntity
  8
0
100
AcDbLine
 10
118.136
 20
139.454
 30
0.0
 11
119.833
 21
143.697
 31
0.0
  0
LINE
  5
8E
330
1E
100
AcDbEntity
  8
0
100
AcDbLine
 10
122.591
 20
147.4089999999999
 30
0.0
 11
123.0
 21
147.712885237069
 31
0.0
  0
LINE
  5
8F
330
1E
100
AcDbEntity
  8
0
100
AcDbLine
 10
123.0
 20
149.0
 30
0.0
 11
123.0
 21
155.8
 31
0.0
  0
LINE
  5
90
330
1E
100
AcDbEntity
  8
0
100
AcDbLine
 10
123.0
 20
149.0
 30
0.0
 11
123.0
 21
143.1999999999999
 31
0.0
  0
LINE
  5
91
330
1E
100
AcDbEntity
  8
0
100
AcDbLine
 10
118.5999999999999
 20
260.1999999999999
 30
0.0
 11
123.0
 21
260.548780487805
 31
0.0
  0
LINE
  5
92
330
1E
100
AcDbEntity
  8
0
100
AcDbLine
 10
117.4
 20
268.6
 30
0.0
 11
123.0
 21
269.045454545455
 31
0.0
  0
LINE
  5
93
330
1E
100
AcDbEntity
  8
0
100
AcDbLine
 10
123.0
 20
155.8
 30
0.0
 11
123.0
 21
163.0
 31
0.0
  0
LINE
  5
94
330
1E
100
AcDbEntity
  8
0
100
AcDbLine
 10
123.0
 20
155.8
 30
0.0
 11
123.0
 21
149.0
 31
0.0
  0
LINE
  5
95
330
1E
100
AcDbEntity
  8
0
100
AcDbLine
 10
123.0
 20
163.0
 30
0.0
 11
123.0
 21
512.0
 31
0.0
  0
LINE
  5
96
330
1E
100
AcDbEntity
  8
0
100
AcDbLine
 10
123.0
 20
163.0
 30
0.0
 11
123.0
 21
155.8
 31
0.0
  0
LINE
  5
97
330
1E
100
AcDbEntity
  8
0
100
AcDbLine
 10
123.0
 20
512.0
 30
0.0
 11
123.0
 21
163.0
 31
0.0
  0
LINE
  5
98
330
1E
100
AcDbEntity
  8
0
100
AcDbLine
 10
123.0
 20
512.0
 30
0.0
 11
123.3999999999999
 21
512.0
 31
0.0
  0
LINE
  5
99
330
1E
100
AcDbEntity
  8
0
100
AcDbLine
 10
123.0
 20
143.1999999999999
 30
0.0
 11
123.0
 21
138.7
 31
0.0
  0
LINE
  5
9A
330
1E
100
AcDbEntity
  8
0
100
AcDbLine
 10
123.0
 20
143.1999999999999
 30
0.0
 11
123.0
 21
149.0
 31
0.0
  0
LINE
  5
9B
330
1E
100
AcDbEntity
  8
0
100
AcDbLine
 10
123.0
 20
138.7
 30
0.0
 11
123.0
 21
136.0
 31
0.0
  0
LINE
  5
9C
330
1E
100
AcDbEntity
  8
0
100
AcDbLine
 10
123.0
 20
138.7
 30
0.0
 11
123.0
 21
143.1999999999999
 31
0.0
  0
LINE
  5
9D
330
1E
100
AcDbEntity
  8
0
100
AcDbLine
 10
123.3999999999999
 20
512.0
 30
0.0
 11
124.5999999999999
 21
512.0
 31
0.0
  0
LINE
  5
9E
330
1E
100
AcDbEntity
  8
0
100
AcDbLine
 10
123.0
 20
136.0
 30
0.0
 11
123.0
 21
135.0
 31
0.0
  0
LINE
  5
9F
330
1E
100
AcDbEntity
  8
0
100
AcDbLine
 10
123.0
 20
136.0
 30
0.0
 11
123.0
 21
138.7
 31
0.0
  0
LINE
  5
A0
330
1E
100
AcDbEntity
  8
0
100
AcDbLine
 10
123.0
 20
135.0
 30
0.0
 11
123.3999999999999
 21
131.9
 31
0.0
  0
LINE
  5
A1
330
1E
100
AcDbEntity
  8
0
100
AcDbLine
 10
123.0
 20
135.0
 30
0.0
 11
123.0
 21
136.0
 31
0.0
  0
LINE
  5
A2
330
1E
100
AcDbEntity
  8
0
100
AcDbLine
 10
124.5999999999999
 20
512.0
 30
0.0
 11
126.5
 21
512.0
 31
0.0
  0
LINE
  5
A3
330
1E
100
AcDbEntity
  8
0
100
AcDbLine
 10
126.5
 20
512.0
 30
0.0
 11
129.0
 21
512.0
 31
0.0
  0
LINE
  5
A4
330
1E
100
AcDbEntity
  8
0
100
AcDbLine
 10
123.3999999999999
 20
131.9
 30
0.0
 11
124.5999999999999
 21
129.0
 31
0.0
  0
LINE
  5
A5
330
1E
100
AcDbEntity
  8
0
100
AcDbLine
 10
124.5999999999999
 20
129.0
 30
0.0
 11
126.5
 21
126.5
 31
0.0
  0
LINE
  5
A6
330
1E
100
AcDbEntity
  8
0
100
AcDbLine
 10
144.0149999999999
 20
125.9849999999999
 30
0.0
 11
146.0299999999999
 21
128.6359999999999
 31
0.0
  0
LINE
  5
A7
330
1E
100
AcDbEntity
  8
0
100
AcDbLine
 10
144.333
 20
125.6669999999999
 30
0.0
 11
146.454
 21
128.424
 31
0.0
  0
LINE
  5
A8
330
1E
100
AcDbEntity
  8
0
100
AcDbLine
 10
143.5
 20
126.5
 30
0.0
 11
145.4
 21
129.0
 31
0.0
  0
LINE
  5
A9
330
1E
100
AcDbEntity
  8
0
100
AcDbLine
 10
143.5
 20
512.0
 30
0.0
 11
145.4
 21
512.0
 31
0.0
  0
LINE
  5
AA
330
1E
100
AcDbEntity
  8
0
100
AcDbLine
 10
141.0
 20
512.0
 30
0.0
 11
143.5
 21
512.0
 31
0.0
  0
LINE
  5
AB
330
1E
100
AcDbEntity
  8
0
100
AcDbLine
 10
138.1
 20
512.0
 30
0.0
 11
141.0
 21
512.0
 31
0.0
  0
LINE
  5
AC
330
1E
100
AcDbEntity
  8
0
100
AcDbLine
 10
129.0
 20
512.0
 30
0.0
 11
131.9
 21
512.0
 31
0.0
  0
LINE
  5
AD
330
1E
100
AcDbEntity
  8
0
100
AcDbLine
 10
131.9
 20
512.0
 30
0.0
 11
135.0
 21
512.0
 31
0.0
  0
LINE
  5
AE
330
1E
100
AcDbEntity
  8
0
100
AcDbLine
 10
126.5
 20
126.5
 30
0.0
 11
129.0
 21
124.5999999999999
 31
0.0
  0
LINE
  5
AF
330
1E
100
AcDbEntity
  8
0
100
AcDbLine
 10
129.0
 20
124.5999999999999
 30
0.0
 11
131.9
 21
123.3999999999999
 31
0.0
  0
LINE
  5
B0
330
1E
100
AcDbEntity
  8
0
100
AcDbLine
 10
115.64
 20
512.0
 30
0.0
 11
124.92
 21
512.0
 31
0.0
  0
LINE
  5
B1
330
1E
100
AcDbEntity
  8
0
100
AcDbLine
 10
115.64
 20
512.0
 30
0.0
 11
123.0
 21
512.0
 31
0.0
  0
LINE
  5
B2
330
1E
100
AcDbEntity
  8
0
100
AcDbLine
 10
124.92
 20
512.0
 30
0.0
 11
135.0
 21
512.0
 31
0.0
  0
LINE
  5
B3
330
1E
100
AcDbEntity
  8
0
100
AcDbLine
 10
146.0299999999999
 20
128.6359999999999
 30
0.0
 11
147.303
 21
131.712
 31
0.0
  0
LINE
  5
B4
330
1E
100
AcDbEntity
  8
0
100
AcDbLine
 10
146.454
 20
128.424
 30
0.0
 11
147.727
 21
131.606
 31
0.0
  0
LINE
  5
B5
330
1E
100
AcDbEntity
  8
0
100
AcDbLine
 10
146.985
 20
123.015
 30
0.0
 11
149.742
 21
126.5149999999999
 31
0.0
  0
LINE
  5
B6
330
1E
100
AcDbEntity
  8
0
100
AcDbLine
 10
147.0
 20
139.0201508248229
 30
0.0
 11
147.303
 21
138.2879999999999
 31
0.0
  0
LINE
  5
B7
330
1E
100
AcDbEntity
  8
0
100
AcDbLine
 10
147.0
 20
147.712885237069
 30
0.0
 11
147.4089999999999
 21
147.4089999999999
 31
0.0
  0
LINE
  5
B8
330
1E
100
AcDbEntity
  8
0
100
AcDbLine
 10
147.0
 20
146.965957562568
 30
0.0
 11
149.742
 21
143.485
 31
0.0
  0
LINE
  5
B9
330
1E
100
AcDbEntity
  8
0
100
AcDbLine
 10
147.0
 20
140.211214454046
 30
0.0
 11
147.727
 21
138.394
 31
0.0
  0
LINE
  5
BA
330
1E
100
AcDbEntity
  8
0
100
AcDbLine
 10
147.0
 20
146.965957562568
 30
0.0
 11
149.742
 21
143.485
 31
0.0
  0
LINE
  5
BB
330
1E
100
AcDbEntity
  8
0
100
AcDbLine
 10
147.0
 20
138.7
 30
0.0
 11
147.0
 21
136.0
 31
0.0
  0
LINE
  5
BC
330
1E
100
AcDbEntity
  8
0
100
AcDbLine
 10
147.0
 20
138.7
 30
0.0
 11
147.0
 21
143.1999999999999
 31
0.0
  0
LINE
  5
BD
330
1E
100
AcDbEntity
  8
0
100
AcDbLine
 10
147.0
 20
136.0
 30
0.0
 11
147.0
 21
135.0
 31
0.0
  0
LINE
  5
BE
330
1E
100
AcDbEntity
  8
0
100
AcDbLine
 10
147.0
 20
136.0
 30
0.0
 11
147.0
 21
138.7
 31
0.0
  0
LINE
  5
BF
330
1E
100
AcDbEntity
  8
0
100
AcDbLine
 10
147.0
 20
135.0
 30
0.0
 11
147.0
 21
136.0
 31
0.0
  0
LINE
  5
C0
330
1E
100
AcDbEntity
  8
0
100
AcDbLine
 10
146.6
 20
131.9
 30
0.0
 11
147.0
 21
135.0
 31
0.0
  0
LINE
  5
C1
330
1E
100
AcDbEntity
  8
0
100
AcDbLine
 10
145.4
 20
129.0
 30
0.0
 11
146.6
 21
131.9
 31
0.0
  0
LINE
  5
C2
330
1E
100
AcDbEntity
  8
0
100
AcDbLine
 10
147.0
 20
143.1999999999999
 30
0.0
 11
147.0
 21
149.0
 31
0.0
  0
LINE
  5
C3
330
1E
100
AcDbEntity
  8
0
100
AcDbLine
 10
147.0
 20
143.1999999999999
 30
0.0
 11
147.0
 21
138.7
 31
0.0
  0
LINE
  5
C4
330
1E
100
AcDbEntity
  8
0
100
AcDbLine
 10
147.0
 20
260.548780487805
 30
0.0
 11
151.4
 21
260.1999999999999
 31
0.0
  0
LINE
  5
C5
330
1E
100
AcDbEntity
  8
0
100
AcDbLine
 10
147.0
 20
269.045454545455
 30
0.0
 11
152.5999999999999
 21
268.6
 31
0.0
  0
LINE
  5
C6
330
1E
100
AcDbEntity
  8
0
100
AcDbLine
 10
147.0
 20
149.0
 30
0.0
 11
147.0
 21
155.8
 31
0.0
  0
LINE
  5
C7
330
1E
100
AcDbEntity
  8
0
100
AcDbLine
 10
147.0
 20
149.0
 30
0.0
 11
147.0
 21
143.1999999999999
 31
0.0
  0
LINE
  5
C8
330
1E
100
AcDbEntity
  8
0
100
AcDbLine
 10
147.0
 20
155.8
 30
0.0
 11
147.0
 21
163.0
 31
0.0
  0
LINE
  5
C9
330
1E
100
AcDbEntity
  8
0
100
AcDbLine
 10
147.0
 20
155.8
 30
0.0
 11
147.0
 21
149.0
 31
0.0
  0
LINE
  5
CA
330
1E
100
AcDbEntity
  8
0
100
AcDbLine
 10
146.6
 20
512.0
 30
0.0
 11
147.0
 21
512.0
 31
0.0
  0
LINE
  5
CB
330
1E
100
AcDbEntity
  8
0
100
AcDbLine
 10
147.303
 20
131.712
 30
0.0
 11
147.727
 21
135.0
 31
0.0
  0
LINE
  5
CC
330
1E
100
AcDbEntity
  8
0
100
AcDbLine
 10
147.727
 20
131.606
 30
0.0
 11
148.2579999999999
 21
135.0
 31
0.0
  0
LINE
  5
CD
330
1E
100
AcDbEntity
  8
0
100
AcDbLine
 10
147.4089999999999
 20
122.591
 30
0.0
 11
150.167
 21
126.303
 31
0.0
  0
LINE
  5
CE
330
1E
100
AcDbEntity
  8
0
100
AcDbLine
 10
147.303
 20
138.2879999999999
 30
0.0
 11
147.727
 21
135.0
 31
0.0
  0
LINE
  5
CF
330
1E
100
AcDbEntity
  8
0
100
AcDbLine
 10
149.742
 20
126.5149999999999
 30
0.0
 11
151.333
 21
130.652
 31
0.0
  0
LINE
  5
D0
330
1E
100
AcDbEntity
  8
0
100
AcDbLine
 10
151.333
 20
130.652
 30
0.0
 11
151.97
 21
135.0
 31
0.0
  0
LINE
  5
D1
330
1E
100
AcDbEntity
  8
0
100
AcDbLine
 10
150.167
 20
126.303
 30
0.0
 11
151.8639999999999
 21
130.5459999999999
 31
0.0
  0
LINE
  5
D2
330
1E
100
AcDbEntity
  8
0
100
AcDbLine
 10
147.727
 20
138.394
 30
0.0
 11
148.2579999999999
 21
135.0
 31
0.0
  0
LINE
  5
D3
330
1E
100
AcDbEntity
  8
0
100
AcDbLine
 10
149.742
 20
143.485
 30
0.0
 11
151.333
 21
139.3479999999999
 31
0.0
  0
LINE
  5
D4
330
1E
100
AcDbEntity
  8
0
100
AcDbLine
 10
151.333
 20
139.3479999999999
 30
0.0
 11
151.97
 21
135.0
 31
0.0
  0
LINE
  5
D5
330
1E
100
AcDbEntity
  8
0
100
AcDbLine
 10
147.4089999999999
 20
147.4089999999999
 30
0.0
 11
150.167
 21
143.697
 31
0.0
  0
LINE
  5
D6
330
1E
100
AcDbEntity
  8
0
100
AcDbLine
 10
150.167
 20
143.697
 30
0.0
 11
151.8639999999999
 21
139.454
 31
0.0
  0
LINE
  5
D7
330
1E
100
AcDbEntity
  8
0
100
AcDbLine
 10
151.8639999999999
 20
130.5459999999999
 30
0.0
 11
152.5
 21
135.0
 31
0.0
  0
LINE
  5
D8
330
1E
100
AcDbEntity
  8
0
100
AcDbLine
 10
151.8639999999999
 20
139.454
 30
0.0
 11
152.5
 21
135.0
 31
0.0
  0
LINE
  5
D9
330
1E
100
AcDbEntity
  8
0
100
AcDbLine
 10
151.4
 20
9.800000000000009
 30
0.0
 11
167.5999999999999
 21
13.1
 31
0.0
  0
LINE
  5
DA
330
1E
100
AcDbEntity
  8
0
100
AcDbLine
 10
151.4
 20
260.1999999999999
 30
0.0
 11
167.5999999999999
 21
256.8999999999999
 31
0.0
  0
LINE
  5
DB
330
1E
100
AcDbEntity
  8
0
100
AcDbLine
 10
147.0
 20
163.0
 30
0.0
 11
147.0
 21
512.0
 31
0.0
  0
LINE
  5
DC
330
1E
100
AcDbEntity
  8
0
100
AcDbLine
 10
147.0
 20
163.0
 30
0.0
 11
147.0
 21
155.8
 31
0.0
  0
LINE
  5
DD
330
1E
100
AcDbEntity
  8
0
100
AcDbLine
 10
145.4
 20
512.0
 30
0.0
 11
146.6
 21
512.0
 31
0.0
  0
LINE
  5
DE
330
1E
100
AcDbEntity
  8
0
100
AcDbLine
 10
145.08
 20
512.0
 30
0.0
 11
154.36
 21
512.0
 31
0.0
  0
LINE
  5
DF
330
1E
100
AcDbEntity
  8
0
100
AcDbLine
 10
135.0
 20
512.0
 30
0.0
 11
145.08
 21
512.0
 31
0.0
  0
LINE
  5
E0
330
1E
100
AcDbEntity
  8
0
100
AcDbLine
 10
135.0
 20
512.0
 30
0.0
 11
138.1
 21
512.0
 31
0.0
  0
LINE
  5
E1
330
1E
100
AcDbEntity
  8
0
100
AcDbLine
 10
167.5999999999999
 20
13.1
 30
0.0
 11
183.3
 21
18.39999999999999
 31
0.0
  0
LINE
  5
E2
330
1E
100
AcDbEntity
  8
0
100
AcDbLine
 10
167.5999999999999
 20
256.8999999999999
 30
0.0
 11
183.3
 21
251.6
 31
0.0
  0
LINE
  5
E3
330
1E
100
AcDbEntity
  8
0
100
AcDbLine
 10
169.8
 20
4.900000000000009
 30
0.0
 11
186.5999999999999
 21
10.5
 31
0.0
  0
LINE
  5
E4
330
1E
100
AcDbEntity
  8
0
100
AcDbLine
 10
169.8
 20
265.1
 30
0.0
 11
186.5999999999999
 21
259.5
 31
0.0
  0
LINE
  5
E5
330
1E
100
AcDbEntity
  8
0
100
AcDbLine
 10
174.0399999999999
 20
512.0
 30
0.0
 11
175.0
 21
512.72
 31
0.0
  0
LINE
  5
E6
330
1E
100
AcDbEntity
  8
0
100
AcDbLine
 10
172.5999999999999
 20
512.0
 30
0.0
 11
174.0399999999999
 21
512.0
 31
0.0
  0
LINE
  5
E7
330
1E
100
AcDbEntity
  8
0
100
AcDbLine
 10
168.7599999999999
 20
512.0
 30
0.0
 11
172.5999999999999
 21
512.0
 31
0.0
  0
LINE
  5
E8
330
1E
100
AcDbEntity
  8
0
100
AcDbLine
 10
162.52
 20
512.0
 30
0.0
 11
168.7599999999999
 21
512.0
 31
0.0
  0
LINE
  5
E9
330
1E
100
AcDbEntity
  8
0
100
AcDbLine
 10
154.36
 20
512.0
 30
0.0
 11
162.52
 21
512.0
 31
0.0
  0
LINE
  5
EA
330
1E
100
AcDbEntity
  8
0
100
AcDbLine
 10
95.0
 20
512.72
 30
0.0
 11
96.44
 21
512.72
 31
0.0
  0
LINE
  5
EB
330
1E
100
AcDbEntity
  8
0
100
AcDbLine
 10
95.0
 20
512.72
 30
0.0
 11
95.96
 21
512.0
 31
0.0
  0
LINE
  5
EC
330
1E
100
AcDbEntity
  8
0
100
AcDbLine
 10
95.0
 20
512.72
 30
0.0
 11
95.0
 21
524.0
 31
0.0
  0
LINE
  5
ED
330
1E
100
AcDbEntity
  8
0
100
AcDbLine
 10
96.44
 20
512.72
 30
0.0
 11
100.28
 21
512.72
 31
0.0
  0
LINE
  5
EE
330
1E
100
AcDbEntity
  8
0
100
AcDbLine
 10
100.28
 20
512.72
 30
0.0
 11
106.68
 21
512.72
 31
0.0
  0
LINE
  5
EF
330
1E
100
AcDbEntity
  8
0
100
AcDbLine
 10
106.68
 20
512.72
 30
0.0
 11
115.1599999999999
 21
512.72
 31
0.0
  0
LINE
  5
F0
330
1E
100
AcDbEntity
  8
0
100
AcDbLine
 10
115.1599999999999
 20
512.72
 30
0.0
 11
124.76
 21
512.72
 31
0.0
  0
LINE
  5
F1
330
1E
100
AcDbEntity
  8
0
100
AcDbLine
 10
124.76
 20
512.72
 30
0.0
 11
135.0
 21
512.72
 31
0.0
  0
LINE
  5
F2
330
1E
100
AcDbEntity
  8
0
100
AcDbLine
 10
95.0
 20
524.0
 30
0.0
 11
96.44
 21
524.0
 31
0.0
  0
LINE
  5
F3
330
1E
100
AcDbEntity
  8
0
100
AcDbLine
 10
95.0
 20
524.0
 30
0.0
 11
95.0
 21
512.72
 31
0.0
  0
LINE
  5
F4
330
1E
100
AcDbEntity
  8
0
100
AcDbLine
 10
96.44
 20
524.0
 30
0.0
 11
100.28
 21
524.0
 31
0.0
  0
LINE
  5
F5
330
1E
100
AcDbEntity
  8
0
100
AcDbLine
 10
100.28
 20
524.0
 30
0.0
 11
106.68
 21
524.0
 31
0.0
  0
LINE
  5
F6
330
1E
100
AcDbEntity
  8
0
100
AcDbLine
 10
106.68
 20
524.0
 30
0.0
 11
115.1599999999999
 21
524.0
 31
0.0
  0
LINE
  5
F7
330
1E
100
AcDbEntity
  8
0
100
AcDbLine
 10
115.1599999999999
 20
524.0
 30
0.0
 11
124.76
 21
524.0
 31
0.0
  0
LINE
  5
F8
330
1E
100
AcDbEntity
  8
0
100
AcDbLine
 10
124.76
 20
524.0
 30
0.0
 11
135.0
 21
524.0
 31
0.0
  0
LINE
  5
F9
330
1E
100
AcDbEntity
  8
0
100
AcDbLine
 10
135.0
 20
512.72
 30
0.0
 11
145.24
 21
512.72
 31
0.0
  0
LINE
  5
FA
330
1E
100
AcDbEntity
  8
0
100
AcDbLine
 10
154.8399999999999
 20
512.72
 30
0.0
 11
163.3199999999999
 21
512.72
 31
0.0
  0
LINE
  5
FB
330
1E
100
AcDbEntity
  8
0
100
AcDbLine
 10
145.24
 20
512.72
 30
0.0
 11
154.8399999999999
 21
512.72
 31
0.0
  0
LINE
  5
FC
330
1E
100
AcDbEntity
  8
0
100
AcDbLine
 10
169.72
 20
512.72
 30
0.0
 11
173.5599999999999
 21
512.72
 31
0.0
  0
LINE
  5
FD
330
1E
100
AcDbEntity
  8
0
100
AcDbLine
 10
163.3199999999999
 20
512.72
 30
0.0
 11
169.72
 21
512.72
 31
0.0
  0
LINE
  5
FE
330
1E
100
AcDbEntity
  8
0
100
AcDbLine
 10
173.5599999999999
 20
512.72
 30
0.0
 11
175.0
 21
512.72
 31
0.0
  0
LINE
  5
FF
330
1E
100
AcDbEntity
  8
0
100
AcDbLine
 10
175.0
 20
512.72
 30
0.0
 11
175.0
 21
524.0
 31
0.0
  0
LINE
  5
100
330
1E
100
AcDbEntity
  8
0
100
AcDbLine
 10
173.5599999999999
 20
524.0
 30
0.0
 11
175.0
 21
524.0
 31
0.0
  0
LINE
  5
101
330
1E
100
AcDbEntity
  8
0
100
AcDbLine
 10
169.72
 20
524.0
 30
0.0
 11
173.5599999999999
 21
524.0
 31
0.0
  0
LINE
  5
102
330
1E
100
AcDbEntity
  8
0
100
AcDbLine
 10
163.3199999999999
 20
524.0
 30
0.0
 11
169.72
 21
524.0
 31
0.0
  0
LINE
  5
103
330
1E
100
AcDbEntity
  8
0
100
AcDbLine
 10
154.8399999999999
 20
524.0
 30
0.0
 11
163.3199999999999
 21
524.0
 31
0.0
  0
LINE
  5
104
330
1E
100
AcDbEntity
  8
0
100
AcDbLine
 10
145.24
 20
524.0
 30
0.0
 11
154.8399999999999
 21
524.0
 31
0.0
  0
LINE
  5
105
330
1E
100
AcDbEntity
  8
0
100
AcDbLine
 10
135.0
 20
524.0
 30
0.0
 11
145.24
 21
524.0
 31
0.0
  0
LINE
  5
106
330
1E
100
AcDbEntity
  8
0
100
AcDbLine
 10
147.0
 20
512.0
 30
0.0
 11
154.36
 21
512.0
 31
0.0
  0
LINE
  5
107
330
1E
100
AcDbEntity
  8
0
100
AcDbLine
 10
147.0
 20
512.0
 30
0.0
 11
147.0
 21
163.0
 31
0.0
  0
LINE
  5
108
330
1E
100
AcDbEntity
  8
0
100
AcDbLine
 10
183.3
 20
18.39999999999999
 30
0.0
 11
198.0
 21
25.4
 31
0.0
  0
LINE
  5
109
330
1E
100
AcDbEntity
  8
0
100
AcDbLine
 10
211.9
 20
34.79999999999999
 30
0.0
 11
224.3
 21
45.7
 31
0.0
  0
LINE
  5
10A
330
1E
100
AcDbEntity
  8
0
100
AcDbLine
 10
198.0
 20
25.4
 30
0.0
 11
211.9
 21
34.79999999999999
 31
0.0
  0
LINE
  5
10B
330
1E
100
AcDbEntity
  8
0
100
AcDbLine
 10
217.0999999999999
 20
28.1
 30
0.0
 11
230.3
 21
39.7
 31
0.0
  0
LINE
  5
10C
330
1E
100
AcDbEntity
  8
0
100
AcDbLine
 10
202.1999999999999
 20
18.1
 30
0.0
 11
217.0999999999999
 21
28.1
 31
0.0
  0
LINE
  5
10D
330
1E
100
AcDbEntity
  8
0
100
AcDbLine
 10
186.5999999999999
 20
10.5
 30
0.0
 11
202.1999999999999
 21
18.1
 31
0.0
  0
LINE
  5
10E
330
1E
100
AcDbEntity
  8
0
100
AcDbLine
 10
224.3
 20
45.7
 30
0.0
 11
235.1999999999999
 21
58.1
 31
0.0
  0
LINE
  5
10F
330
1E
100
AcDbEntity
  8
0
100
AcDbLine
 10
235.1999999999999
 20
58.1
 30
0.0
 11
244.6
 21
72.0
 31
0.0
  0
LINE
  5
110
330
1E
100
AcDbEntity
  8
0
100
AcDbLine
 10
230.3
 20
39.7
 30
0.0
 11
241.9
 21
52.9
 31
0.0
  0
LINE
  5
111
330
1E
100
AcDbEntity
  8
0
100
AcDbLine
 10
241.9
 20
52.9
 30
0.0
 11
251.9
 21
67.8
 31
0.0
  0
LINE
  5
112
330
1E
100
AcDbEntity
  8
0
100
AcDbLine
 10
244.6
 20
72.0
 30
0.0
 11
251.6
 21
86.69999999999999
 31
0.0
  0
LINE
  5
113
330
1E
100
AcDbEntity
  8
0
100
AcDbLine
 10
251.6
 20
86.69999999999999
 30
0.0
 11
256.8999999999999
 21
102.4
 31
0.0
  0
LINE
  5
114
330
1E
100
AcDbEntity
  8
0
100
AcDbLine
 10
256.8999999999999
 20
102.4
 30
0.0
 11
260.1999999999999
 21
118.5999999999999
 31
0.0
  0
LINE
  5
115
330
1E
100
AcDbEntity
  8
0
100
AcDbLine
 10
260.1999999999999
 20
118.5999999999999
 30
0.0
 11
261.5
 21
135.0
 31
0.0
  0
LINE
  5
116
330
1E
100
AcDbEntity
  8
0
100
AcDbLine
 10
259.5
 20
83.40000000000001
 30
0.0
 11
265.1
 21
100.2
 31
0.0
  0
LINE
  5
117
330
1E
100
AcDbEntity
  8
0
100
AcDbLine
 10
251.9
 20
67.8
 30
0.0
 11
259.5
 21
83.40000000000001
 31
0.0
  0
LINE
  5
118
330
1E
100
AcDbEntity
  8
0
100
AcDbLine
 10
268.6
 20
117.4
 30
0.0
 11
270.0
 21
135.0
 31
0.0
  0
LINE
  5
119
330
1E
100
AcDbEntity
  8
0
100
AcDbLine
 10
265.1
 20
100.2
 30
0.0
 11
268.6
 21
117.4
 31
0.0
  0
LINE
  5
11A
330
1E
100
AcDbEntity
  8
0
100
AcDbLine
 10
260.1999999999999
 20
151.4
 30
0.0
 11
261.5
 21
135.0
 31
0.0
  0
LINE
  5
11B
330
1E
100
AcDbEntity
  8
0
100
AcDbLine
 10
211.9
 20
235.1999999999999
 30
0.0
 11
224.3
 21
224.3
 31
0.0
  0
LINE
  5
11C
330
1E
100
AcDbEntity
  8
0
100
AcDbLine
 10
198.0
 20
244.6
 30
0.0
 11
211.9
 21
235.1999999999999
 31
0.0
  0
LINE
  5
11D
330
1E
100
AcDbEntity
  8
0
100
AcDbLine
 10
183.3
 20
251.6
 30
0.0
 11
198.0
 21
244.6
 31
0.0
  0
LINE
  5
11E
330
1E
100
AcDbEntity
  8
0
100
AcDbLine
 10
217.0999999999999
 20
241.9
 30
0.0
 11
230.3
 21
230.3
 31
0.0
  0
LINE
  5
11F
330
1E
100
AcDbEntity
  8
0
100
AcDbLine
 10
224.3
 20
224.3
 30
0.0
 11
235.1999999999999
 21
211.9
 31
0.0
  0
LINE
  5
120
330
1E
100
AcDbEntity
  8
0
100
AcDbLine
 10
256.8999999999999
 20
167.5999999999999
 30
0.0
 11
260.1999999999999
 21
151.4
 31
0.0
  0
LINE
  5
121
330
1E
100
AcDbEntity
  8
0
100
AcDbLine
 10
244.6
 20
198.0
 30
0.0
 11
251.6
 21
183.3
 31
0.0
  0
LINE
  5
122
330
1E
100
AcDbEntity
  8
0
100
AcDbLine
 10
251.6
 20
183.3
 30
0.0
 11
256.8999999999999
 21
167.5999999999999
 31
0.0
  0
LINE
  5
123
330
1E
100
AcDbEntity
  8
0
100
AcDbLine
 10
235.1999999999999
 20
211.9
 30
0.0
 11
244.6
 21
198.0
 31
0.0
  0
LINE
  5
124
330
1E
100
AcDbEntity
  8
0
100
AcDbLine
 10
251.9
 20
202.1999999999999
 30
0.0
 11
259.5
 21
186.5999999999999
 31
0.0
  0
LINE
  5
125
330
1E
100
AcDbEntity
  8
0
100
AcDbLine
 10
259.5
 20
186.5999999999999
 30
0.0
 11
265.1
 21
169.8
 31
0.0
  0
LINE
  5
126
330
1E
100
AcDbEntity
  8
0
100
AcDbLine
 10
265.1
 20
169.8
 30
0.0
 11
268.6
 21
152.5999999999999
 31
0.0
  0
LINE
  5
127
330
1E
100
AcDbEntity
  8
0
100
AcDbLine
 10
230.3
 20
230.3
 30
0.0
 11
241.9
 21
217.0999999999999
 31
0.0
  0
LINE
  5
128
330
1E
100
AcDbEntity
  8
0
100
AcDbLine
 10
268.6
 20
152.5999999999999
 30
0.0
 11
270.0
 21
135.0
 31
0.0
  0
LINE
  5
129
330
1E
100
AcDbEntity
  8
0
100
AcDbLine
 10
175.0
 20
524.0
 30
0.0
 11
175.0
 21
512.72
 31
0.0
  0
LINE
  5
12E
330
1E
100
AcDbEntity
  8
0
100
AcDbLine
 10
152.5999999999999
 20
1.40000000000001
 30
0.0
 11
169.8
 21
4.900000000000009
 31
0.0
  0
LINE
  5
12F
330
1E
100
AcDbEntity
  8
0
100
AcDbLine
 10
18.1
 20
202.1999999999999
 30
0.0
 11
10.5
 21
186.5999999999999
 31
0.0
  0
LINE
  5
130
330
1E
100
AcDbEntity
  8
0
100
AcDbLine
 10
152.5999999999999
 20
268.6
 30
0.0
 11
169.8
 21
265.1
 31
0.0
  0
LINE
  5
131
330
1E
100
AcDbEntity
  8
0
100
AcDbLine
 10
83.40000000000001
 20
259.5
 30
0.0
 11
67.8
 21
251.9
 31
0.0
  0
LINE
  5
132
330
1E
100
AcDbEntity
  8
0
100
AcDbLine
 10
186.5999999999999
 20
259.5
 30
0.0
 11
203.8698730876904
 21
251.655044554838
 31
0.0
  0
LINE
  5
133
330
1E
100
AcDbEntity
  8
0
100
AcDbLine
 10
203.8698730876904
 20
251.655044554838
 30
0.0
 11
217.0999999999999
 21
241.9
 31
0.0
  0
LINE
  5
134
330
1E
100
AcDbEntity
  8
0
100
AcDbLine
 10
241.9
 20
217.0999999999999
 30
0.0
 11
251.9
 21
202.1999999999999
 31
0.0
  0
LINE
  5
135
330
1E
100
AcDbEntity
  8
0
100
AcDbLine
 10
131.9
 20
123.3999999999999
 30
0.0
 11
134.9127724459467
 21
122.911749126476
 31
0.0
  0
LINE
  5
136
330
1E
100
AcDbEntity
  8
0
100
AcDbLine
 10
134.9127724459467
 20
122.911749126476
 30
0.0
 11
138.1
 21
123.3999999999999
 31
0.0
  0
ENDSEC
  0
SECTION
  2
OBJECTS
  0
DICTIONARY
  5
C
330
0
100
AcDbDictionary
281
     1
  3
ACAD_GROUP
350
D
  3
ACAD_LAYOUT
350
19
  3
ACAD_MLINESTYLE
350
16
  3
ACAD_PLOTSETTINGS
350
18
  3
ACAD_PLOTSTYLENAME
350
E
  3
AcDbVariableDictionary
350
137
  0
DICTIONARY
  5
D
102
{ACAD_REACTORS
330
C
102
}
330
C
100
AcDbDictionary
281
     1
  0
DICTIONARY
  5
19
102
{ACAD_REACTORS
330
C
102
}
330
C
100
AcDbDictionary
281
     1
  3
Layout1
350
1D
  3
Model
350
21
  0
DICTIONARY
  5
16
102
{ACAD_REACTORS
330
C
102
}
330
C
100
AcDbDictionary
281
     1
  3
Standard
350
17
  0
DICTIONARY
  5
18
102
{ACAD_REACTORS
330
C
102
}
330
C
100
AcDbDictionary
281
     1
  0
ACDBDICTIONARYWDFLT
  5
E
102
{ACAD_REACTORS
330
C
102
}
330
C
100
AcDbDictionary
281
     1
  3
Normal
350
F
100
AcDbDictionaryWithDefault
340
F
  0
DICTIONARY
  5
137
102
{ACAD_REACTORS
330
C
102
}
330
C
100
AcDbDictionary
281
     1
  3
DIMASSOC
350
138
  0
LAYOUT
  5
1D
102
{ACAD_REACTORS
330
19
102
}
330
19
100
AcDbPlotSettings
  1

  2
hp deskjet 980c series
  4

  6

 40
0.0
 41
0.0
 42
0.0
 43
0.0
 44
0.0
 45
0.0
 46
0.0
 47
0.0
 48
0.0
 49
0.0
140
0.0
141
0.0
142
1.0
143
1.0
 70
   688
 72
     0
 73
     0
 74
     5
  7

 75
    16
147
1.0
148
0.0
149
0.0
100
AcDbLayout
  1
Layout1
 70
     1
 71
     1
 10
0.0
 20
0.0
 11
12.0
 21
9.0
 12
0.0
 22
0.0
 32
0.0
 14
1.000000000000000E+20
 24
1.000000000000000E+20
 34
1.000000000000000E+20
 15
-1.000000000000000E+20
 25
-1.000000000000000E+20
 35
-1.000000000000000E+20
146
0.0
 13
0.0
 23
0.0
 33
0.0
 16
1.0
 26
0.0
 36
0.0
 17
0.0
 27
1.0
 37
0.0
 76
     0
330
1A
  0
LAYOUT
  5
21
102
{ACAD_REACTORS
330
19
102
}
330
19
100
AcDbPlotSettings
  1

  2
hp deskjet 980c series
  4

  6

 40
0.0
 41
0.0
 42
0.0
 43
0.0
 44
0.0
 45
0.0
 46
0.0
 47
0.0
 48
0.0
 49
0.0
140
0.0
141
0.0
142
1.0
143
1.0
 70
  1712
 72
     0
 73
     0
 74
     0
  7

 75
     0
147
1.0
148
0.0
149
0.0
100
AcDbLayout
  1
Model
 70
     1
 71
     0
 10
0.0
 20
0.0
 11
12.0
 21
9.0
 12
0.0
 22
0.0
 32
0.0
 14
0.0
 24
0.0
 34
0.0
 15
0.0
 25
0.0
 35
0.0
146
0.0
 13
0.0
 23
0.0
 33
0.0
 16
1.0
 26
0.0
 36
0.0
 17
0.0
 27
1.0
 37
0.0
 76
     0
330
1E
  0
MLINESTYLE
  5
17
102
{ACAD_REACTORS
330
16
102
}
330
16
100
AcDbMlineStyle
  2
STANDARD
 70
     0
  3

 62
   256
 51
90.0
 52
90.0
 71
     2
 49
0.5
 62
   256
  6
BYLAYER
 49
-0.5
 62
   256
  6
BYLAYER
  0
ACDBPLACEHOLDER
  5
F
102
{ACAD_REACTORS
330
E
102
}
330
E
  0
DICTIONARYVAR
  5
138
102
{ACAD_REACTORS
330
137
102
}
330
137
100
DictionaryVariables
280
     0
  1
1
  0
ENDSEC
  0
EOF
