  0
SECTION
  2
HEADER
  9
$ACADVER
  1
AC1015
  9
$ACADMAINTVER
 70
    13
  9
$DWGCODEPAGE
  3
ANSI_1252
  9
$INSBASE
 10
0.0
 20
0.0
 30
0.0
  9
$EXTMIN
 10
-0.0000000000000052
 20
1.000000000000019
 30
0.0
  9
$EXTMAX
 10
270.0
 20
171.0
 30
0.0
  9
$LIMMIN
 10
0.0
 20
0.0
  9
$LIMMAX
 10
12.0
 20
9.0
  9
$ORTHOMODE
 70
     0
  9
$REGENMODE
 70
     1
  9
$FILLMODE
 70
     1
  9
$QTEXTMODE
 70
     0
  9
$MIRRTEXT
 70
     1
  9
$LTSCALE
 40
1.0
  9
$ATTMODE
 70
     1
  9
$TEXTSIZE
 40
0.2
  9
$TRACEWID
 40
0.05
  9
$TEXTSTYLE
  7
Standard
  9
$CLAYER
  8
0
  9
$CELTYPE
  6
Continuous
  9
$CECOLOR
 62
   256
  9
$CELTSCALE
 40
1.0
  9
$DISPSILH
 70
     0
  9
$DIMSCALE
 40
1.0
  9
$DIMASZ
 40
0.18
  9
$DIMEXO
 40
0.0625
  9
$DIMDLI
 40
0.38
  9
$DIMRND
 40
0.0
  9
$DIMDLE
 40
0.0
  9
$DIMEXE
 40
0.18
  9
$DIMTP
 40
0.0
  9
$DIMTM
 40
0.0
  9
$DIMTXT
 40
0.18
  9
$DIMCEN
 40
0.09
  9
$DIMTSZ
 40
0.0
  9
$DIMTOL
 70
     0
  9
$DIMLIM
 70
     0
  9
$DIMTIH
 70
     1
  9
$DIMTOH
 70
     1
  9
$DIMSE1
 70
     0
  9
$DIMSE2
 70
     0
  9
$DIMTAD
 70
     0
  9
$DIMZIN
 70
     0
  9
$DIMBLK
  1

  9
$DIMASO
 70
     1
  9
$DIMSHO
 70
     1
  9
$DIMPOST
  1

  9
$DIMAPOST
  1

  9
$DIMALT
 70
     0
  9
$DIMALTD
 70
     2
  9
$DIMALTF
 40
25.4
  9
$DIMLFAC
 40
1.0
  9
$DIMTOFL
 70
     0
  9
$DIMTVP
 40
0.0
  9
$DIMTIX
 70
     0
  9
$DIMSOXD
 70
     0
  9
$DIMSAH
 70
     0
  9
$DIMBLK1
  1

  9
$DIMBLK2
  1

  9
$DIMSTYLE
  2
Standard
  9
$DIMCLRD
 70
     0
  9
$DIMCLRE
 70
     0
  9
$DIMCLRT
 70
     0
  9
$DIMTFAC
 40
1.0
  9
$DIMGAP
 40
0.09
  9
$DIMJUST
 70
     0
  9
$DIMSD1
 70
     0
  9
$DIMSD2
 70
     0
  9
$DIMTOLJ
 70
     1
  9
$DIMTZIN
 70
     0
  9
$DIMALTZ
 70
     0
  9
$DIMALTTZ
 70
     0
  9
$DIMUPT
 70
     0
  9
$DIMDEC
 70
     4
  9
$DIMTDEC
 70
     4
  9
$DIMALTU
 70
     2
  9
$DIMALTTD
 70
     2
  9
$DIMTXSTY
  7
Standard
  9
$DIMAUNIT
 70
     0
  9
$DIMADEC
 70
     0
  9
$DIMALTRND
 40
0.0
  9
$DIMAZIN
 70
     0
  9
$DIMDSEP
 70
    46
  9
$DIMATFIT
 70
     3
  9
$DIMFRAC
 70
     0
  9
$DIMLDRBLK
  1

  9
$DIMLUNIT
 70
     2
  9
$DIMLWD
 70
    -2
  9
$DIMLWE
 70
    -2
  9
$DIMTMOVE
 70
     0
  9
$LUNITS
 70
     2
  9
$LUPREC
 70
     4
  9
$SKETCHINC
 40
0.1
  9
$FILLETRAD
 40
0.0
  9
$AUNITS
 70
     0
  9
$AUPREC
 70
     0
  9
$MENU
  1
.
  9
$ELEVATION
 40
0.0
  9
$PELEVATION
 40
0.0
  9
$THICKNESS
 40
0.0
  9
$LIMCHECK
 70
     0
  9
$CHAMFERA
 40
0.0
  9
$CHAMFERB
 40
0.0
  9
$CHAMFERC
 40
0.0
  9
$CHAMFERD
 40
0.0
  9
$SKPOLY
 70
     0
  9
$TDCREATE
 40
2454737.931041123
  9
$TDUCREATE
 40
2454737.847707789
  9
$TDUPDATE
 40
2454737.935262396
  9
$TDUUPDATE
 40
2454737.851929062
  9
$TDINDWG
 40
0.0042212731
  9
$TDUSRTIMER
 40
0.0042212731
  9
$USRTIMER
 70
     1
  9
$ANGBASE
 50
0.0
  9
$ANGDIR
 70
     0
  9
$PDMODE
 70
     0
  9
$PDSIZE
 40
0.0
  9
$PLINEWID
 40
0.0
  9
$SPLFRAME
 70
     0
  9
$SPLINETYPE
 70
     6
  9
$SPLINESEGS
 70
     8
  9
$HANDSEED
  5
C86
  9
$SURFTAB1
 70
     6
  9
$SURFTAB2
 70
     6
  9
$SURFTYPE
 70
     6
  9
$SURFU
 70
     6
  9
$SURFV
 70
     6
  9
$UCSBASE
  2

  9
$UCSNAME
  2

  9
$UCSORG
 10
0.0
 20
0.0
 30
0.0
  9
$UCSXDIR
 10
1.0
 20
0.0
 30
0.0
  9
$UCSYDIR
 10
0.0
 20
1.0
 30
0.0
  9
$UCSORTHOREF
  2

  9
$UCSORTHOVIEW
 70
     1
  9
$UCSORGTOP
 10
0.0
 20
0.0
 30
0.0
  9
$UCSORGBOTTOM
 10
0.0
 20
0.0
 30
0.0
  9
$UCSORGLEFT
 10
0.0
 20
0.0
 30
0.0
  9
$UCSORGRIGHT
 10
0.0
 20
0.0
 30
0.0
  9
$UCSORGFRONT
 10
0.0
 20
0.0
 30
0.0
  9
$UCSORGBACK
 10
0.0
 20
0.0
 30
0.0
  9
$PUCSBASE
  2

  9
$PUCSNAME
  2

  9
$PUCSORG
 10
0.0
 20
0.0
 30
0.0
  9
$PUCSXDIR
 10
1.0
 20
0.0
 30
0.0
  9
$PUCSYDIR
 10
0.0
 20
1.0
 30
0.0
  9
$PUCSORTHOREF
  2

  9
$PUCSORTHOVIEW
 70
     0
  9
$PUCSORGTOP
 10
0.0
 20
0.0
 30
0.0
  9
$PUCSORGBOTTOM
 10
0.0
 20
0.0
 30
0.0
  9
$PUCSORGLEFT
 10
0.0
 20
0.0
 30
0.0
  9
$PUCSORGRIGHT
 10
0.0
 20
0.0
 30
0.0
  9
$PUCSORGFRONT
 10
0.0
 20
0.0
 30
0.0
  9
$PUCSORGBACK
 10
0.0
 20
0.0
 30
0.0
  9
$USERI1
 70
     0
  9
$USERI2
 70
     0
  9
$USERI3
 70
     0
  9
$USERI4
 70
     0
  9
$USERI5
 70
     0
  9
$USERR1
 40
0.0
  9
$USERR2
 40
0.0
  9
$USERR3
 40
0.0
  9
$USERR4
 40
0.0
  9
$USERR5
 40
0.0
  9
$WORLDVIEW
 70
     1
  9
$SHADEDGE
 70
     3
  9
$SHADEDIF
 70
    70
  9
$TILEMODE
 70
     1
  9
$MAXACTVP
 70
    64
  9
$PINSBASE
 10
0.0
 20
0.0
 30
0.0
  9
$PLIMCHECK
 70
     0
  9
$PEXTMIN
 10
1.000000000000000E+20
 20
1.000000000000000E+20
 30
1.000000000000000E+20
  9
$PEXTMAX
 10
-1.000000000000000E+20
 20
-1.000000000000000E+20
 30
-1.000000000000000E+20
  9
$PLIMMIN
 10
0.0
 20
0.0
  9
$PLIMMAX
 10
12.0
 20
9.0
  9
$UNITMODE
 70
     0
  9
$VISRETAIN
 70
     1
  9
$PLINEGEN
 70
     0
  9
$PSLTSCALE
 70
     1
  9
$TREEDEPTH
 70
  3020
  9
$CMLSTYLE
  2
Standard
  9
$CMLJUST
 70
     0
  9
$CMLSCALE
 40
1.0
  9
$PROXYGRAPHICS
 70
     1
  9
$MEASUREMENT
 70
     0
  9
$CELWEIGHT
370
    -1
  9
$ENDCAPS
280
     0
  9
$JOINSTYLE
280
     0
  9
$LWDISPLAY
290
     0
  9
$INSUNITS
 70
     0
  9
$HYPERLINKBASE
  1

  9
$STYLESHEET
  1

  9
$XEDIT
290
     1
  9
$CEPSNTYPE
380
     0
  9
$PSTYLEMODE
290
     1
  9
$FINGERPRINTGUID
  2
{CAA60928-B8EC-4D0A-9155-272FC661BDB3}
  9
$VERSIONGUID
  2
{9F7EC4EF-6752-4B9B-B030-970C82A4B655}
  9
$EXTNAMES
290
     1
  9
$PSVPSCALE
 40
0.0
  9
$OLESTARTUP
290
     0
  0
ENDSEC
  0
SECTION
  2
CLASSES
  0
CLASS
  1
ACDBDICTIONARYWDFLT
  2
AcDbDictionaryWithDefault
  3
AutoCAD 2000
 90
        0
280
     0
281
     0
  0
CLASS
  1
ACDBPLACEHOLDER
  2
AcDbPlaceHolder
  3
AutoCAD 2000
 90
        0
280
     0
281
     0
  0
CLASS
  1
LAYOUT
  2
AcDbLayout
  3
AutoCAD 2000
 90
        0
280
     0
281
     0
  0
CLASS
  1
DICTIONARYVAR
  2
AcDbDictionaryVar
  3
AutoCAD 2000
 90
        0
280
     0
281
     0
  0
ENDSEC
  0
SECTION
  2
TABLES
  0
TABLE
  2
VPORT
  5
8
330
0
100
AcDbSymbolTable
 70
     2
  0
VPORT
  5
C85
330
8
100
AcDbSymbolTableRecord
100
AcDbViewportTableRecord
  2
*Active
 70
     0
 10
0.0
 20
0.0
 11
1.0
 21
1.0
 12
135.0
 22
86.0
 13
0.0
 23
0.0
 14
1.0
 24
1.0
 15
0.0
 25
0.0
 16
0.0
 26
0.0
 36
1.0
 17
0.0
 27
0.0
 37
0.0
 40
171.3043478260869
 41
2.078104993597951
 42
50.0
 43
0.0
 44
0.0
 50
0.0
 51
0.0
 71
     0
 72
   100
 73
     1
 74
     3
 75
     0
 76
     0
 77
     0
 78
     0
281
     0
 65
     1
110
0.0
120
0.0
130
0.0
111
1.0
121
0.0
131
0.0
112
0.0
122
1.0
132
0.0
 79
     1
146
0.0
  0
ENDTAB
  0
TABLE
  2
LTYPE
  5
5
330
0
100
AcDbSymbolTable
 70
     1
  0
LTYPE
  5
13
330
5
100
AcDbSymbolTableRecord
100
AcDbLinetypeTableRecord
  2
ByBlock
 70
     0
  3

 72
    65
 73
     0
 40
0.0
  0
LTYPE
  5
14
330
5
100
AcDbSymbolTableRecord
100
AcDbLinetypeTableRecord
  2
ByLayer
 70
     0
  3

 72
    65
 73
     0
 40
0.0
  0
LTYPE
  5
15
330
5
100
AcDbSymbolTableRecord
100
AcDbLinetypeTableRecord
  2
Continuous
 70
     0
  3
Solid line
 72
    65
 73
     0
 40
0.0
  0
ENDTAB
  0
TABLE
  2
LAYER
  5
2
330
0
100
AcDbSymbolTable
 70
     1
  0
LAYER
  5
10
330
2
100
AcDbSymbolTableRecord
100
AcDbLayerTableRecord
  2
0
 70
     0
 62
     7
  6
Continuous
370
    -3
390
F
  0
ENDTAB
  0
TABLE
  2
STYLE
  5
3
330
0
100
AcDbSymbolTable
 70
     1
  0
STYLE
  5
11
330
3
100
AcDbSymbolTableRecord
100
AcDbTextStyleTableRecord
  2
Standard
 70
     0
 40
0.0
 41
1.0
 50
0.0
 71
     0
 42
0.2
  3
txt
  4

  0
ENDTAB
  0
TABLE
  2
VIEW
  5
6
330
0
100
AcDbSymbolTable
 70
     0
  0
ENDTAB
  0
TABLE
  2
UCS
  5
7
330
0
100
AcDbSymbolTable
 70
     0
  0
ENDTAB
  0
TABLE
  2
APPID
  5
9
330
0
100
AcDbSymbolTable
 70
     1
  0
APPID
  5
12
330
9
100
AcDbSymbolTableRecord
100
AcDbRegAppTableRecord
  2
ACAD
 70
     0
  0
ENDTAB
  0
TABLE
  2
DIMSTYLE
  5
A
330
0
100
AcDbSymbolTable
 70
     1
100
AcDbDimStyleTable
 71
     0
  0
DIMSTYLE
105
C76
330
A
100
AcDbSymbolTableRecord
100
AcDbDimStyleTableRecord
  2
Standard
 70
     0
340
11
  0
ENDTAB
  0
TABLE
  2
BLOCK_RECORD
  5
1
330
0
100
AcDbSymbolTable
 70
     0
  0
BLOCK_RECORD
  5
1E
330
1
100
AcDbSymbolTableRecord
100
AcDbBlockTableRecord
  2
*Model_Space
340
21
  0
BLOCK_RECORD
  5
1A
330
1
100
AcDbSymbolTableRecord
100
AcDbBlockTableRecord
  2
*Paper_Space
340
1D
  0
ENDTAB
  0
ENDSEC
  0
SECTION
  2
BLOCKS
  0
BLOCK
  5
1F
330
1E
100
AcDbEntity
  8
0
100
AcDbBlockBegin
  2
*Model_Space
 70
     0
 10
0.0
 20
0.0
 30
0.0
  3
*Model_Space
  1

  0
ENDBLK
  5
20
330
1E
100
AcDbEntity
  8
0
100
AcDbBlockEnd
  0
BLOCK
  5
1B
330
1A
100
AcDbEntity
 67
     1
  8
0
100
AcDbBlockBegin
  2
*Paper_Space
 70
     0
 10
0.0
 20
0.0
 30
0.0
  3
*Paper_Space
  1

  0
ENDBLK
  5
1C
330
1A
100
AcDbEntity
 67
     1
  8
0
100
AcDbBlockEnd
  0
ENDSEC
  0
SECTION
  2
ENTITIES
  0
LINE
  5
2C8
330
1E
100
AcDbEntity
  8
0
100
AcDbLine
 10
101.3149999999999
 20
1.000000000000019
 30
0.0
 11
101.5479999999999
 21
1.000000000000019
 31
0.0
  0
LINE
  5
2C9
330
1E
100
AcDbEntity
  8
0
100
AcDbLine
 10
103.3959999999999
 20
1.000000000000019
 30
0.0
 11
103.4999999999999
 21
1.000000000000019
 31
0.0
  0
LINE
  5
381
330
1E
100
AcDbEntity
  8
0
100
AcDbLine
 10
111.0
 20
1.000000000000019
 30
0.0
 11
112.3929999999999
 21
1.000000000000019
 31
0.0
  0
LINE
  5
382
330
1E
100
AcDbEntity
  8
0
100
AcDbLine
 10
115.956
 20
1.000000000000019
 30
0.0
 11
118.998
 21
1.000000000000019
 31
0.0
  0
LINE
  5
383
330
1E
100
AcDbEntity
  8
0
100
AcDbLine
 10
106.202
 20
1.000000000000019
 30
0.0
 11
106.5439999999999
 21
1.000000000000019
 31
0.0
  0
LINE
  5
384
330
1E
100
AcDbEntity
  8
0
100
AcDbLine
 10
88.3248
 20
1.000000000000019
 30
0.0
 11
88.40000000000001
 21
1.000000000000019
 31
0.0
  0
LINE
  5
385
330
1E
100
AcDbEntity
  8
0
100
AcDbLine
 10
85.9562
 20
1.000000000000019
 30
0.0
 11
86.41240000000001
 21
1.000000000000019
 31
0.0
  0
LINE
  5
386
330
1E
100
AcDbEntity
  8
0
100
AcDbLine
 10
57.3941
 20
1.000000000000019
 30
0.0
 11
60.8
 21
1.000000000000019
 31
0.0
  0
LINE
  5
387
330
1E
100
AcDbEntity
  8
0
100
AcDbLine
 10
44.7458
 20
1.000000000000019
 30
0.0
 11
47.4412
 21
1.000000000000019
 31
0.0
  0
LINE
  5
388
330
1E
100
AcDbEntity
  8
0
100
AcDbLine
 10
39.3733
 20
1.000000000000019
 30
0.0
 11
41.6882
 21
1.000000000000019
 31
0.0
  0
LINE
  5
389
330
1E
100
AcDbEntity
  8
0
100
AcDbLine
 10
36.847
 20
1.000000000000019
 30
0.0
 11
37.44149999999999
 21
1.000000000000019
 31
0.0
  0
LINE
  5
38B
330
1E
100
AcDbEntity
  8
0
100
AcDbLine
 10
29.6777
 20
1.000000000000019
 30
0.0
 11
34.0
 21
1.000000000000019
 31
0.0
  0
LINE
  5
38C
330
1E
100
AcDbEntity
  8
0
100
AcDbLine
 10
24.8845
 20
1.000000000000019
 30
0.0
 11
27.82999999999999
 21
1.000000000000019
 31
0.0
  0
LINE
  5
390
330
1E
100
AcDbEntity
  8
0
100
AcDbLine
 10
22.5
 20
1.000000000000019
 30
0.0
 11
22.9526
 21
1.000000000000019
 31
0.0
  0
LINE
  5
391
330
1E
100
AcDbEntity
  8
0
100
AcDbLine
 10
21.97529999999999
 20
1.000000000000019
 30
0.0
 11
22.5
 21
1.000000000000019
 31
0.0
  0
LINE
  5
393
330
1E
100
AcDbEntity
  8
0
100
AcDbLine
 10
19.0
 20
1.000000000000019
 30
0.0
 11
19.3
 21
1.000000000000019
 31
0.0
  0
LINE
  5
395
330
1E
100
AcDbEntity
  8
0
100
AcDbLine
 10
19.3
 20
1.000000000000019
 30
0.0
 11
19.9924
 21
1.000000000000019
 31
0.0
  0
LINE
  5
397
330
1E
100
AcDbEntity
  8
0
100
AcDbLine
 10
34.0
 20
1.000000000000019
 30
0.0
 11
34.29999999999999
 21
1.000000000000019
 31
0.0
  0
LINE
  5
39A
330
1E
100
AcDbEntity
  8
0
100
AcDbLine
 10
34.29999999999999
 20
1.000000000000019
 30
0.0
 11
34.45089999999999
 21
1.000000000000019
 31
0.0
  0
LINE
  5
39B
330
1E
100
AcDbEntity
  8
0
100
AcDbLine
 10
17.4
 20
1.000000000000019
 30
0.0
 11
19.0
 21
1.000000000000019
 31
0.0
  0
LINE
  5
39C
330
1E
100
AcDbEntity
  8
0
100
AcDbLine
 10
14.19999999999999
 20
1.000000000000019
 30
0.0
 11
17.4
 21
1.000000000000019
 31
0.0
  0
LINE
  5
39D
330
1E
100
AcDbEntity
  8
0
100
AcDbLine
 10
-0.0000000000000052
 20
4.500000000000019
 30
0.0
 11
0.4999999999999951
 21
5.500000000000018
 31
0.0
  0
LINE
  5
39E
330
1E
100
AcDbEntity
  8
0
100
AcDbLine
 10
-0.0000000000000052
 20
4.500000000000019
 30
0.0
 11
-0.0000000000000052
 21
4.00000000000002
 31
0.0
  0
LINE
  5
39F
330
1E
100
AcDbEntity
  8
0
100
AcDbLine
 10
1.799999999999989
 20
3.000000000000029
 30
0.0
 11
5.299999999999999
 21
3.000000000000029
 31
0.0
  0
LINE
  5
3A0
330
1E
100
AcDbEntity
  8
0
100
AcDbLine
 10
1.799999999999989
 20
3.000000000000029
 30
0.0
 11
5.299999999999999
 21
3.000000000000029
 31
0.0
  0
LINE
  5
3A1
330
1E
100
AcDbEntity
  8
0
100
AcDbLine
 10
1.499999999999989
 20
6.500000000000018
 30
0.0
 11
3.0
 21
9.000000000000019
 31
0.0
  0
LINE
  5
3A2
330
1E
100
AcDbEntity
  8
0
100
AcDbLine
 10
0.4999999999999951
 20
5.500000000000018
 30
0.0
 11
1.499999999999989
 21
6.500000000000018
 31
0.0
  0
LINE
  5
3A3
330
1E
100
AcDbEntity
  8
0
100
AcDbLine
 10
-0.0000000000000052
 20
4.00000000000002
 30
0.0
 11
0.4999999999999951
 21
3.00000000000002
 31
0.0
  0
LINE
  5
3A4
330
1E
100
AcDbEntity
  8
0
100
AcDbLine
 10
-0.0000000000000052
 20
4.00000000000002
 30
0.0
 11
-0.0000000000000052
 21
4.500000000000019
 31
0.0
  0
LINE
  5
3A5
330
1E
100
AcDbEntity
  8
0
100
AcDbLine
 10
0.4999999999999951
 20
3.00000000000002
 30
0.0
 11
1.999999999999989
 21
2.500000000000019
 31
0.0
  0
LINE
  5
3A6
330
1E
100
AcDbEntity
  8
0
100
AcDbLine
 10
0.4999999999999951
 20
3.00000000000002
 30
0.0
 11
1.799999999999989
 21
3.000000000000029
 31
0.0
  0
LINE
  5
3A8
330
1E
100
AcDbEntity
  8
0
100
AcDbLine
 10
21.11439999999999
 20
1.00000000000003
 30
0.0
 11
21.7692
 21
1.00000000000003
 31
0.0
  0
LINE
  5
3AA
330
1E
100
AcDbEntity
  8
0
100
AcDbLine
 10
21.7692
 20
1.00000000000003
 30
0.0
 11
21.97529999999999
 21
1.00000000000003
 31
0.0
  0
LINE
  5
3AD
330
1E
100
AcDbEntity
  8
0
100
AcDbLine
 10
19.9924
 20
1.00000000000003
 30
0.0
 11
20.3812
 21
1.00000000000003
 31
0.0
  0
LINE
  5
3AF
330
1E
100
AcDbEntity
  8
0
100
AcDbLine
 10
20.3812
 20
1.00000000000003
 30
0.0
 11
21.11439999999999
 21
1.00000000000003
 31
0.0
  0
LINE
  5
3B0
330
1E
100
AcDbEntity
  8
0
100
AcDbLine
 10
36.3633
 20
1.00000000000003
 30
0.0
 11
36.6409
 21
1.00000000000003
 31
0.0
  0
LINE
  5
3B2
330
1E
100
AcDbEntity
  8
0
100
AcDbLine
 10
36.6409
 20
1.00000000000003
 30
0.0
 11
36.847
 21
1.00000000000003
 31
0.0
  0
LINE
  5
3B5
330
1E
100
AcDbEntity
  8
0
100
AcDbLine
 10
22.9526
 20
1.00000000000003
 30
0.0
 11
23.4236
 21
1.00000000000003
 31
0.0
  0
LINE
  5
3B7
330
1E
100
AcDbEntity
  8
0
100
AcDbLine
 10
24.7759
 20
1.00000000000003
 30
0.0
 11
24.8845
 21
1.00000000000003
 31
0.0
  0
LINE
  5
3B9
330
1E
100
AcDbEntity
  8
0
100
AcDbLine
 10
24.1773
 20
1.00000000000003
 30
0.0
 11
24.7759
 21
1.00000000000003
 31
0.0
  0
LINE
  5
3BC
330
1E
100
AcDbEntity
  8
0
100
AcDbLine
 10
23.4236
 20
1.00000000000003
 30
0.0
 11
24.1773
 21
1.00000000000003
 31
0.0
  0
LINE
  5
3BE
330
1E
100
AcDbEntity
  8
0
100
AcDbLine
 10
37.44149999999999
 20
1.00000000000003
 30
0.0
 11
37.9124
 21
1.00000000000003
 31
0.0
  0
LINE
  5
3C0
330
1E
100
AcDbEntity
  8
0
100
AcDbLine
 10
38.6662
 20
1.00000000000003
 30
0.0
 11
39.2647
 21
1.00000000000003
 31
0.0
  0
LINE
  5
3C2
330
1E
100
AcDbEntity
  8
0
100
AcDbLine
 10
39.2647
 20
1.00000000000003
 30
0.0
 11
39.3733
 21
1.00000000000003
 31
0.0
  0
LINE
  5
3C5
330
1E
100
AcDbEntity
  8
0
100
AcDbLine
 10
37.9124
 20
1.00000000000003
 30
0.0
 11
38.6662
 21
1.00000000000003
 31
0.0
  0
LINE
  5
3C7
330
1E
100
AcDbEntity
  8
0
100
AcDbLine
 10
27.82999999999999
 20
1.00000000000003
 30
0.0
 11
28.375
 21
1.00000000000003
 31
0.0
  0
LINE
  5
3C9
330
1E
100
AcDbEntity
  8
0
100
AcDbLine
 10
29.1365
 20
1.00000000000003
 30
0.0
 11
29.66839999999999
 21
1.00000000000003
 31
0.0
  0
LINE
  5
3CD
330
1E
100
AcDbEntity
  8
0
100
AcDbLine
 10
28.375
 20
1.00000000000003
 30
0.0
 11
29.1365
 21
1.00000000000003
 31
0.0
  0
LINE
  5
3CF
330
1E
100
AcDbEntity
  8
0
100
AcDbLine
 10
41.6882
 20
1.00000000000003
 30
0.0
 11
42.2332
 21
1.00000000000003
 31
0.0
  0
LINE
  5
3D1
330
1E
100
AcDbEntity
  8
0
100
AcDbLine
 10
42.2332
 20
1.00000000000003
 30
0.0
 11
42.7829
 21
1.00000000000003
 31
0.0
  0
LINE
  5
3D3
330
1E
100
AcDbEntity
  8
0
100
AcDbLine
 10
34.45089999999999
 20
1.00000000000003
 30
0.0
 11
34.5411
 21
1.00000000000003
 31
0.0
  0
LINE
  5
3D5
330
1E
100
AcDbEntity
  8
0
100
AcDbLine
 10
35.9071
 20
1.00000000000003
 30
0.0
 11
36.3633
 21
1.00000000000003
 31
0.0
  0
LINE
  5
3D8
330
1E
100
AcDbEntity
  8
0
100
AcDbLine
 10
34.5411
 20
1.00000000000003
 30
0.0
 11
35.1509
 21
1.00000000000003
 31
0.0
  0
LINE
  5
3DA
330
1E
100
AcDbEntity
  8
0
100
AcDbLine
 10
35.1509
 20
1.00000000000003
 30
0.0
 11
35.9071
 21
1.00000000000003
 31
0.0
  0
LINE
  5
3DC
330
1E
100
AcDbEntity
  8
0
100
AcDbLine
 10
42.7829
 20
1.00000000000003
 30
0.0
 11
42.971
 21
1.00000000000003
 31
0.0
  0
LINE
  5
3DE
330
1E
100
AcDbEntity
  8
0
100
AcDbLine
 10
42.971
 20
1.00000000000003
 30
0.0
 11
43.6352
 21
1.00000000000003
 31
0.0
  0
LINE
  5
3E0
330
1E
100
AcDbEntity
  8
0
100
AcDbLine
 10
47.4412
 20
1.00000000000003
 30
0.0
 11
47.5314
 21
1.00000000000003
 31
0.0
  0
LINE
  5
3E2
330
1E
100
AcDbEntity
  8
0
100
AcDbLine
 10
48.8975
 20
1.00000000000003
 30
0.0
 11
49.3537
 21
1.00000000000003
 31
0.0
  0
LINE
  5
3E4
330
1E
100
AcDbEntity
  8
0
100
AcDbLine
 10
47.5314
 20
1.00000000000003
 30
0.0
 11
48.14119999999999
 21
1.00000000000003
 31
0.0
  0
LINE
  5
3E6
330
1E
100
AcDbEntity
  8
0
100
AcDbLine
 10
48.14119999999999
 20
1.00000000000003
 30
0.0
 11
48.8975
 21
1.00000000000003
 31
0.0
  0
LINE
  5
3E8
330
1E
100
AcDbEntity
  8
0
100
AcDbLine
 10
44.3731
 20
1.00000000000003
 30
0.0
 11
44.7458
 21
1.00000000000003
 31
0.0
  0
LINE
  5
3EB
330
1E
100
AcDbEntity
  8
0
100
AcDbLine
 10
43.6352
 20
1.00000000000003
 30
0.0
 11
44.3731
 21
1.00000000000003
 31
0.0
  0
LINE
  5
3EC
330
1E
100
AcDbEntity
  8
0
100
AcDbLine
 10
38.39999999999999
 20
1.00000000000003
 30
0.0
 11
48.9
 21
1.00000000000003
 31
0.0
  0
LINE
  5
3ED
330
1E
100
AcDbEntity
  8
0
100
AcDbLine
 10
29.3
 20
1.00000000000003
 30
0.0
 11
38.39999999999999
 21
1.00000000000003
 31
0.0
  0
LINE
  5
3EE
330
1E
100
AcDbEntity
  8
0
100
AcDbLine
 10
22.5
 20
1.00000000000003
 30
0.0
 11
29.3
 21
1.00000000000003
 31
0.0
  0
LINE
  5
3EF
330
1E
100
AcDbEntity
  8
0
100
AcDbLine
 10
17.4
 20
1.00000000000003
 30
0.0
 11
22.5
 21
1.00000000000003
 31
0.0
  0
LINE
  5
3F0
330
1E
100
AcDbEntity
  8
0
100
AcDbLine
 10
14.19999999999999
 20
1.00000000000003
 30
0.0
 11
17.4
 21
1.00000000000003
 31
0.0
  0
LINE
  5
3F2
330
1E
100
AcDbEntity
  8
0
100
AcDbLine
 10
48.9
 20
1.00000000000003
 30
0.0
 11
60.8
 21
1.00000000000003
 31
0.0
  0
LINE
  5
3F3
330
1E
100
AcDbEntity
  8
0
100
AcDbLine
 10
12.4
 20
2.500000000000019
 30
0.0
 11
13.0
 21
2.500000000000019
 31
0.0
  0
LINE
  5
3F4
330
1E
100
AcDbEntity
  8
0
100
AcDbLine
 10
6.799999999999999
 20
2.500000000000019
 30
0.0
 11
12.4
 21
2.500000000000019
 31
0.0
  0
LINE
  5
3F5
330
1E
100
AcDbEntity
  8
0
100
AcDbLine
 10
11.0
 20
3.000000000000029
 30
0.0
 11
18.5
 21
3.000000000000029
 31
0.0
  0
LINE
  5
3F6
330
1E
100
AcDbEntity
  8
0
100
AcDbLine
 10
5.299999999999999
 20
3.000000000000029
 30
0.0
 11
11.0
 21
3.000000000000029
 31
0.0
  0
LINE
  5
3F7
330
1E
100
AcDbEntity
  8
0
100
AcDbLine
 10
28.5
 20
3.000000000000029
 30
0.0
 11
40.1
 21
3.000000000000029
 31
0.0
  0
LINE
  5
3F8
330
1E
100
AcDbEntity
  8
0
100
AcDbLine
 10
18.5
 20
3.000000000000029
 30
0.0
 11
28.5
 21
3.000000000000029
 31
0.0
  0
LINE
  5
3F9
330
1E
100
AcDbEntity
  8
0
100
AcDbLine
 10
38.39999999999999
 20
2.500000000000029
 30
0.0
 11
48.9
 21
2.500000000000029
 31
0.0
  0
LINE
  5
3FA
330
1E
100
AcDbEntity
  8
0
100
AcDbLine
 10
29.3
 20
2.500000000000029
 30
0.0
 11
38.39999999999999
 21
2.500000000000029
 31
0.0
  0
LINE
  5
3FB
330
1E
100
AcDbEntity
  8
0
100
AcDbLine
 10
22.5
 20
2.500000000000029
 30
0.0
 11
29.3
 21
2.500000000000029
 31
0.0
  0
LINE
  5
3FC
330
1E
100
AcDbEntity
  8
0
100
AcDbLine
 10
17.4
 20
2.500000000000029
 30
0.0
 11
22.5
 21
2.500000000000029
 31
0.0
  0
LINE
  5
3FD
330
1E
100
AcDbEntity
  8
0
100
AcDbLine
 10
14.19999999999999
 20
2.500000000000029
 30
0.0
 11
17.4
 21
2.500000000000029
 31
0.0
  0
LINE
  5
3FE
330
1E
100
AcDbEntity
  8
0
100
AcDbLine
 10
13.0
 20
2.500000000000019
 30
0.0
 11
13.0
 21
1.000000000000019
 31
0.0
  0
LINE
  5
3FF
330
1E
100
AcDbEntity
  8
0
100
AcDbLine
 10
13.0
 20
2.500000000000019
 30
0.0
 11
14.19999999999999
 21
2.500000000000029
 31
0.0
  0
LINE
  5
400
330
1E
100
AcDbEntity
  8
0
100
AcDbLine
 10
40.1
 20
3.000000000000029
 30
0.0
 11
53.2
 21
3.000000000000029
 31
0.0
  0
LINE
  5
401
330
1E
100
AcDbEntity
  8
0
100
AcDbLine
 10
48.9
 20
2.500000000000029
 30
0.0
 11
60.8
 21
2.500000000000029
 31
0.0
  0
LINE
  5
402
330
1E
100
AcDbEntity
  8
0
100
AcDbLine
 10
9.8
 20
27.5
 30
0.0
 11
13.1
 21
27.5
 31
0.0
  0
LINE
  5
403
330
1E
100
AcDbEntity
  8
0
100
AcDbLine
 10
34.79999999999999
 20
27.5
 30
0.0
 11
45.7
 21
27.5
 31
0.0
  0
LINE
  5
404
330
1E
100
AcDbEntity
  8
0
100
AcDbLine
 10
25.4
 20
27.5
 30
0.0
 11
34.79999999999999
 21
27.5
 31
0.0
  0
LINE
  5
405
330
1E
100
AcDbEntity
  8
0
100
AcDbLine
 10
18.39999999999999
 20
27.5
 30
0.0
 11
25.4
 21
27.5
 31
0.0
  0
LINE
  5
406
330
1E
100
AcDbEntity
  8
0
100
AcDbLine
 10
13.1
 20
27.5
 30
0.0
 11
18.39999999999999
 21
27.5
 31
0.0
  0
LINE
  5
407
330
1E
100
AcDbEntity
  8
0
100
AcDbLine
 10
45.7
 20
27.5
 30
0.0
 11
58.1
 21
27.5
 31
0.0
  0
LINE
  5
408
330
1E
100
AcDbEntity
  8
0
100
AcDbLine
 10
34.0
 20
29.0
 30
0.0
 11
71.0
 21
30.0
 31
0.0
  0
LINE
  5
409
330
1E
100
AcDbEntity
  8
0
100
AcDbLine
 10
10.0
 20
28.0
 30
0.0
 11
34.0
 21
29.0
 31
0.0
  0
LINE
  5
40A
330
1E
100
AcDbEntity
  8
0
100
AcDbLine
 10
8.499999999999991
 20
27.5
 30
0.0
 11
10.0
 21
28.0
 31
0.0
  0
LINE
  5
40B
330
1E
100
AcDbEntity
  8
0
100
AcDbLine
 10
8.499999999999991
 20
27.5
 30
0.0
 11
9.8
 21
27.5
 31
0.0
  0
LINE
  5
40C
330
1E
100
AcDbEntity
  8
0
100
AcDbLine
 10
7.49999999999999
 20
26.0
 30
0.0
 11
8.499999999999991
 21
27.5
 31
0.0
  0
LINE
  5
40D
330
1E
100
AcDbEntity
  8
0
100
AcDbLine
 10
6.99999999999999
 20
23.0
 30
0.0
 11
7.49999999999999
 21
26.0
 31
0.0
  0
LINE
  5
40E
330
1E
100
AcDbEntity
  8
0
100
AcDbLine
 10
6.5
 20
20.0
 30
0.0
 11
6.99999999999999
 21
23.0
 31
0.0
  0
LINE
  5
40F
330
1E
100
AcDbEntity
  8
0
100
AcDbLine
 10
4.99999999999999
 20
14.0
 30
0.0
 11
6.5
 21
20.0
 31
0.0
  0
LINE
  5
410
330
1E
100
AcDbEntity
  8
0
100
AcDbLine
 10
3.0
 20
9.000000000000019
 30
0.0
 11
4.99999999999999
 21
14.0
 31
0.0
  0
LINE
  5
411
330
1E
100
AcDbEntity
  8
0
100
AcDbLine
 10
3.29999999999999
 20
2.500000000000019
 30
0.0
 11
6.799999999999999
 21
2.500000000000019
 31
0.0
  0
LINE
  5
412
330
1E
100
AcDbEntity
  8
0
100
AcDbLine
 10
1.999999999999989
 20
2.500000000000019
 30
0.0
 11
3.29999999999999
 21
2.500000000000019
 31
0.0
  0
LINE
  5
413
330
1E
100
AcDbEntity
  8
0
100
AcDbLine
 10
13.0
 20
1.000000000000019
 30
0.0
 11
14.19999999999999
 21
1.000000000000019
 31
0.0
  0
LINE
  5
414
330
1E
100
AcDbEntity
  8
0
100
AcDbLine
 10
13.0
 20
1.000000000000019
 30
0.0
 11
13.0
 21
2.500000000000019
 31
0.0
  0
LINE
  5
415
330
1E
100
AcDbEntity
  8
0
100
AcDbLine
 10
13.0
 20
1.000000000000019
 30
0.0
 11
14.19999999999999
 21
1.00000000000003
 31
0.0
  0
LINE
  5
419
330
1E
100
AcDbEntity
  8
0
100
AcDbLine
 10
50.8577
 20
1.00000000000003
 30
0.0
 11
51.5126
 21
1.00000000000003
 31
0.0
  0
LINE
  5
41B
330
1E
100
AcDbEntity
  8
0
100
AcDbLine
 10
51.5126
 20
1.00000000000003
 30
0.0
 11
51.7186
 21
1.00000000000003
 31
0.0
  0
LINE
  5
41E
330
1E
100
AcDbEntity
  8
0
100
AcDbLine
 10
49.7357
 20
1.00000000000003
 30
0.0
 11
50.1245
 21
1.00000000000003
 31
0.0
  0
LINE
  5
420
330
1E
100
AcDbEntity
  8
0
100
AcDbLine
 10
50.1245
 20
1.00000000000003
 30
0.0
 11
50.8577
 21
1.00000000000003
 31
0.0
  0
LINE
  5
422
330
1E
100
AcDbEntity
  8
0
100
AcDbLine
 10
52.6928
 20
1.00000000000003
 30
0.0
 11
52.9756
 21
1.00000000000003
 31
0.0
  0
LINE
  5
424
330
1E
100
AcDbEntity
  8
0
100
AcDbLine
 10
52.9756
 20
1.00000000000003
 30
0.0
 11
53.68269999999999
 21
1.00000000000003
 31
0.0
  0
LINE
  5
427
330
1E
100
AcDbEntity
  8
0
100
AcDbLine
 10
54.6832
 20
1.00000000000003
 30
0.0
 11
54.8713
 21
1.00000000000003
 31
0.0
  0
LINE
  5
429
330
1E
100
AcDbEntity
  8
0
100
AcDbLine
 10
56.2734
 20
1.00000000000003
 30
0.0
 11
56.64609999999999
 21
1.00000000000003
 31
0.0
  0
LINE
  5
42C
330
1E
100
AcDbEntity
  8
0
100
AcDbLine
 10
54.8713
 20
1.00000000000003
 30
0.0
 11
55.5355
 21
1.00000000000003
 31
0.0
  0
LINE
  5
42E
330
1E
100
AcDbEntity
  8
0
100
AcDbLine
 10
55.5355
 20
1.00000000000003
 30
0.0
 11
56.2734
 21
1.00000000000003
 31
0.0
  0
LINE
  5
431
330
1E
100
AcDbEntity
  8
0
100
AcDbLine
 10
56.8529
 20
1.00000000000003
 30
0.0
 11
57.3848
 21
1.00000000000003
 31
0.0
  0
LINE
  5
433
330
1E
100
AcDbEntity
  8
0
100
AcDbLine
 10
56.64609999999999
 20
1.00000000000003
 30
0.0
 11
56.8529
 21
1.00000000000003
 31
0.0
  0
LINE
  5
435
330
1E
100
AcDbEntity
  8
0
100
AcDbLine
 10
54.3898
 20
1.00000000000003
 30
0.0
 11
54.6727
 21
1.00000000000003
 31
0.0
  0
LINE
  5
438
330
1E
100
AcDbEntity
  8
0
100
AcDbLine
 10
53.68269999999999
 20
1.00000000000003
 30
0.0
 11
54.3898
 21
1.00000000000003
 31
0.0
  0
LINE
  5
439
330
1E
100
AcDbEntity
  8
0
100
AcDbLine
 10
58.1
 20
27.5
 30
0.0
 11
72.0
 21
27.5
 31
0.0
  0
LINE
  5
43A
330
1E
100
AcDbEntity
  8
0
100
AcDbLine
 10
53.2
 20
3.000000000000029
 30
0.0
 11
68.0
 21
3.000000000000029
 31
0.0
  0
LINE
  5
43B
330
1E
100
AcDbEntity
  8
0
100
AcDbLine
 10
60.8
 20
2.500000000000029
 30
0.0
 11
74.29999999999999
 21
2.500000000000029
 31
0.0
  0
LINE
  5
43C
330
1E
100
AcDbEntity
  8
0
100
AcDbLine
 10
60.8
 20
1.00000000000003
 30
0.0
 11
74.29999999999999
 21
1.00000000000003
 31
0.0
  0
LINE
  5
43D
330
1E
100
AcDbEntity
  8
0
100
AcDbLine
 10
51.7186
 20
1.000000000000019
 30
0.0
 11
52.6928
 21
1.000000000000019
 31
0.0
  0
LINE
  5
43E
330
1E
100
AcDbEntity
  8
0
100
AcDbLine
 10
49.3537
 20
1.000000000000019
 30
0.0
 11
49.7357
 21
1.000000000000019
 31
0.0
  0
LINE
  5
43F
330
1E
100
AcDbEntity
  8
0
100
AcDbLine
 10
71.25230000000001
 20
1.000000000000019
 30
0.0
 11
73.14239999999999
 21
1.000000000000019
 31
0.0
  0
LINE
  5
442
330
1E
100
AcDbEntity
  8
0
100
AcDbLine
 10
63.2994
 20
1.00000000000003
 30
0.0
 11
63.5822
 21
1.00000000000003
 31
0.0
  0
LINE
  5
444
330
1E
100
AcDbEntity
  8
0
100
AcDbLine
 10
63.5822
 20
1.00000000000003
 30
0.0
 11
64.01100000000001
 21
1.00000000000003
 31
0.0
  0
LINE
  5
446
330
1E
100
AcDbEntity
  8
0
100
AcDbLine
 10
64.01100000000001
 20
1.00000000000003
 30
0.0
 11
64.3837
 21
1.00000000000003
 31
0.0
  0
LINE
  5
448
330
1E
100
AcDbEntity
  8
0
100
AcDbLine
 10
64.3837
 20
1.00000000000003
 30
0.0
 11
65.12170000000001
 21
1.00000000000003
 31
0.0
  0
LINE
  5
449
330
1E
100
AcDbEntity
  8
0
100
AcDbLine
 10
65.9739
 20
1.00000000000003
 30
0.0
 11
66.3842
 21
1.00000000000003
 31
0.0
  0
LINE
  5
44B
330
1E
100
AcDbEntity
  8
0
100
AcDbLine
 10
66.3842
 20
1.00000000000003
 30
0.0
 11
66.5835
 21
1.00000000000003
 31
0.0
  0
LINE
  5
44D
330
1E
100
AcDbEntity
  8
0
100
AcDbLine
 10
66.5835
 20
1.00000000000003
 30
0.0
 11
66.7716
 21
1.00000000000003
 31
0.0
  0
LINE
  5
450
330
1E
100
AcDbEntity
  8
0
100
AcDbLine
 10
69.4046
 20
1.00000000000003
 30
0.0
 11
69.9496
 21
1.00000000000003
 31
0.0
  0
LINE
  5
452
330
1E
100
AcDbEntity
  8
0
100
AcDbLine
 10
70.7111
 20
1.00000000000003
 30
0.0
 11
71.24299999999999
 21
1.00000000000003
 31
0.0
  0
LINE
  5
454
330
1E
100
AcDbEntity
  8
0
100
AcDbLine
 10
69.9496
 20
1.00000000000003
 30
0.0
 11
70.7111
 21
1.00000000000003
 31
0.0
  0
LINE
  5
456
330
1E
100
AcDbEntity
  8
0
100
AcDbLine
 10
68.1737
 20
1.00000000000003
 30
0.0
 11
68.5464
 21
1.00000000000003
 31
0.0
  0
LINE
  5
459
330
1E
100
AcDbEntity
  8
0
100
AcDbLine
 10
66.7716
 20
1.00000000000003
 30
0.0
 11
67.4358
 21
1.00000000000003
 31
0.0
  0
LINE
  5
45B
330
1E
100
AcDbEntity
  8
0
100
AcDbLine
 10
67.4358
 20
1.00000000000003
 30
0.0
 11
68.1737
 21
1.00000000000003
 31
0.0
  0
LINE
  5
45D
330
1E
100
AcDbEntity
  8
0
100
AcDbLine
 10
65.78579999999999
 20
1.00000000000003
 30
0.0
 11
65.9739
 21
1.00000000000003
 31
0.0
  0
LINE
  5
460
330
1E
100
AcDbEntity
  8
0
100
AcDbLine
 10
65.12170000000001
 20
1.00000000000003
 30
0.0
 11
65.78579999999999
 21
1.00000000000003
 31
0.0
  0
LINE
  5
461
330
1E
100
AcDbEntity
  8
0
100
AcDbLine
 10
68.0
 20
3.000000000000029
 30
0.0
 11
83.59999999999999
 21
3.000000000000029
 31
0.0
  0
LINE
  5
466
330
1E
100
AcDbEntity
  8
0
100
AcDbLine
 10
73.14239999999999
 20
1.00000000000003
 30
0.0
 11
73.51510000000001
 21
1.00000000000003
 31
0.0
  0
LINE
  5
468
330
1E
100
AcDbEntity
  8
0
100
AcDbLine
 10
73.51510000000001
 20
1.00000000000003
 30
0.0
 11
74.2531
 21
1.00000000000003
 31
0.0
  0
LINE
  5
46A
330
1E
100
AcDbEntity
  8
0
100
AcDbLine
 10
74.2531
 20
1.00000000000003
 30
0.0
 11
74.91719999999999
 21
1.00000000000003
 31
0.0
  0
LINE
  5
46E
330
1E
100
AcDbEntity
  8
0
100
AcDbLine
 10
78.4838
 20
1.00000000000003
 30
0.0
 11
78.67189999999999
 21
1.00000000000003
 31
0.0
  0
LINE
  5
470
330
1E
100
AcDbEntity
  8
0
100
AcDbLine
 10
78.67189999999999
 20
1.00000000000003
 30
0.0
 11
79.3361
 21
1.00000000000003
 31
0.0
  0
LINE
  5
471
330
1E
100
AcDbEntity
  8
0
100
AcDbLine
 10
80.44670000000001
 20
1.000000000000019
 30
0.0
 11
80.7
 21
1.000000000000019
 31
0.0
  0
LINE
  5
473
330
1E
100
AcDbEntity
  8
0
100
AcDbLine
 10
80.7
 20
1.000000000000019
 30
0.0
 11
80.90819999999999
 21
1.000000000000019
 31
0.0
  0
LINE
  5
475
330
1E
100
AcDbEntity
  8
0
100
AcDbLine
 10
82.1329
 20
1.00000000000003
 30
0.0
 11
82.2738
 21
1.00000000000003
 31
0.0
  0
LINE
  5
477
330
1E
100
AcDbEntity
  8
0
100
AcDbLine
 10
80.90819999999999
 20
1.00000000000003
 30
0.0
 11
81.37909999999999
 21
1.00000000000003
 31
0.0
  0
LINE
  5
479
330
1E
100
AcDbEntity
  8
0
100
AcDbLine
 10
81.37909999999999
 20
1.00000000000003
 30
0.0
 11
82.1329
 21
1.00000000000003
 31
0.0
  0
LINE
  5
47B
330
1E
100
AcDbEntity
  8
0
100
AcDbLine
 10
80.074
 20
1.00000000000003
 30
0.0
 11
80.44670000000001
 21
1.00000000000003
 31
0.0
  0
LINE
  5
47E
330
1E
100
AcDbEntity
  8
0
100
AcDbLine
 10
79.3361
 20
1.00000000000003
 30
0.0
 11
80.074
 21
1.00000000000003
 31
0.0
  0
LINE
  5
480
330
1E
100
AcDbEntity
  8
0
100
AcDbLine
 10
82.2738
 20
1.00000000000003
 30
0.0
 11
82.64650000000001
 21
1.00000000000003
 31
0.0
  0
LINE
  5
483
330
1E
100
AcDbEntity
  8
0
100
AcDbLine
 10
86.41240000000001
 20
1.00000000000003
 30
0.0
 11
86.50260000000001
 21
1.00000000000003
 31
0.0
  0
LINE
  5
485
330
1E
100
AcDbEntity
  8
0
100
AcDbLine
 10
87.8686
 20
1.00000000000003
 30
0.0
 11
88.3248
 21
1.00000000000003
 31
0.0
  0
LINE
  5
488
330
1E
100
AcDbEntity
  8
0
100
AcDbLine
 10
86.50260000000001
 20
1.00000000000003
 30
0.0
 11
87.1124
 21
1.00000000000003
 31
0.0
  0
LINE
  5
48A
330
1E
100
AcDbEntity
  8
0
100
AcDbLine
 10
87.1124
 20
1.00000000000003
 30
0.0
 11
87.8686
 21
1.00000000000003
 31
0.0
  0
LINE
  5
48C
330
1E
100
AcDbEntity
  8
0
100
AcDbLine
 10
82.64650000000001
 20
1.00000000000003
 30
0.0
 11
83.38449999999999
 21
1.00000000000003
 31
0.0
  0
LINE
  5
48E
330
1E
100
AcDbEntity
  8
0
100
AcDbLine
 10
83.38449999999999
 20
1.00000000000003
 30
0.0
 11
84.04380000000001
 21
1.00000000000003
 31
0.0
  0
LINE
  5
490
330
1E
100
AcDbEntity
  8
0
100
AcDbLine
 10
74.91719999999999
 20
1.00000000000003
 30
0.0
 11
75.1053
 21
1.00000000000003
 31
0.0
  0
LINE
  5
492
330
1E
100
AcDbEntity
  8
0
100
AcDbLine
 10
76.5438
 20
1.00000000000003
 30
0.0
 11
77.0
 21
1.00000000000003
 31
0.0
  0
LINE
  5
494
330
1E
100
AcDbEntity
  8
0
100
AcDbLine
 10
77.0
 20
1.00000000000003
 30
0.0
 11
77.7562
 21
1.00000000000003
 31
0.0
  0
LINE
  5
496
330
1E
100
AcDbEntity
  8
0
100
AcDbLine
 10
84.04380000000001
 20
1.00000000000003
 30
0.0
 11
84.50000000000001
 21
1.00000000000003
 31
0.0
  0
LINE
  5
498
330
1E
100
AcDbEntity
  8
0
100
AcDbLine
 10
85.866
 20
1.00000000000003
 30
0.0
 11
85.9562
 21
1.00000000000003
 31
0.0
  0
LINE
  5
49B
330
1E
100
AcDbEntity
  8
0
100
AcDbLine
 10
84.50000000000001
 20
1.00000000000003
 30
0.0
 11
85.25620000000001
 21
1.00000000000003
 31
0.0
  0
LINE
  5
49D
330
1E
100
AcDbEntity
  8
0
100
AcDbLine
 10
85.25620000000001
 20
1.00000000000003
 30
0.0
 11
85.866
 21
1.00000000000003
 31
0.0
  0
LINE
  5
49F
330
1E
100
AcDbEntity
  8
0
100
AcDbLine
 10
78.366
 20
1.00000000000003
 30
0.0
 11
78.4562
 21
1.00000000000003
 31
0.0
  0
LINE
  5
4A2
330
1E
100
AcDbEntity
  8
0
100
AcDbLine
 10
77.7562
 20
1.00000000000003
 30
0.0
 11
78.366
 21
1.00000000000003
 31
0.0
  0
LINE
  5
4A4
330
1E
100
AcDbEntity
  8
0
100
AcDbLine
 10
74.29999999999999
 20
1.00000000000003
 30
0.0
 11
88.40000000000001
 21
1.00000000000003
 31
0.0
  0
LINE
  5
4A5
330
1E
100
AcDbEntity
  8
0
100
AcDbLine
 10
72.0
 20
27.5
 30
0.0
 11
86.69999999999999
 21
27.5
 31
0.0
  0
LINE
  5
4A6
330
1E
100
AcDbEntity
  8
0
100
AcDbLine
 10
86.69999999999999
 20
27.5
 30
0.0
 11
102.4
 21
27.5
 31
0.0
  0
LINE
  5
4A7
330
1E
100
AcDbEntity
  8
0
100
AcDbLine
 10
83.59999999999999
 20
3.000000000000029
 30
0.0
 11
100.2999999999999
 21
3.000000000000029
 31
0.0
  0
LINE
  5
4A8
330
1E
100
AcDbEntity
  8
0
100
AcDbLine
 10
74.29999999999999
 20
2.500000000000029
 30
0.0
 11
88.40000000000001
 21
2.500000000000029
 31
0.0
  0
LINE
  5
4A9
330
1E
100
AcDbEntity
  8
0
100
AcDbLine
 10
88.40000000000001
 20
2.500000000000029
 30
0.0
 11
103.4999999999999
 21
2.500000000000029
 31
0.0
  0
LINE
  5
4AA
330
1E
100
AcDbEntity
  8
0
100
AcDbLine
 10
88.40000000000001
 20
1.00000000000003
 30
0.0
 11
103.4999999999999
 21
1.00000000000003
 31
0.0
  0
LINE
  5
4AB
330
1E
100
AcDbEntity
  8
0
100
AcDbLine
 10
71.0
 20
30.0
 30
0.0
 11
105.0
 21
31.0
 31
0.0
  0
LINE
  5
4AC
330
1E
100
AcDbEntity
  8
0
100
AcDbLine
 10
68.5464
 20
1.000000000000019
 30
0.0
 11
69.4046
 21
1.000000000000019
 31
0.0
  0
LINE
  5
4AD
330
1E
100
AcDbEntity
  8
0
100
AcDbLine
 10
60.8
 20
1.000000000000019
 30
0.0
 11
63.2994
 21
1.000000000000019
 31
0.0
  0
LINE
  5
4AE
330
1E
100
AcDbEntity
  8
0
100
AcDbLine
 10
75.1053
 20
1.000000000000019
 30
0.0
 11
76.5438
 21
1.000000000000019
 31
0.0
  0
LINE
  5
4AF
330
1E
100
AcDbEntity
  8
0
100
AcDbLine
 10
93.36820000000001
 20
1.000000000000019
 30
0.0
 11
94.0
 21
1.000000000000019
 31
0.0
  0
LINE
  5
4B1
330
1E
100
AcDbEntity
  8
0
100
AcDbLine
 10
91.9153
 20
1.00000000000003
 30
0.0
 11
92.5159
 21
1.00000000000003
 31
0.0
  0
LINE
  5
4B3
330
1E
100
AcDbEntity
  8
0
100
AcDbLine
 10
95.0
 20
1.000000000000019
 30
0.0
 11
95.11920000000001
 21
1.000000000000019
 31
0.0
  0
LINE
  5
4B5
330
1E
100
AcDbEntity
  8
0
100
AcDbLine
 10
94.0
 20
1.000000000000019
 30
0.0
 11
94.29999999999999
 21
1.000000000000019
 31
0.0
  0
LINE
  5
4B7
330
1E
100
AcDbEntity
  8
0
100
AcDbLine
 10
94.29999999999999
 20
1.000000000000019
 30
0.0
 11
95.0
 21
1.000000000000019
 31
0.0
  0
LINE
  5
4BA
330
1E
100
AcDbEntity
  8
0
100
AcDbLine
 10
99.40280000000001
 20
1.00000000000003
 30
0.0
 11
99.493
 21
1.00000000000003
 31
0.0
  0
LINE
  5
4BD
330
1E
100
AcDbEntity
  8
0
100
AcDbLine
 10
100.8589999999999
 20
1.00000000000003
 30
0.0
 11
101.3149999999999
 21
1.00000000000003
 31
0.0
  0
LINE
  5
4C0
330
1E
100
AcDbEntity
  8
0
100
AcDbLine
 10
99.493
 20
1.00000000000003
 30
0.0
 11
100.1029999999999
 21
1.00000000000003
 31
0.0
  0
LINE
  5
4C2
330
1E
100
AcDbEntity
  8
0
100
AcDbLine
 10
100.1029999999999
 20
1.00000000000003
 30
0.0
 11
100.8589999999999
 21
1.00000000000003
 31
0.0
  0
LINE
  5
4C4
330
1E
100
AcDbEntity
  8
0
100
AcDbLine
 10
95.11920000000001
 20
1.00000000000003
 30
0.0
 11
95.402
 21
1.00000000000003
 31
0.0
  0
LINE
  5
4C6
330
1E
100
AcDbEntity
  8
0
100
AcDbLine
 10
95.402
 20
1.00000000000003
 30
0.0
 11
95.8078
 21
1.00000000000003
 31
0.0
  0
LINE
  5
4C8
330
1E
100
AcDbEntity
  8
0
100
AcDbLine
 10
93.18009999999999
 20
1.00000000000003
 30
0.0
 11
93.36820000000001
 21
1.00000000000003
 31
0.0
  0
LINE
  5
4CB
330
1E
100
AcDbEntity
  8
0
100
AcDbLine
 10
92.5159
 20
1.00000000000003
 30
0.0
 11
93.18009999999999
 21
1.00000000000003
 31
0.0
  0
LINE
  5
4CE
330
1E
100
AcDbEntity
  8
0
100
AcDbLine
 10
101.557
 20
1.00000000000003
 30
0.0
 11
102.089
 21
1.00000000000003
 31
0.0
  0
LINE
  5
4D1
330
1E
100
AcDbEntity
  8
0
100
AcDbLine
 10
95.81709999999999
 20
1.00000000000003
 30
0.0
 11
96.349
 21
1.00000000000003
 31
0.0
  0
LINE
  5
4D4
330
1E
100
AcDbEntity
  8
0
100
AcDbLine
 10
90.0768
 20
1.00000000000003
 30
0.0
 11
90.60869999999999
 21
1.00000000000003
 31
0.0
  0
LINE
  5
4D6
330
1E
100
AcDbEntity
  8
0
100
AcDbLine
 10
90.60869999999999
 20
1.00000000000003
 30
0.0
 11
91.37019999999999
 21
1.00000000000003
 31
0.0
  0
LINE
  5
4D9
330
1E
100
AcDbEntity
  8
0
100
AcDbLine
 10
91.37019999999999
 20
1.00000000000003
 30
0.0
 11
91.9153
 21
1.00000000000003
 31
0.0
  0
LINE
  5
4DB
330
1E
100
AcDbEntity
  8
0
100
AcDbLine
 10
96.349
 20
1.00000000000003
 30
0.0
 11
97.1105
 21
1.00000000000003
 31
0.0
  0
LINE
  5
4DE
330
1E
100
AcDbEntity
  8
0
100
AcDbLine
 10
97.1105
 20
1.00000000000003
 30
0.0
 11
97.65550000000001
 21
1.00000000000003
 31
0.0
  0
LINE
  5
4E0
330
1E
100
AcDbEntity
  8
0
100
AcDbLine
 10
102.089
 20
1.00000000000003
 30
0.0
 11
102.851
 21
1.00000000000003
 31
0.0
  0
LINE
  5
4E3
330
1E
100
AcDbEntity
  8
0
100
AcDbLine
 10
104.2699999999999
 20
1.00000000000003
 30
0.0
 11
104.3779999999999
 21
1.00000000000003
 31
0.0
  0
LINE
  5
4E5
330
1E
100
AcDbEntity
  8
0
100
AcDbLine
 10
104.3779999999999
 20
1.00000000000003
 30
0.0
 11
104.977
 21
1.00000000000003
 31
0.0
  0
LINE
  5
4E7
330
1E
100
AcDbEntity
  8
0
100
AcDbLine
 10
104.977
 20
1.00000000000003
 30
0.0
 11
105.731
 21
1.00000000000003
 31
0.0
  0
LINE
  5
4EA
330
1E
100
AcDbEntity
  8
0
100
AcDbLine
 10
102.851
 20
1.00000000000003
 30
0.0
 11
103.3959999999999
 21
1.00000000000003
 31
0.0
  0
LINE
  5
4EB
330
1E
100
AcDbEntity
  8
0
100
AcDbLine
 10
102.4
 20
27.5
 30
0.0
 11
118.5999999999999
 21
27.5
 31
0.0
  0
LINE
  5
4EC
330
1E
100
AcDbEntity
  8
0
100
AcDbLine
 10
100.2999999999999
 20
3.000000000000029
 30
0.0
 11
117.4
 21
3.000000000000029
 31
0.0
  0
LINE
  5
4ED
330
1E
100
AcDbEntity
  8
0
100
AcDbLine
 10
103.4999999999999
 20
2.500000000000029
 30
0.0
 11
119.1
 21
2.500000000000029
 31
0.0
  0
LINE
  5
4EE
330
1E
100
AcDbEntity
  8
0
100
AcDbLine
 10
103.4999999999999
 20
1.00000000000003
 30
0.0
 11
119.1
 21
1.00000000000003
 31
0.0
  0
LINE
  5
4F1
330
1E
100
AcDbEntity
  8
0
100
AcDbLine
 10
106.5439999999999
 20
1.00000000000003
 30
0.0
 11
107.0
 21
1.00000000000003
 31
0.0
  0
LINE
  5
4F3
330
1E
100
AcDbEntity
  8
0
100
AcDbLine
 10
107.0
 20
1.00000000000003
 30
0.0
 11
107.288
 21
1.00000000000003
 31
0.0
  0
LINE
  5
4F6
330
1E
100
AcDbEntity
  8
0
100
AcDbLine
 10
107.2979999999999
 20
1.00000000000003
 30
0.0
 11
107.8289999999999
 21
1.00000000000003
 31
0.0
  0
LINE
  5
4F8
330
1E
100
AcDbEntity
  8
0
100
AcDbLine
 10
107.8289999999999
 20
1.00000000000003
 30
0.0
 11
108.152
 21
1.00000000000003
 31
0.0
  0
LINE
  5
4FA
330
1E
100
AcDbEntity
  8
0
100
AcDbLine
 10
108.152
 20
1.00000000000003
 30
0.0
 11
108.261
 21
1.00000000000003
 31
0.0
  0
LINE
  5
4FC
330
1E
100
AcDbEntity
  8
0
100
AcDbLine
 10
108.261
 20
1.00000000000003
 30
0.0
 11
108.8589999999999
 21
1.00000000000003
 31
0.0
  0
LINE
  5
4FE
330
1E
100
AcDbEntity
  8
0
100
AcDbLine
 10
108.8589999999999
 20
1.00000000000003
 30
0.0
 11
109.613
 21
1.00000000000003
 31
0.0
  0
LINE
  5
4FF
330
1E
100
AcDbEntity
  8
0
100
AcDbLine
 10
110.084
 20
1.000000000000019
 30
0.0
 11
110.6999999999999
 21
1.000000000000019
 31
0.0
  0
LINE
  5
501
330
1E
100
AcDbEntity
  8
0
100
AcDbLine
 10
110.6999999999999
 20
1.000000000000019
 30
0.0
 11
111.0
 21
1.000000000000019
 31
0.0
  0
LINE
  5
505
330
1E
100
AcDbEntity
  8
0
100
AcDbLine
 10
112.3929999999999
 20
1.00000000000003
 30
0.0
 11
112.4829999999999
 21
1.00000000000003
 31
0.0
  0
LINE
  5
507
330
1E
100
AcDbEntity
  8
0
100
AcDbLine
 10
113.849
 20
1.00000000000003
 30
0.0
 11
114.0439999999999
 21
1.00000000000003
 31
0.0
  0
LINE
  5
509
330
1E
100
AcDbEntity
  8
0
100
AcDbLine
 10
112.4829999999999
 20
1.00000000000003
 30
0.0
 11
113.0929999999999
 21
1.00000000000003
 31
0.0
  0
LINE
  5
50B
330
1E
100
AcDbEntity
  8
0
100
AcDbLine
 10
113.0929999999999
 20
1.00000000000003
 30
0.0
 11
113.849
 21
1.00000000000003
 31
0.0
  0
LINE
  5
50D
330
1E
100
AcDbEntity
  8
0
100
AcDbLine
 10
114.0439999999999
 20
1.00000000000003
 30
0.0
 11
114.5
 21
1.00000000000003
 31
0.0
  0
LINE
  5
50F
330
1E
100
AcDbEntity
  8
0
100
AcDbLine
 10
114.5
 20
1.00000000000003
 30
0.0
 11
115.256
 21
1.00000000000003
 31
0.0
  0
LINE
  5
512
330
1E
100
AcDbEntity
  8
0
100
AcDbLine
 10
115.866
 20
1.00000000000003
 30
0.0
 11
115.956
 21
1.00000000000003
 31
0.0
  0
LINE
  5
515
330
1E
100
AcDbEntity
  8
0
100
AcDbLine
 10
115.256
 20
1.00000000000003
 30
0.0
 11
115.866
 21
1.00000000000003
 31
0.0
  0
LINE
  5
518
330
1E
100
AcDbEntity
  8
0
100
AcDbLine
 10
109.613
 20
1.00000000000003
 30
0.0
 11
110.084
 21
1.00000000000003
 31
0.0
  0
LINE
  5
51B
330
1E
100
AcDbEntity
  8
0
100
AcDbLine
 10
105.731
 20
1.00000000000003
 30
0.0
 11
106.202
 21
1.00000000000003
 31
0.0
  0
LINE
  5
51D
330
1E
100
AcDbEntity
  8
0
100
AcDbLine
 10
118.998
 20
1.00000000000003
 30
0.0
 11
119.2039999999999
 21
1.00000000000003
 31
0.0
  0
LINE
  5
51F
330
1E
100
AcDbEntity
  8
0
100
AcDbLine
 10
119.2039999999999
 20
1.00000000000003
 30
0.0
 11
119.859
 21
1.00000000000003
 31
0.0
  0
LINE
  5
521
330
1E
100
AcDbEntity
  8
0
100
AcDbLine
 10
119.859
 20
1.00000000000003
 30
0.0
 11
120.592
 21
1.00000000000003
 31
0.0
  0
LINE
  5
522
330
1E
100
AcDbEntity
  8
0
100
AcDbLine
 10
120.981
 20
1.00000000000003
 30
0.0
 11
121.162
 21
1.00000000000003
 31
0.0
  0
LINE
  5
524
330
1E
100
AcDbEntity
  8
0
100
AcDbLine
 10
121.162
 20
1.00000000000003
 30
0.0
 11
121.817
 21
1.00000000000003
 31
0.0
  0
LINE
  5
526
330
1E
100
AcDbEntity
  8
0
100
AcDbLine
 10
121.817
 20
1.00000000000003
 30
0.0
 11
122.55
 21
1.00000000000003
 31
0.0
  0
LINE
  5
527
330
1E
100
AcDbEntity
  8
0
100
AcDbLine
 10
122.9389999999999
 20
1.00000000000003
 30
0.0
 11
123.12
 21
1.00000000000003
 31
0.0
  0
LINE
  5
52A
330
1E
100
AcDbEntity
  8
0
100
AcDbLine
 10
122.55
 20
1.00000000000003
 30
0.0
 11
122.9389999999999
 21
1.00000000000003
 31
0.0
  0
LINE
  5
52D
330
1E
100
AcDbEntity
  8
0
100
AcDbLine
 10
120.592
 20
1.00000000000003
 30
0.0
 11
120.981
 21
1.00000000000003
 31
0.0
  0
LINE
  5
530
330
1E
100
AcDbEntity
  8
0
100
AcDbLine
 10
117.5
 20
31.0
 30
0.0
 11
117.5
 21
43.5
 31
0.0
  0
LINE
  5
531
330
1E
100
AcDbEntity
  8
0
100
AcDbLine
 10
118.03
 20
44.0
 30
0.0
 11
118.667
 21
44.0
 31
0.0
  0
LINE
  5
532
330
1E
100
AcDbEntity
  8
0
100
AcDbLine
 10
118.136
 20
43.5
 30
0.0
 11
119.833
 21
43.5
 31
0.0
  0
LINE
  5
533
330
1E
100
AcDbEntity
  8
0
100
AcDbLine
 10
117.5
 20
43.5
 30
0.0
 11
117.5
 21
31.0
 31
0.0
  0
LINE
  5
534
330
1E
100
AcDbEntity
  8
0
100
AcDbLine
 10
117.5
 20
43.5
 30
0.0
 11
118.136
 21
43.5
 31
0.0
  0
LINE
  5
535
330
1E
100
AcDbEntity
  8
0
100
AcDbLine
 10
117.5
 20
43.5
 30
0.0
 11
118.03
 21
44.0
 31
0.0
  0
LINE
  5
536
330
1E
100
AcDbEntity
  8
0
100
AcDbLine
 10
105.2999999999999
 20
31.0
 30
0.0
 11
106.0999999999999
 21
31.0
 31
0.0
  0
LINE
  5
537
330
1E
100
AcDbEntity
  8
0
100
AcDbLine
 10
118.667
 20
44.0
 30
0.0
 11
120.2579999999999
 21
44.0
 31
0.0
  0
LINE
  5
538
330
1E
100
AcDbEntity
  8
0
100
AcDbLine
 10
118.5999999999999
 20
27.5
 30
0.0
 11
135.0
 21
27.5
 31
0.0
  0
LINE
  5
539
330
1E
100
AcDbEntity
  8
0
100
AcDbLine
 10
117.4
 20
3.000000000000029
 30
0.0
 11
135.0
 21
3.000000000000029
 31
0.0
  0
LINE
  5
53A
330
1E
100
AcDbEntity
  8
0
100
AcDbLine
 10
122.591
 20
43.5
 30
0.0
 11
126.303
 21
43.5
 31
0.0
  0
LINE
  5
53B
330
1E
100
AcDbEntity
  8
0
100
AcDbLine
 10
121.742
 20
44.0
 30
0.0
 11
123.333
 21
48.0
 31
0.0
  0
LINE
  5
53C
330
1E
100
AcDbEntity
  8
0
100
AcDbLine
 10
122.273
 20
76.0
 30
0.0
 11
122.273
 21
66.0
 31
0.0
  0
LINE
  5
53D
330
1E
100
AcDbEntity
  8
0
100
AcDbLine
 10
122.273
 20
76.0
 30
0.0
 11
122.697
 21
76.0
 31
0.0
  0
LINE
  5
53E
330
1E
100
AcDbEntity
  8
0
100
AcDbLine
 10
122.697
 20
76.0
 30
0.0
 11
123.97
 21
76.0
 31
0.0
  0
LINE
  5
53F
330
1E
100
AcDbEntity
  8
0
100
AcDbLine
 10
122.697
 20
66.0
 30
0.0
 11
123.97
 21
66.0
 31
0.0
  0
LINE
  5
540
330
1E
100
AcDbEntity
  8
0
100
AcDbLine
 10
122.697
 20
66.0
 30
0.0
 11
123.333
 21
66.0
 31
0.0
  0
LINE
  5
541
330
1E
100
AcDbEntity
  8
0
100
AcDbLine
 10
122.273
 20
66.0
 30
0.0
 11
122.697
 21
66.0
 31
0.0
  0
LINE
  5
542
330
1E
100
AcDbEntity
  8
0
100
AcDbLine
 10
122.273
 20
66.0
 30
0.0
 11
122.273
 21
76.0
 31
0.0
  0
LINE
  5
543
330
1E
100
AcDbEntity
  8
0
100
AcDbLine
 10
120.2579999999999
 20
44.0
 30
0.0
 11
123.015
 21
44.0
 31
0.0
  0
LINE
  5
544
330
1E
100
AcDbEntity
  8
0
100
AcDbLine
 10
119.833
 20
43.5
 30
0.0
 11
122.591
 21
43.5
 31
0.0
  0
LINE
  5
546
330
1E
100
AcDbEntity
  8
0
100
AcDbLine
 10
119.1
 20
2.500000000000029
 30
0.0
 11
135.0
 21
2.500000000000029
 31
0.0
  0
LINE
  5
547
330
1E
100
AcDbEntity
  8
0
100
AcDbLine
 10
119.1
 20
1.00000000000003
 30
0.0
 11
135.0
 21
1.00000000000003
 31
0.0
  0
LINE
  5
548
330
1E
100
AcDbEntity
  8
0
100
AcDbLine
 10
105.0
 20
31.0
 30
0.0
 11
105.2999999999999
 21
31.0
 31
0.0
  0
LINE
  5
549
330
1E
100
AcDbEntity
  8
0
100
AcDbLine
 10
97.65550000000001
 20
1.000000000000019
 30
0.0
 11
99.40280000000001
 21
1.000000000000019
 31
0.0
  0
LINE
  5
54A
330
1E
100
AcDbEntity
  8
0
100
AcDbLine
 10
88.40000000000001
 20
1.000000000000019
 30
0.0
 11
90.0675
 21
1.000000000000019
 31
0.0
  0
LINE
  5
54B
330
1E
100
AcDbEntity
  8
0
100
AcDbLine
 10
103.4999999999999
 20
1.000000000000019
 30
0.0
 11
104.2699999999999
 21
1.000000000000019
 31
0.0
  0
LINE
  5
632
330
1E
100
AcDbEntity
  8
0
100
AcDbLine
 10
123.12
 20
1.00000000000003
 30
0.0
 11
123.775
 21
1.00000000000003
 31
0.0
  0
LINE
  5
636
330
1E
100
AcDbEntity
  8
0
100
AcDbLine
 10
126.8669999999999
 20
1.000000000000019
 30
0.0
 11
126.957
 21
1.000000000000019
 31
0.0
  0
LINE
  5
638
330
1E
100
AcDbEntity
  8
0
100
AcDbLine
 10
123.775
 20
1.00000000000003
 30
0.0
 11
124.5079999999999
 21
1.00000000000003
 31
0.0
  0
LINE
  5
639
330
1E
100
AcDbEntity
  8
0
100
AcDbLine
 10
124.897
 20
1.00000000000003
 30
0.0
 11
125.078
 21
1.00000000000003
 31
0.0
  0
LINE
  5
63B
330
1E
100
AcDbEntity
  8
0
100
AcDbLine
 10
125.078
 20
1.00000000000003
 30
0.0
 11
125.7329999999999
 21
1.00000000000003
 31
0.0
  0
LINE
  5
63D
330
1E
100
AcDbEntity
  8
0
100
AcDbLine
 10
125.7329999999999
 20
1.00000000000003
 30
0.0
 11
126.466
 21
1.00000000000003
 31
0.0
  0
LINE
  5
63F
330
1E
100
AcDbEntity
  8
0
100
AcDbLine
 10
128.8739999999999
 20
1.00000000000003
 30
0.0
 11
129.331
 21
1.00000000000003
 31
0.0
  0
LINE
  5
641
330
1E
100
AcDbEntity
  8
0
100
AcDbLine
 10
129.331
 20
1.00000000000003
 30
0.0
 11
130.087
 21
1.00000000000003
 31
0.0
  0
LINE
  5
643
330
1E
100
AcDbEntity
  8
0
100
AcDbLine
 10
130.6969999999999
 20
1.00000000000003
 30
0.0
 11
130.787
 21
1.00000000000003
 31
0.0
  0
LINE
  5
646
330
1E
100
AcDbEntity
  8
0
100
AcDbLine
 10
130.087
 20
1.00000000000003
 30
0.0
 11
130.6969999999999
 21
1.00000000000003
 31
0.0
  0
LINE
  5
649
330
1E
100
AcDbEntity
  8
0
100
AcDbLine
 10
126.466
 20
1.00000000000003
 30
0.0
 11
126.855
 21
1.00000000000003
 31
0.0
  0
LINE
  5
64C
330
1E
100
AcDbEntity
  8
0
100
AcDbLine
 10
124.5079999999999
 20
1.00000000000003
 30
0.0
 11
124.897
 21
1.00000000000003
 31
0.0
  0
LINE
  5
64D
330
1E
100
AcDbEntity
  8
0
100
AcDbLine
 10
130.787
 20
1.00000000000003
 30
0.0
 11
131.46
 21
1.00000000000003
 31
0.0
  0
LINE
  5
64F
330
1E
100
AcDbEntity
  8
0
100
AcDbLine
 10
123.015
 20
44.0
 30
0.0
 11
126.5149999999999
 21
44.0
 31
0.0
  0
LINE
  5
650
330
1E
100
AcDbEntity
  8
0
100
AcDbLine
 10
123.333
 20
66.0
 30
0.0
 11
125.455
 21
59.5
 31
0.0
  0
LINE
  5
651
330
1E
100
AcDbEntity
  8
0
100
AcDbLine
 10
123.333
 20
66.0
 30
0.0
 11
123.7579999999999
 21
66.0
 31
0.0
  0
LINE
  5
652
330
1E
100
AcDbEntity
  8
0
100
AcDbLine
 10
126.5149999999999
 20
44.0
 30
0.0
 11
130.652
 21
44.0
 31
0.0
  0
LINE
  5
653
330
1E
100
AcDbEntity
  8
0
100
AcDbLine
 10
126.303
 20
43.5
 30
0.0
 11
130.5459999999999
 21
43.5
 31
0.0
  0
LINE
  5
654
330
1E
100
AcDbEntity
  8
0
100
AcDbLine
 10
130.652
 20
44.0
 30
0.0
 11
135.0
 21
44.0
 31
0.0
  0
LINE
  5
655
330
1E
100
AcDbEntity
  8
0
100
AcDbLine
 10
130.5459999999999
 20
43.5
 30
0.0
 11
135.0
 21
43.5
 31
0.0
  0
LINE
  5
656
330
1E
100
AcDbEntity
  8
0
100
AcDbLine
 10
125.9849999999999
 20
66.0
 30
0.0
 11
128.6359999999999
 21
66.0
 31
0.0
  0
LINE
  5
657
330
1E
100
AcDbEntity
  8
0
100
AcDbLine
 10
126.727
 20
66.0
 30
0.0
 11
129.167
 21
66.0
 31
0.0
  0
LINE
  5
658
330
1E
100
AcDbEntity
  8
0
100
AcDbLine
 10
123.97
 20
66.0
 30
0.0
 11
125.9849999999999
 21
66.0
 31
0.0
  0
LINE
  5
659
330
1E
100
AcDbEntity
  8
0
100
AcDbLine
 10
125.9849999999999
 20
76.0
 30
0.0
 11
128.6359999999999
 21
76.0
 31
0.0
  0
LINE
  5
65A
330
1E
100
AcDbEntity
  8
0
100
AcDbLine
 10
123.97
 20
76.0
 30
0.0
 11
125.9849999999999
 21
76.0
 31
0.0
  0
LINE
  5
65B
330
1E
100
AcDbEntity
  8
0
100
AcDbLine
 10
124.9239999999999
 20
66.0
 30
0.0
 11
126.727
 21
66.0
 31
0.0
  0
LINE
  5
65C
330
1E
100
AcDbEntity
  8
0
100
AcDbLine
 10
123.7579999999999
 20
66.0
 30
0.0
 11
124.9239999999999
 21
66.0
 31
0.0
  0
LINE
  5
65D
330
1E
100
AcDbEntity
  8
0
100
AcDbLine
 10
125.455
 20
59.5
 30
0.0
 11
128.1059999999999
 21
55.0
 31
0.0
  0
LINE
  5
65E
330
1E
100
AcDbEntity
  8
0
100
AcDbLine
 10
130.121
 20
55.0
 30
0.0
 11
131.606
 21
55.0
 31
0.0
  0
LINE
  5
65F
330
1E
100
AcDbEntity
  8
0
100
AcDbLine
 10
129.061
 20
55.0
 30
0.0
 11
130.121
 21
55.0
 31
0.0
  0
LINE
  5
660
330
1E
100
AcDbEntity
  8
0
100
AcDbLine
 10
128.6359999999999
 20
76.0
 30
0.0
 11
131.712
 21
76.0
 31
0.0
  0
LINE
  5
661
330
1E
100
AcDbEntity
  8
0
100
AcDbLine
 10
128.6359999999999
 20
66.0
 30
0.0
 11
131.712
 21
66.0
 31
0.0
  0
LINE
  5
662
330
1E
100
AcDbEntity
  8
0
100
AcDbLine
 10
129.167
 20
66.0
 30
0.0
 11
132.03
 21
66.0
 31
0.0
  0
LINE
  5
663
330
1E
100
AcDbEntity
  8
0
100
AcDbLine
 10
128.3179999999999
 20
55.0
 30
0.0
 11
129.061
 21
55.0
 31
0.0
  0
LINE
  5
664
330
1E
100
AcDbEntity
  8
0
100
AcDbLine
 10
128.1059999999999
 20
55.0
 30
0.0
 11
128.3179999999999
 21
55.0
 31
0.0
  0
LINE
  5
665
330
1E
100
AcDbEntity
  8
0
100
AcDbLine
 10
125.455
 20
52.0
 30
0.0
 11
128.1059999999999
 21
55.0
 31
0.0
  0
LINE
  5
666
330
1E
100
AcDbEntity
  8
0
100
AcDbLine
 10
123.333
 20
48.0
 30
0.0
 11
125.455
 21
52.0
 31
0.0
  0
LINE
  5
668
330
1E
100
AcDbEntity
  8
0
100
AcDbLine
 10
136.0
 20
1.00000000000003
 30
0.0
 11
136.28
 21
1.00000000000003
 31
0.0
  0
LINE
  5
669
330
1E
100
AcDbEntity
  8
0
100
AcDbLine
 10
136.28
 20
1.00000000000003
 30
0.0
 11
137.48
 21
1.00000000000003
 31
0.0
  0
LINE
  5
66A
330
1E
100
AcDbEntity
  8
0
100
AcDbLine
 10
137.48
 20
1.00000000000003
 30
0.0
 11
138.5399999999999
 21
1.00000000000003
 31
0.0
  0
LINE
  5
66B
330
1E
100
AcDbEntity
  8
0
100
AcDbLine
 10
138.5399999999999
 20
1.00000000000003
 30
0.0
 11
139.2129999999999
 21
1.00000000000003
 31
0.0
  0
LINE
  5
66C
330
1E
100
AcDbEntity
  8
0
100
AcDbLine
 10
133.7199999999999
 20
1.00000000000003
 30
0.0
 11
134.0
 21
1.00000000000003
 31
0.0
  0
LINE
  5
672
330
1E
100
AcDbEntity
  8
0
100
AcDbLine
 10
134.0
 20
1.00000000000003
 30
0.0
 11
134.3
 21
1.00000000000003
 31
0.0
  0
LINE
  5
675
330
1E
100
AcDbEntity
  8
0
100
AcDbLine
 10
139.2129999999999
 20
1.00000000000003
 30
0.0
 11
139.3029999999999
 21
1.00000000000003
 31
0.0
  0
LINE
  5
678
330
1E
100
AcDbEntity
  8
0
100
AcDbLine
 10
140.6689999999999
 20
1.00000000000003
 30
0.0
 11
141.126
 21
1.00000000000003
 31
0.0
  0
LINE
  5
67A
330
1E
100
AcDbEntity
  8
0
100
AcDbLine
 10
139.9129999999999
 20
1.00000000000003
 30
0.0
 11
140.6689999999999
 21
1.00000000000003
 31
0.0
  0
LINE
  5
67B
330
1E
100
AcDbEntity
  8
0
100
AcDbLine
 10
139.3029999999999
 20
1.00000000000003
 30
0.0
 11
139.9129999999999
 21
1.00000000000003
 31
0.0
  0
LINE
  5
67F
330
1E
100
AcDbEntity
  8
0
100
AcDbLine
 10
135.6999999999999
 20
1.00000000000003
 30
0.0
 11
136.0
 21
1.00000000000003
 31
0.0
  0
LINE
  5
681
330
1E
100
AcDbEntity
  8
0
100
AcDbLine
 10
135.0
 20
1.00000000000003
 30
0.0
 11
135.6999999999999
 21
1.00000000000003
 31
0.0
  0
LINE
  5
683
330
1E
100
AcDbEntity
  8
0
100
AcDbLine
 10
134.3
 20
1.00000000000003
 30
0.0
 11
135.0
 21
1.00000000000003
 31
0.0
  0
LINE
  5
684
330
1E
100
AcDbEntity
  8
0
100
AcDbLine
 10
132.52
 20
1.00000000000003
 30
0.0
 11
133.7199999999999
 21
1.00000000000003
 31
0.0
  0
LINE
  5
685
330
1E
100
AcDbEntity
  8
0
100
AcDbLine
 10
131.46
 20
1.00000000000003
 30
0.0
 11
132.52
 21
1.00000000000003
 31
0.0
  0
LINE
  5
686
330
1E
100
AcDbEntity
  8
0
100
AcDbLine
 10
131.712
 20
76.0
 30
0.0
 11
135.0
 21
76.0
 31
0.0
  0
LINE
  5
687
330
1E
100
AcDbEntity
  8
0
100
AcDbLine
 10
131.712
 20
66.0
 30
0.0
 11
135.0
 21
66.0
 31
0.0
  0
LINE
  5
688
330
1E
100
AcDbEntity
  8
0
100
AcDbLine
 10
132.03
 20
66.0
 30
0.0
 11
135.0
 21
66.0
 31
0.0
  0
LINE
  5
689
330
1E
100
AcDbEntity
  8
0
100
AcDbLine
 10
131.606
 20
55.0
 30
0.0
 11
133.197
 21
55.0
 31
0.0
  0
LINE
  5
68A
330
1E
100
AcDbEntity
  8
0
100
AcDbLine
 10
135.0
 20
76.0
 30
0.0
 11
138.2879999999999
 21
76.0
 31
0.0
  0
LINE
  5
68B
330
1E
100
AcDbEntity
  8
0
100
AcDbLine
 10
135.0
 20
66.0
 30
0.0
 11
137.9699999999999
 21
66.0
 31
0.0
  0
LINE
  5
68C
330
1E
100
AcDbEntity
  8
0
100
AcDbLine
 10
135.0
 20
66.0
 30
0.0
 11
138.2879999999999
 21
66.0
 31
0.0
  0
LINE
  5
68D
330
1E
100
AcDbEntity
  8
0
100
AcDbLine
 10
135.0
 20
55.0
 30
0.0
 11
136.803
 21
55.0
 31
0.0
  0
LINE
  5
68E
330
1E
100
AcDbEntity
  8
0
100
AcDbLine
 10
135.0
 20
44.0
 30
0.0
 11
139.3479999999999
 21
44.0
 31
0.0
  0
LINE
  5
68F
330
1E
100
AcDbEntity
  8
0
100
AcDbLine
 10
135.0
 20
43.5
 30
0.0
 11
139.454
 21
43.5
 31
0.0
  0
LINE
  5
690
330
1E
100
AcDbEntity
  8
0
100
AcDbLine
 10
133.197
 20
55.0
 30
0.0
 11
135.0
 21
55.0
 31
0.0
  0
LINE
  5
692
330
1E
100
AcDbEntity
  8
0
100
AcDbLine
 10
135.0
 20
27.5
 30
0.0
 11
151.4
 21
27.5
 31
0.0
  0
LINE
  5
693
330
1E
100
AcDbEntity
  8
0
100
AcDbLine
 10
135.0
 20
3.000000000000029
 30
0.0
 11
152.5999999999999
 21
3.000000000000029
 31
0.0
  0
LINE
  5
694
330
1E
100
AcDbEntity
  8
0
100
AcDbLine
 10
138.2879999999999
 20
76.0
 30
0.0
 11
141.364
 21
76.0
 31
0.0
  0
LINE
  5
695
330
1E
100
AcDbEntity
  8
0
100
AcDbLine
 10
138.2879999999999
 20
66.0
 30
0.0
 11
141.364
 21
66.0
 31
0.0
  0
LINE
  5
696
330
1E
100
AcDbEntity
  8
0
100
AcDbLine
 10
137.9699999999999
 20
66.0
 30
0.0
 11
140.833
 21
66.0
 31
0.0
  0
LINE
  5
697
330
1E
100
AcDbEntity
  8
0
100
AcDbLine
 10
138.394
 20
55.0
 30
0.0
 11
139.8789999999999
 21
55.0
 31
0.0
  0
LINE
  5
698
330
1E
100
AcDbEntity
  8
0
100
AcDbLine
 10
136.803
 20
55.0
 30
0.0
 11
138.394
 21
55.0
 31
0.0
  0
LINE
  5
699
330
1E
100
AcDbEntity
  8
0
100
AcDbLine
 10
139.3479999999999
 20
44.0
 30
0.0
 11
143.485
 21
44.0
 31
0.0
  0
LINE
  5
69A
330
1E
100
AcDbEntity
  8
0
100
AcDbLine
 10
139.8789999999999
 20
55.0
 30
0.0
 11
140.9389999999999
 21
55.0
 31
0.0
  0
LINE
  5
69B
330
1E
100
AcDbEntity
  8
0
100
AcDbLine
 10
140.9389999999999
 20
55.0
 30
0.0
 11
141.682
 21
55.0
 31
0.0
  0
LINE
  5
69C
330
1E
100
AcDbEntity
  8
0
100
AcDbLine
 10
140.833
 20
66.0
 30
0.0
 11
143.273
 21
66.0
 31
0.0
  0
LINE
  5
69D
330
1E
100
AcDbEntity
  8
0
100
AcDbLine
 10
139.454
 20
43.5
 30
0.0
 11
143.697
 21
43.5
 31
0.0
  0
LINE
  5
69F
330
1E
100
AcDbEntity
  8
0
100
AcDbLine
 10
135.0
 20
2.500000000000029
 30
0.0
 11
150.9
 21
2.500000000000029
 31
0.0
  0
LINE
  5
6A0
330
1E
100
AcDbEntity
  8
0
100
AcDbLine
 10
135.0
 20
1.00000000000003
 30
0.0
 11
150.9
 21
1.00000000000003
 31
0.0
  0
LINE
  5
6A2
330
1E
100
AcDbEntity
  8
0
100
AcDbLine
 10
126.957
 20
1.000000000000019
 30
0.0
 11
128.8739999999999
 21
1.000000000000019
 31
0.0
  0
LINE
  5
6A8
330
1E
100
AcDbEntity
  8
0
100
AcDbLine
 10
142.797
 20
1.000000000000019
 30
0.0
 11
143.043
 21
1.000000000000019
 31
0.0
  0
LINE
  5
6B1
330
1E
100
AcDbEntity
  8
0
100
AcDbLine
 10
143.043
 20
1.00000000000003
 30
0.0
 11
143.145
 21
1.00000000000003
 31
0.0
  0
LINE
  5
6B2
330
1E
100
AcDbEntity
  8
0
100
AcDbLine
 10
143.145
 20
1.00000000000003
 30
0.0
 11
143.5339999999999
 21
1.00000000000003
 31
0.0
  0
LINE
  5
6BA
330
1E
100
AcDbEntity
  8
0
100
AcDbLine
 10
143.5339999999999
 20
1.00000000000003
 30
0.0
 11
144.2669999999999
 21
1.00000000000003
 31
0.0
  0
LINE
  5
6D6
330
1E
100
AcDbEntity
  8
0
100
AcDbLine
 10
144.2669999999999
 20
1.00000000000003
 30
0.0
 11
144.9219999999999
 21
1.00000000000003
 31
0.0
  0
LINE
  5
6DB
330
1E
100
AcDbEntity
  8
0
100
AcDbLine
 10
144.9219999999999
 20
1.00000000000003
 30
0.0
 11
145.1029999999999
 21
1.00000000000003
 31
0.0
  0
LINE
  5
6DF
330
1E
100
AcDbEntity
  8
0
100
AcDbLine
 10
145.1029999999999
 20
1.00000000000003
 30
0.0
 11
145.492
 21
1.00000000000003
 31
0.0
  0
LINE
  5
6EB
330
1E
100
AcDbEntity
  8
0
100
AcDbLine
 10
146.225
 20
1.00000000000003
 30
0.0
 11
146.8799999999999
 21
1.00000000000003
 31
0.0
  0
LINE
  5
6ED
330
1E
100
AcDbEntity
  8
0
100
AcDbLine
 10
145.492
 20
1.00000000000003
 30
0.0
 11
146.225
 21
1.00000000000003
 31
0.0
  0
LINE
  5
6EF
330
1E
100
AcDbEntity
  8
0
100
AcDbLine
 10
146.8799999999999
 20
1.00000000000003
 30
0.0
 11
147.061
 21
1.00000000000003
 31
0.0
  0
LINE
  5
6F9
330
1E
100
AcDbEntity
  8
0
100
AcDbLine
 10
143.485
 20
44.0
 30
0.0
 11
146.985
 21
44.0
 31
0.0
  0
LINE
  5
6FA
330
1E
100
AcDbEntity
  8
0
100
AcDbLine
 10
143.697
 20
43.5
 30
0.0
 11
147.4089999999999
 21
43.5
 31
0.0
  0
LINE
  5
6FB
330
1E
100
AcDbEntity
  8
0
100
AcDbLine
 10
141.682
 20
55.0
 30
0.0
 11
141.894
 21
55.0
 31
0.0
  0
LINE
  5
6FC
330
1E
100
AcDbEntity
  8
0
100
AcDbLine
 10
141.364
 20
76.0
 30
0.0
 11
144.0149999999999
 21
76.0
 31
0.0
  0
LINE
  5
6FD
330
1E
100
AcDbEntity
  8
0
100
AcDbLine
 10
141.364
 20
66.0
 30
0.0
 11
144.0149999999999
 21
66.0
 31
0.0
  0
LINE
  5
6FE
330
1E
100
AcDbEntity
  8
0
100
AcDbLine
 10
144.0149999999999
 20
66.0
 30
0.0
 11
146.0299999999999
 21
66.0
 31
0.0
  0
LINE
  5
6FF
330
1E
100
AcDbEntity
  8
0
100
AcDbLine
 10
143.273
 20
66.0
 30
0.0
 11
145.076
 21
66.0
 31
0.0
  0
LINE
  5
700
330
1E
100
AcDbEntity
  8
0
100
AcDbLine
 10
146.0299999999999
 20
66.0
 30
0.0
 11
147.303
 21
66.0
 31
0.0
  0
LINE
  5
701
330
1E
100
AcDbEntity
  8
0
100
AcDbLine
 10
145.076
 20
66.0
 30
0.0
 11
146.242
 21
66.0
 31
0.0
  0
LINE
  5
702
330
1E
100
AcDbEntity
  8
0
100
AcDbLine
 10
144.0149999999999
 20
76.0
 30
0.0
 11
146.0299999999999
 21
76.0
 31
0.0
  0
LINE
  5
703
330
1E
100
AcDbEntity
  8
0
100
AcDbLine
 10
146.0299999999999
 20
76.0
 30
0.0
 11
147.303
 21
76.0
 31
0.0
  0
LINE
  5
704
330
1E
100
AcDbEntity
  8
0
100
AcDbLine
 10
146.242
 20
66.0
 30
0.0
 11
146.667
 21
66.0
 31
0.0
  0
LINE
  5
705
330
1E
100
AcDbEntity
  8
0
100
AcDbLine
 10
146.667
 20
66.0
 30
0.0
 11
147.303
 21
66.0
 31
0.0
  0
LINE
  5
706
330
1E
100
AcDbEntity
  8
0
100
AcDbLine
 10
144.5459999999999
 20
59.5
 30
0.0
 11
146.667
 21
66.0
 31
0.0
  0
LINE
  5
707
330
1E
100
AcDbEntity
  8
0
100
AcDbLine
 10
141.894
 20
55.0
 30
0.0
 11
144.5459999999999
 21
52.0
 31
0.0
  0
LINE
  5
708
330
1E
100
AcDbEntity
  8
0
100
AcDbLine
 10
141.894
 20
55.0
 30
0.0
 11
144.5459999999999
 21
59.5
 31
0.0
  0
LINE
  5
709
330
1E
100
AcDbEntity
  8
0
100
AcDbLine
 10
144.5459999999999
 20
52.0
 30
0.0
 11
146.667
 21
48.0
 31
0.0
  0
LINE
  5
70A
330
1E
100
AcDbEntity
  8
0
100
AcDbLine
 10
146.985
 20
44.0
 30
0.0
 11
149.742
 21
44.0
 31
0.0
  0
LINE
  5
70B
330
1E
100
AcDbEntity
  8
0
100
AcDbLine
 10
146.667
 20
48.0
 30
0.0
 11
148.2579999999999
 21
44.0
 31
0.0
  0
LINE
  5
70D
330
1E
100
AcDbEntity
  8
0
100
AcDbLine
 10
141.126
 20
1.000000000000019
 30
0.0
 11
142.797
 21
1.000000000000019
 31
0.0
  0
LINE
  5
70E
330
1E
100
AcDbEntity
  8
0
100
AcDbLine
 10
147.0
 20
76.0
 30
0.0
 11
147.0
 21
103.0
 31
0.0
  0
LINE
  5
70F
330
1E
100
AcDbEntity
  8
0
100
AcDbLine
 10
123.0
 20
76.0
 30
0.0
 11
123.0
 21
103.0
 31
0.0
  0
LINE
  5
710
330
1E
100
AcDbEntity
  8
0
100
AcDbLine
 10
97.40000000000001
 20
120.92
 30
0.0
 11
101.2399999999999
 21
111.64
 31
0.0
  0
LINE
  5
711
330
1E
100
AcDbEntity
  8
0
100
AcDbLine
 10
96.44
 20
120.76
 30
0.0
 11
100.28
 21
111.1599999999999
 31
0.0
  0
LINE
  5
712
330
1E
100
AcDbEntity
  8
0
100
AcDbLine
 10
100.28
 20
111.1599999999999
 30
0.0
 11
106.68
 21
102.68
 31
0.0
  0
LINE
  5
713
330
1E
100
AcDbEntity
  8
0
100
AcDbLine
 10
100.28
 20
111.1599999999999
 30
0.0
 11
106.68
 21
102.68
 31
0.0
  0
LINE
  5
714
330
1E
100
AcDbEntity
  8
0
100
AcDbLine
 10
95.96
 20
131.0
 30
0.0
 11
97.40000000000001
 21
141.08
 31
0.0
  0
LINE
  5
715
330
1E
100
AcDbEntity
  8
0
100
AcDbLine
 10
95.96
 20
131.0
 30
0.0
 11
97.40000000000001
 21
120.92
 31
0.0
  0
LINE
  5
716
330
1E
100
AcDbEntity
  8
0
100
AcDbLine
 10
97.40000000000001
 20
141.08
 30
0.0
 11
101.2399999999999
 21
150.36
 31
0.0
  0
LINE
  5
717
330
1E
100
AcDbEntity
  8
0
100
AcDbLine
 10
95.0
 20
131.0
 30
0.0
 11
96.44
 21
141.24
 31
0.0
  0
LINE
  5
718
330
1E
100
AcDbEntity
  8
0
100
AcDbLine
 10
95.0
 20
131.0
 30
0.0
 11
96.44
 21
120.76
 31
0.0
  0
LINE
  5
719
330
1E
100
AcDbEntity
  8
0
100
AcDbLine
 10
96.44
 20
141.24
 30
0.0
 11
100.28
 21
150.8399999999999
 31
0.0
  0
LINE
  5
71A
330
1E
100
AcDbEntity
  8
0
100
AcDbLine
 10
106.68
 20
102.68
 30
0.0
 11
115.1599999999999
 21
96.28
 31
0.0
  0
LINE
  5
71B
330
1E
100
AcDbEntity
  8
0
100
AcDbLine
 10
106.68
 20
102.68
 30
0.0
 11
115.1599999999999
 21
96.28
 31
0.0
  0
LINE
  5
71C
330
1E
100
AcDbEntity
  8
0
100
AcDbLine
 10
123.0
 20
127.2999999999999
 30
0.0
 11
123.0
 21
130.0
 31
0.0
  0
LINE
  5
71D
330
1E
100
AcDbEntity
  8
0
100
AcDbLine
 10
123.0
 20
127.2999999999999
 30
0.0
 11
123.0
 21
122.7999999999999
 31
0.0
  0
LINE
  5
71E
330
1E
100
AcDbEntity
  8
0
100
AcDbLine
 10
123.0
 20
130.0
 30
0.0
 11
123.0
 21
131.0
 31
0.0
  0
LINE
  5
71F
330
1E
100
AcDbEntity
  8
0
100
AcDbLine
 10
123.0
 20
130.0
 30
0.0
 11
123.0
 21
127.2999999999999
 31
0.0
  0
LINE
  5
720
330
1E
100
AcDbEntity
  8
0
100
AcDbLine
 10
123.0
 20
131.0
 30
0.0
 11
123.3999999999999
 21
134.0999999999999
 31
0.0
  0
LINE
  5
721
330
1E
100
AcDbEntity
  8
0
100
AcDbLine
 10
123.0
 20
131.0
 30
0.0
 11
123.0
 21
130.0
 31
0.0
  0
LINE
  5
722
330
1E
100
AcDbEntity
  8
0
100
AcDbLine
 10
123.0
 20
131.0
 30
0.0
 11
123.3999999999999
 21
134.0999999999999
 31
0.0
  0
LINE
  5
723
330
1E
100
AcDbEntity
  8
0
100
AcDbLine
 10
123.0
 20
122.7999999999999
 30
0.0
 11
123.0
 21
117.0
 31
0.0
  0
LINE
  5
724
330
1E
100
AcDbEntity
  8
0
100
AcDbLine
 10
123.0
 20
122.7999999999999
 30
0.0
 11
123.0
 21
127.2999999999999
 31
0.0
  0
LINE
  5
725
330
1E
100
AcDbEntity
  8
0
100
AcDbLine
 10
123.0
 20
117.0
 30
0.0
 11
123.0
 21
110.2
 31
0.0
  0
LINE
  5
726
330
1E
100
AcDbEntity
  8
0
100
AcDbLine
 10
123.0
 20
117.0
 30
0.0
 11
123.0
 21
122.7999999999999
 31
0.0
  0
LINE
  5
727
330
1E
100
AcDbEntity
  8
0
100
AcDbLine
 10
123.0
 20
110.2
 30
0.0
 11
123.0
 21
103.0
 31
0.0
  0
LINE
  5
728
330
1E
100
AcDbEntity
  8
0
100
AcDbLine
 10
123.0
 20
110.2
 30
0.0
 11
123.0
 21
117.0
 31
0.0
  0
LINE
  5
729
330
1E
100
AcDbEntity
  8
0
100
AcDbLine
 10
123.3999999999999
 20
134.0999999999999
 30
0.0
 11
124.5999999999999
 21
137.0
 31
0.0
  0
LINE
  5
72A
330
1E
100
AcDbEntity
  8
0
100
AcDbLine
 10
124.5999999999999
 20
137.0
 30
0.0
 11
126.5
 21
139.5
 31
0.0
  0
LINE
  5
72B
330
1E
100
AcDbEntity
  8
0
100
AcDbLine
 10
123.0
 20
103.0
 30
0.0
 11
123.0
 21
76.0
 31
0.0
  0
LINE
  5
72C
330
1E
100
AcDbEntity
  8
0
100
AcDbLine
 10
123.0
 20
103.0
 30
0.0
 11
123.0
 21
110.2
 31
0.0
  0
LINE
  5
72D
330
1E
100
AcDbEntity
  8
0
100
AcDbLine
 10
115.64
 20
97.24
 30
0.0
 11
123.0
 21
94.1944827586207
 31
0.0
  0
LINE
  5
72E
330
1E
100
AcDbEntity
  8
0
100
AcDbLine
 10
115.1599999999999
 20
96.28
 30
0.0
 11
123.0
 21
93.14399999999999
 31
0.0
  0
LINE
  5
72F
330
1E
100
AcDbEntity
  8
0
100
AcDbLine
 10
115.64
 20
164.7599999999999
 30
0.0
 11
124.92
 21
168.5999999999999
 31
0.0
  0
LINE
  5
730
330
1E
100
AcDbEntity
  8
0
100
AcDbLine
 10
106.68
 20
159.3199999999999
 30
0.0
 11
115.1599999999999
 21
165.72
 31
0.0
  0
LINE
  5
731
330
1E
100
AcDbEntity
  8
0
100
AcDbLine
 10
100.28
 20
150.8399999999999
 30
0.0
 11
106.68
 21
159.3199999999999
 31
0.0
  0
LINE
  5
732
330
1E
100
AcDbEntity
  8
0
100
AcDbLine
 10
115.1599999999999
 20
165.72
 30
0.0
 11
124.76
 21
169.5599999999999
 31
0.0
  0
LINE
  5
733
330
1E
100
AcDbEntity
  8
0
100
AcDbLine
 10
126.5
 20
139.5
 30
0.0
 11
129.0
 21
141.4
 31
0.0
  0
LINE
  5
734
330
1E
100
AcDbEntity
  8
0
100
AcDbLine
 10
129.0
 20
141.4
 30
0.0
 11
131.9
 21
142.5999999999999
 31
0.0
  0
LINE
  5
735
330
1E
100
AcDbEntity
  8
0
100
AcDbLine
 10
135.0
 20
143.0
 30
0.0
 11
138.1
 21
142.5999999999999
 31
0.0
  0
LINE
  5
736
330
1E
100
AcDbEntity
  8
0
100
AcDbLine
 10
131.9
 20
142.5999999999999
 30
0.0
 11
135.0
 21
143.0
 31
0.0
  0
LINE
  5
737
330
1E
100
AcDbEntity
  8
0
100
AcDbLine
 10
124.92
 20
168.5999999999999
 30
0.0
 11
135.0
 21
170.0399999999999
 31
0.0
  0
LINE
  5
738
330
1E
100
AcDbEntity
  8
0
100
AcDbLine
 10
124.76
 20
169.5599999999999
 30
0.0
 11
135.0
 21
171.0
 31
0.0
  0
LINE
  5
739
330
1E
100
AcDbEntity
  8
0
100
AcDbLine
 10
135.0
 20
170.0399999999999
 30
0.0
 11
145.08
 21
168.5999999999999
 31
0.0
  0
LINE
  5
73A
330
1E
100
AcDbEntity
  8
0
100
AcDbLine
 10
143.5
 20
139.5
 30
0.0
 11
145.4
 21
137.0
 31
0.0
  0
LINE
  5
73B
330
1E
100
AcDbEntity
  8
0
100
AcDbLine
 10
141.0
 20
141.4
 30
0.0
 11
143.5
 21
139.5
 31
0.0
  0
LINE
  5
73C
330
1E
100
AcDbEntity
  8
0
100
AcDbLine
 10
138.1
 20
142.5999999999999
 30
0.0
 11
141.0
 21
141.4
 31
0.0
  0
LINE
  5
73D
330
1E
100
AcDbEntity
  8
0
100
AcDbLine
 10
147.0
 20
117.0
 30
0.0
 11
147.0
 21
110.2
 31
0.0
  0
LINE
  5
73E
330
1E
100
AcDbEntity
  8
0
100
AcDbLine
 10
147.0
 20
117.0
 30
0.0
 11
147.0
 21
122.7999999999999
 31
0.0
  0
LINE
  5
73F
330
1E
100
AcDbEntity
  8
0
100
AcDbLine
 10
147.0
 20
110.2
 30
0.0
 11
147.0
 21
103.0
 31
0.0
  0
LINE
  5
740
330
1E
100
AcDbEntity
  8
0
100
AcDbLine
 10
147.0
 20
110.2
 30
0.0
 11
147.0
 21
117.0
 31
0.0
  0
LINE
  5
741
330
1E
100
AcDbEntity
  8
0
100
AcDbLine
 10
147.0
 20
103.0
 30
0.0
 11
147.0
 21
76.0
 31
0.0
  0
LINE
  5
742
330
1E
100
AcDbEntity
  8
0
100
AcDbLine
 10
147.0
 20
103.0
 30
0.0
 11
147.0
 21
110.2
 31
0.0
  0
LINE
  5
743
330
1E
100
AcDbEntity
  8
0
100
AcDbLine
 10
147.0
 20
122.7999999999999
 30
0.0
 11
147.0
 21
127.2999999999999
 31
0.0
  0
LINE
  5
744
330
1E
100
AcDbEntity
  8
0
100
AcDbLine
 10
147.0
 20
122.7999999999999
 30
0.0
 11
147.0
 21
117.0
 31
0.0
  0
LINE
  5
745
330
1E
100
AcDbEntity
  8
0
100
AcDbLine
 10
147.0
 20
127.2999999999999
 30
0.0
 11
147.0
 21
130.0
 31
0.0
  0
LINE
  5
746
330
1E
100
AcDbEntity
  8
0
100
AcDbLine
 10
147.0
 20
127.2999999999999
 30
0.0
 11
147.0
 21
122.7999999999999
 31
0.0
  0
LINE
  5
747
330
1E
100
AcDbEntity
  8
0
100
AcDbLine
 10
147.0
 20
131.0
 30
0.0
 11
147.0
 21
130.0
 31
0.0
  0
LINE
  5
748
330
1E
100
AcDbEntity
  8
0
100
AcDbLine
 10
147.0
 20
130.0
 30
0.0
 11
147.0
 21
131.0
 31
0.0
  0
LINE
  5
749
330
1E
100
AcDbEntity
  8
0
100
AcDbLine
 10
147.0
 20
130.0
 30
0.0
 11
147.0
 21
127.2999999999999
 31
0.0
  0
LINE
  5
74A
330
1E
100
AcDbEntity
  8
0
100
AcDbLine
 10
146.6
 20
134.0999999999999
 30
0.0
 11
147.0
 21
131.0
 31
0.0
  0
LINE
  5
74B
330
1E
100
AcDbEntity
  8
0
100
AcDbLine
 10
145.4
 20
137.0
 30
0.0
 11
146.6
 21
134.0999999999999
 31
0.0
  0
LINE
  5
74C
330
1E
100
AcDbEntity
  8
0
100
AcDbLine
 10
145.08
 20
168.5999999999999
 30
0.0
 11
154.36
 21
164.7599999999999
 31
0.0
  0
LINE
  5
74D
330
1E
100
AcDbEntity
  8
0
100
AcDbLine
 10
145.24
 20
169.5599999999999
 30
0.0
 11
154.8399999999999
 21
165.72
 31
0.0
  0
LINE
  5
74E
330
1E
100
AcDbEntity
  8
0
100
AcDbLine
 10
135.0
 20
171.0
 30
0.0
 11
145.24
 21
169.5599999999999
 31
0.0
  0
LINE
  5
74F
330
1E
100
AcDbEntity
  8
0
100
AcDbLine
 10
147.0
 20
94.1944827586207
 30
0.0
 11
154.36
 21
97.24
 31
0.0
  0
LINE
  5
9F0
330
1E
100
AcDbEntity
  8
0
100
AcDbLine
 10
157.607
 20
1.000000000000019
 30
0.0
 11
159.0
 21
1.000000000000019
 31
0.0
  0
LINE
  5
9F1
330
1E
100
AcDbEntity
  8
0
100
AcDbLine
 10
168.452
 20
1.000000000000019
 30
0.0
 11
168.6849999999999
 21
1.000000000000019
 31
0.0
  0
LINE
  5
9F2
330
1E
100
AcDbEntity
  8
0
100
AcDbLine
 10
166.5
 20
1.000000000000019
 30
0.0
 11
166.604
 21
1.000000000000019
 31
0.0
  0
LINE
  5
9F6
330
1E
100
AcDbEntity
  8
0
100
AcDbLine
 10
170.597
 20
1.000000000000019
 30
0.0
 11
172.344
 21
1.000000000000019
 31
0.0
  0
LINE
  5
9F7
330
1E
100
AcDbEntity
  8
0
100
AcDbLine
 10
183.5879999999999
 20
1.000000000000019
 30
0.0
 11
184.044
 21
1.000000000000019
 31
0.0
  0
LINE
  5
9F8
330
1E
100
AcDbEntity
  8
0
100
AcDbLine
 10
181.6
 20
1.000000000000019
 30
0.0
 11
181.675
 21
1.000000000000019
 31
0.0
  0
LINE
  5
9FA
330
1E
100
AcDbEntity
  8
0
100
AcDbLine
 10
196.858
 20
1.000000000000019
 30
0.0
 11
198.7479999999999
 21
1.000000000000019
 31
0.0
  0
LINE
  5
9FD
330
1E
100
AcDbEntity
  8
0
100
AcDbLine
 10
217.307
 20
1.000000000000019
 30
0.0
 11
218.2809999999999
 21
1.000000000000019
 31
0.0
  0
LINE
  5
9FF
330
1E
100
AcDbEntity
  8
0
100
AcDbLine
 10
220.264
 20
1.000000000000019
 30
0.0
 11
220.6459999999999
 21
1.000000000000019
 31
0.0
  0
LINE
  5
A00
330
1E
100
AcDbEntity
  8
0
100
AcDbLine
 10
209.2
 20
1.000000000000019
 30
0.0
 11
212.6059999999999
 21
1.000000000000019
 31
0.0
  0
LINE
  5
A01
330
1E
100
AcDbEntity
  8
0
100
AcDbLine
 10
206.7009999999999
 20
1.000000000000019
 30
0.0
 11
209.2
 21
1.000000000000019
 31
0.0
  0
LINE
  5
A02
330
1E
100
AcDbEntity
  8
0
100
AcDbLine
 10
200.5949999999999
 20
1.000000000000019
 30
0.0
 11
201.454
 21
1.000000000000019
 31
0.0
  0
LINE
  5
A03
330
1E
100
AcDbEntity
  8
0
100
AcDbLine
 10
193.4559999999999
 20
1.000000000000019
 30
0.0
 11
194.895
 21
1.000000000000019
 31
0.0
  0
LINE
  5
A04
330
1E
100
AcDbEntity
  8
0
100
AcDbLine
 10
179.932
 20
1.000000000000019
 30
0.0
 11
181.6
 21
1.000000000000019
 31
0.0
  0
LINE
  5
A05
330
1E
100
AcDbEntity
  8
0
100
AcDbLine
 10
176.0
 20
1.000000000000019
 30
0.0
 11
176.632
 21
1.000000000000019
 31
0.0
  0
LINE
  5
A06
330
1E
100
AcDbEntity
  8
0
100
AcDbLine
 10
165.73
 20
1.000000000000019
 30
0.0
 11
166.5
 21
1.000000000000019
 31
0.0
  0
LINE
  5
A07
330
1E
100
AcDbEntity
  8
0
100
AcDbLine
 10
163.456
 20
1.000000000000019
 30
0.0
 11
163.7979999999999
 21
1.000000000000019
 31
0.0
  0
LINE
  5
A08
330
1E
100
AcDbEntity
  8
0
100
AcDbLine
 10
151.002
 20
1.000000000000019
 30
0.0
 11
154.0439999999999
 21
1.000000000000019
 31
0.0
  0
LINE
  5
A87
330
1E
100
AcDbEntity
  8
0
100
AcDbLine
 10
228.312
 20
1.000000000000019
 30
0.0
 11
230.627
 21
1.000000000000019
 31
0.0
  0
LINE
  5
A88
330
1E
100
AcDbEntity
  8
0
100
AcDbLine
 10
222.559
 20
1.000000000000019
 30
0.0
 11
225.254
 21
1.000000000000019
 31
0.0
  0
LINE
  5
A8D
330
1E
100
AcDbEntity
  8
0
100
AcDbLine
 10
236.0
 20
1.000000000000019
 30
0.0
 11
240.322
 21
1.000000000000019
 31
0.0
  0
LINE
  5
A8E
330
1E
100
AcDbEntity
  8
0
100
AcDbLine
 10
232.559
 20
1.000000000000019
 30
0.0
 11
233.1529999999999
 21
1.000000000000019
 31
0.0
  0
LINE
  5
AA5
330
1E
100
AcDbEntity
  8
0
100
AcDbLine
 10
242.1699999999999
 20
1.000000000000019
 30
0.0
 11
245.1159999999999
 21
1.000000000000019
 31
0.0
  0
LINE
  5
AA9
330
1E
100
AcDbEntity
  8
0
100
AcDbLine
 10
247.047
 20
1.000000000000019
 30
0.0
 11
247.5
 21
1.000000000000019
 31
0.0
  0
LINE
  5
ACA
330
1E
100
AcDbEntity
  8
0
100
AcDbLine
 10
251.0
 20
1.000000000000019
 30
0.0
 11
252.5999999999999
 21
1.000000000000019
 31
0.0
  0
LINE
  5
ACB
330
1E
100
AcDbEntity
  8
0
100
AcDbLine
 10
247.5
 20
1.000000000000019
 30
0.0
 11
248.025
 21
1.000000000000019
 31
0.0
  0
LINE
  5
ACE
330
1E
100
AcDbEntity
  8
0
100
AcDbLine
 10
159.3
 20
1.000000000000019
 30
0.0
 11
159.9159999999999
 21
1.000000000000019
 31
0.0
  0
LINE
  5
AD0
330
1E
100
AcDbEntity
  8
0
100
AcDbLine
 10
159.0
 20
1.000000000000019
 30
0.0
 11
159.3
 21
1.000000000000019
 31
0.0
  0
LINE
  5
AD1
330
1E
100
AcDbEntity
  8
0
100
AcDbLine
 10
174.8809999999999
 20
1.000000000000019
 30
0.0
 11
175.0
 21
1.000000000000019
 31
0.0
  0
LINE
  5
AD5
330
1E
100
AcDbEntity
  8
0
100
AcDbLine
 10
175.6999999999999
 20
1.000000000000019
 30
0.0
 11
176.0
 21
1.000000000000019
 31
0.0
  0
LINE
  5
AD6
330
1E
100
AcDbEntity
  8
0
100
AcDbLine
 10
175.0
 20
1.000000000000019
 30
0.0
 11
175.6999999999999
 21
1.000000000000019
 31
0.0
  0
LINE
  5
AD8
330
1E
100
AcDbEntity
  8
0
100
AcDbLine
 10
155.956
 20
1.00000000000003
 30
0.0
 11
156.151
 21
1.00000000000003
 31
0.0
  0
LINE
  5
ADB
330
1E
100
AcDbEntity
  8
0
100
AcDbLine
 10
157.5169999999999
 20
1.00000000000003
 30
0.0
 11
157.607
 21
1.00000000000003
 31
0.0
  0
LINE
  5
ADD
330
1E
100
AcDbEntity
  8
0
100
AcDbLine
 10
156.907
 20
1.00000000000003
 30
0.0
 11
157.5169999999999
 21
1.00000000000003
 31
0.0
  0
LINE
  5
ADE
330
1E
100
AcDbEntity
  8
0
100
AcDbLine
 10
156.151
 20
1.00000000000003
 30
0.0
 11
156.907
 21
1.00000000000003
 31
0.0
  0
LINE
  5
AE1
330
1E
100
AcDbEntity
  8
0
100
AcDbLine
 10
168.6849999999999
 20
1.00000000000003
 30
0.0
 11
169.1409999999999
 21
1.00000000000003
 31
0.0
  0
LINE
  5
AE4
330
1E
100
AcDbEntity
  8
0
100
AcDbLine
 10
170.507
 20
1.00000000000003
 30
0.0
 11
170.597
 21
1.00000000000003
 31
0.0
  0
LINE
  5
AE6
330
1E
100
AcDbEntity
  8
0
100
AcDbLine
 10
169.897
 20
1.00000000000003
 30
0.0
 11
170.507
 21
1.00000000000003
 31
0.0
  0
LINE
  5
AE7
330
1E
100
AcDbEntity
  8
0
100
AcDbLine
 10
169.1409999999999
 20
1.00000000000003
 30
0.0
 11
169.897
 21
1.00000000000003
 31
0.0
  0
LINE
  5
AEA
330
1E
100
AcDbEntity
  8
0
100
AcDbLine
 10
154.0439999999999
 20
1.00000000000003
 30
0.0
 11
154.1339999999999
 21
1.00000000000003
 31
0.0
  0
LINE
  5
AED
330
1E
100
AcDbEntity
  8
0
100
AcDbLine
 10
155.4999999999999
 20
1.00000000000003
 30
0.0
 11
155.956
 21
1.00000000000003
 31
0.0
  0
LINE
  5
AEF
330
1E
100
AcDbEntity
  8
0
100
AcDbLine
 10
154.7439999999999
 20
1.00000000000003
 30
0.0
 11
155.4999999999999
 21
1.00000000000003
 31
0.0
  0
LINE
  5
AF0
330
1E
100
AcDbEntity
  8
0
100
AcDbLine
 10
154.1339999999999
 20
1.00000000000003
 30
0.0
 11
154.7439999999999
 21
1.00000000000003
 31
0.0
  0
LINE
  5
AF4
330
1E
100
AcDbEntity
  8
0
100
AcDbLine
 10
163.0
 20
1.00000000000003
 30
0.0
 11
163.456
 21
1.00000000000003
 31
0.0
  0
LINE
  5
AF8
330
1E
100
AcDbEntity
  8
0
100
AcDbLine
 10
162.171
 20
1.00000000000003
 30
0.0
 11
162.7019999999999
 21
1.00000000000003
 31
0.0
  0
LINE
  5
AF9
330
1E
100
AcDbEntity
  8
0
100
AcDbLine
 10
161.8479999999999
 20
1.00000000000003
 30
0.0
 11
162.171
 21
1.00000000000003
 31
0.0
  0
LINE
  5
AFD
330
1E
100
AcDbEntity
  8
0
100
AcDbLine
 10
167.9109999999999
 20
1.00000000000003
 30
0.0
 11
168.4429999999999
 21
1.00000000000003
 31
0.0
  0
LINE
  5
AFF
330
1E
100
AcDbEntity
  8
0
100
AcDbLine
 10
167.149
 20
1.00000000000003
 30
0.0
 11
167.9109999999999
 21
1.00000000000003
 31
0.0
  0
LINE
  5
B00
330
1E
100
AcDbEntity
  8
0
100
AcDbLine
 10
166.604
 20
1.00000000000003
 30
0.0
 11
167.149
 21
1.00000000000003
 31
0.0
  0
LINE
  5
B02
330
1E
100
AcDbEntity
  8
0
100
AcDbLine
 10
162.712
 20
1.00000000000003
 30
0.0
 11
163.0
 21
1.00000000000003
 31
0.0
  0
LINE
  5
B05
330
1E
100
AcDbEntity
  8
0
100
AcDbLine
 10
176.632
 20
1.00000000000003
 30
0.0
 11
176.82
 21
1.00000000000003
 31
0.0
  0
LINE
  5
B07
330
1E
100
AcDbEntity
  8
0
100
AcDbLine
 10
177.484
 20
1.00000000000003
 30
0.0
 11
178.085
 21
1.00000000000003
 31
0.0
  0
LINE
  5
B08
330
1E
100
AcDbEntity
  8
0
100
AcDbLine
 10
176.82
 20
1.00000000000003
 30
0.0
 11
177.484
 21
1.00000000000003
 31
0.0
  0
LINE
  5
B0B
330
1E
100
AcDbEntity
  8
0
100
AcDbLine
 10
174.5979999999999
 20
1.00000000000003
 30
0.0
 11
174.8809999999999
 21
1.00000000000003
 31
0.0
  0
LINE
  5
B0C
330
1E
100
AcDbEntity
  8
0
100
AcDbLine
 10
174.192
 20
1.00000000000003
 30
0.0
 11
174.5979999999999
 21
1.00000000000003
 31
0.0
  0
LINE
  5
B0E
330
1E
100
AcDbEntity
  8
0
100
AcDbLine
 10
181.675
 20
1.00000000000003
 30
0.0
 11
182.1309999999999
 21
1.00000000000003
 31
0.0
  0
LINE
  5
B11
330
1E
100
AcDbEntity
  8
0
100
AcDbLine
 10
183.497
 20
1.00000000000003
 30
0.0
 11
183.5879999999999
 21
1.00000000000003
 31
0.0
  0
LINE
  5
B14
330
1E
100
AcDbEntity
  8
0
100
AcDbLine
 10
187.3529999999999
 20
1.00000000000003
 30
0.0
 11
187.7259999999999
 21
1.00000000000003
 31
0.0
  0
LINE
  5
B16
330
1E
100
AcDbEntity
  8
0
100
AcDbLine
 10
186.6159999999999
 20
1.00000000000003
 30
0.0
 11
187.3529999999999
 21
1.00000000000003
 31
0.0
  0
LINE
  5
B17
330
1E
100
AcDbEntity
  8
0
100
AcDbLine
 10
185.9559999999999
 20
1.00000000000003
 30
0.0
 11
186.6159999999999
 21
1.00000000000003
 31
0.0
  0
LINE
  5
B19
330
1E
100
AcDbEntity
  8
0
100
AcDbLine
 10
182.888
 20
1.00000000000003
 30
0.0
 11
183.497
 21
1.00000000000003
 31
0.0
  0
LINE
  5
B1A
330
1E
100
AcDbEntity
  8
0
100
AcDbLine
 10
182.1309999999999
 20
1.00000000000003
 30
0.0
 11
182.888
 21
1.00000000000003
 31
0.0
  0
LINE
  5
B1C
330
1E
100
AcDbEntity
  8
0
100
AcDbLine
 10
187.7259999999999
 20
1.00000000000003
 30
0.0
 11
187.867
 21
1.00000000000003
 31
0.0
  0
LINE
  5
B1F
330
1E
100
AcDbEntity
  8
0
100
AcDbLine
 10
188.6209999999999
 20
1.00000000000003
 30
0.0
 11
189.092
 21
1.00000000000003
 31
0.0
  0
LINE
  5
B20
330
1E
100
AcDbEntity
  8
0
100
AcDbLine
 10
187.867
 20
1.00000000000003
 30
0.0
 11
188.6209999999999
 21
1.00000000000003
 31
0.0
  0
LINE
  5
B22
330
1E
100
AcDbEntity
  8
0
100
AcDbLine
 10
189.092
 20
1.000000000000019
 30
0.0
 11
189.3
 21
1.000000000000019
 31
0.0
  0
LINE
  5
B24
330
1E
100
AcDbEntity
  8
0
100
AcDbLine
 10
203.417
 20
1.00000000000003
 30
0.0
 11
203.6159999999999
 21
1.00000000000003
 31
0.0
  0
LINE
  5
B27
330
1E
100
AcDbEntity
  8
0
100
AcDbLine
 10
203.6159999999999
 20
1.00000000000003
 30
0.0
 11
204.0259999999999
 21
1.00000000000003
 31
0.0
  0
LINE
  5
B29
330
1E
100
AcDbEntity
  8
0
100
AcDbLine
 10
218.487
 20
1.00000000000003
 30
0.0
 11
219.1419999999999
 21
1.00000000000003
 31
0.0
  0
LINE
  5
B2B
330
1E
100
AcDbEntity
  8
0
100
AcDbLine
 10
218.2809999999999
 20
1.00000000000003
 30
0.0
 11
218.487
 21
1.00000000000003
 31
0.0
  0
LINE
  5
B2F
330
1E
100
AcDbEntity
  8
0
100
AcDbLine
 10
219.8749999999999
 20
1.00000000000003
 30
0.0
 11
220.264
 21
1.00000000000003
 31
0.0
  0
LINE
  5
B31
330
1E
100
AcDbEntity
  8
0
100
AcDbLine
 10
198.757
 20
1.00000000000003
 30
0.0
 11
199.289
 21
1.00000000000003
 31
0.0
  0
LINE
  5
B35
330
1E
100
AcDbEntity
  8
0
100
AcDbLine
 10
200.05
 20
1.00000000000003
 30
0.0
 11
200.5949999999999
 21
1.00000000000003
 31
0.0
  0
LINE
  5
B36
330
1E
100
AcDbEntity
  8
0
100
AcDbLine
 10
199.289
 20
1.00000000000003
 30
0.0
 11
200.05
 21
1.00000000000003
 31
0.0
  0
LINE
  5
B39
330
1E
100
AcDbEntity
  8
0
100
AcDbLine
 10
212.6149999999999
 20
1.00000000000003
 30
0.0
 11
213.147
 21
1.00000000000003
 31
0.0
  0
LINE
  5
B3C
330
1E
100
AcDbEntity
  8
0
100
AcDbLine
 10
189.5529999999999
 20
1.00000000000003
 30
0.0
 11
189.9259999999999
 21
1.00000000000003
 31
0.0
  0
LINE
  5
B3F
330
1E
100
AcDbEntity
  8
0
100
AcDbLine
 10
191.328
 20
1.00000000000003
 30
0.0
 11
191.516
 21
1.00000000000003
 31
0.0
  0
LINE
  5
B41
330
1E
100
AcDbEntity
  8
0
100
AcDbLine
 10
190.664
 20
1.00000000000003
 30
0.0
 11
191.328
 21
1.00000000000003
 31
0.0
  0
LINE
  5
B42
330
1E
100
AcDbEntity
  8
0
100
AcDbLine
 10
189.9259999999999
 20
1.00000000000003
 30
0.0
 11
190.664
 21
1.00000000000003
 31
0.0
  0
LINE
  5
B45
330
1E
100
AcDbEntity
  8
0
100
AcDbLine
 10
201.454
 20
1.00000000000003
 30
0.0
 11
201.826
 21
1.00000000000003
 31
0.0
  0
LINE
  5
B48
330
1E
100
AcDbEntity
  8
0
100
AcDbLine
 10
194.895
 20
1.00000000000003
 30
0.0
 11
195.083
 21
1.00000000000003
 31
0.0
  0
LINE
  5
B4B
330
1E
100
AcDbEntity
  8
0
100
AcDbLine
 10
196.485
 20
1.00000000000003
 30
0.0
 11
196.858
 21
1.00000000000003
 31
0.0
  0
LINE
  5
B4D
330
1E
100
AcDbEntity
  8
0
100
AcDbLine
 10
195.747
 20
1.00000000000003
 30
0.0
 11
196.485
 21
1.00000000000003
 31
0.0
  0
LINE
  5
B4E
330
1E
100
AcDbEntity
  8
0
100
AcDbLine
 10
195.083
 20
1.00000000000003
 30
0.0
 11
195.747
 21
1.00000000000003
 31
0.0
  0
LINE
  5
B51
330
1E
100
AcDbEntity
  8
0
100
AcDbLine
 10
203.2279999999999
 20
1.00000000000003
 30
0.0
 11
203.417
 21
1.00000000000003
 31
0.0
  0
LINE
  5
B53
330
1E
100
AcDbEntity
  8
0
100
AcDbLine
 10
213.3539999999999
 20
1.00000000000003
 30
0.0
 11
213.727
 21
1.00000000000003
 31
0.0
  0
LINE
  5
B56
330
1E
100
AcDbEntity
  8
0
100
AcDbLine
 10
215.129
 20
1.00000000000003
 30
0.0
 11
215.317
 21
1.00000000000003
 31
0.0
  0
LINE
  5
B58
330
1E
100
AcDbEntity
  8
0
100
AcDbLine
 10
214.4649999999999
 20
1.00000000000003
 30
0.0
 11
215.129
 21
1.00000000000003
 31
0.0
  0
LINE
  5
B59
330
1E
100
AcDbEntity
  8
0
100
AcDbLine
 10
213.727
 20
1.00000000000003
 30
0.0
 11
214.4649999999999
 21
1.00000000000003
 31
0.0
  0
LINE
  5
B5D
330
1E
100
AcDbEntity
  8
0
100
AcDbLine
 10
206.4179999999999
 20
1.00000000000003
 30
0.0
 11
206.7009999999999
 21
1.00000000000003
 31
0.0
  0
LINE
  5
B5E
330
1E
100
AcDbEntity
  8
0
100
AcDbLine
 10
205.989
 20
1.00000000000003
 30
0.0
 11
206.4179999999999
 21
1.00000000000003
 31
0.0
  0
LINE
  5
B60
330
1E
100
AcDbEntity
  8
0
100
AcDbLine
 10
215.327
 20
1.00000000000003
 30
0.0
 11
215.61
 21
1.00000000000003
 31
0.0
  0
LINE
  5
B63
330
1E
100
AcDbEntity
  8
0
100
AcDbLine
 10
217.024
 20
1.00000000000003
 30
0.0
 11
217.307
 21
1.00000000000003
 31
0.0
  0
LINE
  5
B65
330
1E
100
AcDbEntity
  8
0
100
AcDbLine
 10
216.317
 20
1.00000000000003
 30
0.0
 11
217.024
 21
1.00000000000003
 31
0.0
  0
LINE
  5
B66
330
1E
100
AcDbEntity
  8
0
100
AcDbLine
 10
215.61
 20
1.00000000000003
 30
0.0
 11
216.317
 21
1.00000000000003
 31
0.0
  0
LINE
  5
B69
330
1E
100
AcDbEntity
  8
0
100
AcDbLine
 10
202.564
 20
1.00000000000003
 30
0.0
 11
203.2279999999999
 21
1.00000000000003
 31
0.0
  0
LINE
  5
B6A
330
1E
100
AcDbEntity
  8
0
100
AcDbLine
 10
201.826
 20
1.00000000000003
 30
0.0
 11
202.564
 21
1.00000000000003
 31
0.0
  0
LINE
  5
B6D
330
1E
100
AcDbEntity
  8
0
100
AcDbLine
 10
220.6459999999999
 20
1.00000000000003
 30
0.0
 11
221.103
 21
1.00000000000003
 31
0.0
  0
LINE
  5
B70
330
1E
100
AcDbEntity
  8
0
100
AcDbLine
 10
227.767
 20
1.00000000000003
 30
0.0
 11
228.312
 21
1.00000000000003
 31
0.0
  0
LINE
  5
B71
330
1E
100
AcDbEntity
  8
0
100
AcDbLine
 10
227.217
 20
1.00000000000003
 30
0.0
 11
227.767
 21
1.00000000000003
 31
0.0
  0
LINE
  5
B74
330
1E
100
AcDbEntity
  8
0
100
AcDbLine
 10
222.469
 20
1.00000000000003
 30
0.0
 11
222.559
 21
1.00000000000003
 31
0.0
  0
LINE
  5
B76
330
1E
100
AcDbEntity
  8
0
100
AcDbLine
 10
225.254
 20
1.00000000000003
 30
0.0
 11
225.627
 21
1.00000000000003
 31
0.0
  0
LINE
  5
B79
330
1E
100
AcDbEntity
  8
0
100
AcDbLine
 10
227.029
 20
1.00000000000003
 30
0.0
 11
227.217
 21
1.00000000000003
 31
0.0
  0
LINE
  5
B7B
330
1E
100
AcDbEntity
  8
0
100
AcDbLine
 10
226.365
 20
1.00000000000003
 30
0.0
 11
227.029
 21
1.00000000000003
 31
0.0
  0
LINE
  5
B7C
330
1E
100
AcDbEntity
  8
0
100
AcDbLine
 10
225.627
 20
1.00000000000003
 30
0.0
 11
226.365
 21
1.00000000000003
 31
0.0
  0
LINE
  5
B7F
330
1E
100
AcDbEntity
  8
0
100
AcDbLine
 10
221.859
 20
1.00000000000003
 30
0.0
 11
222.469
 21
1.00000000000003
 31
0.0
  0
LINE
  5
B80
330
1E
100
AcDbEntity
  8
0
100
AcDbLine
 10
221.103
 20
1.00000000000003
 30
0.0
 11
221.859
 21
1.00000000000003
 31
0.0
  0
LINE
  5
B82
330
1E
100
AcDbEntity
  8
0
100
AcDbLine
 10
213.147
 20
1.00000000000003
 30
0.0
 11
213.3539999999999
 21
1.00000000000003
 31
0.0
  0
LINE
  5
B85
330
1E
100
AcDbEntity
  8
0
100
AcDbLine
 10
230.735
 20
1.00000000000003
 30
0.0
 11
231.334
 21
1.00000000000003
 31
0.0
  0
LINE
  5
B87
330
1E
100
AcDbEntity
  8
0
100
AcDbLine
 10
230.627
 20
1.00000000000003
 30
0.0
 11
230.735
 21
1.00000000000003
 31
0.0
  0
LINE
  5
B88
330
1E
100
AcDbEntity
  8
0
100
AcDbLine
 10
231.334
 20
1.00000000000003
 30
0.0
 11
232.0879999999999
 21
1.00000000000003
 31
0.0
  0
LINE
  5
B8A
330
1E
100
AcDbEntity
  8
0
100
AcDbLine
 10
219.1419999999999
 20
1.00000000000003
 30
0.0
 11
219.8749999999999
 21
1.00000000000003
 31
0.0
  0
LINE
  5
B8D
330
1E
100
AcDbEntity
  8
0
100
AcDbLine
 10
189.3
 20
1.000000000000019
 30
0.0
 11
189.5529999999999
 21
1.000000000000019
 31
0.0
  0
LINE
  5
B8F
330
1E
100
AcDbEntity
  8
0
100
AcDbLine
 10
148.838
 20
1.00000000000003
 30
0.0
 11
149.019
 21
1.00000000000003
 31
0.0
  0
LINE
  5
B91
330
1E
100
AcDbEntity
  8
0
100
AcDbLine
 10
148.1829999999999
 20
1.00000000000003
 30
0.0
 11
148.838
 21
1.00000000000003
 31
0.0
  0
LINE
  5
B93
330
1E
100
AcDbEntity
  8
0
100
AcDbLine
 10
147.4499999999999
 20
1.00000000000003
 30
0.0
 11
148.1829999999999
 21
1.00000000000003
 31
0.0
  0
LINE
  5
B94
330
1E
100
AcDbEntity
  8
0
100
AcDbLine
 10
147.061
 20
1.00000000000003
 30
0.0
 11
147.4499999999999
 21
1.00000000000003
 31
0.0
  0
LINE
  5
B97
330
1E
100
AcDbEntity
  8
0
100
AcDbLine
 10
150.7959999999999
 20
1.00000000000003
 30
0.0
 11
151.002
 21
1.00000000000003
 31
0.0
  0
LINE
  5
B99
330
1E
100
AcDbEntity
  8
0
100
AcDbLine
 10
150.1409999999999
 20
1.00000000000003
 30
0.0
 11
150.7959999999999
 21
1.00000000000003
 31
0.0
  0
LINE
  5
B9B
330
1E
100
AcDbEntity
  8
0
100
AcDbLine
 10
149.4079999999999
 20
1.00000000000003
 30
0.0
 11
150.1409999999999
 21
1.00000000000003
 31
0.0
  0
LINE
  5
B9C
330
1E
100
AcDbEntity
  8
0
100
AcDbLine
 10
149.019
 20
1.00000000000003
 30
0.0
 11
149.4079999999999
 21
1.00000000000003
 31
0.0
  0
LINE
  5
BA0
330
1E
100
AcDbEntity
  8
0
100
AcDbLine
 10
161.739
 20
1.00000000000003
 30
0.0
 11
161.8479999999999
 21
1.00000000000003
 31
0.0
  0
LINE
  5
BA2
330
1E
100
AcDbEntity
  8
0
100
AcDbLine
 10
161.141
 20
1.00000000000003
 30
0.0
 11
161.739
 21
1.00000000000003
 31
0.0
  0
LINE
  5
BA4
330
1E
100
AcDbEntity
  8
0
100
AcDbLine
 10
160.387
 20
1.00000000000003
 30
0.0
 11
161.141
 21
1.00000000000003
 31
0.0
  0
LINE
  5
BA5
330
1E
100
AcDbEntity
  8
0
100
AcDbLine
 10
159.9159999999999
 20
1.00000000000003
 30
0.0
 11
160.387
 21
1.00000000000003
 31
0.0
  0
LINE
  5
BAA
330
1E
100
AcDbEntity
  8
0
100
AcDbLine
 10
173.6509999999999
 20
1.00000000000003
 30
0.0
 11
174.183
 21
1.00000000000003
 31
0.0
  0
LINE
  5
BAC
330
1E
100
AcDbEntity
  8
0
100
AcDbLine
 10
172.8899999999999
 20
1.00000000000003
 30
0.0
 11
173.6509999999999
 21
1.00000000000003
 31
0.0
  0
LINE
  5
BAD
330
1E
100
AcDbEntity
  8
0
100
AcDbLine
 10
172.344
 20
1.00000000000003
 30
0.0
 11
172.8899999999999
 21
1.00000000000003
 31
0.0
  0
LINE
  5
BB2
330
1E
100
AcDbEntity
  8
0
100
AcDbLine
 10
179.3909999999999
 20
1.00000000000003
 30
0.0
 11
179.923
 21
1.00000000000003
 31
0.0
  0
LINE
  5
BB4
330
1E
100
AcDbEntity
  8
0
100
AcDbLine
 10
178.6299999999999
 20
1.00000000000003
 30
0.0
 11
179.3909999999999
 21
1.00000000000003
 31
0.0
  0
LINE
  5
BB5
330
1E
100
AcDbEntity
  8
0
100
AcDbLine
 10
178.085
 20
1.00000000000003
 30
0.0
 11
178.6299999999999
 21
1.00000000000003
 31
0.0
  0
LINE
  5
BB9
330
1E
100
AcDbEntity
  8
0
100
AcDbLine
 10
165.622
 20
1.00000000000003
 30
0.0
 11
165.73
 21
1.00000000000003
 31
0.0
  0
LINE
  5
BBB
330
1E
100
AcDbEntity
  8
0
100
AcDbLine
 10
165.023
 20
1.00000000000003
 30
0.0
 11
165.622
 21
1.00000000000003
 31
0.0
  0
LINE
  5
BBD
330
1E
100
AcDbEntity
  8
0
100
AcDbLine
 10
164.2689999999999
 20
1.00000000000003
 30
0.0
 11
165.023
 21
1.00000000000003
 31
0.0
  0
LINE
  5
BBE
330
1E
100
AcDbEntity
  8
0
100
AcDbLine
 10
163.7979999999999
 20
1.00000000000003
 30
0.0
 11
164.2689999999999
 21
1.00000000000003
 31
0.0
  0
LINE
  5
BC2
330
1E
100
AcDbEntity
  8
0
100
AcDbLine
 10
184.044
 20
1.00000000000003
 30
0.0
 11
184.134
 21
1.00000000000003
 31
0.0
  0
LINE
  5
BC5
330
1E
100
AcDbEntity
  8
0
100
AcDbLine
 10
185.5
 20
1.00000000000003
 30
0.0
 11
185.9559999999999
 21
1.00000000000003
 31
0.0
  0
LINE
  5
BC7
330
1E
100
AcDbEntity
  8
0
100
AcDbLine
 10
184.744
 20
1.00000000000003
 30
0.0
 11
185.5
 21
1.00000000000003
 31
0.0
  0
LINE
  5
BC8
330
1E
100
AcDbEntity
  8
0
100
AcDbLine
 10
184.134
 20
1.00000000000003
 30
0.0
 11
184.744
 21
1.00000000000003
 31
0.0
  0
LINE
  5
BCB
330
1E
100
AcDbEntity
  8
0
100
AcDbLine
 10
191.544
 20
1.00000000000003
 30
0.0
 11
191.634
 21
1.00000000000003
 31
0.0
  0
LINE
  5
BCD
330
1E
100
AcDbEntity
  8
0
100
AcDbLine
 10
204.0259999999999
 20
1.00000000000003
 30
0.0
 11
204.214
 21
1.00000000000003
 31
0.0
  0
LINE
  5
BD0
330
1E
100
AcDbEntity
  8
0
100
AcDbLine
 10
205.6159999999999
 20
1.00000000000003
 30
0.0
 11
205.989
 21
1.00000000000003
 31
0.0
  0
LINE
  5
BD2
330
1E
100
AcDbEntity
  8
0
100
AcDbLine
 10
204.8779999999999
 20
1.00000000000003
 30
0.0
 11
205.6159999999999
 21
1.00000000000003
 31
0.0
  0
LINE
  5
BD3
330
1E
100
AcDbEntity
  8
0
100
AcDbLine
 10
204.214
 20
1.00000000000003
 30
0.0
 11
204.8779999999999
 21
1.00000000000003
 31
0.0
  0
LINE
  5
BD7
330
1E
100
AcDbEntity
  8
0
100
AcDbLine
 10
193.0
 20
1.00000000000003
 30
0.0
 11
193.4559999999999
 21
1.00000000000003
 31
0.0
  0
LINE
  5
BD9
330
1E
100
AcDbEntity
  8
0
100
AcDbLine
 10
192.244
 20
1.00000000000003
 30
0.0
 11
193.0
 21
1.00000000000003
 31
0.0
  0
LINE
  5
BDA
330
1E
100
AcDbEntity
  8
0
100
AcDbLine
 10
191.634
 20
1.00000000000003
 30
0.0
 11
192.244
 21
1.00000000000003
 31
0.0
  0
LINE
  5
BDC
330
1E
100
AcDbEntity
  8
0
100
AcDbLine
 10
209.2
 20
1.00000000000003
 30
0.0
 11
221.0999999999999
 21
1.00000000000003
 31
0.0
  0
LINE
  5
BDD
330
1E
100
AcDbEntity
  8
0
100
AcDbLine
 10
195.6999999999999
 20
1.00000000000003
 30
0.0
 11
209.2
 21
1.00000000000003
 31
0.0
  0
LINE
  5
BDE
330
1E
100
AcDbEntity
  8
0
100
AcDbLine
 10
181.6
 20
1.00000000000003
 30
0.0
 11
195.6999999999999
 21
1.00000000000003
 31
0.0
  0
LINE
  5
BDF
330
1E
100
AcDbEntity
  8
0
100
AcDbLine
 10
166.5
 20
1.00000000000003
 30
0.0
 11
181.6
 21
1.00000000000003
 31
0.0
  0
LINE
  5
BE0
330
1E
100
AcDbEntity
  8
0
100
AcDbLine
 10
150.9
 20
1.00000000000003
 30
0.0
 11
166.5
 21
1.00000000000003
 31
0.0
  0
LINE
  5
BE1
330
1E
100
AcDbEntity
  8
0
100
AcDbLine
 10
209.2
 20
2.500000000000029
 30
0.0
 11
221.0999999999999
 21
2.500000000000029
 31
0.0
  0
LINE
  5
BE2
330
1E
100
AcDbEntity
  8
0
100
AcDbLine
 10
195.6999999999999
 20
2.500000000000029
 30
0.0
 11
209.2
 21
2.500000000000029
 31
0.0
  0
LINE
  5
BE3
330
1E
100
AcDbEntity
  8
0
100
AcDbLine
 10
181.6
 20
2.500000000000029
 30
0.0
 11
195.6999999999999
 21
2.500000000000029
 31
0.0
  0
LINE
  5
BE4
330
1E
100
AcDbEntity
  8
0
100
AcDbLine
 10
216.8
 20
3.000000000000029
 30
0.0
 11
229.8999999999999
 21
3.000000000000029
 31
0.0
  0
LINE
  5
BE5
330
1E
100
AcDbEntity
  8
0
100
AcDbLine
 10
202.0
 20
3.000000000000029
 30
0.0
 11
216.8
 21
3.000000000000029
 31
0.0
  0
LINE
  5
BE6
330
1E
100
AcDbEntity
  8
0
100
AcDbLine
 10
186.4
 20
3.000000000000029
 30
0.0
 11
202.0
 21
3.000000000000029
 31
0.0
  0
LINE
  5
BE7
330
1E
100
AcDbEntity
  8
0
100
AcDbLine
 10
169.6999999999999
 20
3.000000000000029
 30
0.0
 11
186.4
 21
3.000000000000029
 31
0.0
  0
LINE
  5
BE8
330
1E
100
AcDbEntity
  8
0
100
AcDbLine
 10
152.5999999999999
 20
3.000000000000029
 30
0.0
 11
169.6999999999999
 21
3.000000000000029
 31
0.0
  0
LINE
  5
BE9
330
1E
100
AcDbEntity
  8
0
100
AcDbLine
 10
166.5
 20
2.500000000000029
 30
0.0
 11
181.6
 21
2.500000000000029
 31
0.0
  0
LINE
  5
BEA
330
1E
100
AcDbEntity
  8
0
100
AcDbLine
 10
150.9
 20
2.500000000000029
 30
0.0
 11
166.5
 21
2.500000000000029
 31
0.0
  0
LINE
  5
BEB
330
1E
100
AcDbEntity
  8
0
100
AcDbLine
 10
211.9
 20
27.5
 30
0.0
 11
224.3
 21
27.5
 31
0.0
  0
LINE
  5
BEC
330
1E
100
AcDbEntity
  8
0
100
AcDbLine
 10
198.0
 20
27.5
 30
0.0
 11
211.9
 21
27.5
 31
0.0
  0
LINE
  5
BED
330
1E
100
AcDbEntity
  8
0
100
AcDbLine
 10
183.3
 20
27.5
 30
0.0
 11
198.0
 21
27.5
 31
0.0
  0
LINE
  5
BEE
330
1E
100
AcDbEntity
  8
0
100
AcDbLine
 10
167.5999999999999
 20
27.5
 30
0.0
 11
183.3
 21
27.5
 31
0.0
  0
LINE
  5
BEF
330
1E
100
AcDbEntity
  8
0
100
AcDbLine
 10
151.4
 20
27.5
 30
0.0
 11
167.5999999999999
 21
27.5
 31
0.0
  0
LINE
  5
BF0
330
1E
100
AcDbEntity
  8
0
100
AcDbLine
 10
224.3
 20
27.5
 30
0.0
 11
235.1999999999999
 21
27.5
 31
0.0
  0
LINE
  5
BF1
330
1E
100
AcDbEntity
  8
0
100
AcDbLine
 10
229.8999999999999
 20
3.000000000000029
 30
0.0
 11
241.5
 21
3.000000000000029
 31
0.0
  0
LINE
  5
BF2
330
1E
100
AcDbEntity
  8
0
100
AcDbLine
 10
221.0999999999999
 20
2.500000000000029
 30
0.0
 11
231.5999999999999
 21
2.500000000000029
 31
0.0
  0
LINE
  5
BF3
330
1E
100
AcDbEntity
  8
0
100
AcDbLine
 10
231.5999999999999
 20
2.500000000000029
 30
0.0
 11
240.7
 21
2.500000000000029
 31
0.0
  0
LINE
  5
BF4
330
1E
100
AcDbEntity
  8
0
100
AcDbLine
 10
221.0999999999999
 20
1.00000000000003
 30
0.0
 11
231.5999999999999
 21
1.00000000000003
 31
0.0
  0
LINE
  5
BF7
330
1E
100
AcDbEntity
  8
0
100
AcDbLine
 10
233.359
 20
1.00000000000003
 30
0.0
 11
233.637
 21
1.00000000000003
 31
0.0
  0
LINE
  5
BF9
330
1E
100
AcDbEntity
  8
0
100
AcDbLine
 10
233.1529999999999
 20
1.00000000000003
 30
0.0
 11
233.359
 21
1.00000000000003
 31
0.0
  0
LINE
  5
BFC
330
1E
100
AcDbEntity
  8
0
100
AcDbLine
 10
233.637
 20
1.00000000000003
 30
0.0
 11
234.0929999999999
 21
1.00000000000003
 31
0.0
  0
LINE
  5
BFF
330
1E
100
AcDbEntity
  8
0
100
AcDbLine
 10
235.4589999999999
 20
1.00000000000003
 30
0.0
 11
235.549
 21
1.00000000000003
 31
0.0
  0
LINE
  5
C01
330
1E
100
AcDbEntity
  8
0
100
AcDbLine
 10
234.849
 20
1.00000000000003
 30
0.0
 11
235.4589999999999
 21
1.00000000000003
 31
0.0
  0
LINE
  5
C02
330
1E
100
AcDbEntity
  8
0
100
AcDbLine
 10
234.0929999999999
 20
1.00000000000003
 30
0.0
 11
234.849
 21
1.00000000000003
 31
0.0
  0
LINE
  5
C05
330
1E
100
AcDbEntity
  8
0
100
AcDbLine
 10
232.0879999999999
 20
1.00000000000003
 30
0.0
 11
232.559
 21
1.00000000000003
 31
0.0
  0
LINE
  5
C08
330
1E
100
AcDbEntity
  8
0
100
AcDbLine
 10
235.6999999999999
 20
1.000000000000019
 30
0.0
 11
236.0
 21
1.000000000000019
 31
0.0
  0
LINE
  5
C09
330
1E
100
AcDbEntity
  8
0
100
AcDbLine
 10
235.549
 20
1.000000000000019
 30
0.0
 11
235.6999999999999
 21
1.000000000000019
 31
0.0
  0
LINE
  5
C0A
330
1E
100
AcDbEntity
  8
0
100
AcDbLine
 10
235.1999999999999
 20
27.5
 30
0.0
 11
244.6
 21
27.5
 31
0.0
  0
LINE
  5
C0B
330
1E
100
AcDbEntity
  8
0
100
AcDbLine
 10
231.5999999999999
 20
1.00000000000003
 30
0.0
 11
240.7
 21
1.00000000000003
 31
0.0
  0
LINE
  5
C0E
330
1E
100
AcDbEntity
  8
0
100
AcDbLine
 10
152.5
 20
31.0
 30
0.0
 11
152.5
 21
43.5
 31
0.0
  0
LINE
  5
C10
330
1E
100
AcDbEntity
  8
0
100
AcDbLine
 10
147.4089999999999
 20
43.5
 30
0.0
 11
150.167
 21
43.5
 31
0.0
  0
LINE
  5
C11
330
1E
100
AcDbEntity
  8
0
100
AcDbLine
 10
149.742
 20
44.0
 30
0.0
 11
151.333
 21
44.0
 31
0.0
  0
LINE
  5
C12
330
1E
100
AcDbEntity
  8
0
100
AcDbLine
 10
151.333
 20
44.0
 30
0.0
 11
151.97
 21
44.0
 31
0.0
  0
LINE
  5
C13
330
1E
100
AcDbEntity
  8
0
100
AcDbLine
 10
150.167
 20
43.5
 30
0.0
 11
151.8639999999999
 21
43.5
 31
0.0
  0
LINE
  5
C14
330
1E
100
AcDbEntity
  8
0
100
AcDbLine
 10
151.8639999999999
 20
43.5
 30
0.0
 11
152.5
 21
43.5
 31
0.0
  0
LINE
  5
C15
330
1E
100
AcDbEntity
  8
0
100
AcDbLine
 10
147.303
 20
76.0
 30
0.0
 11
147.727
 21
76.0
 31
0.0
  0
LINE
  5
C16
330
1E
100
AcDbEntity
  8
0
100
AcDbLine
 10
147.727
 20
66.0
 30
0.0
 11
147.727
 21
76.0
 31
0.0
  0
LINE
  5
C17
330
1E
100
AcDbEntity
  8
0
100
AcDbLine
 10
147.727
 20
76.0
 30
0.0
 11
147.727
 21
66.0
 31
0.0
  0
LINE
  5
C18
330
1E
100
AcDbEntity
  8
0
100
AcDbLine
 10
147.303
 20
66.0
 30
0.0
 11
147.727
 21
66.0
 31
0.0
  0
LINE
  5
C19
330
1E
100
AcDbEntity
  8
0
100
AcDbLine
 10
151.97
 20
44.0
 30
0.0
 11
152.5
 21
43.5
 31
0.0
  0
LINE
  5
C1A
330
1E
100
AcDbEntity
  8
0
100
AcDbLine
 10
152.5
 20
43.5
 30
0.0
 11
152.5
 21
31.0
 31
0.0
  0
LINE
  5
C1D
330
1E
100
AcDbEntity
  8
0
100
AcDbLine
 10
164.7
 20
31.0
 30
0.0
 11
165.0
 21
31.0
 31
0.0
  0
LINE
  5
C1E
330
1E
100
AcDbEntity
  8
0
100
AcDbLine
 10
165.0
 20
31.0
 30
0.0
 11
199.0
 21
30.0
 31
0.0
  0
LINE
  5
C1F
330
1E
100
AcDbEntity
  8
0
100
AcDbLine
 10
199.0
 20
30.0
 30
0.0
 11
236.0
 21
29.0
 31
0.0
  0
LINE
  5
C23
330
1E
100
AcDbEntity
  8
0
100
AcDbLine
 10
248.231
 20
1.00000000000003
 30
0.0
 11
248.8859999999999
 21
1.00000000000003
 31
0.0
  0
LINE
  5
C25
330
1E
100
AcDbEntity
  8
0
100
AcDbLine
 10
248.025
 20
1.00000000000003
 30
0.0
 11
248.231
 21
1.00000000000003
 31
0.0
  0
LINE
  5
C28
330
1E
100
AcDbEntity
  8
0
100
AcDbLine
 10
249.619
 20
1.00000000000003
 30
0.0
 11
250.008
 21
1.00000000000003
 31
0.0
  0
LINE
  5
C29
330
1E
100
AcDbEntity
  8
0
100
AcDbLine
 10
248.8859999999999
 20
1.00000000000003
 30
0.0
 11
249.619
 21
1.00000000000003
 31
0.0
  0
LINE
  5
C2D
330
1E
100
AcDbEntity
  8
0
100
AcDbLine
 10
250.7
 20
1.000000000000019
 30
0.0
 11
251.0
 21
1.000000000000019
 31
0.0
  0
LINE
  5
C2E
330
1E
100
AcDbEntity
  8
0
100
AcDbLine
 10
250.008
 20
1.000000000000019
 30
0.0
 11
250.7
 21
1.000000000000019
 31
0.0
  0
LINE
  5
C30
330
1E
100
AcDbEntity
  8
0
100
AcDbLine
 10
245.224
 20
1.00000000000003
 30
0.0
 11
245.8229999999999
 21
1.00000000000003
 31
0.0
  0
LINE
  5
C32
330
1E
100
AcDbEntity
  8
0
100
AcDbLine
 10
240.3319999999999
 20
1.00000000000003
 30
0.0
 11
240.863
 21
1.00000000000003
 31
0.0
  0
LINE
  5
C36
330
1E
100
AcDbEntity
  8
0
100
AcDbLine
 10
241.625
 20
1.00000000000003
 30
0.0
 11
242.1699999999999
 21
1.00000000000003
 31
0.0
  0
LINE
  5
C37
330
1E
100
AcDbEntity
  8
0
100
AcDbLine
 10
240.863
 20
1.00000000000003
 30
0.0
 11
241.625
 21
1.00000000000003
 31
0.0
  0
LINE
  5
C3A
330
1E
100
AcDbEntity
  8
0
100
AcDbLine
 10
245.1159999999999
 20
1.00000000000003
 30
0.0
 11
245.224
 21
1.00000000000003
 31
0.0
  0
LINE
  5
C3D
330
1E
100
AcDbEntity
  8
0
100
AcDbLine
 10
246.5759999999999
 20
1.00000000000003
 30
0.0
 11
247.047
 21
1.00000000000003
 31
0.0
  0
LINE
  5
C3E
330
1E
100
AcDbEntity
  8
0
100
AcDbLine
 10
245.8229999999999
 20
1.00000000000003
 30
0.0
 11
246.5759999999999
 21
1.00000000000003
 31
0.0
  0
LINE
  5
C40
330
1E
100
AcDbEntity
  8
0
100
AcDbLine
 10
240.7
 20
2.500000000000029
 30
0.0
 11
247.5
 21
2.500000000000029
 31
0.0
  0
LINE
  5
C41
330
1E
100
AcDbEntity
  8
0
100
AcDbLine
 10
244.6
 20
27.5
 30
0.0
 11
251.6
 21
27.5
 31
0.0
  0
LINE
  5
C42
330
1E
100
AcDbEntity
  8
0
100
AcDbLine
 10
241.5
 20
3.000000000000029
 30
0.0
 11
251.5
 21
3.000000000000029
 31
0.0
  0
LINE
  5
C43
330
1E
100
AcDbEntity
  8
0
100
AcDbLine
 10
251.6
 20
27.5
 30
0.0
 11
256.8999999999999
 21
27.5
 31
0.0
  0
LINE
  5
C44
330
1E
100
AcDbEntity
  8
0
100
AcDbLine
 10
251.5
 20
3.000000000000029
 30
0.0
 11
259.0
 21
3.000000000000029
 31
0.0
  0
LINE
  5
C45
330
1E
100
AcDbEntity
  8
0
100
AcDbLine
 10
247.5
 20
2.500000000000029
 30
0.0
 11
252.5999999999999
 21
2.500000000000029
 31
0.0
  0
LINE
  5
C46
330
1E
100
AcDbEntity
  8
0
100
AcDbLine
 10
252.5999999999999
 20
2.500000000000029
 30
0.0
 11
255.8
 21
2.500000000000029
 31
0.0
  0
LINE
  5
C47
330
1E
100
AcDbEntity
  8
0
100
AcDbLine
 10
240.7
 20
1.00000000000003
 30
0.0
 11
247.5
 21
1.00000000000003
 31
0.0
  0
LINE
  5
C48
330
1E
100
AcDbEntity
  8
0
100
AcDbLine
 10
247.5
 20
1.00000000000003
 30
0.0
 11
252.5999999999999
 21
1.00000000000003
 31
0.0
  0
LINE
  5
C49
330
1E
100
AcDbEntity
  8
0
100
AcDbLine
 10
255.8
 20
2.500000000000029
 30
0.0
 11
257.0
 21
2.500000000000019
 31
0.0
  0
LINE
  5
C4A
330
1E
100
AcDbEntity
  8
0
100
AcDbLine
 10
252.5999999999999
 20
1.00000000000003
 30
0.0
 11
255.8
 21
1.00000000000003
 31
0.0
  0
LINE
  5
C4B
330
1E
100
AcDbEntity
  8
0
100
AcDbLine
 10
255.8
 20
1.00000000000003
 30
0.0
 11
257.0
 21
1.000000000000019
 31
0.0
  0
LINE
  5
C4C
330
1E
100
AcDbEntity
  8
0
100
AcDbLine
 10
236.0
 20
29.0
 30
0.0
 11
260.0
 21
28.0
 31
0.0
  0
LINE
  5
C4D
330
1E
100
AcDbEntity
  8
0
100
AcDbLine
 10
252.5999999999999
 20
1.000000000000019
 30
0.0
 11
255.8
 21
1.000000000000019
 31
0.0
  0
LINE
  5
C4E
330
1E
100
AcDbEntity
  8
0
100
AcDbLine
 10
257.0
 20
1.000000000000019
 30
0.0
 11
257.0
 21
2.500000000000019
 31
0.0
  0
LINE
  5
C4F
330
1E
100
AcDbEntity
  8
0
100
AcDbLine
 10
257.0
 20
2.500000000000019
 30
0.0
 11
257.6
 21
2.500000000000019
 31
0.0
  0
LINE
  5
C50
330
1E
100
AcDbEntity
  8
0
100
AcDbLine
 10
257.6
 20
2.500000000000019
 30
0.0
 11
263.2
 21
2.500000000000019
 31
0.0
  0
LINE
  5
C51
330
1E
100
AcDbEntity
  8
0
100
AcDbLine
 10
263.2
 20
2.500000000000019
 30
0.0
 11
266.6999999999999
 21
2.500000000000019
 31
0.0
  0
LINE
  5
C52
330
1E
100
AcDbEntity
  8
0
100
AcDbLine
 10
268.0
 20
2.500000000000019
 30
0.0
 11
269.4999999999999
 21
3.00000000000002
 31
0.0
  0
LINE
  5
C53
330
1E
100
AcDbEntity
  8
0
100
AcDbLine
 10
266.6999999999999
 20
2.500000000000019
 30
0.0
 11
268.0
 21
2.500000000000019
 31
0.0
  0
LINE
  5
C54
330
1E
100
AcDbEntity
  8
0
100
AcDbLine
 10
259.0
 20
3.000000000000029
 30
0.0
 11
264.6999999999999
 21
3.000000000000029
 31
0.0
  0
LINE
  5
C55
330
1E
100
AcDbEntity
  8
0
100
AcDbLine
 10
264.6999999999999
 20
3.000000000000029
 30
0.0
 11
268.1999999999999
 21
3.000000000000029
 31
0.0
  0
LINE
  5
C56
330
1E
100
AcDbEntity
  8
0
100
AcDbLine
 10
256.8999999999999
 20
27.5
 30
0.0
 11
260.1999999999999
 21
27.5
 31
0.0
  0
LINE
  5
C57
330
1E
100
AcDbEntity
  8
0
100
AcDbLine
 10
260.1999999999999
 20
27.5
 30
0.0
 11
261.5
 21
27.5
 31
0.0
  0
LINE
  5
C58
330
1E
100
AcDbEntity
  8
0
100
AcDbLine
 10
260.0
 20
28.0
 30
0.0
 11
261.5
 21
27.5
 31
0.0
  0
LINE
  5
C59
330
1E
100
AcDbEntity
  8
0
100
AcDbLine
 10
261.5
 20
27.5
 30
0.0
 11
262.5
 21
26.0
 31
0.0
  0
LINE
  5
C5A
330
1E
100
AcDbEntity
  8
0
100
AcDbLine
 10
262.5
 20
26.0
 30
0.0
 11
263.0
 21
23.0
 31
0.0
  0
LINE
  5
C5B
330
1E
100
AcDbEntity
  8
0
100
AcDbLine
 10
263.0
 20
23.0
 30
0.0
 11
263.5
 21
20.0
 31
0.0
  0
LINE
  5
C5C
330
1E
100
AcDbEntity
  8
0
100
AcDbLine
 10
263.5
 20
20.0
 30
0.0
 11
265.0
 21
14.0
 31
0.0
  0
LINE
  5
C5D
330
1E
100
AcDbEntity
  8
0
100
AcDbLine
 10
265.0
 20
14.0
 30
0.0
 11
267.0
 21
9.000000000000019
 31
0.0
  0
LINE
  5
C5E
330
1E
100
AcDbEntity
  8
0
100
AcDbLine
 10
267.0
 20
9.000000000000019
 30
0.0
 11
268.5
 21
6.500000000000018
 31
0.0
  0
LINE
  5
C5F
330
1E
100
AcDbEntity
  8
0
100
AcDbLine
 10
270.0
 20
4.00000000000002
 30
0.0
 11
270.0
 21
4.500000000000019
 31
0.0
  0
LINE
  5
C60
330
1E
100
AcDbEntity
  8
0
100
AcDbLine
 10
268.1999999999999
 20
3.000000000000029
 30
0.0
 11
269.4999999999999
 21
3.00000000000002
 31
0.0
  0
LINE
  5
C61
330
1E
100
AcDbEntity
  8
0
100
AcDbLine
 10
268.5
 20
6.500000000000018
 30
0.0
 11
269.4999999999999
 21
5.500000000000018
 31
0.0
  0
LINE
  5
C62
330
1E
100
AcDbEntity
  8
0
100
AcDbLine
 10
269.4999999999999
 20
5.500000000000018
 30
0.0
 11
270.0
 21
4.500000000000019
 31
0.0
  0
LINE
  5
C63
330
1E
100
AcDbEntity
  8
0
100
AcDbLine
 10
270.0
 20
4.500000000000019
 30
0.0
 11
270.0
 21
4.00000000000002
 31
0.0
  0
LINE
  5
C64
330
1E
100
AcDbEntity
  8
0
100
AcDbLine
 10
269.4999999999999
 20
3.00000000000002
 30
0.0
 11
270.0
 21
4.00000000000002
 31
0.0
  0
LINE
  5
C65
330
1E
100
AcDbEntity
  8
0
100
AcDbLine
 10
257.0
 20
2.500000000000019
 30
0.0
 11
257.0
 21
1.000000000000019
 31
0.0
  0
LINE
  5
C66
330
1E
100
AcDbEntity
  8
0
100
AcDbLine
 10
255.8
 20
1.000000000000019
 30
0.0
 11
257.0
 21
1.000000000000019
 31
0.0
  0
LINE
  5
C67
330
1E
100
AcDbEntity
  8
0
100
AcDbLine
 10
163.3199999999999
 20
159.3199999999999
 30
0.0
 11
169.72
 21
150.8399999999999
 31
0.0
  0
LINE
  5
C68
330
1E
100
AcDbEntity
  8
0
100
AcDbLine
 10
154.8399999999999
 20
165.72
 30
0.0
 11
163.3199999999999
 21
159.3199999999999
 31
0.0
  0
LINE
  5
C69
330
1E
100
AcDbEntity
  8
0
100
AcDbLine
 10
163.3199999999999
 20
102.68
 30
0.0
 11
169.72
 21
111.1599999999999
 31
0.0
  0
LINE
  5
C6A
330
1E
100
AcDbEntity
  8
0
100
AcDbLine
 10
168.7599999999999
 20
111.64
 30
0.0
 11
172.5999999999999
 21
120.92
 31
0.0
  0
LINE
  5
C6B
330
1E
100
AcDbEntity
  8
0
100
AcDbLine
 10
169.72
 20
111.1599999999999
 30
0.0
 11
173.5599999999999
 21
120.76
 31
0.0
  0
LINE
  5
C6C
330
1E
100
AcDbEntity
  8
0
100
AcDbLine
 10
172.5999999999999
 20
141.08
 30
0.0
 11
174.0399999999999
 21
131.0
 31
0.0
  0
LINE
  5
C6D
330
1E
100
AcDbEntity
  8
0
100
AcDbLine
 10
168.7599999999999
 20
150.36
 30
0.0
 11
172.5999999999999
 21
141.08
 31
0.0
  0
LINE
  5
C6E
330
1E
100
AcDbEntity
  8
0
100
AcDbLine
 10
169.72
 20
150.8399999999999
 30
0.0
 11
173.5599999999999
 21
141.24
 31
0.0
  0
LINE
  5
C6F
330
1E
100
AcDbEntity
  8
0
100
AcDbLine
 10
173.5599999999999
 20
141.24
 30
0.0
 11
175.0
 21
131.0
 31
0.0
  0
LINE
  5
C70
330
1E
100
AcDbEntity
  8
0
100
AcDbLine
 10
172.5999999999999
 20
120.92
 30
0.0
 11
174.0399999999999
 21
131.0
 31
0.0
  0
LINE
  5
C71
330
1E
100
AcDbEntity
  8
0
100
AcDbLine
 10
173.5599999999999
 20
120.76
 30
0.0
 11
175.0
 21
131.0
 31
0.0
  0
LINE
  5
C72
330
1E
100
AcDbEntity
  8
0
100
AcDbLine
 10
163.3199999999999
 20
102.68
 30
0.0
 11
169.72
 21
111.1599999999999
 31
0.0
  0
LINE
  5
C73
330
1E
100
AcDbEntity
  8
0
100
AcDbLine
 10
154.8399999999999
 20
96.28
 30
0.0
 11
163.3199999999999
 21
102.68
 31
0.0
  0
LINE
  5
C74
330
1E
100
AcDbEntity
  8
0
100
AcDbLine
 10
154.8399999999999
 20
96.28
 30
0.0
 11
163.3199999999999
 21
102.68
 31
0.0
  0
LINE
  5
C75
330
1E
100
AcDbEntity
  8
0
100
AcDbLine
 10
147.0
 20
93.14399999999999
 30
0.0
 11
154.8399999999999
 21
96.28
 31
0.0
  0
LINE
  5
C7A
330
1E
100
AcDbEntity
  8
0
100
AcDbLine
 10
106.0999999999999
 20
31.0
 30
0.0
 11
164.7
 21
31.0
 31
0.0
  0
LINE
  5
C7B
330
1E
100
AcDbEntity
  8
0
100
AcDbLine
 10
115.64
 20
97.24
 30
0.0
 11
107.3770515230635
 21
103.1857287427972
 31
0.0
  0
LINE
  5
C7C
330
1E
100
AcDbEntity
  8
0
100
AcDbLine
 10
107.3770515230635
 20
103.1857287427972
 30
0.0
 11
101.2399999999999
 21
111.64
 31
0.0
  0
LINE
  5
C7D
330
1E
100
AcDbEntity
  8
0
100
AcDbLine
 10
154.36
 20
97.24
 30
0.0
 11
162.478652231518
 21
103.3546945028489
 31
0.0
  0
LINE
  5
C7E
330
1E
100
AcDbEntity
  8
0
100
AcDbLine
 10
162.478652231518
 20
103.3546945028489
 30
0.0
 11
168.7599999999999
 21
111.64
 31
0.0
  0
LINE
  5
C7F
330
1E
100
AcDbEntity
  8
0
100
AcDbLine
 10
168.7599999999999
 20
150.36
 30
0.0
 11
162.5839551249703
 21
158.7378613797418
 31
0.0
  0
LINE
  5
C80
330
1E
100
AcDbEntity
  8
0
100
AcDbLine
 10
162.5839551249703
 20
158.7378613797418
 30
0.0
 11
154.36
 21
164.7599999999999
 31
0.0
  0
LINE
  5
C81
330
1E
100
AcDbEntity
  8
0
100
AcDbLine
 10
115.64
 20
164.7599999999999
 30
0.0
 11
107.4983819597744
 21
158.6924039591123
 31
0.0
  0
LINE
  5
C82
330
1E
100
AcDbEntity
  8
0
100
AcDbLine
 10
107.4983819597744
 20
158.6924039591123
 30
0.0
 11
101.2399999999999
 21
150.36
 31
0.0
  0
ENDSEC
  0
SECTION
  2
OBJECTS
  0
DICTIONARY
  5
C
330
0
100
AcDbDictionary
281
     1
  3
ACAD_GROUP
350
D
  3
ACAD_LAYOUT
350
19
  3
ACAD_MLINESTYLE
350
16
  3
ACAD_PLOTSETTINGS
350
18
  3
ACAD_PLOTSTYLENAME
350
E
  3
AcDbVariableDictionary
350
C83
  0
DICTIONARY
  5
D
102
{ACAD_REACTORS
330
C
102
}
330
C
100
AcDbDictionary
281
     1
  0
DICTIONARY
  5
19
102
{ACAD_REACTORS
330
C
102
}
330
C
100
AcDbDictionary
281
     1
  3
Layout1
350
1D
  3
Model
350
21
  0
DICTIONARY
  5
16
102
{ACAD_REACTORS
330
C
102
}
330
C
100
AcDbDictionary
281
     1
  3
Standard
350
17
  0
DICTIONARY
  5
18
102
{ACAD_REACTORS
330
C
102
}
330
C
100
AcDbDictionary
281
     1
  0
ACDBDICTIONARYWDFLT
  5
E
102
{ACAD_REACTORS
330
C
102
}
330
C
100
AcDbDictionary
281
     1
  3
Normal
350
F
100
AcDbDictionaryWithDefault
340
F
  0
DICTIONARY
  5
C83
102
{ACAD_REACTORS
330
C
102
}
330
C
100
AcDbDictionary
281
     1
  3
DIMASSOC
350
C84
  0
LAYOUT
  5
1D
102
{ACAD_REACTORS
330
19
102
}
330
19
100
AcDbPlotSettings
  1

  2
hp deskjet 980c series
  4

  6

 40
0.0
 41
0.0
 42
0.0
 43
0.0
 44
0.0
 45
0.0
 46
0.0
 47
0.0
 48
0.0
 49
0.0
140
0.0
141
0.0
142
1.0
143
1.0
 70
   688
 72
     0
 73
     0
 74
     5
  7

 75
    16
147
1.0
148
0.0
149
0.0
100
AcDbLayout
  1
Layout1
 70
     1
 71
     1
 10
0.0
 20
0.0
 11
12.0
 21
9.0
 12
0.0
 22
0.0
 32
0.0
 14
1.000000000000000E+20
 24
1.000000000000000E+20
 34
1.000000000000000E+20
 15
-1.000000000000000E+20
 25
-1.000000000000000E+20
 35
-1.000000000000000E+20
146
0.0
 13
0.0
 23
0.0
 33
0.0
 16
1.0
 26
0.0
 36
0.0
 17
0.0
 27
1.0
 37
0.0
 76
     0
330
1A
  0
LAYOUT
  5
21
102
{ACAD_REACTORS
330
19
102
}
330
19
100
AcDbPlotSettings
  1

  2
hp deskjet 980c series
  4

  6

 40
0.0
 41
0.0
 42
0.0
 43
0.0
 44
0.0
 45
0.0
 46
0.0
 47
0.0
 48
0.0
 49
0.0
140
0.0
141
0.0
142
1.0
143
1.0
 70
  1712
 72
     0
 73
     0
 74
     0
  7

 75
     0
147
1.0
148
0.0
149
0.0
100
AcDbLayout
  1
Model
 70
     1
 71
     0
 10
0.0
 20
0.0
 11
12.0
 21
9.0
 12
0.0
 22
0.0
 32
0.0
 14
0.0
 24
0.0
 34
0.0
 15
0.0
 25
0.0
 35
0.0
146
0.0
 13
0.0
 23
0.0
 33
0.0
 16
1.0
 26
0.0
 36
0.0
 17
0.0
 27
1.0
 37
0.0
 76
     0
330
1E
  0
MLINESTYLE
  5
17
102
{ACAD_REACTORS
330
16
102
}
330
16
100
AcDbMlineStyle
  2
STANDARD
 70
     0
  3

 62
   256
 51
90.0
 52
90.0
 71
     2
 49
0.5
 62
   256
  6
BYLAYER
 49
-0.5
 62
   256
  6
BYLAYER
  0
ACDBPLACEHOLDER
  5
F
102
{ACAD_REACTORS
330
E
102
}
330
E
  0
DICTIONARYVAR
  5
C84
102
{ACAD_REACTORS
330
C83
102
}
330
C83
100
DictionaryVariables
280
     0
  1
1
  0
ENDSEC
  0
EOF
