  0
SECTION
  2
HEADER
  9
$ACADVER
  1
AC1015
  9
$ACADMAINTVER
 70
    13
  9
$DWGCODEPAGE
  3
ANSI_1252
  9
$INSBASE
 10
0.0
 20
0.0
 30
0.0
  9
$EXTMIN
 10
0.0000000000000017
 20
-0.0000000000000407
 30
0.0
  9
$EXTMAX
 10
240.0
 20
590.0
 30
0.0
  9
$LIMMIN
 10
0.0
 20
0.0
  9
$LIMMAX
 10
12.0
 20
9.0
  9
$ORTHOMODE
 70
     0
  9
$REGENMODE
 70
     1
  9
$FILLMODE
 70
     1
  9
$QTEXTMODE
 70
     0
  9
$MIRRTEXT
 70
     1
  9
$LTSCALE
 40
1.0
  9
$ATTMODE
 70
     1
  9
$TEXTSIZE
 40
0.2
  9
$TRACEWID
 40
0.05
  9
$TEXTSTYLE
  7
Standard
  9
$CLAYER
  8
0
  9
$CELTYPE
  6
Continuous
  9
$CECOLOR
 62
   256
  9
$CELTSCALE
 40
1.0
  9
$DISPSILH
 70
     0
  9
$DIMSCALE
 40
1.0
  9
$DIMASZ
 40
0.18
  9
$DIMEXO
 40
0.0625
  9
$DIMDLI
 40
0.38
  9
$DIMRND
 40
0.0
  9
$DIMDLE
 40
0.0
  9
$DIMEXE
 40
0.18
  9
$DIMTP
 40
0.0
  9
$DIMTM
 40
0.0
  9
$DIMTXT
 40
0.18
  9
$DIMCEN
 40
0.09
  9
$DIMTSZ
 40
0.0
  9
$DIMTOL
 70
     0
  9
$DIMLIM
 70
     0
  9
$DIMTIH
 70
     1
  9
$DIMTOH
 70
     1
  9
$DIMSE1
 70
     0
  9
$DIMSE2
 70
     0
  9
$DIMTAD
 70
     0
  9
$DIMZIN
 70
     0
  9
$DIMBLK
  1

  9
$DIMASO
 70
     1
  9
$DIMSHO
 70
     1
  9
$DIMPOST
  1

  9
$DIMAPOST
  1

  9
$DIMALT
 70
     0
  9
$DIMALTD
 70
     2
  9
$DIMALTF
 40
25.4
  9
$DIMLFAC
 40
1.0
  9
$DIMTOFL
 70
     0
  9
$DIMTVP
 40
0.0
  9
$DIMTIX
 70
     0
  9
$DIMSOXD
 70
     0
  9
$DIMSAH
 70
     0
  9
$DIMBLK1
  1

  9
$DIMBLK2
  1

  9
$DIMSTYLE
  2
Standard
  9
$DIMCLRD
 70
     0
  9
$DIMCLRE
 70
     0
  9
$DIMCLRT
 70
     0
  9
$DIMTFAC
 40
1.0
  9
$DIMGAP
 40
0.09
  9
$DIMJUST
 70
     0
  9
$DIMSD1
 70
     0
  9
$DIMSD2
 70
     0
  9
$DIMTOLJ
 70
     1
  9
$DIMTZIN
 70
     0
  9
$DIMALTZ
 70
     0
  9
$DIMALTTZ
 70
     0
  9
$DIMUPT
 70
     0
  9
$DIMDEC
 70
     4
  9
$DIMTDEC
 70
     4
  9
$DIMALTU
 70
     2
  9
$DIMALTTD
 70
     2
  9
$DIMTXSTY
  7
Standard
  9
$DIMAUNIT
 70
     0
  9
$DIMADEC
 70
     0
  9
$DIMALTRND
 40
0.0
  9
$DIMAZIN
 70
     0
  9
$DIMDSEP
 70
    46
  9
$DIMATFIT
 70
     3
  9
$DIMFRAC
 70
     0
  9
$DIMLDRBLK
  1

  9
$DIMLUNIT
 70
     2
  9
$DIMLWD
 70
    -2
  9
$DIMLWE
 70
    -2
  9
$DIMTMOVE
 70
     0
  9
$LUNITS
 70
     2
  9
$LUPREC
 70
     4
  9
$SKETCHINC
 40
0.1
  9
$FILLETRAD
 40
0.0
  9
$AUNITS
 70
     0
  9
$AUPREC
 70
     0
  9
$MENU
  1
.
  9
$ELEVATION
 40
0.0
  9
$PELEVATION
 40
0.0
  9
$THICKNESS
 40
0.0
  9
$LIMCHECK
 70
     0
  9
$CHAMFERA
 40
0.0
  9
$CHAMFERB
 40
0.0
  9
$CHAMFERC
 40
0.0
  9
$CHAMFERD
 40
0.0
  9
$SKPOLY
 70
     0
  9
$TDCREATE
 40
2454741.421964374
  9
$TDUCREATE
 40
2454741.338631041
  9
$TDUPDATE
 40
2454741.446411898
  9
$TDUUPDATE
 40
2454741.363078564
  9
$TDINDWG
 40
0.0244475231
  9
$TDUSRTIMER
 40
0.0244475231
  9
$USRTIMER
 70
     1
  9
$ANGBASE
 50
0.0
  9
$ANGDIR
 70
     0
  9
$PDMODE
 70
     0
  9
$PDSIZE
 40
0.0
  9
$PLINEWID
 40
0.0
  9
$SPLFRAME
 70
     0
  9
$SPLINETYPE
 70
     6
  9
$SPLINESEGS
 70
     8
  9
$HANDSEED
  5
15B
  9
$SURFTAB1
 70
     6
  9
$SURFTAB2
 70
     6
  9
$SURFTYPE
 70
     6
  9
$SURFU
 70
     6
  9
$SURFV
 70
     6
  9
$UCSBASE
  2

  9
$UCSNAME
  2

  9
$UCSORG
 10
0.0
 20
0.0
 30
0.0
  9
$UCSXDIR
 10
1.0
 20
0.0
 30
0.0
  9
$UCSYDIR
 10
0.0
 20
1.0
 30
0.0
  9
$UCSORTHOREF
  2

  9
$UCSORTHOVIEW
 70
     1
  9
$UCSORGTOP
 10
0.0
 20
0.0
 30
0.0
  9
$UCSORGBOTTOM
 10
0.0
 20
0.0
 30
0.0
  9
$UCSORGLEFT
 10
0.0
 20
0.0
 30
0.0
  9
$UCSORGRIGHT
 10
0.0
 20
0.0
 30
0.0
  9
$UCSORGFRONT
 10
0.0
 20
0.0
 30
0.0
  9
$UCSORGBACK
 10
0.0
 20
0.0
 30
0.0
  9
$PUCSBASE
  2

  9
$PUCSNAME
  2

  9
$PUCSORG
 10
0.0
 20
0.0
 30
0.0
  9
$PUCSXDIR
 10
1.0
 20
0.0
 30
0.0
  9
$PUCSYDIR
 10
0.0
 20
1.0
 30
0.0
  9
$PUCSORTHOREF
  2

  9
$PUCSORTHOVIEW
 70
     0
  9
$PUCSORGTOP
 10
0.0
 20
0.0
 30
0.0
  9
$PUCSORGBOTTOM
 10
0.0
 20
0.0
 30
0.0
  9
$PUCSORGLEFT
 10
0.0
 20
0.0
 30
0.0
  9
$PUCSORGRIGHT
 10
0.0
 20
0.0
 30
0.0
  9
$PUCSORGFRONT
 10
0.0
 20
0.0
 30
0.0
  9
$PUCSORGBACK
 10
0.0
 20
0.0
 30
0.0
  9
$USERI1
 70
     0
  9
$USERI2
 70
     0
  9
$USERI3
 70
     0
  9
$USERI4
 70
     0
  9
$USERI5
 70
     0
  9
$USERR1
 40
0.0
  9
$USERR2
 40
0.0
  9
$USERR3
 40
0.0
  9
$USERR4
 40
0.0
  9
$USERR5
 40
0.0
  9
$WORLDVIEW
 70
     1
  9
$SHADEDGE
 70
     3
  9
$SHADEDIF
 70
    70
  9
$TILEMODE
 70
     1
  9
$MAXACTVP
 70
    64
  9
$PINSBASE
 10
0.0
 20
0.0
 30
0.0
  9
$PLIMCHECK
 70
     0
  9
$PEXTMIN
 10
1.000000000000000E+20
 20
1.000000000000000E+20
 30
1.000000000000000E+20
  9
$PEXTMAX
 10
-1.000000000000000E+20
 20
-1.000000000000000E+20
 30
-1.000000000000000E+20
  9
$PLIMMIN
 10
0.0
 20
0.0
  9
$PLIMMAX
 10
12.0
 20
9.0
  9
$UNITMODE
 70
     0
  9
$VISRETAIN
 70
     1
  9
$PLINEGEN
 70
     0
  9
$PSLTSCALE
 70
     1
  9
$TREEDEPTH
 70
  3020
  9
$CMLSTYLE
  2
Standard
  9
$CMLJUST
 70
     0
  9
$CMLSCALE
 40
1.0
  9
$PROXYGRAPHICS
 70
     1
  9
$MEASUREMENT
 70
     0
  9
$CELWEIGHT
370
    -1
  9
$ENDCAPS
280
     0
  9
$JOINSTYLE
280
     0
  9
$LWDISPLAY
290
     0
  9
$INSUNITS
 70
     0
  9
$HYPERLINKBASE
  1

  9
$STYLESHEET
  1

  9
$XEDIT
290
     1
  9
$CEPSNTYPE
380
     0
  9
$PSTYLEMODE
290
     1
  9
$FINGERPRINTGUID
  2
{6CCA5B4E-8E93-4EF4-9165-420B65A5E7F3}
  9
$VERSIONGUID
  2
{891430D8-DA71-4272-8207-C39B90F03E3C}
  9
$EXTNAMES
290
     1
  9
$PSVPSCALE
 40
0.0
  9
$OLESTARTUP
290
     0
  0
ENDSEC
  0
SECTION
  2
CLASSES
  0
CLASS
  1
ACDBDICTIONARYWDFLT
  2
AcDbDictionaryWithDefault
  3
AutoCAD 2000
 90
        0
280
     0
281
     0
  0
CLASS
  1
ACDBPLACEHOLDER
  2
AcDbPlaceHolder
  3
AutoCAD 2000
 90
        0
280
     0
281
     0
  0
CLASS
  1
LAYOUT
  2
AcDbLayout
  3
AutoCAD 2000
 90
        0
280
     0
281
     0
  0
CLASS
  1
DICTIONARYVAR
  2
AcDbDictionaryVar
  3
AutoCAD 2000
 90
        0
280
     0
281
     0
  0
ENDSEC
  0
SECTION
  2
TABLES
  0
TABLE
  2
VPORT
  5
8
330
0
100
AcDbSymbolTable
 70
     2
  0
VPORT
  5
15A
330
8
100
AcDbSymbolTableRecord
100
AcDbViewportTableRecord
  2
*Active
 70
     0
 10
0.0
 20
0.0
 11
1.0
 21
1.0
 12
120.0
 22
294.9999999999999
 13
0.0
 23
0.0
 14
1.0
 24
1.0
 15
0.0
 25
0.0
 16
0.0
 26
0.0
 36
1.0
 17
0.0
 27
0.0
 37
0.0
 40
594.5268542199488
 41
2.078104993597951
 42
50.0
 43
0.0
 44
0.0
 50
0.0
 51
0.0
 71
     0
 72
   100
 73
     1
 74
     3
 75
     0
 76
     0
 77
     0
 78
     0
281
     0
 65
     1
110
0.0
120
0.0
130
0.0
111
1.0
121
0.0
131
0.0
112
0.0
122
1.0
132
0.0
 79
     1
146
0.0
  0
ENDTAB
  0
TABLE
  2
LTYPE
  5
5
330
0
100
AcDbSymbolTable
 70
     1
  0
LTYPE
  5
13
330
5
100
AcDbSymbolTableRecord
100
AcDbLinetypeTableRecord
  2
ByBlock
 70
     0
  3

 72
    65
 73
     0
 40
0.0
  0
LTYPE
  5
14
330
5
100
AcDbSymbolTableRecord
100
AcDbLinetypeTableRecord
  2
ByLayer
 70
     0
  3

 72
    65
 73
     0
 40
0.0
  0
LTYPE
  5
15
330
5
100
AcDbSymbolTableRecord
100
AcDbLinetypeTableRecord
  2
Continuous
 70
     0
  3
Solid line
 72
    65
 73
     0
 40
0.0
  0
ENDTAB
  0
TABLE
  2
LAYER
  5
2
330
0
100
AcDbSymbolTable
 70
     1
  0
LAYER
  5
10
330
2
100
AcDbSymbolTableRecord
100
AcDbLayerTableRecord
  2
0
 70
     0
 62
     7
  6
Continuous
370
    -3
390
F
  0
ENDTAB
  0
TABLE
  2
STYLE
  5
3
330
0
100
AcDbSymbolTable
 70
     1
  0
STYLE
  5
11
330
3
100
AcDbSymbolTableRecord
100
AcDbTextStyleTableRecord
  2
Standard
 70
     0
 40
0.0
 41
1.0
 50
0.0
 71
     0
 42
0.2
  3
txt
  4

  0
ENDTAB
  0
TABLE
  2
VIEW
  5
6
330
0
100
AcDbSymbolTable
 70
     0
  0
ENDTAB
  0
TABLE
  2
UCS
  5
7
330
0
100
AcDbSymbolTable
 70
     0
  0
ENDTAB
  0
TABLE
  2
APPID
  5
9
330
0
100
AcDbSymbolTable
 70
     1
  0
APPID
  5
12
330
9
100
AcDbSymbolTableRecord
100
AcDbRegAppTableRecord
  2
ACAD
 70
     0
  0
ENDTAB
  0
TABLE
  2
DIMSTYLE
  5
A
330
0
100
AcDbSymbolTable
 70
     1
100
AcDbDimStyleTable
 71
     0
  0
DIMSTYLE
105
153
330
A
100
AcDbSymbolTableRecord
100
AcDbDimStyleTableRecord
  2
Standard
 70
     0
340
11
  0
ENDTAB
  0
TABLE
  2
BLOCK_RECORD
  5
1
330
0
100
AcDbSymbolTable
 70
     0
  0
BLOCK_RECORD
  5
1E
330
1
100
AcDbSymbolTableRecord
100
AcDbBlockTableRecord
  2
*Model_Space
340
21
  0
BLOCK_RECORD
  5
1A
330
1
100
AcDbSymbolTableRecord
100
AcDbBlockTableRecord
  2
*Paper_Space
340
1D
  0
ENDTAB
  0
ENDSEC
  0
SECTION
  2
BLOCKS
  0
BLOCK
  5
1F
330
1E
100
AcDbEntity
  8
0
100
AcDbBlockBegin
  2
*Model_Space
 70
     0
 10
0.0
 20
0.0
 30
0.0
  3
*Model_Space
  1

  0
ENDBLK
  5
20
330
1E
100
AcDbEntity
  8
0
100
AcDbBlockEnd
  0
BLOCK
  5
1B
330
1A
100
AcDbEntity
 67
     1
  8
0
100
AcDbBlockBegin
  2
*Paper_Space
 70
     0
 10
0.0
 20
0.0
 30
0.0
  3
*Paper_Space
  1

  0
ENDBLK
  5
1C
330
1A
100
AcDbEntity
 67
     1
  8
0
100
AcDbBlockEnd
  0
ENDSEC
  0
SECTION
  2
ENTITIES
  0
LINE
  5
22
330
1E
100
AcDbEntity
  8
0
100
AcDbLine
 10
1.0
 20
120.0
 30
0.0
 11
2.2
 21
104.4
 31
0.0
  0
LINE
  5
23
330
1E
100
AcDbEntity
  8
0
100
AcDbLine
 10
1.0
 20
120.0
 30
0.0
 11
2.2
 21
135.5999999999999
 31
0.0
  0
LINE
  5
24
330
1E
100
AcDbEntity
  8
0
100
AcDbLine
 10
1.199999999999999
 20
135.5999999999999
 30
0.0
 11
4.299999999999999
 21
151.0
 31
0.0
  0
LINE
  5
25
330
1E
100
AcDbEntity
  8
0
100
AcDbLine
 10
0.0000000000000017
 20
120.0
 30
0.0
 11
1.199999999999999
 21
104.4
 31
0.0
  0
LINE
  5
26
330
1E
100
AcDbEntity
  8
0
100
AcDbLine
 10
0.0000000000000017
 20
120.0
 30
0.0
 11
1.199999999999999
 21
135.5999999999999
 31
0.0
  0
LINE
  5
27
330
1E
100
AcDbEntity
  8
0
100
AcDbLine
 10
47.7
 20
25.8
 30
0.0
 11
60.8
 21
16.89999999999999
 31
0.0
  0
LINE
  5
28
330
1E
100
AcDbEntity
  8
0
100
AcDbLine
 10
60.8
 20
16.89999999999999
 30
0.0
 11
74.5
 21
10.3
 31
0.0
  0
LINE
  5
29
330
1E
100
AcDbEntity
  8
0
100
AcDbLine
 10
47.09999999999999
 20
25.0
 30
0.0
 11
60.3
 21
16.1
 31
0.0
  0
LINE
  5
2A
330
1E
100
AcDbEntity
  8
0
100
AcDbLine
 10
60.3
 20
16.1
 30
0.0
 11
74.2
 21
9.399999999999961
 31
0.0
  0
LINE
  5
2B
330
1E
100
AcDbEntity
  8
0
100
AcDbLine
 10
74.5
 20
10.3
 30
0.0
 11
89.29999999999999
 21
5.299999999999959
 31
0.0
  0
LINE
  5
2C
330
1E
100
AcDbEntity
  8
0
100
AcDbLine
 10
74.2
 20
9.399999999999961
 30
0.0
 11
89.0
 21
4.299999999999959
 31
0.0
  0
LINE
  5
2D
330
1E
100
AcDbEntity
  8
0
100
AcDbLine
 10
74.2
 20
9.399999999999961
 30
0.0
 11
89.0
 21
4.299999999999959
 31
0.0
  0
LINE
  5
2E
330
1E
100
AcDbEntity
  8
0
100
AcDbLine
 10
36.0
 20
36.0
 30
0.0
 11
47.7
 21
25.8
 31
0.0
  0
LINE
  5
2F
330
1E
100
AcDbEntity
  8
0
100
AcDbLine
 10
25.8
 20
47.7
 30
0.0
 11
36.0
 21
36.0
 31
0.0
  0
LINE
  5
30
330
1E
100
AcDbEntity
  8
0
100
AcDbLine
 10
35.29999999999999
 20
35.29999999999999
 30
0.0
 11
47.09999999999999
 21
25.0
 31
0.0
  0
LINE
  5
31
330
1E
100
AcDbEntity
  8
0
100
AcDbLine
 10
25.0
 20
47.09999999999999
 30
0.0
 11
35.29999999999999
 21
35.29999999999999
 31
0.0
  0
LINE
  5
32
330
1E
100
AcDbEntity
  8
0
100
AcDbLine
 10
16.89999999999999
 20
60.8
 30
0.0
 11
25.8
 21
47.7
 31
0.0
  0
LINE
  5
33
330
1E
100
AcDbEntity
  8
0
100
AcDbLine
 10
10.3
 20
74.5
 30
0.0
 11
16.89999999999999
 21
60.8
 31
0.0
  0
LINE
  5
34
330
1E
100
AcDbEntity
  8
0
100
AcDbLine
 10
16.1
 20
60.3
 30
0.0
 11
25.0
 21
47.09999999999999
 31
0.0
  0
LINE
  5
35
330
1E
100
AcDbEntity
  8
0
100
AcDbLine
 10
9.4
 20
74.2
 30
0.0
 11
16.1
 21
60.3
 31
0.0
  0
LINE
  5
36
330
1E
100
AcDbEntity
  8
0
100
AcDbLine
 10
2.2
 20
135.5999999999999
 30
0.0
 11
5.299999999999999
 21
150.6999999999999
 31
0.0
  0
LINE
  5
37
330
1E
100
AcDbEntity
  8
0
100
AcDbLine
 10
5.299999999999999
 20
150.6999999999999
 30
0.0
 11
10.3
 21
165.5
 31
0.0
  0
LINE
  5
38
330
1E
100
AcDbEntity
  8
0
100
AcDbLine
 10
10.3
 20
165.5
 30
0.0
 11
16.89999999999999
 21
179.1999999999999
 31
0.0
  0
LINE
  5
39
330
1E
100
AcDbEntity
  8
0
100
AcDbLine
 10
9.4
 20
165.8
 30
0.0
 11
16.1
 21
179.6999999999999
 31
0.0
  0
LINE
  5
3A
330
1E
100
AcDbEntity
  8
0
100
AcDbLine
 10
25.8
 20
192.3
 30
0.0
 11
36.0
 21
204.0
 31
0.0
  0
LINE
  5
3B
330
1E
100
AcDbEntity
  8
0
100
AcDbLine
 10
16.89999999999999
 20
179.1999999999999
 30
0.0
 11
25.8
 21
192.3
 31
0.0
  0
LINE
  5
3C
330
1E
100
AcDbEntity
  8
0
100
AcDbLine
 10
25.0
 20
192.9
 30
0.0
 11
35.29999999999999
 21
204.6999999999999
 31
0.0
  0
LINE
  5
3D
330
1E
100
AcDbEntity
  8
0
100
AcDbLine
 10
16.1
 20
179.6999999999999
 30
0.0
 11
25.0
 21
192.9
 31
0.0
  0
LINE
  5
3E
330
1E
100
AcDbEntity
  8
0
100
AcDbLine
 10
4.299999999999999
 20
151.0
 30
0.0
 11
9.4
 21
165.8
 31
0.0
  0
LINE
  5
3F
330
1E
100
AcDbEntity
  8
0
100
AcDbLine
 10
36.0
 20
204.0
 30
0.0
 11
47.7
 21
214.1999999999999
 31
0.0
  0
LINE
  5
40
330
1E
100
AcDbEntity
  8
0
100
AcDbLine
 10
73.9
 20
100.9
 30
0.0
 11
76.7
 21
95.09999999999999
 31
0.0
  0
LINE
  5
41
330
1E
100
AcDbEntity
  8
0
100
AcDbLine
 10
71.79999999999999
 20
107.0999999999999
 30
0.0
 11
73.9
 21
100.9
 31
0.0
  0
LINE
  5
42
330
1E
100
AcDbEntity
  8
0
100
AcDbLine
 10
70.5
 20
113.5
 30
0.0
 11
71.79999999999999
 21
107.0999999999999
 31
0.0
  0
LINE
  5
43
330
1E
100
AcDbEntity
  8
0
100
AcDbLine
 10
73.9
 20
139.1
 30
0.0
 11
76.7
 21
144.9
 31
0.0
  0
LINE
  5
44
330
1E
100
AcDbEntity
  8
0
100
AcDbLine
 10
71.79999999999999
 20
132.9
 30
0.0
 11
73.9
 21
139.1
 31
0.0
  0
LINE
  5
45
330
1E
100
AcDbEntity
  8
0
100
AcDbLine
 10
70.5
 20
126.5
 30
0.0
 11
71.79999999999999
 21
132.9
 31
0.0
  0
LINE
  5
46
330
1E
100
AcDbEntity
  8
0
100
AcDbLine
 10
70.0
 20
120.0
 30
0.0
 11
70.5
 21
113.5
 31
0.0
  0
LINE
  5
47
330
1E
100
AcDbEntity
  8
0
100
AcDbLine
 10
70.0
 20
120.0
 30
0.0
 11
70.5
 21
126.5
 31
0.0
  0
LINE
  5
48
330
1E
100
AcDbEntity
  8
0
100
AcDbLine
 10
47.7
 20
214.1999999999999
 30
0.0
 11
60.8
 21
223.0999999999999
 31
0.0
  0
LINE
  5
49
330
1E
100
AcDbEntity
  8
0
100
AcDbLine
 10
60.8
 20
223.0999999999999
 30
0.0
 11
74.5
 21
229.7
 31
0.0
  0
LINE
  5
4A
330
1E
100
AcDbEntity
  8
0
100
AcDbLine
 10
47.09999999999999
 20
215.0
 30
0.0
 11
60.3
 21
223.9
 31
0.0
  0
LINE
  5
4B
330
1E
100
AcDbEntity
  8
0
100
AcDbLine
 10
35.29999999999999
 20
204.6999999999999
 30
0.0
 11
47.09999999999999
 21
215.0
 31
0.0
  0
LINE
  5
4C
330
1E
100
AcDbEntity
  8
0
100
AcDbLine
 10
62.87980000000001
 20
481.9869999999999
 30
0.0
 11
65.78929999999999
 21
481.2319999999999
 31
0.0
  0
LINE
  5
4D
330
1E
100
AcDbEntity
  8
0
100
AcDbLine
 10
65.78929999999999
 20
481.2319999999999
 30
0.0
 11
107.0
 21
480.9364500369059
 31
0.0
  0
LINE
  5
4E
330
1E
100
AcDbEntity
  8
0
100
AcDbLine
 10
60.5263
 20
483.845
 30
0.0
 11
62.87980000000001
 21
481.9869999999999
 31
0.0
  0
LINE
  5
4F
330
1E
100
AcDbEntity
  8
0
100
AcDbLine
 10
58.9284
 20
486.4489999999999
 30
0.0
 11
60.5263
 21
483.845
 31
0.0
  0
LINE
  5
50
330
1E
100
AcDbEntity
  8
0
100
AcDbLine
 10
66.4574
 20
497.203
 30
0.0
 11
107.0
 21
496.9362761421029
 31
0.0
  0
LINE
  5
51
330
1E
100
AcDbEntity
  8
0
100
AcDbLine
 10
63.4712
 20
496.727
 30
0.0
 11
66.4574
 21
497.203
 31
0.0
  0
LINE
  5
52
330
1E
100
AcDbEntity
  8
0
100
AcDbLine
 10
60.9758
 20
495.058
 30
0.0
 11
63.4712
 21
496.727
 31
0.0
  0
LINE
  5
53
330
1E
100
AcDbEntity
  8
0
100
AcDbLine
 10
59.1956
 20
492.602
 30
0.0
 11
60.9758
 21
495.058
 31
0.0
  0
LINE
  5
54
330
1E
100
AcDbEntity
  8
0
100
AcDbLine
 10
58.4719
 20
489.5659999999999
 30
0.0
 11
59.1956
 21
492.602
 31
0.0
  0
LINE
  5
55
330
1E
100
AcDbEntity
  8
0
100
AcDbLine
 10
58.4719
 20
489.5659999999999
 30
0.0
 11
58.9284
 21
486.4489999999999
 31
0.0
  0
LINE
  5
56
330
1E
100
AcDbEntity
  8
0
100
AcDbLine
 10
60.3
 20
223.9
 30
0.0
 11
74.2
 21
230.6
 31
0.0
  0
LINE
  5
57
330
1E
100
AcDbEntity
  8
0
100
AcDbLine
 10
76.7
 20
144.9
 30
0.0
 11
80.4
 21
150.4
 31
0.0
  0
LINE
  5
58
330
1E
100
AcDbEntity
  8
0
100
AcDbLine
 10
80.4
 20
150.4
 30
0.0
 11
84.7
 21
155.3
 31
0.0
  0
LINE
  5
59
330
1E
100
AcDbEntity
  8
0
100
AcDbLine
 10
80.4
 20
89.59999999999999
 30
0.0
 11
84.7
 21
84.7
 31
0.0
  0
LINE
  5
5A
330
1E
100
AcDbEntity
  8
0
100
AcDbLine
 10
76.7
 20
95.09999999999999
 30
0.0
 11
80.4
 21
89.59999999999999
 31
0.0
  0
LINE
  5
5B
330
1E
100
AcDbEntity
  8
0
100
AcDbLine
 10
74.5
 20
229.7
 30
0.0
 11
89.29999999999999
 21
234.6999999999999
 31
0.0
  0
LINE
  5
5C
330
1E
100
AcDbEntity
  8
0
100
AcDbLine
 10
74.2
 20
230.6
 30
0.0
 11
89.0
 21
235.6999999999999
 31
0.0
  0
LINE
  5
5D
330
1E
100
AcDbEntity
  8
0
100
AcDbLine
 10
5.299999999999999
 20
89.29999999999999
 30
0.0
 11
10.3
 21
74.5
 31
0.0
  0
LINE
  5
5E
330
1E
100
AcDbEntity
  8
0
100
AcDbLine
 10
2.2
 20
104.4
 30
0.0
 11
5.299999999999999
 21
89.29999999999999
 31
0.0
  0
LINE
  5
5F
330
1E
100
AcDbEntity
  8
0
100
AcDbLine
 10
4.299999999999999
 20
89.0
 30
0.0
 11
9.4
 21
74.2
 31
0.0
  0
LINE
  5
60
330
1E
100
AcDbEntity
  8
0
100
AcDbLine
 10
1.199999999999999
 20
104.4
 30
0.0
 11
4.299999999999999
 21
89.0
 31
0.0
  0
LINE
  5
61
330
1E
100
AcDbEntity
  8
0
100
AcDbLine
 10
80.96
 20
578.0
 30
0.0
 11
82.4
 21
578.0
 31
0.0
  0
LINE
  5
62
330
1E
100
AcDbEntity
  8
0
100
AcDbLine
 10
84.7
 20
155.3
 30
0.0
 11
89.59999999999999
 21
159.6
 31
0.0
  0
LINE
  5
63
330
1E
100
AcDbEntity
  8
0
100
AcDbLine
 10
84.7
 20
84.7
 30
0.0
 11
89.59999999999999
 21
80.4
 31
0.0
  0
LINE
  5
64
330
1E
100
AcDbEntity
  8
0
100
AcDbLine
 10
104.4
 20
2.19999999999996
 30
0.0
 11
120.0
 21
0.9999999999999598
 31
0.0
  0
LINE
  5
65
330
1E
100
AcDbEntity
  8
0
100
AcDbLine
 10
104.4
 20
1.199999999999959
 30
0.0
 11
120.0
 21
-0.0000000000000401
 31
0.0
  0
LINE
  5
66
330
1E
100
AcDbEntity
  8
0
100
AcDbLine
 10
104.4
 20
1.199999999999959
 30
0.0
 11
120.0
 21
-0.0000000000000402
 31
0.0
  0
LINE
  5
67
330
1E
100
AcDbEntity
  8
0
100
AcDbLine
 10
89.59999999999999
 20
80.4
 30
0.0
 11
95.09999999999999
 21
76.7
 31
0.0
  0
LINE
  5
68
330
1E
100
AcDbEntity
  8
0
100
AcDbLine
 10
95.09999999999999
 20
76.7
 30
0.0
 11
100.9
 21
73.9
 31
0.0
  0
LINE
  5
69
330
1E
100
AcDbEntity
  8
0
100
AcDbLine
 10
100.9
 20
73.9
 30
0.0
 11
107.0999999999999
 21
71.79999999999999
 31
0.0
  0
LINE
  5
6A
330
1E
100
AcDbEntity
  8
0
100
AcDbLine
 10
89.29999999999999
 20
5.299999999999959
 30
0.0
 11
104.4
 21
2.19999999999996
 31
0.0
  0
LINE
  5
6B
330
1E
100
AcDbEntity
  8
0
100
AcDbLine
 10
89.29999999999999
 20
5.299999999999959
 30
0.0
 11
104.4
 21
2.19999999999996
 31
0.0
  0
LINE
  5
6C
330
1E
100
AcDbEntity
  8
0
100
AcDbLine
 10
89.0
 20
4.299999999999959
 30
0.0
 11
104.4
 21
1.199999999999959
 31
0.0
  0
LINE
  5
6D
330
1E
100
AcDbEntity
  8
0
100
AcDbLine
 10
89.0
 20
4.299999999999959
 30
0.0
 11
104.4
 21
1.199999999999959
 31
0.0
  0
LINE
  5
6E
330
1E
100
AcDbEntity
  8
0
100
AcDbLine
 10
89.0
 20
4.299999999999959
 30
0.0
 11
104.4
 21
1.199999999999959
 31
0.0
  0
LINE
  5
6F
330
1E
100
AcDbEntity
  8
0
100
AcDbLine
 10
89.0
 20
4.299999999999959
 30
0.0
 11
104.4
 21
1.199999999999959
 31
0.0
  0
LINE
  5
70
330
1E
100
AcDbEntity
  8
0
100
AcDbLine
 10
104.4
 20
1.199999999999959
 30
0.0
 11
120.0
 21
-0.0000000000000406
 31
0.0
  0
LINE
  5
71
330
1E
100
AcDbEntity
  8
0
100
AcDbLine
 10
104.4
 20
1.199999999999959
 30
0.0
 11
120.0
 21
-0.0000000000000407
 31
0.0
  0
LINE
  5
72
330
1E
100
AcDbEntity
  8
0
100
AcDbLine
 10
107.0
 20
93.61539999999999
 30
0.0
 11
107.0
 21
104.385
 31
0.0
  0
LINE
  5
73
330
1E
100
AcDbEntity
  8
0
100
AcDbLine
 10
107.0
 20
93.61539999999999
 30
0.0
 11
107.312
 21
93.0
 31
0.0
  0
LINE
  5
74
330
1E
100
AcDbEntity
  8
0
100
AcDbLine
 10
107.0999999999999
 20
71.79999999999999
 30
0.0
 11
113.5
 21
70.5
 31
0.0
  0
LINE
  5
75
330
1E
100
AcDbEntity
  8
0
100
AcDbLine
 10
107.312
 20
93.0
 30
0.0
 11
107.78
 21
93.0
 31
0.0
  0
LINE
  5
76
330
1E
100
AcDbEntity
  8
0
100
AcDbLine
 10
107.78
 20
93.0
 30
0.0
 11
109.0279999999999
 21
93.0
 31
0.0
  0
LINE
  5
77
330
1E
100
AcDbEntity
  8
0
100
AcDbLine
 10
113.5
 20
70.5
 30
0.0
 11
120.0
 21
70.0
 31
0.0
  0
LINE
  5
78
330
1E
100
AcDbEntity
  8
0
100
AcDbLine
 10
109.0279999999999
 20
93.0
 30
0.0
 11
111.0559999999999
 21
93.0
 31
0.0
  0
LINE
  5
79
330
1E
100
AcDbEntity
  8
0
100
AcDbLine
 10
111.0559999999999
 20
93.0
 30
0.0
 11
113.708
 21
93.0
 31
0.0
  0
LINE
  5
7A
330
1E
100
AcDbEntity
  8
0
100
AcDbLine
 10
120.0
 20
-0.0000000000000401
 30
0.0
 11
135.5999999999999
 21
1.199999999999959
 31
0.0
  0
LINE
  5
7B
330
1E
100
AcDbEntity
  8
0
100
AcDbLine
 10
120.0
 20
-0.0000000000000406
 30
0.0
 11
135.5999999999999
 21
1.199999999999959
 31
0.0
  0
LINE
  5
7C
330
1E
100
AcDbEntity
  8
0
100
AcDbLine
 10
120.0
 20
-0.0000000000000402
 30
0.0
 11
135.5999999999999
 21
1.199999999999959
 31
0.0
  0
LINE
  5
7D
330
1E
100
AcDbEntity
  8
0
100
AcDbLine
 10
120.0
 20
-0.0000000000000407
 30
0.0
 11
135.5999999999999
 21
1.199999999999959
 31
0.0
  0
LINE
  5
7E
330
1E
100
AcDbEntity
  8
0
100
AcDbLine
 10
120.0
 20
70.0
 30
0.0
 11
126.5
 21
70.5
 31
0.0
  0
LINE
  5
7F
330
1E
100
AcDbEntity
  8
0
100
AcDbLine
 10
120.0
 20
0.9999999999999598
 30
0.0
 11
135.5999999999999
 21
2.19999999999996
 31
0.0
  0
LINE
  5
80
330
1E
100
AcDbEntity
  8
0
100
AcDbLine
 10
113.708
 20
93.0
 30
0.0
 11
116.7239999999999
 21
93.0
 31
0.0
  0
LINE
  5
81
330
1E
100
AcDbEntity
  8
0
100
AcDbLine
 10
116.7239999999999
 20
93.0
 30
0.0
 11
120.0
 21
93.0
 31
0.0
  0
LINE
  5
82
330
1E
100
AcDbEntity
  8
0
100
AcDbLine
 10
126.5
 20
70.5
 30
0.0
 11
132.9
 21
71.79999999999999
 31
0.0
  0
LINE
  5
83
330
1E
100
AcDbEntity
  8
0
100
AcDbLine
 10
135.5999999999999
 20
1.199999999999959
 30
0.0
 11
151.0
 21
4.299999999999959
 31
0.0
  0
LINE
  5
84
330
1E
100
AcDbEntity
  8
0
100
AcDbLine
 10
135.5999999999999
 20
1.199999999999959
 30
0.0
 11
151.0
 21
4.299999999999959
 31
0.0
  0
LINE
  5
85
330
1E
100
AcDbEntity
  8
0
100
AcDbLine
 10
135.5999999999999
 20
1.199999999999959
 30
0.0
 11
151.0
 21
4.299999999999959
 31
0.0
  0
LINE
  5
86
330
1E
100
AcDbEntity
  8
0
100
AcDbLine
 10
135.5999999999999
 20
1.199999999999959
 30
0.0
 11
151.0
 21
4.299999999999959
 31
0.0
  0
LINE
  5
87
330
1E
100
AcDbEntity
  8
0
100
AcDbLine
 10
135.5999999999999
 20
2.19999999999996
 30
0.0
 11
150.6999999999999
 21
5.299999999999959
 31
0.0
  0
LINE
  5
88
330
1E
100
AcDbEntity
  8
0
100
AcDbLine
 10
132.9
 20
71.79999999999999
 30
0.0
 11
139.1
 21
73.9
 31
0.0
  0
LINE
  5
89
330
1E
100
AcDbEntity
  8
0
100
AcDbLine
 10
135.5999999999999
 20
2.19999999999996
 30
0.0
 11
150.6999999999999
 21
5.299999999999959
 31
0.0
  0
LINE
  5
8A
330
1E
100
AcDbEntity
  8
0
100
AcDbLine
 10
139.1
 20
73.9
 30
0.0
 11
144.9
 21
76.7
 31
0.0
  0
LINE
  5
8B
330
1E
100
AcDbEntity
  8
0
100
AcDbLine
 10
135.5999999999999
 20
2.19999999999996
 30
0.0
 11
150.6999999999999
 21
5.299999999999959
 31
0.0
  0
LINE
  5
8C
330
1E
100
AcDbEntity
  8
0
100
AcDbLine
 10
135.5999999999999
 20
2.19999999999996
 30
0.0
 11
150.6999999999999
 21
5.299999999999959
 31
0.0
  0
LINE
  5
8D
330
1E
100
AcDbEntity
  8
0
100
AcDbLine
 10
132.6879999999999
 20
93.0
 30
0.0
 11
133.0
 21
93.61539999999999
 31
0.0
  0
LINE
  5
8E
330
1E
100
AcDbEntity
  8
0
100
AcDbLine
 10
132.22
 20
93.0
 30
0.0
 11
132.6879999999999
 21
93.0
 31
0.0
  0
LINE
  5
8F
330
1E
100
AcDbEntity
  8
0
100
AcDbLine
 10
130.972
 20
93.0
 30
0.0
 11
132.22
 21
93.0
 31
0.0
  0
LINE
  5
90
330
1E
100
AcDbEntity
  8
0
100
AcDbLine
 10
128.9439999999999
 20
93.0
 30
0.0
 11
130.972
 21
93.0
 31
0.0
  0
LINE
  5
91
330
1E
100
AcDbEntity
  8
0
100
AcDbLine
 10
126.292
 20
93.0
 30
0.0
 11
128.9439999999999
 21
93.0
 31
0.0
  0
LINE
  5
92
330
1E
100
AcDbEntity
  8
0
100
AcDbLine
 10
133.0
 20
93.61539999999999
 30
0.0
 11
133.0
 21
104.385
 31
0.0
  0
LINE
  5
93
330
1E
100
AcDbEntity
  8
0
100
AcDbLine
 10
123.276
 20
93.0
 30
0.0
 11
126.292
 21
93.0
 31
0.0
  0
LINE
  5
94
330
1E
100
AcDbEntity
  8
0
100
AcDbLine
 10
120.0
 20
93.0
 30
0.0
 11
123.276
 21
93.0
 31
0.0
  0
LINE
  5
95
330
1E
100
AcDbEntity
  8
0
100
AcDbLine
 10
107.312
 20
105.0
 30
0.0
 11
107.78
 21
105.0
 31
0.0
  0
LINE
  5
96
330
1E
100
AcDbEntity
  8
0
100
AcDbLine
 10
107.78
 20
105.0
 30
0.0
 11
109.0279999999999
 21
105.0
 31
0.0
  0
LINE
  5
97
330
1E
100
AcDbEntity
  8
0
100
AcDbLine
 10
109.0279999999999
 20
105.0
 30
0.0
 11
111.0559999999999
 21
105.0
 31
0.0
  0
LINE
  5
98
330
1E
100
AcDbEntity
  8
0
100
AcDbLine
 10
111.0559999999999
 20
105.0
 30
0.0
 11
113.708
 21
105.0
 31
0.0
  0
LINE
  5
99
330
1E
100
AcDbEntity
  8
0
100
AcDbLine
 10
113.708
 20
105.0
 30
0.0
 11
116.7239999999999
 21
105.0
 31
0.0
  0
LINE
  5
9A
330
1E
100
AcDbEntity
  8
0
100
AcDbLine
 10
116.7239999999999
 20
105.0
 30
0.0
 11
120.0
 21
105.0
 31
0.0
  0
LINE
  5
9B
330
1E
100
AcDbEntity
  8
0
100
AcDbLine
 10
132.22
 20
105.0
 30
0.0
 11
132.6879999999999
 21
105.0
 31
0.0
  0
LINE
  5
9C
330
1E
100
AcDbEntity
  8
0
100
AcDbLine
 10
130.972
 20
105.0
 30
0.0
 11
132.22
 21
105.0
 31
0.0
  0
LINE
  5
9D
330
1E
100
AcDbEntity
  8
0
100
AcDbLine
 10
128.9439999999999
 20
105.0
 30
0.0
 11
130.972
 21
105.0
 31
0.0
  0
LINE
  5
9E
330
1E
100
AcDbEntity
  8
0
100
AcDbLine
 10
126.292
 20
105.0
 30
0.0
 11
128.9439999999999
 21
105.0
 31
0.0
  0
LINE
  5
9F
330
1E
100
AcDbEntity
  8
0
100
AcDbLine
 10
123.276
 20
105.0
 30
0.0
 11
126.292
 21
105.0
 31
0.0
  0
LINE
  5
A0
330
1E
100
AcDbEntity
  8
0
100
AcDbLine
 10
120.0
 20
105.0
 30
0.0
 11
123.276
 21
105.0
 31
0.0
  0
LINE
  5
A1
330
1E
100
AcDbEntity
  8
0
100
AcDbLine
 10
133.0
 20
104.385
 30
0.0
 11
133.0
 21
93.61539999999999
 31
0.0
  0
LINE
  5
A2
330
1E
100
AcDbEntity
  8
0
100
AcDbLine
 10
107.0
 20
104.385
 30
0.0
 11
107.312
 21
105.0
 31
0.0
  0
LINE
  5
A3
330
1E
100
AcDbEntity
  8
0
100
AcDbLine
 10
107.0
 20
104.385
 30
0.0
 11
107.0
 21
93.61539999999999
 31
0.0
  0
LINE
  5
A4
330
1E
100
AcDbEntity
  8
0
100
AcDbLine
 10
89.59999999999999
 20
159.6
 30
0.0
 11
95.09999999999999
 21
163.3
 31
0.0
  0
LINE
  5
A5
330
1E
100
AcDbEntity
  8
0
100
AcDbLine
 10
95.09999999999999
 20
163.3
 30
0.0
 11
100.9
 21
166.1
 31
0.0
  0
LINE
  5
A6
330
1E
100
AcDbEntity
  8
0
100
AcDbLine
 10
133.0
 20
105.624
 30
0.0
 11
133.0
 21
578.0
 31
0.0
  0
LINE
  5
A7
330
1E
100
AcDbEntity
  8
0
100
AcDbLine
 10
107.0
 20
105.624
 30
0.0
 11
107.0
 21
578.0
 31
0.0
  0
LINE
  5
A8
330
1E
100
AcDbEntity
  8
0
100
AcDbLine
 10
107.0
 20
105.624
 30
0.0
 11
107.312
 21
105.0
 31
0.0
  0
LINE
  5
A9
330
1E
100
AcDbEntity
  8
0
100
AcDbLine
 10
100.9
 20
166.1
 30
0.0
 11
107.0
 21
168.166129032258
 31
0.0
  0
LINE
  5
AA
330
1E
100
AcDbEntity
  8
0
100
AcDbLine
 10
133.0
 20
168.166129032258
 30
0.0
 11
139.1
 21
166.1
 31
0.0
  0
LINE
  5
AB
330
1E
100
AcDbEntity
  8
0
100
AcDbLine
 10
89.29999999999999
 20
234.6999999999999
 30
0.0
 11
104.4
 21
237.8
 31
0.0
  0
LINE
  5
AC
330
1E
100
AcDbEntity
  8
0
100
AcDbLine
 10
104.4
 20
237.8
 30
0.0
 11
107.0
 21
238.0
 31
0.0
  0
LINE
  5
AD
330
1E
100
AcDbEntity
  8
0
100
AcDbLine
 10
89.0
 20
235.6999999999999
 30
0.0
 11
104.4
 21
238.8
 31
0.0
  0
LINE
  5
AF
330
1E
100
AcDbEntity
  8
0
100
AcDbLine
 10
102.432
 20
530.0
 30
0.0
 11
103.0799999999999
 21
534.5359999999999
 31
0.0
  0
LINE
  5
B0
330
1E
100
AcDbEntity
  8
0
100
AcDbLine
 10
102.432
 20
530.0
 30
0.0
 11
103.0799999999999
 21
525.4640000000001
 31
0.0
  0
LINE
  5
B1
330
1E
100
AcDbEntity
  8
0
100
AcDbLine
 10
103.0799999999999
 20
525.4640000000001
 30
0.0
 11
104.8079999999999
 21
521.288
 31
0.0
  0
LINE
  5
B2
330
1E
100
AcDbEntity
  8
0
100
AcDbLine
 10
103.0799999999999
 20
534.5359999999999
 30
0.0
 11
104.8079999999999
 21
538.712
 31
0.0
  0
LINE
  5
B5
330
1E
100
AcDbEntity
  8
0
100
AcDbLine
 10
104.8079999999999
 20
521.288
 30
0.0
 11
107.0
 21
518.421538461538
 31
0.0
  0
LINE
  5
BD
330
1E
100
AcDbEntity
  8
0
100
AcDbLine
 10
133.0
 20
517.5951999999999
 30
0.0
 11
135.6239999999999
 21
521.072
 31
0.0
  0
LINE
  5
BE
330
1E
100
AcDbEntity
  8
0
100
AcDbLine
 10
104.8079999999999
 20
538.712
 30
0.0
 11
107.0
 21
541.578461538462
 31
0.0
  0
LINE
  5
C0
330
1E
100
AcDbEntity
  8
0
100
AcDbLine
 10
104.4
 20
238.8
 30
0.0
 11
107.0
 21
239.0
 31
0.0
  0
LINE
  5
C1
330
1E
100
AcDbEntity
  8
0
100
AcDbLine
 10
133.0
 20
238.0
 30
0.0
 11
135.5999999999999
 21
237.8
 31
0.0
  0
LINE
  5
C2
330
1E
100
AcDbEntity
  8
0
100
AcDbLine
 10
139.1
 20
166.1
 30
0.0
 11
144.9
 21
163.3
 31
0.0
  0
LINE
  5
C3
330
1E
100
AcDbEntity
  8
0
100
AcDbLine
 10
135.5999999999999
 20
237.8
 30
0.0
 11
150.6999999999999
 21
234.6999999999999
 31
0.0
  0
LINE
  5
C8
330
1E
100
AcDbEntity
  8
0
100
AcDbLine
 10
135.6239999999999
 20
521.072
 30
0.0
 11
137.352
 21
525.3919999999999
 31
0.0
  0
LINE
  5
C9
330
1E
100
AcDbEntity
  8
0
100
AcDbLine
 10
137.352
 20
525.3919999999999
 30
0.0
 11
138.0
 21
530.0
 31
0.0
  0
LINE
  5
CA
330
1E
100
AcDbEntity
  8
0
100
AcDbLine
 10
137.352
 20
534.608
 30
0.0
 11
138.0
 21
530.0
 31
0.0
  0
LINE
  5
CC
330
1E
100
AcDbEntity
  8
0
100
AcDbLine
 10
135.6239999999999
 20
538.928
 30
0.0
 11
137.352
 21
534.608
 31
0.0
  0
LINE
  5
CE
330
1E
100
AcDbEntity
  8
0
100
AcDbLine
 10
135.5999999999999
 20
238.8
 30
0.0
 11
151.0
 21
235.6999999999999
 31
0.0
  0
LINE
  5
CF
330
1E
100
AcDbEntity
  8
0
100
AcDbLine
 10
133.0
 20
239.0
 30
0.0
 11
135.5999999999999
 21
238.8
 31
0.0
  0
LINE
  5
D0
330
1E
100
AcDbEntity
  8
0
100
AcDbLine
 10
132.6879999999999
 20
105.0
 30
0.0
 11
133.0
 21
104.385
 31
0.0
  0
LINE
  5
D1
330
1E
100
AcDbEntity
  8
0
100
AcDbLine
 10
132.6879999999999
 20
105.0
 30
0.0
 11
133.0
 21
105.624
 31
0.0
  0
LINE
  5
D2
330
1E
100
AcDbEntity
  8
0
100
AcDbLine
 10
86.24
 20
578.0
 30
0.0
 11
92.48000000000001
 21
578.0
 31
0.0
  0
LINE
  5
D3
330
1E
100
AcDbEntity
  8
0
100
AcDbLine
 10
92.48000000000001
 20
578.0
 30
0.0
 11
100.6399999999999
 21
578.0
 31
0.0
  0
LINE
  5
D4
330
1E
100
AcDbEntity
  8
0
100
AcDbLine
 10
82.4
 20
578.0
 30
0.0
 11
86.24
 21
578.0
 31
0.0
  0
LINE
  5
D5
330
1E
100
AcDbEntity
  8
0
100
AcDbLine
 10
100.6399999999999
 20
578.0
 30
0.0
 11
107.0
 21
578.0
 31
0.0
  0
LINE
  5
D6
330
1E
100
AcDbEntity
  8
0
100
AcDbLine
 10
144.9
 20
163.3
 30
0.0
 11
150.4
 21
159.6
 31
0.0
  0
LINE
  5
D7
330
1E
100
AcDbEntity
  8
0
100
AcDbLine
 10
150.4
 20
159.6
 30
0.0
 11
155.3
 21
155.3
 31
0.0
  0
LINE
  5
D8
330
1E
100
AcDbEntity
  8
0
100
AcDbLine
 10
150.4
 20
80.4
 30
0.0
 11
155.3
 21
84.7
 31
0.0
  0
LINE
  5
D9
330
1E
100
AcDbEntity
  8
0
100
AcDbLine
 10
144.9
 20
76.7
 30
0.0
 11
150.4
 21
80.4
 31
0.0
  0
LINE
  5
DA
330
1E
100
AcDbEntity
  8
0
100
AcDbLine
 10
150.6999999999999
 20
234.6999999999999
 30
0.0
 11
165.5
 21
229.7
 31
0.0
  0
LINE
  5
DB
330
1E
100
AcDbEntity
  8
0
100
AcDbLine
 10
151.0
 20
235.6999999999999
 30
0.0
 11
165.8
 21
230.6
 31
0.0
  0
LINE
  5
DC
330
1E
100
AcDbEntity
  8
0
100
AcDbLine
 10
150.6999999999999
 20
5.299999999999959
 30
0.0
 11
165.5
 21
10.3
 31
0.0
  0
LINE
  5
DD
330
1E
100
AcDbEntity
  8
0
100
AcDbLine
 10
151.0
 20
4.299999999999959
 30
0.0
 11
165.8
 21
9.399999999999961
 31
0.0
  0
LINE
  5
DE
330
1E
100
AcDbEntity
  8
0
100
AcDbLine
 10
151.0
 20
4.299999999999959
 30
0.0
 11
165.8
 21
9.399999999999961
 31
0.0
  0
LINE
  5
DF
330
1E
100
AcDbEntity
  8
0
100
AcDbLine
 10
155.3
 20
155.3
 30
0.0
 11
159.6
 21
150.4
 31
0.0
  0
LINE
  5
E0
330
1E
100
AcDbEntity
  8
0
100
AcDbLine
 10
155.3
 20
84.7
 30
0.0
 11
159.6
 21
89.59999999999999
 31
0.0
  0
LINE
  5
E1
330
1E
100
AcDbEntity
  8
0
100
AcDbLine
 10
159.6
 20
150.4
 30
0.0
 11
163.3
 21
144.9
 31
0.0
  0
LINE
  5
E2
330
1E
100
AcDbEntity
  8
0
100
AcDbLine
 10
159.6
 20
89.59999999999999
 30
0.0
 11
163.3
 21
95.09999999999999
 31
0.0
  0
LINE
  5
E3
330
1E
100
AcDbEntity
  8
0
100
AcDbLine
 10
159.0399999999999
 20
578.0
 30
0.0
 11
160.0
 21
578.72
 31
0.0
  0
LINE
  5
E4
330
1E
100
AcDbEntity
  8
0
100
AcDbLine
 10
157.6
 20
578.0
 30
0.0
 11
159.0399999999999
 21
578.0
 31
0.0
  0
LINE
  5
E5
330
1E
100
AcDbEntity
  8
0
100
AcDbLine
 10
153.7599999999999
 20
578.0
 30
0.0
 11
157.6
 21
578.0
 31
0.0
  0
LINE
  5
E6
330
1E
100
AcDbEntity
  8
0
100
AcDbLine
 10
147.52
 20
578.0
 30
0.0
 11
153.7599999999999
 21
578.0
 31
0.0
  0
LINE
  5
E7
330
1E
100
AcDbEntity
  8
0
100
AcDbLine
 10
139.36
 20
578.0
 30
0.0
 11
147.52
 21
578.0
 31
0.0
  0
LINE
  5
E8
330
1E
100
AcDbEntity
  8
0
100
AcDbLine
 10
86.24
 20
578.0
 30
0.0
 11
92.48000000000001
 21
578.0
 31
0.0
  0
LINE
  5
E9
330
1E
100
AcDbEntity
  8
0
100
AcDbLine
 10
92.48000000000001
 20
578.0
 30
0.0
 11
100.6399999999999
 21
578.0
 31
0.0
  0
LINE
  5
EA
330
1E
100
AcDbEntity
  8
0
100
AcDbLine
 10
80.96
 20
578.0
 30
0.0
 11
82.4
 21
578.0
 31
0.0
  0
LINE
  5
EB
330
1E
100
AcDbEntity
  8
0
100
AcDbLine
 10
82.4
 20
578.0
 30
0.0
 11
86.24
 21
578.0
 31
0.0
  0
LINE
  5
EC
330
1E
100
AcDbEntity
  8
0
100
AcDbLine
 10
107.0
 20
578.0
 30
0.0
 11
107.0
 21
105.624
 31
0.0
  0
LINE
  5
ED
330
1E
100
AcDbEntity
  8
0
100
AcDbLine
 10
107.0
 20
578.0
 30
0.0
 11
107.4679999999999
 21
578.0
 31
0.0
  0
LINE
  5
EE
330
1E
100
AcDbEntity
  8
0
100
AcDbLine
 10
107.4679999999999
 20
578.0
 30
0.0
 11
108.716
 21
578.0
 31
0.0
  0
LINE
  5
EF
330
1E
100
AcDbEntity
  8
0
100
AcDbLine
 10
108.716
 20
578.0
 30
0.0
 11
110.796
 21
578.0
 31
0.0
  0
LINE
  5
F0
330
1E
100
AcDbEntity
  8
0
100
AcDbLine
 10
110.796
 20
578.0
 30
0.0
 11
113.552
 21
578.0
 31
0.0
  0
LINE
  5
F1
330
1E
100
AcDbEntity
  8
0
100
AcDbLine
 10
113.552
 20
578.0
 30
0.0
 11
116.672
 21
578.0
 31
0.0
  0
LINE
  5
F2
330
1E
100
AcDbEntity
  8
0
100
AcDbLine
 10
116.672
 20
578.0
 30
0.0
 11
120.0
 21
578.0
 31
0.0
  0
LINE
  5
F3
330
1E
100
AcDbEntity
  8
0
100
AcDbLine
 10
129.204
 20
578.0
 30
0.0
 11
131.284
 21
578.0
 31
0.0
  0
LINE
  5
F4
330
1E
100
AcDbEntity
  8
0
100
AcDbLine
 10
126.448
 20
578.0
 30
0.0
 11
129.204
 21
578.0
 31
0.0
  0
LINE
  5
F5
330
1E
100
AcDbEntity
  8
0
100
AcDbLine
 10
123.3279999999999
 20
578.0
 30
0.0
 11
126.448
 21
578.0
 31
0.0
  0
LINE
  5
F6
330
1E
100
AcDbEntity
  8
0
100
AcDbLine
 10
100.6399999999999
 20
578.0
 30
0.0
 11
109.9199999999999
 21
578.0
 31
0.0
  0
LINE
  5
F7
330
1E
100
AcDbEntity
  8
0
100
AcDbLine
 10
100.6399999999999
 20
578.0
 30
0.0
 11
107.0
 21
578.0
 31
0.0
  0
LINE
  5
F8
330
1E
100
AcDbEntity
  8
0
100
AcDbLine
 10
109.9199999999999
 20
578.0
 30
0.0
 11
120.0
 21
578.0
 31
0.0
  0
LINE
  5
F9
330
1E
100
AcDbEntity
  8
0
100
AcDbLine
 10
132.532
 20
578.0
 30
0.0
 11
133.0
 21
578.0
 31
0.0
  0
LINE
  5
FA
330
1E
100
AcDbEntity
  8
0
100
AcDbLine
 10
131.284
 20
578.0
 30
0.0
 11
132.532
 21
578.0
 31
0.0
  0
LINE
  5
FB
330
1E
100
AcDbEntity
  8
0
100
AcDbLine
 10
130.08
 20
578.0
 30
0.0
 11
139.36
 21
578.0
 31
0.0
  0
LINE
  5
FC
330
1E
100
AcDbEntity
  8
0
100
AcDbLine
 10
120.0
 20
578.0
 30
0.0
 11
130.08
 21
578.0
 31
0.0
  0
LINE
  5
FD
330
1E
100
AcDbEntity
  8
0
100
AcDbLine
 10
120.0
 20
578.0
 30
0.0
 11
123.3279999999999
 21
578.0
 31
0.0
  0
LINE
  5
FE
330
1E
100
AcDbEntity
  8
0
100
AcDbLine
 10
159.0399999999999
 20
578.0
 30
0.0
 11
160.0
 21
578.72
 31
0.0
  0
LINE
  5
FF
330
1E
100
AcDbEntity
  8
0
100
AcDbLine
 10
157.6
 20
578.0
 30
0.0
 11
159.0399999999999
 21
578.0
 31
0.0
  0
LINE
  5
100
330
1E
100
AcDbEntity
  8
0
100
AcDbLine
 10
153.7599999999999
 20
578.0
 30
0.0
 11
157.6
 21
578.0
 31
0.0
  0
LINE
  5
101
330
1E
100
AcDbEntity
  8
0
100
AcDbLine
 10
147.52
 20
578.0
 30
0.0
 11
153.7599999999999
 21
578.0
 31
0.0
  0
LINE
  5
102
330
1E
100
AcDbEntity
  8
0
100
AcDbLine
 10
139.36
 20
578.0
 30
0.0
 11
147.52
 21
578.0
 31
0.0
  0
LINE
  5
103
330
1E
100
AcDbEntity
  8
0
100
AcDbLine
 10
133.0
 20
578.0
 30
0.0
 11
139.36
 21
578.0
 31
0.0
  0
LINE
  5
104
330
1E
100
AcDbEntity
  8
0
100
AcDbLine
 10
133.0
 20
578.0
 30
0.0
 11
133.0
 21
105.624
 31
0.0
  0
LINE
  5
105
330
1E
100
AcDbEntity
  8
0
100
AcDbLine
 10
80.0
 20
578.72
 30
0.0
 11
81.44
 21
578.72
 31
0.0
  0
LINE
  5
106
330
1E
100
AcDbEntity
  8
0
100
AcDbLine
 10
80.0
 20
578.72
 30
0.0
 11
80.96
 21
578.0
 31
0.0
  0
LINE
  5
107
330
1E
100
AcDbEntity
  8
0
100
AcDbLine
 10
80.0
 20
578.72
 30
0.0
 11
80.0
 21
590.0
 31
0.0
  0
LINE
  5
108
330
1E
100
AcDbEntity
  8
0
100
AcDbLine
 10
80.0
 20
590.0
 30
0.0
 11
81.44
 21
590.0
 31
0.0
  0
LINE
  5
109
330
1E
100
AcDbEntity
  8
0
100
AcDbLine
 10
80.0
 20
590.0
 30
0.0
 11
80.0
 21
578.72
 31
0.0
  0
LINE
  5
10A
330
1E
100
AcDbEntity
  8
0
100
AcDbLine
 10
81.44
 20
578.72
 30
0.0
 11
85.28
 21
578.72
 31
0.0
  0
LINE
  5
10B
330
1E
100
AcDbEntity
  8
0
100
AcDbLine
 10
85.28
 20
578.72
 30
0.0
 11
91.68000000000001
 21
578.72
 31
0.0
  0
LINE
  5
10C
330
1E
100
AcDbEntity
  8
0
100
AcDbLine
 10
91.68000000000001
 20
578.72
 30
0.0
 11
100.16
 21
578.72
 31
0.0
  0
LINE
  5
10D
330
1E
100
AcDbEntity
  8
0
100
AcDbLine
 10
100.16
 20
578.72
 30
0.0
 11
109.76
 21
578.72
 31
0.0
  0
LINE
  5
10E
330
1E
100
AcDbEntity
  8
0
100
AcDbLine
 10
109.76
 20
578.72
 30
0.0
 11
120.0
 21
578.72
 31
0.0
  0
LINE
  5
10F
330
1E
100
AcDbEntity
  8
0
100
AcDbLine
 10
130.24
 20
578.72
 30
0.0
 11
139.84
 21
578.72
 31
0.0
  0
LINE
  5
110
330
1E
100
AcDbEntity
  8
0
100
AcDbLine
 10
81.44
 20
590.0
 30
0.0
 11
85.28
 21
590.0
 31
0.0
  0
LINE
  5
111
330
1E
100
AcDbEntity
  8
0
100
AcDbLine
 10
85.28
 20
590.0
 30
0.0
 11
91.68000000000001
 21
590.0
 31
0.0
  0
LINE
  5
112
330
1E
100
AcDbEntity
  8
0
100
AcDbLine
 10
91.68000000000001
 20
590.0
 30
0.0
 11
100.16
 21
590.0
 31
0.0
  0
LINE
  5
113
330
1E
100
AcDbEntity
  8
0
100
AcDbLine
 10
100.16
 20
590.0
 30
0.0
 11
109.76
 21
590.0
 31
0.0
  0
LINE
  5
114
330
1E
100
AcDbEntity
  8
0
100
AcDbLine
 10
109.76
 20
590.0
 30
0.0
 11
120.0
 21
590.0
 31
0.0
  0
LINE
  5
115
330
1E
100
AcDbEntity
  8
0
100
AcDbLine
 10
120.0
 20
578.72
 30
0.0
 11
130.24
 21
578.72
 31
0.0
  0
LINE
  5
116
330
1E
100
AcDbEntity
  8
0
100
AcDbLine
 10
148.3199999999999
 20
578.72
 30
0.0
 11
154.72
 21
578.72
 31
0.0
  0
LINE
  5
117
330
1E
100
AcDbEntity
  8
0
100
AcDbLine
 10
139.84
 20
578.72
 30
0.0
 11
148.3199999999999
 21
578.72
 31
0.0
  0
LINE
  5
118
330
1E
100
AcDbEntity
  8
0
100
AcDbLine
 10
158.56
 20
578.72
 30
0.0
 11
160.0
 21
578.72
 31
0.0
  0
LINE
  5
119
330
1E
100
AcDbEntity
  8
0
100
AcDbLine
 10
154.72
 20
578.72
 30
0.0
 11
158.56
 21
578.72
 31
0.0
  0
LINE
  5
11A
330
1E
100
AcDbEntity
  8
0
100
AcDbLine
 10
158.56
 20
590.0
 30
0.0
 11
160.0
 21
590.0
 31
0.0
  0
LINE
  5
11B
330
1E
100
AcDbEntity
  8
0
100
AcDbLine
 10
154.72
 20
590.0
 30
0.0
 11
158.56
 21
590.0
 31
0.0
  0
LINE
  5
11C
330
1E
100
AcDbEntity
  8
0
100
AcDbLine
 10
148.3199999999999
 20
590.0
 30
0.0
 11
154.72
 21
590.0
 31
0.0
  0
LINE
  5
11D
330
1E
100
AcDbEntity
  8
0
100
AcDbLine
 10
139.84
 20
590.0
 30
0.0
 11
148.3199999999999
 21
590.0
 31
0.0
  0
LINE
  5
11E
330
1E
100
AcDbEntity
  8
0
100
AcDbLine
 10
130.24
 20
590.0
 30
0.0
 11
139.84
 21
590.0
 31
0.0
  0
LINE
  5
11F
330
1E
100
AcDbEntity
  8
0
100
AcDbLine
 10
120.0
 20
590.0
 30
0.0
 11
130.24
 21
590.0
 31
0.0
  0
LINE
  5
120
330
1E
100
AcDbEntity
  8
0
100
AcDbLine
 10
80.0
 20
590.0
 30
0.0
 11
80.0
 21
578.72
 31
0.0
  0
LINE
  5
121
330
1E
100
AcDbEntity
  8
0
100
AcDbLine
 10
80.0
 20
578.72
 30
0.0
 11
80.96
 21
578.0
 31
0.0
  0
LINE
  5
122
330
1E
100
AcDbEntity
  8
0
100
AcDbLine
 10
80.0
 20
578.72
 30
0.0
 11
80.0
 21
590.0
 31
0.0
  0
LINE
  5
123
330
1E
100
AcDbEntity
  8
0
100
AcDbLine
 10
160.0
 20
590.0
 30
0.0
 11
160.0
 21
578.72
 31
0.0
  0
LINE
  5
124
330
1E
100
AcDbEntity
  8
0
100
AcDbLine
 10
133.0
 20
578.0
 30
0.0
 11
139.36
 21
578.0
 31
0.0
  0
LINE
  5
125
330
1E
100
AcDbEntity
  8
0
100
AcDbLine
 10
165.5
 20
10.3
 30
0.0
 11
179.1999999999999
 21
16.89999999999999
 31
0.0
  0
LINE
  5
126
330
1E
100
AcDbEntity
  8
0
100
AcDbLine
 10
192.3
 20
25.8
 30
0.0
 11
204.0
 21
36.0
 31
0.0
  0
LINE
  5
127
330
1E
100
AcDbEntity
  8
0
100
AcDbLine
 10
179.1999999999999
 20
16.89999999999999
 30
0.0
 11
192.3
 21
25.8
 31
0.0
  0
LINE
  5
128
330
1E
100
AcDbEntity
  8
0
100
AcDbLine
 10
204.6999999999999
 20
35.29999999999999
 30
0.0
 11
215.0
 21
47.09999999999999
 31
0.0
  0
LINE
  5
129
330
1E
100
AcDbEntity
  8
0
100
AcDbLine
 10
192.9
 20
25.0
 30
0.0
 11
204.6999999999999
 21
35.29999999999999
 31
0.0
  0
LINE
  5
12A
330
1E
100
AcDbEntity
  8
0
100
AcDbLine
 10
179.6999999999999
 20
16.1
 30
0.0
 11
192.9
 21
25.0
 31
0.0
  0
LINE
  5
12B
330
1E
100
AcDbEntity
  8
0
100
AcDbLine
 10
165.8
 20
9.399999999999961
 30
0.0
 11
179.6999999999999
 21
16.1
 31
0.0
  0
LINE
  5
12C
330
1E
100
AcDbEntity
  8
0
100
AcDbLine
 10
204.0
 20
36.0
 30
0.0
 11
214.1999999999999
 21
47.7
 31
0.0
  0
LINE
  5
12D
330
1E
100
AcDbEntity
  8
0
100
AcDbLine
 10
214.1999999999999
 20
47.7
 30
0.0
 11
223.0999999999999
 21
60.8
 31
0.0
  0
LINE
  5
12E
330
1E
100
AcDbEntity
  8
0
100
AcDbLine
 10
223.0999999999999
 20
60.8
 30
0.0
 11
229.7
 21
74.5
 31
0.0
  0
LINE
  5
12F
330
1E
100
AcDbEntity
  8
0
100
AcDbLine
 10
223.9
 20
60.3
 30
0.0
 11
230.6
 21
74.2
 31
0.0
  0
LINE
  5
130
330
1E
100
AcDbEntity
  8
0
100
AcDbLine
 10
229.7
 20
74.5
 30
0.0
 11
234.6999999999999
 21
89.29999999999999
 31
0.0
  0
LINE
  5
131
330
1E
100
AcDbEntity
  8
0
100
AcDbLine
 10
230.6
 20
74.2
 30
0.0
 11
235.6999999999999
 21
89.0
 31
0.0
  0
LINE
  5
132
330
1E
100
AcDbEntity
  8
0
100
AcDbLine
 10
215.0
 20
47.09999999999999
 30
0.0
 11
223.9
 21
60.3
 31
0.0
  0
LINE
  5
133
330
1E
100
AcDbEntity
  8
0
100
AcDbLine
 10
163.3
 20
95.09999999999999
 30
0.0
 11
166.1
 21
100.9
 31
0.0
  0
LINE
  5
134
330
1E
100
AcDbEntity
  8
0
100
AcDbLine
 10
166.1
 20
100.9
 30
0.0
 11
168.1999999999999
 21
107.0999999999999
 31
0.0
  0
LINE
  5
135
330
1E
100
AcDbEntity
  8
0
100
AcDbLine
 10
163.3
 20
144.9
 30
0.0
 11
166.1
 21
139.1
 31
0.0
  0
LINE
  5
136
330
1E
100
AcDbEntity
  8
0
100
AcDbLine
 10
166.1
 20
139.1
 30
0.0
 11
168.1999999999999
 21
132.9
 31
0.0
  0
LINE
  5
137
330
1E
100
AcDbEntity
  8
0
100
AcDbLine
 10
168.1999999999999
 20
132.9
 30
0.0
 11
169.5
 21
126.5
 31
0.0
  0
LINE
  5
138
330
1E
100
AcDbEntity
  8
0
100
AcDbLine
 10
169.5
 20
126.5
 30
0.0
 11
170.0
 21
120.0
 31
0.0
  0
LINE
  5
139
330
1E
100
AcDbEntity
  8
0
100
AcDbLine
 10
168.1999999999999
 20
107.0999999999999
 30
0.0
 11
169.5
 21
113.5
 31
0.0
  0
LINE
  5
13A
330
1E
100
AcDbEntity
  8
0
100
AcDbLine
 10
169.5
 20
113.5
 30
0.0
 11
170.0
 21
120.0
 31
0.0
  0
LINE
  5
13B
330
1E
100
AcDbEntity
  8
0
100
AcDbLine
 10
204.0
 20
204.0
 30
0.0
 11
214.1999999999999
 21
192.3
 31
0.0
  0
LINE
  5
13C
330
1E
100
AcDbEntity
  8
0
100
AcDbLine
 10
214.1999999999999
 20
192.3
 30
0.0
 11
223.0999999999999
 21
179.1999999999999
 31
0.0
  0
LINE
  5
13D
330
1E
100
AcDbEntity
  8
0
100
AcDbLine
 10
165.5
 20
229.7
 30
0.0
 11
179.1999999999999
 21
223.0999999999999
 31
0.0
  0
LINE
  5
13E
330
1E
100
AcDbEntity
  8
0
100
AcDbLine
 10
192.3
 20
214.1999999999999
 30
0.0
 11
204.0
 21
204.0
 31
0.0
  0
LINE
  5
13F
330
1E
100
AcDbEntity
  8
0
100
AcDbLine
 10
179.1999999999999
 20
223.0999999999999
 30
0.0
 11
192.3
 21
214.1999999999999
 31
0.0
  0
LINE
  5
140
330
1E
100
AcDbEntity
  8
0
100
AcDbLine
 10
192.9
 20
215.0
 30
0.0
 11
204.6999999999999
 21
204.6999999999999
 31
0.0
  0
LINE
  5
141
330
1E
100
AcDbEntity
  8
0
100
AcDbLine
 10
179.6999999999999
 20
223.9
 30
0.0
 11
192.9
 21
215.0
 31
0.0
  0
LINE
  5
142
330
1E
100
AcDbEntity
  8
0
100
AcDbLine
 10
165.8
 20
230.6
 30
0.0
 11
179.6999999999999
 21
223.9
 31
0.0
  0
LINE
  5
143
330
1E
100
AcDbEntity
  8
0
100
AcDbLine
 10
204.6999999999999
 20
204.6999999999999
 30
0.0
 11
215.0
 21
192.9
 31
0.0
  0
LINE
  5
144
330
1E
100
AcDbEntity
  8
0
100
AcDbLine
 10
234.6999999999999
 20
150.6999999999999
 30
0.0
 11
237.8
 21
135.5999999999999
 31
0.0
  0
LINE
  5
145
330
1E
100
AcDbEntity
  8
0
100
AcDbLine
 10
237.8
 20
135.5999999999999
 30
0.0
 11
239.0
 21
120.0
 31
0.0
  0
LINE
  5
146
330
1E
100
AcDbEntity
  8
0
100
AcDbLine
 10
223.0999999999999
 20
179.1999999999999
 30
0.0
 11
229.7
 21
165.5
 31
0.0
  0
LINE
  5
147
330
1E
100
AcDbEntity
  8
0
100
AcDbLine
 10
229.7
 20
165.5
 30
0.0
 11
234.6999999999999
 21
150.6999999999999
 31
0.0
  0
LINE
  5
148
330
1E
100
AcDbEntity
  8
0
100
AcDbLine
 10
223.9
 20
179.6999999999999
 30
0.0
 11
230.6
 21
165.8
 31
0.0
  0
LINE
  5
149
330
1E
100
AcDbEntity
  8
0
100
AcDbLine
 10
230.6
 20
165.8
 30
0.0
 11
235.6999999999999
 21
151.0
 31
0.0
  0
LINE
  5
14A
330
1E
100
AcDbEntity
  8
0
100
AcDbLine
 10
235.6999999999999
 20
151.0
 30
0.0
 11
238.8
 21
135.5999999999999
 31
0.0
  0
LINE
  5
14B
330
1E
100
AcDbEntity
  8
0
100
AcDbLine
 10
215.0
 20
192.9
 30
0.0
 11
223.9
 21
179.6999999999999
 31
0.0
  0
LINE
  5
14C
330
1E
100
AcDbEntity
  8
0
100
AcDbLine
 10
234.6999999999999
 20
89.29999999999999
 30
0.0
 11
237.8
 21
104.4
 31
0.0
  0
LINE
  5
14D
330
1E
100
AcDbEntity
  8
0
100
AcDbLine
 10
238.8
 20
135.5999999999999
 30
0.0
 11
240.0
 21
120.0
 31
0.0
  0
LINE
  5
14E
330
1E
100
AcDbEntity
  8
0
100
AcDbLine
 10
238.8
 20
135.5999999999999
 30
0.0
 11
240.0
 21
120.0
 31
0.0
  0
LINE
  5
14F
330
1E
100
AcDbEntity
  8
0
100
AcDbLine
 10
237.8
 20
104.4
 30
0.0
 11
239.0
 21
120.0
 31
0.0
  0
LINE
  5
150
330
1E
100
AcDbEntity
  8
0
100
AcDbLine
 10
235.6999999999999
 20
89.0
 30
0.0
 11
238.8
 21
104.4
 31
0.0
  0
LINE
  5
151
330
1E
100
AcDbEntity
  8
0
100
AcDbLine
 10
238.8
 20
104.4
 30
0.0
 11
240.0
 21
120.0
 31
0.0
  0
LINE
  5
152
330
1E
100
AcDbEntity
  8
0
100
AcDbLine
 10
160.0
 20
578.72
 30
0.0
 11
160.0
 21
590.0
 31
0.0
  0
LINE
  5
157
330
1E
100
AcDbEntity
  8
0
100
AcDbLine
 10
135.6239999999999
 20
538.928
 30
0.0
 11
133.0207331181186
 21
542.0113256687932
 31
0.0
  0
ENDSEC
  0
SECTION
  2
OBJECTS
  0
DICTIONARY
  5
C
330
0
100
AcDbDictionary
281
     1
  3
ACAD_GROUP
350
D
  3
ACAD_LAYOUT
350
19
  3
ACAD_MLINESTYLE
350
16
  3
ACAD_PLOTSETTINGS
350
18
  3
ACAD_PLOTSTYLENAME
350
E
  3
AcDbVariableDictionary
350
158
  0
DICTIONARY
  5
D
102
{ACAD_REACTORS
330
C
102
}
330
C
100
AcDbDictionary
281
     1
  0
DICTIONARY
  5
19
102
{ACAD_REACTORS
330
C
102
}
330
C
100
AcDbDictionary
281
     1
  3
Layout1
350
1D
  3
Model
350
21
  0
DICTIONARY
  5
16
102
{ACAD_REACTORS
330
C
102
}
330
C
100
AcDbDictionary
281
     1
  3
Standard
350
17
  0
DICTIONARY
  5
18
102
{ACAD_REACTORS
330
C
102
}
330
C
100
AcDbDictionary
281
     1
  0
ACDBDICTIONARYWDFLT
  5
E
102
{ACAD_REACTORS
330
C
102
}
330
C
100
AcDbDictionary
281
     1
  3
Normal
350
F
100
AcDbDictionaryWithDefault
340
F
  0
DICTIONARY
  5
158
102
{ACAD_REACTORS
330
C
102
}
330
C
100
AcDbDictionary
281
     1
  3
DIMASSOC
350
159
  0
LAYOUT
  5
1D
102
{ACAD_REACTORS
330
19
102
}
330
19
100
AcDbPlotSettings
  1

  2
hp deskjet 980c series
  4

  6

 40
0.0
 41
0.0
 42
0.0
 43
0.0
 44
0.0
 45
0.0
 46
0.0
 47
0.0
 48
0.0
 49
0.0
140
0.0
141
0.0
142
1.0
143
1.0
 70
   688
 72
     0
 73
     0
 74
     5
  7

 75
    16
147
1.0
148
0.0
149
0.0
100
AcDbLayout
  1
Layout1
 70
     1
 71
     1
 10
0.0
 20
0.0
 11
12.0
 21
9.0
 12
0.0
 22
0.0
 32
0.0
 14
1.000000000000000E+20
 24
1.000000000000000E+20
 34
1.000000000000000E+20
 15
-1.000000000000000E+20
 25
-1.000000000000000E+20
 35
-1.000000000000000E+20
146
0.0
 13
0.0
 23
0.0
 33
0.0
 16
1.0
 26
0.0
 36
0.0
 17
0.0
 27
1.0
 37
0.0
 76
     0
330
1A
  0
LAYOUT
  5
21
102
{ACAD_REACTORS
330
19
102
}
330
19
100
AcDbPlotSettings
  1

  2
hp deskjet 980c series
  4

  6

 40
0.0
 41
0.0
 42
0.0
 43
0.0
 44
0.0
 45
0.0
 46
0.0
 47
0.0
 48
0.0
 49
0.0
140
0.0
141
0.0
142
1.0
143
1.0
 70
  1712
 72
     0
 73
     0
 74
     0
  7

 75
     0
147
1.0
148
0.0
149
0.0
100
AcDbLayout
  1
Model
 70
     1
 71
     0
 10
0.0
 20
0.0
 11
12.0
 21
9.0
 12
0.0
 22
0.0
 32
0.0
 14
0.0
 24
0.0
 34
0.0
 15
0.0
 25
0.0
 35
0.0
146
0.0
 13
0.0
 23
0.0
 33
0.0
 16
1.0
 26
0.0
 36
0.0
 17
0.0
 27
1.0
 37
0.0
 76
     0
330
1E
  0
MLINESTYLE
  5
17
102
{ACAD_REACTORS
330
16
102
}
330
16
100
AcDbMlineStyle
  2
STANDARD
 70
     0
  3

 62
   256
 51
90.0
 52
90.0
 71
     2
 49
0.5
 62
   256
  6
BYLAYER
 49
-0.5
 62
   256
  6
BYLAYER
  0
ACDBPLACEHOLDER
  5
F
102
{ACAD_REACTORS
330
E
102
}
330
E
  0
DICTIONARYVAR
  5
159
102
{ACAD_REACTORS
330
158
102
}
330
158
100
DictionaryVariables
280
     0
  1
1
  0
ENDSEC
  0
EOF
