  0
SECTION
  2
HEADER
  9
$ACADVER
  1
AC1015
  9
$ACADMAINTVER
 70
    13
  9
$DWGCODEPAGE
  3
ANSI_1252
  9
$INSBASE
 10
0.0
 20
0.0
 30
0.0
  9
$EXTMIN
 10
0.0000000000000017
 20
-0.0000000000000625
 30
0.0
  9
$EXTMAX
 10
240.0
 20
1125.0
 30
0.0
  9
$LIMMIN
 10
0.0
 20
0.0
  9
$LIMMAX
 10
12.0
 20
9.0
  9
$ORTHOMODE
 70
     0
  9
$REGENMODE
 70
     1
  9
$FILLMODE
 70
     1
  9
$QTEXTMODE
 70
     0
  9
$MIRRTEXT
 70
     1
  9
$LTSCALE
 40
1.0
  9
$ATTMODE
 70
     1
  9
$TEXTSIZE
 40
0.2
  9
$TRACEWID
 40
0.05
  9
$TEXTSTYLE
  7
Standard
  9
$CLAYER
  8
0
  9
$CELTYPE
  6
Continuous
  9
$CECOLOR
 62
   256
  9
$CELTSCALE
 40
1.0
  9
$DISPSILH
 70
     0
  9
$DIMSCALE
 40
1.0
  9
$DIMASZ
 40
0.18
  9
$DIMEXO
 40
0.0625
  9
$DIMDLI
 40
0.38
  9
$DIMRND
 40
0.0
  9
$DIMDLE
 40
0.0
  9
$DIMEXE
 40
0.18
  9
$DIMTP
 40
0.0
  9
$DIMTM
 40
0.0
  9
$DIMTXT
 40
0.18
  9
$DIMCEN
 40
0.09
  9
$DIMTSZ
 40
0.0
  9
$DIMTOL
 70
     0
  9
$DIMLIM
 70
     0
  9
$DIMTIH
 70
     1
  9
$DIMTOH
 70
     1
  9
$DIMSE1
 70
     0
  9
$DIMSE2
 70
     0
  9
$DIMTAD
 70
     0
  9
$DIMZIN
 70
     0
  9
$DIMBLK
  1

  9
$DIMASO
 70
     1
  9
$DIMSHO
 70
     1
  9
$DIMPOST
  1

  9
$DIMAPOST
  1

  9
$DIMALT
 70
     0
  9
$DIMALTD
 70
     2
  9
$DIMALTF
 40
25.4
  9
$DIMLFAC
 40
1.0
  9
$DIMTOFL
 70
     0
  9
$DIMTVP
 40
0.0
  9
$DIMTIX
 70
     0
  9
$DIMSOXD
 70
     0
  9
$DIMSAH
 70
     0
  9
$DIMBLK1
  1

  9
$DIMBLK2
  1

  9
$DIMSTYLE
  2
Standard
  9
$DIMCLRD
 70
     0
  9
$DIMCLRE
 70
     0
  9
$DIMCLRT
 70
     0
  9
$DIMTFAC
 40
1.0
  9
$DIMGAP
 40
0.09
  9
$DIMJUST
 70
     0
  9
$DIMSD1
 70
     0
  9
$DIMSD2
 70
     0
  9
$DIMTOLJ
 70
     1
  9
$DIMTZIN
 70
     0
  9
$DIMALTZ
 70
     0
  9
$DIMALTTZ
 70
     0
  9
$DIMUPT
 70
     0
  9
$DIMDEC
 70
     4
  9
$DIMTDEC
 70
     4
  9
$DIMALTU
 70
     2
  9
$DIMALTTD
 70
     2
  9
$DIMTXSTY
  7
Standard
  9
$DIMAUNIT
 70
     0
  9
$DIMADEC
 70
     0
  9
$DIMALTRND
 40
0.0
  9
$DIMAZIN
 70
     0
  9
$DIMDSEP
 70
    46
  9
$DIMATFIT
 70
     3
  9
$DIMFRAC
 70
     0
  9
$DIMLDRBLK
  1

  9
$DIMLUNIT
 70
     2
  9
$DIMLWD
 70
    -2
  9
$DIMLWE
 70
    -2
  9
$DIMTMOVE
 70
     0
  9
$LUNITS
 70
     2
  9
$LUPREC
 70
     4
  9
$SKETCHINC
 40
0.1
  9
$FILLETRAD
 40
0.0
  9
$AUNITS
 70
     0
  9
$AUPREC
 70
     0
  9
$MENU
  1
.
  9
$ELEVATION
 40
0.0
  9
$PELEVATION
 40
0.0
  9
$THICKNESS
 40
0.0
  9
$LIMCHECK
 70
     0
  9
$CHAMFERA
 40
0.0
  9
$CHAMFERB
 40
0.0
  9
$CHAMFERC
 40
0.0
  9
$CHAMFERD
 40
0.0
  9
$SKPOLY
 70
     0
  9
$TDCREATE
 40
2454741.421958773
  9
$TDUCREATE
 40
2454741.338625439
  9
$TDUPDATE
 40
2454741.449084965
  9
$TDUUPDATE
 40
2454741.365751632
  9
$TDINDWG
 40
0.0271261921
  9
$TDUSRTIMER
 40
0.0271261921
  9
$USRTIMER
 70
     1
  9
$ANGBASE
 50
0.0
  9
$ANGDIR
 70
     0
  9
$PDMODE
 70
     0
  9
$PDSIZE
 40
0.0
  9
$PLINEWID
 40
0.0
  9
$SPLFRAME
 70
     0
  9
$SPLINETYPE
 70
     6
  9
$SPLINESEGS
 70
     8
  9
$HANDSEED
  5
A52
  9
$SURFTAB1
 70
     6
  9
$SURFTAB2
 70
     6
  9
$SURFTYPE
 70
     6
  9
$SURFU
 70
     6
  9
$SURFV
 70
     6
  9
$UCSBASE
  2

  9
$UCSNAME
  2

  9
$UCSORG
 10
0.0
 20
0.0
 30
0.0
  9
$UCSXDIR
 10
1.0
 20
0.0
 30
0.0
  9
$UCSYDIR
 10
0.0
 20
1.0
 30
0.0
  9
$UCSORTHOREF
  2

  9
$UCSORTHOVIEW
 70
     1
  9
$UCSORGTOP
 10
0.0
 20
0.0
 30
0.0
  9
$UCSORGBOTTOM
 10
0.0
 20
0.0
 30
0.0
  9
$UCSORGLEFT
 10
0.0
 20
0.0
 30
0.0
  9
$UCSORGRIGHT
 10
0.0
 20
0.0
 30
0.0
  9
$UCSORGFRONT
 10
0.0
 20
0.0
 30
0.0
  9
$UCSORGBACK
 10
0.0
 20
0.0
 30
0.0
  9
$PUCSBASE
  2

  9
$PUCSNAME
  2

  9
$PUCSORG
 10
0.0
 20
0.0
 30
0.0
  9
$PUCSXDIR
 10
1.0
 20
0.0
 30
0.0
  9
$PUCSYDIR
 10
0.0
 20
1.0
 30
0.0
  9
$PUCSORTHOREF
  2

  9
$PUCSORTHOVIEW
 70
     0
  9
$PUCSORGTOP
 10
0.0
 20
0.0
 30
0.0
  9
$PUCSORGBOTTOM
 10
0.0
 20
0.0
 30
0.0
  9
$PUCSORGLEFT
 10
0.0
 20
0.0
 30
0.0
  9
$PUCSORGRIGHT
 10
0.0
 20
0.0
 30
0.0
  9
$PUCSORGFRONT
 10
0.0
 20
0.0
 30
0.0
  9
$PUCSORGBACK
 10
0.0
 20
0.0
 30
0.0
  9
$USERI1
 70
     0
  9
$USERI2
 70
     0
  9
$USERI3
 70
     0
  9
$USERI4
 70
     0
  9
$USERI5
 70
     0
  9
$USERR1
 40
0.0
  9
$USERR2
 40
0.0
  9
$USERR3
 40
0.0
  9
$USERR4
 40
0.0
  9
$USERR5
 40
0.0
  9
$WORLDVIEW
 70
     1
  9
$SHADEDGE
 70
     3
  9
$SHADEDIF
 70
    70
  9
$TILEMODE
 70
     1
  9
$MAXACTVP
 70
    64
  9
$PINSBASE
 10
0.0
 20
0.0
 30
0.0
  9
$PLIMCHECK
 70
     0
  9
$PEXTMIN
 10
1.000000000000000E+20
 20
1.000000000000000E+20
 30
1.000000000000000E+20
  9
$PEXTMAX
 10
-1.000000000000000E+20
 20
-1.000000000000000E+20
 30
-1.000000000000000E+20
  9
$PLIMMIN
 10
0.0
 20
0.0
  9
$PLIMMAX
 10
12.0
 20
9.0
  9
$UNITMODE
 70
     0
  9
$VISRETAIN
 70
     1
  9
$PLINEGEN
 70
     0
  9
$PSLTSCALE
 70
     1
  9
$TREEDEPTH
 70
  3020
  9
$CMLSTYLE
  2
Standard
  9
$CMLJUST
 70
     0
  9
$CMLSCALE
 40
1.0
  9
$PROXYGRAPHICS
 70
     1
  9
$MEASUREMENT
 70
     0
  9
$CELWEIGHT
370
    -1
  9
$ENDCAPS
280
     0
  9
$JOINSTYLE
280
     0
  9
$LWDISPLAY
290
     0
  9
$INSUNITS
 70
     0
  9
$HYPERLINKBASE
  1

  9
$STYLESHEET
  1

  9
$XEDIT
290
     1
  9
$CEPSNTYPE
380
     0
  9
$PSTYLEMODE
290
     1
  9
$FINGERPRINTGUID
  2
{304BA0C6-186F-4B90-8C37-66264D64E3D7}
  9
$VERSIONGUID
  2
{40128606-D40B-4C0F-AF23-B7E2AC4BB2D5}
  9
$EXTNAMES
290
     1
  9
$PSVPSCALE
 40
0.0
  9
$OLESTARTUP
290
     0
  0
ENDSEC
  0
SECTION
  2
CLASSES
  0
CLASS
  1
ACDBDICTIONARYWDFLT
  2
AcDbDictionaryWithDefault
  3
AutoCAD 2000
 90
        0
280
     0
281
     0
  0
CLASS
  1
ACDBPLACEHOLDER
  2
AcDbPlaceHolder
  3
AutoCAD 2000
 90
        0
280
     0
281
     0
  0
CLASS
  1
LAYOUT
  2
AcDbLayout
  3
AutoCAD 2000
 90
        0
280
     0
281
     0
  0
CLASS
  1
DICTIONARYVAR
  2
AcDbDictionaryVar
  3
AutoCAD 2000
 90
        0
280
     0
281
     0
  0
ENDSEC
  0
SECTION
  2
TABLES
  0
TABLE
  2
VPORT
  5
8
330
0
100
AcDbSymbolTable
 70
     2
  0
VPORT
  5
A51
330
8
100
AcDbSymbolTableRecord
100
AcDbViewportTableRecord
  2
*Active
 70
     0
 10
0.0
 20
0.0
 11
1.0
 21
1.0
 12
120.0
 22
562.4999999999999
 13
0.0
 23
0.0
 14
1.0
 24
1.0
 15
0.0
 25
0.0
 16
0.0
 26
0.0
 36
1.0
 17
0.0
 27
0.0
 37
0.0
 40
1133.631713554987
 41
2.078104993597951
 42
50.0
 43
0.0
 44
0.0
 50
0.0
 51
0.0
 71
     0
 72
   100
 73
     1
 74
     3
 75
     0
 76
     0
 77
     0
 78
     0
281
     0
 65
     1
110
0.0
120
0.0
130
0.0
111
1.0
121
0.0
131
0.0
112
0.0
122
1.0
132
0.0
 79
     1
146
0.0
  0
ENDTAB
  0
TABLE
  2
LTYPE
  5
5
330
0
100
AcDbSymbolTable
 70
     1
  0
LTYPE
  5
13
330
5
100
AcDbSymbolTableRecord
100
AcDbLinetypeTableRecord
  2
ByBlock
 70
     0
  3

 72
    65
 73
     0
 40
0.0
  0
LTYPE
  5
14
330
5
100
AcDbSymbolTableRecord
100
AcDbLinetypeTableRecord
  2
ByLayer
 70
     0
  3

 72
    65
 73
     0
 40
0.0
  0
LTYPE
  5
15
330
5
100
AcDbSymbolTableRecord
100
AcDbLinetypeTableRecord
  2
Continuous
 70
     0
  3
Solid line
 72
    65
 73
     0
 40
0.0
  0
ENDTAB
  0
TABLE
  2
LAYER
  5
2
330
0
100
AcDbSymbolTable
 70
     1
  0
LAYER
  5
10
330
2
100
AcDbSymbolTableRecord
100
AcDbLayerTableRecord
  2
0
 70
     0
 62
     7
  6
Continuous
370
    -3
390
F
  0
ENDTAB
  0
TABLE
  2
STYLE
  5
3
330
0
100
AcDbSymbolTable
 70
     1
  0
STYLE
  5
11
330
3
100
AcDbSymbolTableRecord
100
AcDbTextStyleTableRecord
  2
Standard
 70
     0
 40
0.0
 41
1.0
 50
0.0
 71
     0
 42
0.2
  3
txt
  4

  0
ENDTAB
  0
TABLE
  2
VIEW
  5
6
330
0
100
AcDbSymbolTable
 70
     0
  0
ENDTAB
  0
TABLE
  2
UCS
  5
7
330
0
100
AcDbSymbolTable
 70
     0
  0
ENDTAB
  0
TABLE
  2
APPID
  5
9
330
0
100
AcDbSymbolTable
 70
     1
  0
APPID
  5
12
330
9
100
AcDbSymbolTableRecord
100
AcDbRegAppTableRecord
  2
ACAD
 70
     0
  0
ENDTAB
  0
TABLE
  2
DIMSTYLE
  5
A
330
0
100
AcDbSymbolTable
 70
     1
100
AcDbDimStyleTable
 71
     0
  0
DIMSTYLE
105
893
330
A
100
AcDbSymbolTableRecord
100
AcDbDimStyleTableRecord
  2
Standard
 70
     0
340
11
  0
ENDTAB
  0
TABLE
  2
BLOCK_RECORD
  5
1
330
0
100
AcDbSymbolTable
 70
     0
  0
BLOCK_RECORD
  5
1E
330
1
100
AcDbSymbolTableRecord
100
AcDbBlockTableRecord
  2
*Model_Space
340
21
  0
BLOCK_RECORD
  5
1A
330
1
100
AcDbSymbolTableRecord
100
AcDbBlockTableRecord
  2
*Paper_Space
340
1D
  0
ENDTAB
  0
ENDSEC
  0
SECTION
  2
BLOCKS
  0
BLOCK
  5
1F
330
1E
100
AcDbEntity
  8
0
100
AcDbBlockBegin
  2
*Model_Space
 70
     0
 10
0.0
 20
0.0
 30
0.0
  3
*Model_Space
  1

  0
ENDBLK
  5
20
330
1E
100
AcDbEntity
  8
0
100
AcDbBlockEnd
  0
BLOCK
  5
1B
330
1A
100
AcDbEntity
 67
     1
  8
0
100
AcDbBlockBegin
  2
*Paper_Space
 70
     0
 10
0.0
 20
0.0
 30
0.0
  3
*Paper_Space
  1

  0
ENDBLK
  5
1C
330
1A
100
AcDbEntity
 67
     1
  8
0
100
AcDbBlockEnd
  0
ENDSEC
  0
SECTION
  2
ENTITIES
  0
LINE
  5
22
330
1E
100
AcDbEntity
  8
0
100
AcDbLine
 10
104.376
 20
-0.00000000000006
 30
0.0
 11
107.2559999999999
 21
-0.0000000000000602
 31
0.0
  0
LINE
  5
23
330
1E
100
AcDbEntity
  8
0
100
AcDbLine
 10
102.648
 20
-0.0000000000000597
 30
0.0
 11
104.376
 21
-0.00000000000006
 31
0.0
  0
LINE
  5
24
330
1E
100
AcDbEntity
  8
0
100
AcDbLine
 10
115.392
 20
-0.0000000000000605
 30
0.0
 11
120.0
 21
-0.0000000000000605
 31
0.0
  0
LINE
  5
25
330
1E
100
AcDbEntity
  8
0
100
AcDbLine
 10
111.072
 20
-0.0000000000000604
 30
0.0
 11
115.392
 21
-0.0000000000000605
 31
0.0
  0
LINE
  5
26
330
1E
100
AcDbEntity
  8
0
100
AcDbLine
 10
120.0
 20
-0.0000000000000605
 30
0.0
 11
124.6079999999999
 21
-0.0000000000000605
 31
0.0
  0
LINE
  5
27
330
1E
100
AcDbEntity
  8
0
100
AcDbLine
 10
124.6079999999999
 20
-0.0000000000000605
 30
0.0
 11
128.9279999999999
 21
-0.0000000000000604
 31
0.0
  0
LINE
  5
28
330
1E
100
AcDbEntity
  8
0
100
AcDbLine
 10
116.05
 20
-0.0000000000000603
 30
0.0
 11
120.0
 21
-0.0000000000000604
 31
0.0
  0
LINE
  5
29
330
1E
100
AcDbEntity
  8
0
100
AcDbLine
 10
112.347
 20
-0.0000000000000602
 30
0.0
 11
116.05
 21
-0.0000000000000603
 31
0.0
  0
LINE
  5
2A
330
1E
100
AcDbEntity
  8
0
100
AcDbLine
 10
120.0
 20
-0.0000000000000604
 30
0.0
 11
123.95
 21
-0.0000000000000603
 31
0.0
  0
LINE
  5
2B
330
1E
100
AcDbEntity
  8
0
100
AcDbLine
 10
123.95
 20
-0.0000000000000603
 30
0.0
 11
127.6529999999999
 21
-0.0000000000000602
 31
0.0
  0
LINE
  5
2C
330
1E
100
AcDbEntity
  8
0
100
AcDbLine
 10
107.2559999999999
 20
-0.0000000000000602
 30
0.0
 11
111.072
 21
-0.0000000000000604
 31
0.0
  0
LINE
  5
2D
330
1E
100
AcDbEntity
  8
0
100
AcDbLine
 10
109.077
 20
-0.0000000000000601
 30
0.0
 11
112.347
 21
-0.0000000000000602
 31
0.0
  0
LINE
  5
2E
330
1E
100
AcDbEntity
  8
0
100
AcDbLine
 10
127.6529999999999
 20
-0.0000000000000602
 30
0.0
 11
130.923
 21
-0.0000000000000601
 31
0.0
  0
LINE
  5
2F
330
1E
100
AcDbEntity
  8
0
100
AcDbLine
 10
130.923
 20
-0.0000000000000601
 30
0.0
 11
133.3919999999999
 21
-0.0000000000000599
 31
0.0
  0
LINE
  5
30
330
1E
100
AcDbEntity
  8
0
100
AcDbLine
 10
128.9279999999999
 20
-0.0000000000000604
 30
0.0
 11
132.7439999999999
 21
-0.0000000000000602
 31
0.0
  0
LINE
  5
31
330
1E
100
AcDbEntity
  8
0
100
AcDbLine
 10
132.7439999999999
 20
-0.0000000000000602
 30
0.0
 11
135.6239999999999
 21
-0.00000000000006
 31
0.0
  0
LINE
  5
32
330
1E
100
AcDbEntity
  8
0
100
AcDbLine
 10
106.6079999999999
 20
-0.0000000000000599
 30
0.0
 11
109.077
 21
-0.0000000000000601
 31
0.0
  0
LINE
  5
33
330
1E
100
AcDbEntity
  8
0
100
AcDbLine
 10
105.127
 20
-0.0000000000000596
 30
0.0
 11
106.6079999999999
 21
-0.0000000000000599
 31
0.0
  0
LINE
  5
34
330
1E
100
AcDbEntity
  8
0
100
AcDbLine
 10
133.3919999999999
 20
-0.0000000000000599
 30
0.0
 11
134.8729999999999
 21
-0.0000000000000596
 31
0.0
  0
LINE
  5
35
330
1E
100
AcDbEntity
  8
0
100
AcDbLine
 10
134.8729999999999
 20
-0.0000000000000596
 30
0.0
 11
135.4289999999999
 21
-0.0000000000000594
 31
0.0
  0
LINE
  5
36
330
1E
100
AcDbEntity
  8
0
100
AcDbLine
 10
135.6239999999999
 20
-0.00000000000006
 30
0.0
 11
137.352
 21
-0.0000000000000597
 31
0.0
  0
LINE
  5
37
330
1E
100
AcDbEntity
  8
0
100
AcDbLine
 10
137.352
 20
-0.0000000000000597
 30
0.0
 11
138.0
 21
-0.0000000000000594
 31
0.0
  0
LINE
  5
38
330
1E
100
AcDbEntity
  8
0
100
AcDbLine
 10
138.0
 20
-0.0000000000000594
 30
0.0
 11
138.0
 21
49.99999999999989
 31
0.0
  0
LINE
  5
39
330
1E
100
AcDbEntity
  8
0
100
AcDbLine
 10
104.5709999999999
 20
-0.0000000000000594
 30
0.0
 11
105.127
 21
-0.0000000000000592
 31
0.0
  0
LINE
  5
3A
330
1E
100
AcDbEntity
  8
0
100
AcDbLine
 10
104.5709999999999
 20
-0.0000000000000594
 30
0.0
 11
105.127
 21
-0.0000000000000596
 31
0.0
  0
LINE
  5
3B
330
1E
100
AcDbEntity
  8
0
100
AcDbLine
 10
133.3919999999999
 20
-0.0000000000000589
 30
0.0
 11
134.8729999999999
 21
-0.0000000000000592
 31
0.0
  0
LINE
  5
3C
330
1E
100
AcDbEntity
  8
0
100
AcDbLine
 10
134.8729999999999
 20
-0.0000000000000592
 30
0.0
 11
135.4289999999999
 21
-0.0000000000000594
 31
0.0
  0
LINE
  5
3D
330
1E
100
AcDbEntity
  8
0
100
AcDbLine
 10
137.352
 20
-0.0000000000000591
 30
0.0
 11
138.0
 21
-0.0000000000000594
 31
0.0
  0
LINE
  5
3E
330
1E
100
AcDbEntity
  8
0
100
AcDbLine
 10
135.6239999999999
 20
-0.0000000000000589
 30
0.0
 11
137.352
 21
-0.0000000000000591
 31
0.0
  0
LINE
  5
3F
330
1E
100
AcDbEntity
  8
0
100
AcDbLine
 10
106.6079999999999
 20
-0.0000000000000589
 30
0.0
 11
109.077
 21
-0.0000000000000587
 31
0.0
  0
LINE
  5
40
330
1E
100
AcDbEntity
  8
0
100
AcDbLine
 10
105.127
 20
-0.0000000000000592
 30
0.0
 11
106.6079999999999
 21
-0.0000000000000589
 31
0.0
  0
LINE
  5
41
330
1E
100
AcDbEntity
  8
0
100
AcDbLine
 10
127.6529999999999
 20
-0.0000000000000586
 30
0.0
 11
130.923
 21
-0.0000000000000587
 31
0.0
  0
LINE
  5
42
330
1E
100
AcDbEntity
  8
0
100
AcDbLine
 10
130.923
 20
-0.0000000000000587
 30
0.0
 11
133.3919999999999
 21
-0.0000000000000589
 31
0.0
  0
LINE
  5
43
330
1E
100
AcDbEntity
  8
0
100
AcDbLine
 10
132.7439999999999
 20
-0.0000000000000586
 30
0.0
 11
135.6239999999999
 21
-0.0000000000000589
 31
0.0
  0
LINE
  5
44
330
1E
100
AcDbEntity
  8
0
100
AcDbLine
 10
120.0
 20
-0.0000000000000585
 30
0.0
 11
123.95
 21
-0.0000000000000585
 31
0.0
  0
LINE
  5
45
330
1E
100
AcDbEntity
  8
0
100
AcDbLine
 10
123.95
 20
-0.0000000000000585
 30
0.0
 11
127.6529999999999
 21
-0.0000000000000586
 31
0.0
  0
LINE
  5
46
330
1E
100
AcDbEntity
  8
0
100
AcDbLine
 10
128.9279999999999
 20
-0.0000000000000585
 30
0.0
 11
132.7439999999999
 21
-0.0000000000000586
 31
0.0
  0
LINE
  5
47
330
1E
100
AcDbEntity
  8
0
100
AcDbLine
 10
116.05
 20
-0.0000000000000585
 30
0.0
 11
120.0
 21
-0.0000000000000585
 31
0.0
  0
LINE
  5
48
330
1E
100
AcDbEntity
  8
0
100
AcDbLine
 10
112.347
 20
-0.0000000000000586
 30
0.0
 11
116.05
 21
-0.0000000000000585
 31
0.0
  0
LINE
  5
49
330
1E
100
AcDbEntity
  8
0
100
AcDbLine
 10
109.077
 20
-0.0000000000000587
 30
0.0
 11
112.347
 21
-0.0000000000000586
 31
0.0
  0
LINE
  5
4A
330
1E
100
AcDbEntity
  8
0
100
AcDbLine
 10
120.0
 20
-0.0000000000000583
 30
0.0
 11
124.6079999999999
 21
-0.0000000000000583
 31
0.0
  0
LINE
  5
4B
330
1E
100
AcDbEntity
  8
0
100
AcDbLine
 10
124.6079999999999
 20
-0.0000000000000583
 30
0.0
 11
128.9279999999999
 21
-0.0000000000000585
 31
0.0
  0
LINE
  5
4C
330
1E
100
AcDbEntity
  8
0
100
AcDbLine
 10
115.392
 20
-0.0000000000000583
 30
0.0
 11
120.0
 21
-0.0000000000000583
 31
0.0
  0
LINE
  5
4D
330
1E
100
AcDbEntity
  8
0
100
AcDbLine
 10
111.072
 20
-0.0000000000000585
 30
0.0
 11
115.392
 21
-0.0000000000000583
 31
0.0
  0
LINE
  5
4E
330
1E
100
AcDbEntity
  8
0
100
AcDbLine
 10
107.2559999999999
 20
-0.0000000000000586
 30
0.0
 11
111.072
 21
-0.0000000000000585
 31
0.0
  0
LINE
  5
4F
330
1E
100
AcDbEntity
  8
0
100
AcDbLine
 10
104.376
 20
-0.0000000000000589
 30
0.0
 11
107.2559999999999
 21
-0.0000000000000586
 31
0.0
  0
LINE
  5
50
330
1E
100
AcDbEntity
  8
0
100
AcDbLine
 10
102.648
 20
-0.0000000000000591
 30
0.0
 11
104.376
 21
-0.0000000000000589
 31
0.0
  0
LINE
  5
51
330
1E
100
AcDbEntity
  8
0
100
AcDbLine
 10
102.0
 20
-0.0000000000000594
 30
0.0
 11
102.648
 21
-0.0000000000000591
 31
0.0
  0
LINE
  5
52
330
1E
100
AcDbEntity
  8
0
100
AcDbLine
 10
102.0
 20
-0.0000000000000594
 30
0.0
 11
102.648
 21
-0.0000000000000597
 31
0.0
  0
LINE
  5
53
330
1E
100
AcDbEntity
  8
0
100
AcDbLine
 10
102.0
 20
-0.0000000000000594
 30
0.0
 11
102.0
 21
49.99999999999989
 31
0.0
  0
LINE
  5
54
330
1E
100
AcDbEntity
  8
0
100
AcDbLine
 10
100.16
 20
30.27999999999989
 30
0.0
 11
102.0
 21
29.5439999999999
 31
0.0
  0
LINE
  5
55
330
1E
100
AcDbEntity
  8
0
100
AcDbLine
 10
81.44
 20
54.7599999999999
 30
0.0
 11
85.28
 21
45.1599999999999
 31
0.0
  0
LINE
  5
58
330
1E
100
AcDbEntity
  8
0
100
AcDbLine
 10
80.0
 20
64.9999999999999
 30
0.0
 11
81.44
 21
75.24
 31
0.0
  0
LINE
  5
59
330
1E
100
AcDbEntity
  8
0
100
AcDbLine
 10
80.0
 20
64.9999999999999
 30
0.0
 11
81.44
 21
54.7599999999999
 31
0.0
  0
LINE
  5
5B
330
1E
100
AcDbEntity
  8
0
100
AcDbLine
 10
85.28
 20
45.1599999999999
 30
0.0
 11
91.68000000000001
 21
36.6799999999999
 31
0.0
  0
LINE
  5
5C
330
1E
100
AcDbEntity
  8
0
100
AcDbLine
 10
91.68000000000001
 20
36.6799999999999
 30
0.0
 11
100.16
 21
30.27999999999989
 31
0.0
  0
LINE
  5
5E
330
1E
100
AcDbEntity
  8
0
100
AcDbLine
 10
81.44
 20
75.24
 30
0.0
 11
85.28
 21
84.83999999999991
 31
0.0
  0
LINE
  5
5F
330
1E
100
AcDbEntity
  8
0
100
AcDbLine
 10
85.28
 20
84.83999999999991
 30
0.0
 11
91.68000000000001
 21
93.31999999999991
 31
0.0
  0
LINE
  5
61
330
1E
100
AcDbEntity
  8
0
100
AcDbLine
 10
102.0
 20
49.99999999999989
 30
0.0
 11
102.0
 21
-0.0000000000000625
 31
0.0
  0
LINE
  5
62
330
1E
100
AcDbEntity
  8
0
100
AcDbLine
 10
102.0
 20
49.99999999999989
 30
0.0
 11
102.648
 21
49.99999999999989
 31
0.0
  0
LINE
  5
63
330
1E
100
AcDbEntity
  8
0
100
AcDbLine
 10
102.648
 20
49.99999999999989
 30
0.0
 11
104.376
 21
50.0
 31
0.0
  0
LINE
  5
64
330
1E
100
AcDbEntity
  8
0
100
AcDbLine
 10
120.0
 20
50.0
 30
0.0
 11
124.6079999999999
 21
50.0
 31
0.0
  0
LINE
  5
65
330
1E
100
AcDbEntity
  8
0
100
AcDbLine
 10
124.6079999999999
 20
50.0
 30
0.0
 11
128.9279999999999
 21
50.0
 31
0.0
  0
LINE
  5
66
330
1E
100
AcDbEntity
  8
0
100
AcDbLine
 10
128.9279999999999
 20
50.0
 30
0.0
 11
132.7439999999999
 21
50.0
 31
0.0
  0
LINE
  5
67
330
1E
100
AcDbEntity
  8
0
100
AcDbLine
 10
115.392
 20
50.0
 30
0.0
 11
120.0
 21
50.0
 31
0.0
  0
LINE
  5
68
330
1E
100
AcDbEntity
  8
0
100
AcDbLine
 10
111.072
 20
50.0
 30
0.0
 11
115.392
 21
50.0
 31
0.0
  0
LINE
  5
69
330
1E
100
AcDbEntity
  8
0
100
AcDbLine
 10
107.2559999999999
 20
50.0
 30
0.0
 11
111.072
 21
50.0
 31
0.0
  0
LINE
  5
6A
330
1E
100
AcDbEntity
  8
0
100
AcDbLine
 10
104.376
 20
50.0
 30
0.0
 11
107.2559999999999
 21
50.0
 31
0.0
  0
LINE
  5
6B
330
1E
100
AcDbEntity
  8
0
100
AcDbLine
 10
102.0
 20
51.15389999999989
 30
0.0
 11
102.0
 21
78.84619999999999
 31
0.0
  0
LINE
  5
6C
330
1E
100
AcDbEntity
  8
0
100
AcDbLine
 10
102.0
 20
51.15389999999989
 30
0.0
 11
102.432
 21
49.99999999999989
 31
0.0
  0
LINE
  5
6D
330
1E
100
AcDbEntity
  8
0
100
AcDbLine
 10
102.432
 20
79.9999999999999
 30
0.0
 11
103.0799999999999
 21
79.9999999999999
 31
0.0
  0
LINE
  5
6E
330
1E
100
AcDbEntity
  8
0
100
AcDbLine
 10
103.0799999999999
 20
79.9999999999999
 30
0.0
 11
104.8079999999999
 21
79.9999999999999
 31
0.0
  0
LINE
  5
6F
330
1E
100
AcDbEntity
  8
0
100
AcDbLine
 10
109.0
 20
79.9999999999999
 30
0.0
 11
109.0
 21
472.275643504539
 31
0.0
  0
LINE
  5
70
330
1E
100
AcDbEntity
  8
0
100
AcDbLine
 10
104.8079999999999
 20
79.9999999999999
 30
0.0
 11
107.616
 21
79.9999999999999
 31
0.0
  0
LINE
  5
71
330
1E
100
AcDbEntity
  8
0
100
AcDbLine
 10
107.616
 20
79.9999999999999
 30
0.0
 11
111.288
 21
80.0
 31
0.0
  0
LINE
  5
72
330
1E
100
AcDbEntity
  8
0
100
AcDbLine
 10
111.288
 20
80.0
 30
0.0
 11
115.464
 21
80.0
 31
0.0
  0
LINE
  5
73
330
1E
100
AcDbEntity
  8
0
100
AcDbLine
 10
115.464
 20
80.0
 30
0.0
 11
120.0
 21
80.0
 31
0.0
  0
LINE
  5
74
330
1E
100
AcDbEntity
  8
0
100
AcDbLine
 10
131.0
 20
79.9999999999999
 30
0.0
 11
131.0
 21
600.0
 31
0.0
  0
LINE
  5
75
330
1E
100
AcDbEntity
  8
0
100
AcDbLine
 10
128.712
 20
80.0
 30
0.0
 11
132.3839999999999
 21
79.9999999999999
 31
0.0
  0
LINE
  5
76
330
1E
100
AcDbEntity
  8
0
100
AcDbLine
 10
124.536
 20
80.0
 30
0.0
 11
128.712
 21
80.0
 31
0.0
  0
LINE
  5
77
330
1E
100
AcDbEntity
  8
0
100
AcDbLine
 10
120.0
 20
80.0
 30
0.0
 11
124.536
 21
80.0
 31
0.0
  0
LINE
  5
78
330
1E
100
AcDbEntity
  8
0
100
AcDbLine
 10
102.0
 20
78.84619999999999
 30
0.0
 11
102.432
 21
79.9999999999999
 31
0.0
  0
LINE
  5
79
330
1E
100
AcDbEntity
  8
0
100
AcDbLine
 10
102.0
 20
78.84619999999999
 30
0.0
 11
102.0
 21
51.15389999999989
 31
0.0
  0
LINE
  5
7B
330
1E
100
AcDbEntity
  8
0
100
AcDbLine
 10
100.16
 20
99.7199999999999
 30
0.0
 11
109.0
 21
103.2559999999999
 31
0.0
  0
LINE
  5
7C
330
1E
100
AcDbEntity
  8
0
100
AcDbLine
 10
91.68000000000001
 20
93.31999999999991
 30
0.0
 11
100.16
 21
99.7199999999999
 31
0.0
  0
LINE
  5
7D
330
1E
100
AcDbEntity
  8
0
100
AcDbLine
 10
73.05150000000001
 20
340.72
 30
0.0
 11
73.7753
 21
340.503
 31
0.0
  0
LINE
  5
7E
330
1E
100
AcDbEntity
  8
0
100
AcDbLine
 10
71.2716
 20
341.254
 30
0.0
 11
73.05150000000001
 21
340.72
 31
0.0
  0
LINE
  5
7F
330
1E
100
AcDbEntity
  8
0
100
AcDbLine
 10
68.7754
 20
342.003
 30
0.0
 11
71.2716
 21
341.254
 31
0.0
  0
LINE
  5
80
330
1E
100
AcDbEntity
  8
0
100
AcDbLine
 10
65.78929999999999
 20
342.899
 30
0.0
 11
68.7754
 21
342.003
 31
0.0
  0
LINE
  5
81
330
1E
100
AcDbEntity
  8
0
100
AcDbLine
 10
62.87980000000001
 20
343.773
 30
0.0
 11
65.78929999999999
 21
342.899
 31
0.0
  0
LINE
  5
82
330
1E
100
AcDbEntity
  8
0
100
AcDbLine
 10
60.5263
 20
344.479
 30
0.0
 11
62.87980000000001
 21
343.773
 31
0.0
  0
LINE
  5
83
330
1E
100
AcDbEntity
  8
0
100
AcDbLine
 10
58.9284
 20
344.959
 30
0.0
 11
60.5263
 21
344.479
 31
0.0
  0
LINE
  5
84
330
1E
100
AcDbEntity
  8
0
100
AcDbLine
 10
73.7753
 20
340.503
 30
0.0
 11
116.5289999999999
 21
500.441
 31
0.0
  0
LINE
  5
85
330
1E
100
AcDbEntity
  8
0
100
AcDbLine
 10
58.4719
 20
345.096
 30
0.0
 11
101.0729999999999
 21
504.578
 31
0.0
  0
LINE
  5
86
330
1E
100
AcDbEntity
  8
0
100
AcDbLine
 10
58.4719
 20
345.096
 30
0.0
 11
58.9284
 21
344.959
 31
0.0
  0
LINE
  5
87
330
1E
100
AcDbEntity
  8
0
100
AcDbLine
 10
101.0729999999999
 20
504.578
 30
0.0
 11
107.5129999999999
 21
535.569
 31
0.0
  0
LINE
  5
88
330
1E
100
AcDbEntity
  8
0
100
AcDbLine
 10
107.5129999999999
 20
535.569
 30
0.0
 11
110.3279999999999
 21
557.2769999999999
 31
0.0
  0
LINE
  5
89
330
1E
100
AcDbEntity
  8
0
100
AcDbLine
 10
108.282
 20
600.0
 30
0.0
 11
110.442
 21
600.0
 31
0.0
  0
LINE
  5
8A
330
1E
100
AcDbEntity
  8
0
100
AcDbLine
 10
108.282
 20
600.0
 30
0.0
 11
109.0
 21
600.0
 31
0.0
  0
LINE
  5
8B
330
1E
100
AcDbEntity
  8
0
100
AcDbLine
 10
106.986
 20
600.0
 30
0.0
 11
108.282
 21
600.0
 31
0.0
  0
LINE
  5
8C
330
1E
100
AcDbEntity
  8
0
100
AcDbLine
 10
108.2999999999999
 20
600.0
 30
0.0
 11
110.4999999999999
 21
600.0
 31
0.0
  0
LINE
  5
8D
330
1E
100
AcDbEntity
  8
0
100
AcDbLine
 10
107.0
 20
600.0
 30
0.0
 11
108.2999999999999
 21
600.0
 31
0.0
  0
LINE
  5
8E
330
1E
100
AcDbEntity
  8
0
100
AcDbLine
 10
108.9
 20
600.0
 30
0.0
 11
110.0
 21
600.0
 31
0.0
  0
LINE
  5
8F
330
1E
100
AcDbEntity
  8
0
100
AcDbLine
 10
108.4999999999999
 20
600.0
 30
0.0
 11
108.9
 21
600.0
 31
0.0
  0
LINE
  5
90
330
1E
100
AcDbEntity
  8
0
100
AcDbLine
 10
108.2999999999999
 20
650.0
 30
0.0
 11
110.4999999999999
 21
650.0
 31
0.0
  0
LINE
  5
91
330
1E
100
AcDbEntity
  8
0
100
AcDbLine
 10
108.0
 20
825.3849999999999
 30
0.0
 11
108.0
 21
839.615
 31
0.0
  0
LINE
  5
92
330
1E
100
AcDbEntity
  8
0
100
AcDbLine
 10
108.0
 20
825.3849999999999
 30
0.0
 11
108.288
 21
825.0
 31
0.0
  0
LINE
  5
93
330
1E
100
AcDbEntity
  8
0
100
AcDbLine
 10
108.0
 20
825.3849999999999
 30
0.0
 11
108.4319999999999
 21
825.3849999999999
 31
0.0
  0
LINE
  5
94
330
1E
100
AcDbEntity
  8
0
100
AcDbLine
 10
108.0
 20
839.615
 30
0.0
 11
108.288
 21
840.0
 31
0.0
  0
LINE
  5
95
330
1E
100
AcDbEntity
  8
0
100
AcDbLine
 10
108.0
 20
839.615
 30
0.0
 11
108.0
 21
825.3849999999999
 31
0.0
  0
LINE
  5
96
330
1E
100
AcDbEntity
  8
0
100
AcDbLine
 10
108.0
 20
839.615
 30
0.0
 11
108.4319999999999
 21
839.615
 31
0.0
  0
LINE
  5
97
330
1E
100
AcDbEntity
  8
0
100
AcDbLine
 10
108.0
 20
824.0
 30
0.0
 11
108.0
 21
651.0
 31
0.0
  0
LINE
  5
98
330
1E
100
AcDbEntity
  8
0
100
AcDbLine
 10
108.0
 20
824.0
 30
0.0
 11
108.4289999999999
 21
824.0
 31
0.0
  0
LINE
  5
99
330
1E
100
AcDbEntity
  8
0
100
AcDbLine
 10
108.0
 20
824.0
 30
0.0
 11
108.857
 21
825.0
 31
0.0
  0
LINE
  5
9A
330
1E
100
AcDbEntity
  8
0
100
AcDbLine
 10
108.288
 20
840.0
 30
0.0
 11
108.7199999999999
 21
840.0
 31
0.0
  0
LINE
  5
9B
330
1E
100
AcDbEntity
  8
0
100
AcDbLine
 10
108.288
 20
825.0
 30
0.0
 11
108.7199999999999
 21
825.0
 31
0.0
  0
LINE
  5
9C
330
1E
100
AcDbEntity
  8
0
100
AcDbLine
 10
108.7199999999999
 20
825.0
 30
0.0
 11
108.857
 21
825.0
 31
0.0
  0
LINE
  5
9D
330
1E
100
AcDbEntity
  8
0
100
AcDbLine
 10
108.7199999999999
 20
825.0
 30
0.0
 11
109.872
 21
825.0
 31
0.0
  0
LINE
  5
9E
330
1E
100
AcDbEntity
  8
0
100
AcDbLine
 10
108.4319999999999
 20
839.615
 30
0.0
 11
109.584
 21
839.615
 31
0.0
  0
LINE
  5
9F
330
1E
100
AcDbEntity
  8
0
100
AcDbLine
 10
108.7199999999999
 20
840.0
 30
0.0
 11
109.872
 21
840.0
 31
0.0
  0
LINE
  5
A0
330
1E
100
AcDbEntity
  8
0
100
AcDbLine
 10
108.4319999999999
 20
825.3849999999999
 30
0.0
 11
109.584
 21
825.3849999999999
 31
0.0
  0
LINE
  5
A1
330
1E
100
AcDbEntity
  8
0
100
AcDbLine
 10
108.857
 20
825.0
 30
0.0
 11
109.2859999999999
 21
825.0
 31
0.0
  0
LINE
  5
A2
330
1E
100
AcDbEntity
  8
0
100
AcDbLine
 10
108.4289999999999
 20
824.0
 30
0.0
 11
109.6289999999999
 21
824.0
 31
0.0
  0
LINE
  5
A3
330
1E
100
AcDbEntity
  8
0
100
AcDbLine
 10
108.4289999999999
 20
651.0
 30
0.0
 11
109.6289999999999
 21
651.0
 31
0.0
  0
LINE
  5
A4
330
1E
100
AcDbEntity
  8
0
100
AcDbLine
 10
108.0
 20
651.0
 30
0.0
 11
108.4289999999999
 21
651.0
 31
0.0
  0
LINE
  5
A5
330
1E
100
AcDbEntity
  8
0
100
AcDbLine
 10
108.0
 20
651.0
 30
0.0
 11
108.857
 21
650.0
 31
0.0
  0
LINE
  5
A6
330
1E
100
AcDbEntity
  8
0
100
AcDbLine
 10
108.0
 20
651.0
 30
0.0
 11
108.0
 21
824.0
 31
0.0
  0
LINE
  5
A7
330
1E
100
AcDbEntity
  8
0
100
AcDbLine
 10
107.0
 20
650.0
 30
0.0
 11
108.2999999999999
 21
650.0
 31
0.0
  0
LINE
  5
A8
330
1E
100
AcDbEntity
  8
0
100
AcDbLine
 10
106.4999999999999
 20
650.0
 30
0.0
 11
107.0
 21
650.0
 31
0.0
  0
LINE
  5
A9
330
1E
100
AcDbEntity
  8
0
100
AcDbLine
 10
106.4999999999999
 20
650.0
 30
0.0
 11
106.4999999999999
 21
600.0
 31
0.0
  0
LINE
  5
AA
330
1E
100
AcDbEntity
  8
0
100
AcDbLine
 10
106.4999999999999
 20
600.0
 30
0.0
 11
107.0
 21
600.0
 31
0.0
  0
LINE
  5
AB
330
1E
100
AcDbEntity
  8
0
100
AcDbLine
 10
106.4999999999999
 20
600.0
 30
0.0
 11
106.4999999999999
 21
650.0
 31
0.0
  0
LINE
  5
AC
330
1E
100
AcDbEntity
  8
0
100
AcDbLine
 10
106.4999999999999
 20
600.0
 30
0.0
 11
106.986
 21
600.0
 31
0.0
  0
LINE
  5
AD
330
1E
100
AcDbEntity
  8
0
100
AcDbLine
 10
109.0
 20
547.0360678507989
 30
0.0
 11
109.0
 21
600.0
 31
0.0
  0
LINE
  5
AE
330
1E
100
AcDbEntity
  8
0
100
AcDbLine
 10
108.288
 20
843.0
 30
0.0
 11
108.7199999999999
 21
843.0
 31
0.0
  0
LINE
  5
AF
330
1E
100
AcDbEntity
  8
0
100
AcDbLine
 10
108.7199999999999
 20
843.0
 30
0.0
 11
109.872
 21
843.0
 31
0.0
  0
LINE
  5
B0
330
1E
100
AcDbEntity
  8
0
100
AcDbLine
 10
109.0
 20
840.0
 30
0.0
 11
109.0
 21
843.0
 31
0.0
  0
LINE
  5
B1
330
1E
100
AcDbEntity
  8
0
100
AcDbLine
 10
109.0
 20
472.275643504539
 30
0.0
 11
109.0
 21
80.0
 31
0.0
  0
LINE
  5
B2
330
1E
100
AcDbEntity
  8
0
100
AcDbLine
 10
108.4319999999999
 20
853.0
 30
0.0
 11
109.584
 21
853.0
 31
0.0
  0
LINE
  5
B3
330
1E
100
AcDbEntity
  8
0
100
AcDbLine
 10
108.4319999999999
 20
843.3849999999999
 30
0.0
 11
109.584
 21
843.3849999999999
 31
0.0
  0
LINE
  5
B4
330
1E
100
AcDbEntity
  8
0
100
AcDbLine
 10
108.0
 20
843.3849999999999
 30
0.0
 11
108.0
 21
853.0
 31
0.0
  0
LINE
  5
B5
330
1E
100
AcDbEntity
  8
0
100
AcDbLine
 10
108.0
 20
843.3849999999999
 30
0.0
 11
108.288
 21
843.0
 31
0.0
  0
LINE
  5
B6
330
1E
100
AcDbEntity
  8
0
100
AcDbLine
 10
108.0
 20
843.3849999999999
 30
0.0
 11
108.4319999999999
 21
843.3849999999999
 31
0.0
  0
LINE
  5
B7
330
1E
100
AcDbEntity
  8
0
100
AcDbLine
 10
108.288
 20
853.3849999999999
 30
0.0
 11
108.7199999999999
 21
853.3849999999999
 31
0.0
  0
LINE
  5
B8
330
1E
100
AcDbEntity
  8
0
100
AcDbLine
 10
108.7199999999999
 20
853.3849999999999
 30
0.0
 11
109.872
 21
853.3849999999999
 31
0.0
  0
LINE
  5
B9
330
1E
100
AcDbEntity
  8
0
100
AcDbLine
 10
108.0
 20
853.0
 30
0.0
 11
108.288
 21
853.3849999999999
 31
0.0
  0
LINE
  5
BA
330
1E
100
AcDbEntity
  8
0
100
AcDbLine
 10
108.0
 20
853.0
 30
0.0
 11
108.0
 21
843.3849999999999
 31
0.0
  0
LINE
  5
BB
330
1E
100
AcDbEntity
  8
0
100
AcDbLine
 10
108.0
 20
853.0
 30
0.0
 11
108.4319999999999
 21
853.0
 31
0.0
  0
LINE
  5
BC
330
1E
100
AcDbEntity
  8
0
100
AcDbLine
 10
109.0
 20
853.3849999999999
 30
0.0
 11
109.0
 21
1052.0
 31
0.0
  0
LINE
  5
BD
330
1E
100
AcDbEntity
  8
0
100
AcDbLine
 10
109.0
 20
843.0
 30
0.0
 11
109.0
 21
840.0
 31
0.0
  0
LINE
  5
BE
330
1E
100
AcDbEntity
  8
0
100
AcDbLine
 10
110.3279999999999
 20
557.2769999999999
 30
0.0
 11
112.151
 21
581.849
 31
0.0
  0
LINE
  5
BF
330
1E
100
AcDbEntity
  8
0
100
AcDbLine
 10
116.5289999999999
 20
500.441
 30
0.0
 11
123.501
 21
534.1879999999999
 31
0.0
  0
LINE
  5
C0
330
1E
100
AcDbEntity
  8
0
100
AcDbLine
 10
123.501
 20
534.1879999999999
 30
0.0
 11
126.242
 21
558.7119999999999
 31
0.0
  0
LINE
  5
C1
330
1E
100
AcDbEntity
  8
0
100
AcDbLine
 10
126.242
 20
558.7119999999999
 30
0.0
 11
127.889
 21
584.5629999999999
 31
0.0
  0
LINE
  5
C2
330
1E
100
AcDbEntity
  8
0
100
AcDbLine
 10
127.889
 20
584.5629999999999
 30
0.0
 11
127.9739999999999
 21
611.155
 31
0.0
  0
LINE
  5
C3
330
1E
100
AcDbEntity
  8
0
100
AcDbLine
 10
112.151
 20
581.849
 30
0.0
 11
112.477
 21
607.0199999999999
 31
0.0
  0
LINE
  5
C4
330
1E
100
AcDbEntity
  8
0
100
AcDbLine
 10
110.442
 20
600.0
 30
0.0
 11
112.3860810853759
 21
600.0
 31
0.0
  0
LINE
  5
C5
330
1E
100
AcDbEntity
  8
0
100
AcDbLine
 10
127.9383435995789
 20
600.0
 30
0.0
 11
128.0999999999999
 21
600.0
 31
0.0
  0
LINE
  5
C6
330
1E
100
AcDbEntity
  8
0
100
AcDbLine
 10
127.9383435995789
 20
600.0
 30
0.0
 11
129.4999999999999
 21
600.0
 31
0.0
  0
LINE
  5
C7
330
1E
100
AcDbEntity
  8
0
100
AcDbLine
 10
127.9383435995789
 20
600.0
 30
0.0
 11
129.5579999999999
 21
600.0
 31
0.0
  0
LINE
  5
C8
330
1E
100
AcDbEntity
  8
0
100
AcDbLine
 10
129.5579999999999
 20
600.0
 30
0.0
 11
131.718
 21
600.0
 31
0.0
  0
LINE
  5
C9
330
1E
100
AcDbEntity
  8
0
100
AcDbLine
 10
129.4999999999999
 20
600.0
 30
0.0
 11
131.6999999999999
 21
600.0
 31
0.0
  0
LINE
  5
CA
330
1E
100
AcDbEntity
  8
0
100
AcDbLine
 10
129.4999999999999
 20
600.0
 30
0.0
 11
129.4999999999999
 21
650.0
 31
0.0
  0
LINE
  5
CB
330
1E
100
AcDbEntity
  8
0
100
AcDbLine
 10
128.0999999999999
 20
600.0
 30
0.0
 11
129.4999999999999
 21
600.0
 31
0.0
  0
LINE
  5
CC
330
1E
100
AcDbEntity
  8
0
100
AcDbLine
 10
128.0999999999999
 20
600.0
 30
0.0
 11
130.0
 21
600.0
 31
0.0
  0
LINE
  5
CD
330
1E
100
AcDbEntity
  8
0
100
AcDbLine
 10
128.0999999999999
 20
600.0
 30
0.0
 11
128.0999999999999
 21
650.0
 31
0.0
  0
LINE
  5
CE
330
1E
100
AcDbEntity
  8
0
100
AcDbLine
 10
130.0
 20
600.0
 30
0.0
 11
131.0999999999999
 21
600.0
 31
0.0
  0
LINE
  5
CF
330
1E
100
AcDbEntity
  8
0
100
AcDbLine
 10
111.8999999999999
 20
600.0
 30
0.0
 11
112.3860810853759
 21
600.0
 31
0.0
  0
LINE
  5
D0
330
1E
100
AcDbEntity
  8
0
100
AcDbLine
 10
111.8999999999999
 20
600.0
 30
0.0
 11
111.8999999999999
 21
650.0
 31
0.0
  0
LINE
  5
D1
330
1E
100
AcDbEntity
  8
0
100
AcDbLine
 10
110.0
 20
600.0
 30
0.0
 11
111.8999999999999
 21
600.0
 31
0.0
  0
LINE
  5
D2
330
1E
100
AcDbEntity
  8
0
100
AcDbLine
 10
111.8999999999999
 20
615.036553246753
 30
0.0
 11
112.477
 21
607.0199999999999
 31
0.0
  0
LINE
  5
D3
330
1E
100
AcDbEntity
  8
0
100
AcDbLine
 10
111.8999999999999
 20
620.0
 30
0.0
 11
112.2
 21
620.0
 31
0.0
  0
LINE
  5
D4
330
1E
100
AcDbEntity
  8
0
100
AcDbLine
 10
109.584
 20
839.615
 30
0.0
 11
111.504
 21
839.615
 31
0.0
  0
LINE
  5
D5
330
1E
100
AcDbEntity
  8
0
100
AcDbLine
 10
109.584
 20
825.3849999999999
 30
0.0
 11
111.504
 21
825.3849999999999
 31
0.0
  0
LINE
  5
D6
330
1E
100
AcDbEntity
  8
0
100
AcDbLine
 10
109.2859999999999
 20
825.0
 30
0.0
 11
110.314
 21
825.0
 31
0.0
  0
LINE
  5
D7
330
1E
100
AcDbEntity
  8
0
100
AcDbLine
 10
109.6289999999999
 20
824.0
 30
0.0
 11
111.514
 21
824.0
 31
0.0
  0
LINE
  5
DE
330
1E
100
AcDbEntity
  8
0
100
AcDbLine
 10
109.872
 20
825.0
 30
0.0
 11
111.7439999999999
 21
825.0
 31
0.0
  0
LINE
  5
126
330
1E
100
AcDbEntity
  8
0
100
AcDbLine
 10
110.0
 20
840.0
 30
0.0
 11
110.0
 21
843.0
 31
0.0
  0
LINE
  5
127
330
1E
100
AcDbEntity
  8
0
100
AcDbLine
 10
109.872
 20
840.0
 30
0.0
 11
111.7439999999999
 21
840.0
 31
0.0
  0
LINE
  5
128
330
1E
100
AcDbEntity
  8
0
100
AcDbLine
 10
111.504
 20
839.615
 30
0.0
 11
114.0479999999999
 21
839.615
 31
0.0
  0
LINE
  5
129
330
1E
100
AcDbEntity
  8
0
100
AcDbLine
 10
111.504
 20
825.3849999999999
 30
0.0
 11
114.0479999999999
 21
825.3849999999999
 31
0.0
  0
LINE
  5
12A
330
1E
100
AcDbEntity
  8
0
100
AcDbLine
 10
110.314
 20
825.0
 30
0.0
 11
112.114
 21
825.0
 31
0.0
  0
LINE
  5
131
330
1E
100
AcDbEntity
  8
0
100
AcDbLine
 10
111.7439999999999
 20
840.0
 30
0.0
 11
114.192
 21
840.0
 31
0.0
  0
LINE
  5
132
330
1E
100
AcDbEntity
  8
0
100
AcDbLine
 10
111.7439999999999
 20
825.0
 30
0.0
 11
114.192
 21
825.0
 31
0.0
  0
LINE
  5
159
330
1E
100
AcDbEntity
  8
0
100
AcDbLine
 10
111.514
 20
824.0
 30
0.0
 11
114.0
 21
824.0
 31
0.0
  0
LINE
  5
15A
330
1E
100
AcDbEntity
  8
0
100
AcDbLine
 10
111.514
 20
651.0
 30
0.0
 11
114.0
 21
651.0
 31
0.0
  0
LINE
  5
15B
330
1E
100
AcDbEntity
  8
0
100
AcDbLine
 10
109.6289999999999
 20
651.0
 30
0.0
 11
111.514
 21
651.0
 31
0.0
  0
LINE
  5
15C
330
1E
100
AcDbEntity
  8
0
100
AcDbLine
 10
110.4999999999999
 20
650.0
 30
0.0
 11
111.8999999999999
 21
650.0
 31
0.0
  0
LINE
  5
15D
330
1E
100
AcDbEntity
  8
0
100
AcDbLine
 10
110.4999999999999
 20
650.0
 30
0.0
 11
110.4999999999999
 21
600.0
 31
0.0
  0
LINE
  5
15E
330
1E
100
AcDbEntity
  8
0
100
AcDbLine
 10
113.5999999999999
 20
620.0
 30
0.0
 11
115.5
 21
620.0
 31
0.0
  0
LINE
  5
15F
330
1E
100
AcDbEntity
  8
0
100
AcDbLine
 10
112.9
 20
650.0
 30
0.0
 11
115.0
 21
650.0
 31
0.0
  0
LINE
  5
160
330
1E
100
AcDbEntity
  8
0
100
AcDbLine
 10
112.2
 20
620.0
 30
0.0
 11
113.5999999999999
 21
620.0
 31
0.0
  0
LINE
  5
161
330
1E
100
AcDbEntity
  8
0
100
AcDbLine
 10
115.0
 20
650.0
 30
0.0
 11
117.4
 21
650.0
 31
0.0
  0
LINE
  5
162
330
1E
100
AcDbEntity
  8
0
100
AcDbLine
 10
117.4
 20
650.0
 30
0.0
 11
120.0
 21
650.0
 31
0.0
  0
LINE
  5
163
330
1E
100
AcDbEntity
  8
0
100
AcDbLine
 10
115.5
 20
620.0
 30
0.0
 11
117.7
 21
620.0
 31
0.0
  0
LINE
  5
164
330
1E
100
AcDbEntity
  8
0
100
AcDbLine
 10
122.3
 20
620.0
 30
0.0
 11
124.5
 21
620.0
 31
0.0
  0
LINE
  5
165
330
1E
100
AcDbEntity
  8
0
100
AcDbLine
 10
122.5999999999999
 20
650.0
 30
0.0
 11
125.0
 21
650.0
 31
0.0
  0
LINE
  5
166
330
1E
100
AcDbEntity
  8
0
100
AcDbLine
 10
120.0
 20
620.0
 30
0.0
 11
122.3
 21
620.0
 31
0.0
  0
LINE
  5
167
330
1E
100
AcDbEntity
  8
0
100
AcDbLine
 10
117.7
 20
620.0
 30
0.0
 11
120.0
 21
620.0
 31
0.0
  0
LINE
  5
168
330
1E
100
AcDbEntity
  8
0
100
AcDbLine
 10
120.0
 20
650.0
 30
0.0
 11
122.914
 21
650.0
 31
0.0
  0
LINE
  5
169
330
1E
100
AcDbEntity
  8
0
100
AcDbLine
 10
120.0
 20
650.0
 30
0.0
 11
122.5999999999999
 21
650.0
 31
0.0
  0
LINE
  5
16A
330
1E
100
AcDbEntity
  8
0
100
AcDbLine
 10
126.4
 20
620.0
 30
0.0
 11
127.8
 21
620.0
 31
0.0
  0
LINE
  5
16B
330
1E
100
AcDbEntity
  8
0
100
AcDbLine
 10
124.5
 20
620.0
 30
0.0
 11
126.4
 21
620.0
 31
0.0
  0
LINE
  5
16C
330
1E
100
AcDbEntity
  8
0
100
AcDbLine
 10
127.2504273591309
 20
620.0
 30
0.0
 11
127.8
 21
620.0
 31
0.0
  0
LINE
  5
16D
330
1E
100
AcDbEntity
  8
0
100
AcDbLine
 10
127.2504273591309
 20
620.0
 30
0.0
 11
127.9739999999999
 21
611.155
 31
0.0
  0
LINE
  5
16E
330
1E
100
AcDbEntity
  8
0
100
AcDbLine
 10
127.0999999999999
 20
650.0
 30
0.0
 11
128.0999999999999
 21
650.0
 31
0.0
  0
LINE
  5
16F
330
1E
100
AcDbEntity
  8
0
100
AcDbLine
 10
125.0
 20
650.0
 30
0.0
 11
127.0999999999999
 21
650.0
 31
0.0
  0
LINE
  5
170
330
1E
100
AcDbEntity
  8
0
100
AcDbLine
 10
127.8
 20
620.0
 30
0.0
 11
128.0999999999999
 21
620.0
 31
0.0
  0
LINE
  5
171
330
1E
100
AcDbEntity
  8
0
100
AcDbLine
 10
122.914
 20
650.0
 30
0.0
 11
125.571
 21
650.0
 31
0.0
  0
LINE
  5
172
330
1E
100
AcDbEntity
  8
0
100
AcDbLine
 10
125.571
 20
650.0
 30
0.0
 11
127.886
 21
650.0
 31
0.0
  0
LINE
  5
173
330
1E
100
AcDbEntity
  8
0
100
AcDbLine
 10
127.886
 20
650.0
 30
0.0
 11
128.0999999999999
 21
650.0
 31
0.0
  0
LINE
  5
174
330
1E
100
AcDbEntity
  8
0
100
AcDbLine
 10
117.086
 20
650.0
 30
0.0
 11
120.0
 21
650.0
 31
0.0
  0
LINE
  5
175
330
1E
100
AcDbEntity
  8
0
100
AcDbLine
 10
114.429
 20
650.0
 30
0.0
 11
117.086
 21
650.0
 31
0.0
  0
LINE
  5
176
330
1E
100
AcDbEntity
  8
0
100
AcDbLine
 10
112.114
 20
650.0
 30
0.0
 11
114.429
 21
650.0
 31
0.0
  0
LINE
  5
177
330
1E
100
AcDbEntity
  8
0
100
AcDbLine
 10
128.0999999999999
 20
650.0
 30
0.0
 11
129.4999999999999
 21
650.0
 31
0.0
  0
LINE
  5
178
330
1E
100
AcDbEntity
  8
0
100
AcDbLine
 10
128.0999999999999
 20
650.0
 30
0.0
 11
128.0999999999999
 21
600.0
 31
0.0
  0
LINE
  5
1A5
330
1E
100
AcDbEntity
  8
0
100
AcDbLine
 10
112.114
 20
825.0
 30
0.0
 11
114.429
 21
825.0
 31
0.0
  0
LINE
  5
1A6
330
1E
100
AcDbEntity
  8
0
100
AcDbLine
 10
114.0
 20
824.0
 30
0.0
 11
116.914
 21
824.0
 31
0.0
  0
LINE
  5
1A7
330
1E
100
AcDbEntity
  8
0
100
AcDbLine
 10
120.0
 20
651.0
 30
0.0
 11
123.086
 21
651.0
 31
0.0
  0
LINE
  5
1A8
330
1E
100
AcDbEntity
  8
0
100
AcDbLine
 10
123.086
 20
651.0
 30
0.0
 11
126.0
 21
651.0
 31
0.0
  0
LINE
  5
1A9
330
1E
100
AcDbEntity
  8
0
100
AcDbLine
 10
126.0
 20
651.0
 30
0.0
 11
128.4859999999999
 21
651.0
 31
0.0
  0
LINE
  5
1AA
330
1E
100
AcDbEntity
  8
0
100
AcDbLine
 10
128.4859999999999
 20
651.0
 30
0.0
 11
130.371
 21
651.0
 31
0.0
  0
LINE
  5
1AB
330
1E
100
AcDbEntity
  8
0
100
AcDbLine
 10
130.371
 20
651.0
 30
0.0
 11
131.5709999999999
 21
651.0
 31
0.0
  0
LINE
  5
1AE
330
1E
100
AcDbEntity
  8
0
100
AcDbLine
 10
114.192
 20
825.0
 30
0.0
 11
116.9759999999999
 21
825.0
 31
0.0
  0
LINE
  5
252
330
1E
100
AcDbEntity
  8
0
100
AcDbLine
 10
114.0479999999999
 20
839.615
 30
0.0
 11
116.928
 21
839.615
 31
0.0
  0
LINE
  5
253
330
1E
100
AcDbEntity
  8
0
100
AcDbLine
 10
114.192
 20
840.0
 30
0.0
 11
116.9759999999999
 21
840.0
 31
0.0
  0
LINE
  5
254
330
1E
100
AcDbEntity
  8
0
100
AcDbLine
 10
114.0479999999999
 20
825.3849999999999
 30
0.0
 11
116.928
 21
825.3849999999999
 31
0.0
  0
LINE
  5
255
330
1E
100
AcDbEntity
  8
0
100
AcDbLine
 10
114.429
 20
825.0
 30
0.0
 11
117.086
 21
825.0
 31
0.0
  0
LINE
  5
256
330
1E
100
AcDbEntity
  8
0
100
AcDbLine
 10
119.571
 20
734.0
 30
0.0
 11
120.429
 21
734.0
 31
0.0
  0
LINE
  5
257
330
1E
100
AcDbEntity
  8
0
100
AcDbLine
 10
119.1429999999999
 20
741.2999999999999
 30
0.0
 11
119.571
 21
740.7999999999999
 31
0.0
  0
LINE
  5
258
330
1E
100
AcDbEntity
  8
0
100
AcDbLine
 10
119.1429999999999
 20
741.2999999999999
 30
0.0
 11
119.1429999999999
 21
742.3
 31
0.0
  0
LINE
  5
259
330
1E
100
AcDbEntity
  8
0
100
AcDbLine
 10
119.571
 20
740.7999999999999
 30
0.0
 11
120.429
 21
740.7999999999999
 31
0.0
  0
LINE
  5
25A
330
1E
100
AcDbEntity
  8
0
100
AcDbLine
 10
119.1429999999999
 20
748.1
 30
0.0
 11
119.571
 21
747.5999999999999
 31
0.0
  0
LINE
  5
25B
330
1E
100
AcDbEntity
  8
0
100
AcDbLine
 10
119.1429999999999
 20
748.1
 30
0.0
 11
119.1429999999999
 21
749.1
 31
0.0
  0
LINE
  5
25C
330
1E
100
AcDbEntity
  8
0
100
AcDbLine
 10
119.571
 20
747.5999999999999
 30
0.0
 11
120.429
 21
747.5999999999999
 31
0.0
  0
LINE
  5
25D
330
1E
100
AcDbEntity
  8
0
100
AcDbLine
 10
119.571
 20
754.3999999999999
 30
0.0
 11
120.429
 21
754.3999999999999
 31
0.0
  0
LINE
  5
25E
330
1E
100
AcDbEntity
  8
0
100
AcDbLine
 10
119.1429999999999
 20
754.8999999999999
 30
0.0
 11
119.1429999999999
 21
755.9
 31
0.0
  0
LINE
  5
25F
330
1E
100
AcDbEntity
  8
0
100
AcDbLine
 10
119.1429999999999
 20
754.8999999999999
 30
0.0
 11
119.571
 21
754.3999999999999
 31
0.0
  0
LINE
  5
260
330
1E
100
AcDbEntity
  8
0
100
AcDbLine
 10
119.1429999999999
 20
761.7
 30
0.0
 11
119.571
 21
761.2
 31
0.0
  0
LINE
  5
261
330
1E
100
AcDbEntity
  8
0
100
AcDbLine
 10
119.1429999999999
 20
761.7
 30
0.0
 11
119.1429999999999
 21
762.7
 31
0.0
  0
LINE
  5
262
330
1E
100
AcDbEntity
  8
0
100
AcDbLine
 10
119.571
 20
761.2
 30
0.0
 11
120.429
 21
761.2
 31
0.0
  0
LINE
  5
263
330
1E
100
AcDbEntity
  8
0
100
AcDbLine
 10
119.571
 20
768.0
 30
0.0
 11
120.429
 21
768.0
 31
0.0
  0
LINE
  5
264
330
1E
100
AcDbEntity
  8
0
100
AcDbLine
 10
119.1429999999999
 20
768.5
 30
0.0
 11
119.1429999999999
 21
769.5
 31
0.0
  0
LINE
  5
265
330
1E
100
AcDbEntity
  8
0
100
AcDbLine
 10
119.1429999999999
 20
768.5
 30
0.0
 11
119.571
 21
768.0
 31
0.0
  0
LINE
  5
266
330
1E
100
AcDbEntity
  8
0
100
AcDbLine
 10
119.571
 20
774.7999999999999
 30
0.0
 11
120.429
 21
774.7999999999999
 31
0.0
  0
LINE
  5
267
330
1E
100
AcDbEntity
  8
0
100
AcDbLine
 10
119.1429999999999
 20
775.3
 30
0.0
 11
119.1429999999999
 21
776.2999999999999
 31
0.0
  0
LINE
  5
268
330
1E
100
AcDbEntity
  8
0
100
AcDbLine
 10
119.1429999999999
 20
775.3
 30
0.0
 11
119.571
 21
774.7999999999999
 31
0.0
  0
LINE
  5
269
330
1E
100
AcDbEntity
  8
0
100
AcDbLine
 10
119.1429999999999
 20
782.1
 30
0.0
 11
119.571
 21
781.6
 31
0.0
  0
LINE
  5
26A
330
1E
100
AcDbEntity
  8
0
100
AcDbLine
 10
119.1429999999999
 20
782.1
 30
0.0
 11
119.1429999999999
 21
783.1
 31
0.0
  0
LINE
  5
26B
330
1E
100
AcDbEntity
  8
0
100
AcDbLine
 10
119.571
 20
781.6
 30
0.0
 11
120.429
 21
781.6
 31
0.0
  0
LINE
  5
26C
330
1E
100
AcDbEntity
  8
0
100
AcDbLine
 10
119.1429999999999
 20
789.9
 30
0.0
 11
119.571
 21
790.3999999999999
 31
0.0
  0
LINE
  5
26D
330
1E
100
AcDbEntity
  8
0
100
AcDbLine
 10
119.1429999999999
 20
789.9
 30
0.0
 11
119.1429999999999
 21
788.9
 31
0.0
  0
LINE
  5
26E
330
1E
100
AcDbEntity
  8
0
100
AcDbLine
 10
119.1429999999999
 20
802.5
 30
0.0
 11
119.1429999999999
 21
803.5
 31
0.0
  0
LINE
  5
26F
330
1E
100
AcDbEntity
  8
0
100
AcDbLine
 10
119.1429999999999
 20
802.5
 30
0.0
 11
119.571
 21
802.0
 31
0.0
  0
LINE
  5
270
330
1E
100
AcDbEntity
  8
0
100
AcDbLine
 10
119.1429999999999
 20
803.5
 30
0.0
 11
119.571
 21
804.0
 31
0.0
  0
LINE
  5
271
330
1E
100
AcDbEntity
  8
0
100
AcDbLine
 10
119.1429999999999
 20
803.5
 30
0.0
 11
119.1429999999999
 21
802.5
 31
0.0
  0
LINE
  5
272
330
1E
100
AcDbEntity
  8
0
100
AcDbLine
 10
119.1429999999999
 20
796.7
 30
0.0
 11
119.1429999999999
 21
795.7
 31
0.0
  0
LINE
  5
273
330
1E
100
AcDbEntity
  8
0
100
AcDbLine
 10
119.1429999999999
 20
796.7
 30
0.0
 11
119.571
 21
797.2
 31
0.0
  0
LINE
  5
274
330
1E
100
AcDbEntity
  8
0
100
AcDbLine
 10
119.1429999999999
 20
795.7
 30
0.0
 11
119.571
 21
795.2
 31
0.0
  0
LINE
  5
275
330
1E
100
AcDbEntity
  8
0
100
AcDbLine
 10
119.1429999999999
 20
795.7
 30
0.0
 11
119.1429999999999
 21
796.7
 31
0.0
  0
LINE
  5
276
330
1E
100
AcDbEntity
  8
0
100
AcDbLine
 10
119.571
 20
802.0
 30
0.0
 11
120.429
 21
802.0
 31
0.0
  0
LINE
  5
277
330
1E
100
AcDbEntity
  8
0
100
AcDbLine
 10
119.571
 20
804.0
 30
0.0
 11
120.429
 21
804.0
 31
0.0
  0
LINE
  5
278
330
1E
100
AcDbEntity
  8
0
100
AcDbLine
 10
119.571
 20
797.2
 30
0.0
 11
120.429
 21
797.2
 31
0.0
  0
LINE
  5
279
330
1E
100
AcDbEntity
  8
0
100
AcDbLine
 10
119.571
 20
790.3999999999999
 30
0.0
 11
120.429
 21
790.3999999999999
 31
0.0
  0
LINE
  5
27A
330
1E
100
AcDbEntity
  8
0
100
AcDbLine
 10
119.571
 20
795.2
 30
0.0
 11
120.429
 21
795.2
 31
0.0
  0
LINE
  5
27B
330
1E
100
AcDbEntity
  8
0
100
AcDbLine
 10
119.571
 20
788.4
 30
0.0
 11
120.429
 21
788.4
 31
0.0
  0
LINE
  5
27C
330
1E
100
AcDbEntity
  8
0
100
AcDbLine
 10
119.1429999999999
 20
788.9
 30
0.0
 11
119.571
 21
788.4
 31
0.0
  0
LINE
  5
27D
330
1E
100
AcDbEntity
  8
0
100
AcDbLine
 10
119.1429999999999
 20
788.9
 30
0.0
 11
119.1429999999999
 21
789.9
 31
0.0
  0
LINE
  5
27E
330
1E
100
AcDbEntity
  8
0
100
AcDbLine
 10
119.1429999999999
 20
783.1
 30
0.0
 11
119.571
 21
783.6
 31
0.0
  0
LINE
  5
27F
330
1E
100
AcDbEntity
  8
0
100
AcDbLine
 10
119.1429999999999
 20
783.1
 30
0.0
 11
119.1429999999999
 21
782.1
 31
0.0
  0
LINE
  5
280
330
1E
100
AcDbEntity
  8
0
100
AcDbLine
 10
119.571
 20
783.6
 30
0.0
 11
120.429
 21
783.6
 31
0.0
  0
LINE
  5
281
330
1E
100
AcDbEntity
  8
0
100
AcDbLine
 10
119.1429999999999
 20
776.2999999999999
 30
0.0
 11
119.571
 21
776.7999999999999
 31
0.0
  0
LINE
  5
282
330
1E
100
AcDbEntity
  8
0
100
AcDbLine
 10
119.1429999999999
 20
776.2999999999999
 30
0.0
 11
119.1429999999999
 21
775.3
 31
0.0
  0
LINE
  5
283
330
1E
100
AcDbEntity
  8
0
100
AcDbLine
 10
119.571
 20
776.7999999999999
 30
0.0
 11
120.429
 21
776.7999999999999
 31
0.0
  0
LINE
  5
284
330
1E
100
AcDbEntity
  8
0
100
AcDbLine
 10
119.1429999999999
 20
769.5
 30
0.0
 11
119.571
 21
770.0
 31
0.0
  0
LINE
  5
285
330
1E
100
AcDbEntity
  8
0
100
AcDbLine
 10
119.1429999999999
 20
769.5
 30
0.0
 11
119.1429999999999
 21
768.5
 31
0.0
  0
LINE
  5
286
330
1E
100
AcDbEntity
  8
0
100
AcDbLine
 10
119.571
 20
770.0
 30
0.0
 11
120.429
 21
770.0
 31
0.0
  0
LINE
  5
287
330
1E
100
AcDbEntity
  8
0
100
AcDbLine
 10
119.1429999999999
 20
762.7
 30
0.0
 11
119.571
 21
763.2
 31
0.0
  0
LINE
  5
288
330
1E
100
AcDbEntity
  8
0
100
AcDbLine
 10
119.1429999999999
 20
762.7
 30
0.0
 11
119.1429999999999
 21
761.7
 31
0.0
  0
LINE
  5
289
330
1E
100
AcDbEntity
  8
0
100
AcDbLine
 10
119.571
 20
763.2
 30
0.0
 11
120.429
 21
763.2
 31
0.0
  0
LINE
  5
28A
330
1E
100
AcDbEntity
  8
0
100
AcDbLine
 10
119.1429999999999
 20
755.9
 30
0.0
 11
119.571
 21
756.4
 31
0.0
  0
LINE
  5
28B
330
1E
100
AcDbEntity
  8
0
100
AcDbLine
 10
119.1429999999999
 20
755.9
 30
0.0
 11
119.1429999999999
 21
754.8999999999999
 31
0.0
  0
LINE
  5
28C
330
1E
100
AcDbEntity
  8
0
100
AcDbLine
 10
119.571
 20
756.4
 30
0.0
 11
120.429
 21
756.4
 31
0.0
  0
LINE
  5
28D
330
1E
100
AcDbEntity
  8
0
100
AcDbLine
 10
119.1429999999999
 20
749.1
 30
0.0
 11
119.571
 21
749.6
 31
0.0
  0
LINE
  5
28E
330
1E
100
AcDbEntity
  8
0
100
AcDbLine
 10
119.1429999999999
 20
749.1
 30
0.0
 11
119.1429999999999
 21
748.1
 31
0.0
  0
LINE
  5
28F
330
1E
100
AcDbEntity
  8
0
100
AcDbLine
 10
119.571
 20
749.6
 30
0.0
 11
120.429
 21
749.6
 31
0.0
  0
LINE
  5
290
330
1E
100
AcDbEntity
  8
0
100
AcDbLine
 10
119.1429999999999
 20
742.3
 30
0.0
 11
119.571
 21
742.7999999999999
 31
0.0
  0
LINE
  5
291
330
1E
100
AcDbEntity
  8
0
100
AcDbLine
 10
119.1429999999999
 20
742.3
 30
0.0
 11
119.1429999999999
 21
741.2999999999999
 31
0.0
  0
LINE
  5
292
330
1E
100
AcDbEntity
  8
0
100
AcDbLine
 10
119.571
 20
742.7999999999999
 30
0.0
 11
120.429
 21
742.7999999999999
 31
0.0
  0
LINE
  5
293
330
1E
100
AcDbEntity
  8
0
100
AcDbLine
 10
119.1429999999999
 20
735.5
 30
0.0
 11
119.571
 21
736.0
 31
0.0
  0
LINE
  5
294
330
1E
100
AcDbEntity
  8
0
100
AcDbLine
 10
119.1429999999999
 20
735.5
 30
0.0
 11
119.1429999999999
 21
734.4999999999999
 31
0.0
  0
LINE
  5
295
330
1E
100
AcDbEntity
  8
0
100
AcDbLine
 10
119.571
 20
736.0
 30
0.0
 11
120.429
 21
736.0
 31
0.0
  0
LINE
  5
296
330
1E
100
AcDbEntity
  8
0
100
AcDbLine
 10
119.1429999999999
 20
734.4999999999999
 30
0.0
 11
119.571
 21
734.0
 31
0.0
  0
LINE
  5
297
330
1E
100
AcDbEntity
  8
0
100
AcDbLine
 10
119.1429999999999
 20
734.4999999999999
 30
0.0
 11
119.1429999999999
 21
735.5
 31
0.0
  0
LINE
  5
29C
330
1E
100
AcDbEntity
  8
0
100
AcDbLine
 10
120.857
 20
734.4999999999999
 30
0.0
 11
120.857
 21
735.5
 31
0.0
  0
LINE
  5
29D
330
1E
100
AcDbEntity
  8
0
100
AcDbLine
 10
120.429
 20
790.3999999999999
 30
0.0
 11
120.857
 21
789.9
 31
0.0
  0
LINE
  5
29E
330
1E
100
AcDbEntity
  8
0
100
AcDbLine
 10
120.429
 20
802.0
 30
0.0
 11
120.857
 21
802.5
 31
0.0
  0
LINE
  5
29F
330
1E
100
AcDbEntity
  8
0
100
AcDbLine
 10
120.429
 20
804.0
 30
0.0
 11
120.857
 21
803.5
 31
0.0
  0
LINE
  5
2A0
330
1E
100
AcDbEntity
  8
0
100
AcDbLine
 10
120.429
 20
797.2
 30
0.0
 11
120.857
 21
796.7
 31
0.0
  0
LINE
  5
2A1
330
1E
100
AcDbEntity
  8
0
100
AcDbLine
 10
120.429
 20
795.2
 30
0.0
 11
120.857
 21
795.7
 31
0.0
  0
LINE
  5
2A2
330
1E
100
AcDbEntity
  8
0
100
AcDbLine
 10
120.429
 20
788.4
 30
0.0
 11
120.857
 21
788.9
 31
0.0
  0
LINE
  5
2A3
330
1E
100
AcDbEntity
  8
0
100
AcDbLine
 10
120.429
 20
781.6
 30
0.0
 11
120.857
 21
782.1
 31
0.0
  0
LINE
  5
2A4
330
1E
100
AcDbEntity
  8
0
100
AcDbLine
 10
120.429
 20
783.6
 30
0.0
 11
120.857
 21
783.1
 31
0.0
  0
LINE
  5
2A5
330
1E
100
AcDbEntity
  8
0
100
AcDbLine
 10
120.429
 20
774.7999999999999
 30
0.0
 11
120.857
 21
775.3
 31
0.0
  0
LINE
  5
2A6
330
1E
100
AcDbEntity
  8
0
100
AcDbLine
 10
120.429
 20
776.7999999999999
 30
0.0
 11
120.857
 21
776.2999999999999
 31
0.0
  0
LINE
  5
2A7
330
1E
100
AcDbEntity
  8
0
100
AcDbLine
 10
120.429
 20
768.0
 30
0.0
 11
120.857
 21
768.5
 31
0.0
  0
LINE
  5
2A8
330
1E
100
AcDbEntity
  8
0
100
AcDbLine
 10
120.429
 20
770.0
 30
0.0
 11
120.857
 21
769.5
 31
0.0
  0
LINE
  5
2A9
330
1E
100
AcDbEntity
  8
0
100
AcDbLine
 10
120.429
 20
761.2
 30
0.0
 11
120.857
 21
761.7
 31
0.0
  0
LINE
  5
2AA
330
1E
100
AcDbEntity
  8
0
100
AcDbLine
 10
120.429
 20
763.2
 30
0.0
 11
120.857
 21
762.7
 31
0.0
  0
LINE
  5
2AB
330
1E
100
AcDbEntity
  8
0
100
AcDbLine
 10
120.429
 20
754.3999999999999
 30
0.0
 11
120.857
 21
754.8999999999999
 31
0.0
  0
LINE
  5
2AC
330
1E
100
AcDbEntity
  8
0
100
AcDbLine
 10
120.429
 20
756.4
 30
0.0
 11
120.857
 21
755.9
 31
0.0
  0
LINE
  5
2AD
330
1E
100
AcDbEntity
  8
0
100
AcDbLine
 10
120.429
 20
747.5999999999999
 30
0.0
 11
120.857
 21
748.1
 31
0.0
  0
LINE
  5
2AE
330
1E
100
AcDbEntity
  8
0
100
AcDbLine
 10
120.429
 20
749.6
 30
0.0
 11
120.857
 21
749.1
 31
0.0
  0
LINE
  5
2AF
330
1E
100
AcDbEntity
  8
0
100
AcDbLine
 10
120.429
 20
740.7999999999999
 30
0.0
 11
120.857
 21
741.2999999999999
 31
0.0
  0
LINE
  5
2B0
330
1E
100
AcDbEntity
  8
0
100
AcDbLine
 10
120.857
 20
741.2999999999999
 30
0.0
 11
120.857
 21
742.3
 31
0.0
  0
LINE
  5
2B1
330
1E
100
AcDbEntity
  8
0
100
AcDbLine
 10
120.857
 20
788.9
 30
0.0
 11
120.857
 21
789.9
 31
0.0
  0
LINE
  5
2B2
330
1E
100
AcDbEntity
  8
0
100
AcDbLine
 10
120.857
 20
789.9
 30
0.0
 11
120.857
 21
788.9
 31
0.0
  0
LINE
  5
2B3
330
1E
100
AcDbEntity
  8
0
100
AcDbLine
 10
120.857
 20
803.5
 30
0.0
 11
120.857
 21
802.5
 31
0.0
  0
LINE
  5
2B4
330
1E
100
AcDbEntity
  8
0
100
AcDbLine
 10
120.857
 20
802.5
 30
0.0
 11
120.857
 21
803.5
 31
0.0
  0
LINE
  5
2B5
330
1E
100
AcDbEntity
  8
0
100
AcDbLine
 10
120.857
 20
795.7
 30
0.0
 11
120.857
 21
796.7
 31
0.0
  0
LINE
  5
2B6
330
1E
100
AcDbEntity
  8
0
100
AcDbLine
 10
120.857
 20
796.7
 30
0.0
 11
120.857
 21
795.7
 31
0.0
  0
LINE
  5
2B7
330
1E
100
AcDbEntity
  8
0
100
AcDbLine
 10
120.857
 20
782.1
 30
0.0
 11
120.857
 21
783.1
 31
0.0
  0
LINE
  5
2B8
330
1E
100
AcDbEntity
  8
0
100
AcDbLine
 10
120.857
 20
783.1
 30
0.0
 11
120.857
 21
782.1
 31
0.0
  0
LINE
  5
2B9
330
1E
100
AcDbEntity
  8
0
100
AcDbLine
 10
120.857
 20
776.2999999999999
 30
0.0
 11
120.857
 21
775.3
 31
0.0
  0
LINE
  5
2BA
330
1E
100
AcDbEntity
  8
0
100
AcDbLine
 10
120.857
 20
775.3
 30
0.0
 11
120.857
 21
776.2999999999999
 31
0.0
  0
LINE
  5
2BB
330
1E
100
AcDbEntity
  8
0
100
AcDbLine
 10
120.857
 20
769.5
 30
0.0
 11
120.857
 21
768.5
 31
0.0
  0
LINE
  5
2BC
330
1E
100
AcDbEntity
  8
0
100
AcDbLine
 10
120.857
 20
768.5
 30
0.0
 11
120.857
 21
769.5
 31
0.0
  0
LINE
  5
2BD
330
1E
100
AcDbEntity
  8
0
100
AcDbLine
 10
120.857
 20
761.7
 30
0.0
 11
120.857
 21
762.7
 31
0.0
  0
LINE
  5
2BE
330
1E
100
AcDbEntity
  8
0
100
AcDbLine
 10
120.857
 20
762.7
 30
0.0
 11
120.857
 21
761.7
 31
0.0
  0
LINE
  5
2BF
330
1E
100
AcDbEntity
  8
0
100
AcDbLine
 10
120.857
 20
755.9
 30
0.0
 11
120.857
 21
754.8999999999999
 31
0.0
  0
LINE
  5
2C0
330
1E
100
AcDbEntity
  8
0
100
AcDbLine
 10
120.857
 20
754.8999999999999
 30
0.0
 11
120.857
 21
755.9
 31
0.0
  0
LINE
  5
2C1
330
1E
100
AcDbEntity
  8
0
100
AcDbLine
 10
120.857
 20
748.1
 30
0.0
 11
120.857
 21
749.1
 31
0.0
  0
LINE
  5
2C2
330
1E
100
AcDbEntity
  8
0
100
AcDbLine
 10
120.857
 20
749.1
 30
0.0
 11
120.857
 21
748.1
 31
0.0
  0
LINE
  5
2C3
330
1E
100
AcDbEntity
  8
0
100
AcDbLine
 10
120.857
 20
742.3
 30
0.0
 11
120.857
 21
741.2999999999999
 31
0.0
  0
LINE
  5
2C4
330
1E
100
AcDbEntity
  8
0
100
AcDbLine
 10
120.429
 20
742.7999999999999
 30
0.0
 11
120.857
 21
742.3
 31
0.0
  0
LINE
  5
2C5
330
1E
100
AcDbEntity
  8
0
100
AcDbLine
 10
120.429
 20
736.0
 30
0.0
 11
120.857
 21
735.5
 31
0.0
  0
LINE
  5
367
330
1E
100
AcDbEntity
  8
0
100
AcDbLine
 10
120.857
 20
735.5
 30
0.0
 11
120.857
 21
734.4999999999999
 31
0.0
  0
LINE
  5
368
330
1E
100
AcDbEntity
  8
0
100
AcDbLine
 10
120.429
 20
734.0
 30
0.0
 11
120.857
 21
734.4999999999999
 31
0.0
  0
LINE
  5
369
330
1E
100
AcDbEntity
  8
0
100
AcDbLine
 10
120.0
 20
824.0
 30
0.0
 11
123.086
 21
824.0
 31
0.0
  0
LINE
  5
36A
330
1E
100
AcDbEntity
  8
0
100
AcDbLine
 10
123.086
 20
824.0
 30
0.0
 11
126.0
 21
824.0
 31
0.0
  0
LINE
  5
410
330
1E
100
AcDbEntity
  8
0
100
AcDbLine
 10
126.0
 20
824.0
 30
0.0
 11
128.4859999999999
 21
824.0
 31
0.0
  0
LINE
  5
411
330
1E
100
AcDbEntity
  8
0
100
AcDbLine
 10
116.9759999999999
 20
825.0
 30
0.0
 11
120.0
 21
825.0
 31
0.0
  0
LINE
  5
412
330
1E
100
AcDbEntity
  8
0
100
AcDbLine
 10
123.024
 20
825.0
 30
0.0
 11
125.8079999999999
 21
825.0
 31
0.0
  0
LINE
  5
413
330
1E
100
AcDbEntity
  8
0
100
AcDbLine
 10
120.0
 20
825.0
 30
0.0
 11
122.914
 21
825.0
 31
0.0
  0
LINE
  5
414
330
1E
100
AcDbEntity
  8
0
100
AcDbLine
 10
120.0
 20
825.0
 30
0.0
 11
123.024
 21
825.0
 31
0.0
  0
LINE
  5
415
330
1E
100
AcDbEntity
  8
0
100
AcDbLine
 10
122.914
 20
825.0
 30
0.0
 11
125.571
 21
825.0
 31
0.0
  0
LINE
  5
416
330
1E
100
AcDbEntity
  8
0
100
AcDbLine
 10
128.2559999999999
 20
825.0
 30
0.0
 11
130.1279999999999
 21
825.0
 31
0.0
  0
LINE
  5
417
330
1E
100
AcDbEntity
  8
0
100
AcDbLine
 10
125.8079999999999
 20
825.0
 30
0.0
 11
128.2559999999999
 21
825.0
 31
0.0
  0
LINE
  5
418
330
1E
100
AcDbEntity
  8
0
100
AcDbLine
 10
125.571
 20
825.0
 30
0.0
 11
127.886
 21
825.0
 31
0.0
  0
LINE
  5
419
330
1E
100
AcDbEntity
  8
0
100
AcDbLine
 10
127.886
 20
825.0
 30
0.0
 11
129.686
 21
825.0
 31
0.0
  0
LINE
  5
41A
330
1E
100
AcDbEntity
  8
0
100
AcDbLine
 10
130.1279999999999
 20
825.0
 30
0.0
 11
131.2799999999999
 21
825.0
 31
0.0
  0
LINE
  5
41B
330
1E
100
AcDbEntity
  8
0
100
AcDbLine
 10
129.686
 20
825.0
 30
0.0
 11
130.7139999999999
 21
825.0
 31
0.0
  0
LINE
  5
41C
330
1E
100
AcDbEntity
  8
0
100
AcDbLine
 10
128.4859999999999
 20
824.0
 30
0.0
 11
130.371
 21
824.0
 31
0.0
  0
LINE
  5
41D
330
1E
100
AcDbEntity
  8
0
100
AcDbLine
 10
130.7139999999999
 20
825.0
 30
0.0
 11
131.143
 21
825.0
 31
0.0
  0
LINE
  5
41E
330
1E
100
AcDbEntity
  8
0
100
AcDbLine
 10
130.371
 20
824.0
 30
0.0
 11
131.5709999999999
 21
824.0
 31
0.0
  0
LINE
  5
41F
330
1E
100
AcDbEntity
  8
0
100
AcDbLine
 10
116.928
 20
839.615
 30
0.0
 11
120.0
 21
839.615
 31
0.0
  0
LINE
  5
420
330
1E
100
AcDbEntity
  8
0
100
AcDbLine
 10
116.928
 20
825.3849999999999
 30
0.0
 11
120.0
 21
825.3849999999999
 31
0.0
  0
LINE
  5
421
330
1E
100
AcDbEntity
  8
0
100
AcDbLine
 10
116.9759999999999
 20
840.0
 30
0.0
 11
120.0
 21
840.0
 31
0.0
  0
LINE
  5
422
330
1E
100
AcDbEntity
  8
0
100
AcDbLine
 10
120.0
 20
840.0
 30
0.0
 11
123.024
 21
840.0
 31
0.0
  0
LINE
  5
423
330
1E
100
AcDbEntity
  8
0
100
AcDbLine
 10
120.0
 20
839.615
 30
0.0
 11
123.072
 21
839.615
 31
0.0
  0
LINE
  5
424
330
1E
100
AcDbEntity
  8
0
100
AcDbLine
 10
130.4159999999999
 20
825.3849999999999
 30
0.0
 11
131.5679999999999
 21
825.3849999999999
 31
0.0
  0
LINE
  5
425
330
1E
100
AcDbEntity
  8
0
100
AcDbLine
 10
128.496
 20
825.3849999999999
 30
0.0
 11
130.4159999999999
 21
825.3849999999999
 31
0.0
  0
LINE
  5
426
330
1E
100
AcDbEntity
  8
0
100
AcDbLine
 10
125.952
 20
825.3849999999999
 30
0.0
 11
128.496
 21
825.3849999999999
 31
0.0
  0
LINE
  5
427
330
1E
100
AcDbEntity
  8
0
100
AcDbLine
 10
123.024
 20
840.0
 30
0.0
 11
125.8079999999999
 21
840.0
 31
0.0
  0
LINE
  5
428
330
1E
100
AcDbEntity
  8
0
100
AcDbLine
 10
130.4159999999999
 20
839.615
 30
0.0
 11
131.5679999999999
 21
839.615
 31
0.0
  0
LINE
  5
429
330
1E
100
AcDbEntity
  8
0
100
AcDbLine
 10
128.496
 20
839.615
 30
0.0
 11
130.4159999999999
 21
839.615
 31
0.0
  0
LINE
  5
42A
330
1E
100
AcDbEntity
  8
0
100
AcDbLine
 10
130.0
 20
840.0
 30
0.0
 11
130.0
 21
843.0
 31
0.0
  0
LINE
  5
42B
330
1E
100
AcDbEntity
  8
0
100
AcDbLine
 10
130.1279999999999
 20
840.0
 30
0.0
 11
131.2799999999999
 21
840.0
 31
0.0
  0
LINE
  5
42C
330
1E
100
AcDbEntity
  8
0
100
AcDbLine
 10
128.2559999999999
 20
840.0
 30
0.0
 11
130.1279999999999
 21
840.0
 31
0.0
  0
LINE
  5
42D
330
1E
100
AcDbEntity
  8
0
100
AcDbLine
 10
125.8079999999999
 20
840.0
 30
0.0
 11
128.2559999999999
 21
840.0
 31
0.0
  0
LINE
  5
42E
330
1E
100
AcDbEntity
  8
0
100
AcDbLine
 10
125.952
 20
839.615
 30
0.0
 11
128.496
 21
839.615
 31
0.0
  0
LINE
  5
42F
330
1E
100
AcDbEntity
  8
0
100
AcDbLine
 10
123.072
 20
839.615
 30
0.0
 11
125.952
 21
839.615
 31
0.0
  0
LINE
  5
430
330
1E
100
AcDbEntity
  8
0
100
AcDbLine
 10
123.072
 20
825.3849999999999
 30
0.0
 11
125.952
 21
825.3849999999999
 31
0.0
  0
LINE
  5
431
330
1E
100
AcDbEntity
  8
0
100
AcDbLine
 10
120.0
 20
825.3849999999999
 30
0.0
 11
123.072
 21
825.3849999999999
 31
0.0
  0
LINE
  5
432
330
1E
100
AcDbEntity
  8
0
100
AcDbLine
 10
117.086
 20
825.0
 30
0.0
 11
120.0
 21
825.0
 31
0.0
  0
LINE
  5
433
330
1E
100
AcDbEntity
  8
0
100
AcDbLine
 10
116.914
 20
824.0
 30
0.0
 11
120.0
 21
824.0
 31
0.0
  0
LINE
  5
434
330
1E
100
AcDbEntity
  8
0
100
AcDbLine
 10
116.914
 20
651.0
 30
0.0
 11
120.0
 21
651.0
 31
0.0
  0
LINE
  5
435
330
1E
100
AcDbEntity
  8
0
100
AcDbLine
 10
114.0
 20
651.0
 30
0.0
 11
116.914
 21
651.0
 31
0.0
  0
LINE
  5
436
330
1E
100
AcDbEntity
  8
0
100
AcDbLine
 10
129.4999999999999
 20
650.0
 30
0.0
 11
131.6999999999999
 21
650.0
 31
0.0
  0
LINE
  5
437
330
1E
100
AcDbEntity
  8
0
100
AcDbLine
 10
129.4999999999999
 20
650.0
 30
0.0
 11
129.4999999999999
 21
600.0
 31
0.0
  0
LINE
  5
438
330
1E
100
AcDbEntity
  8
0
100
AcDbLine
 10
111.8999999999999
 20
650.0
 30
0.0
 11
111.8999999999999
 21
600.0
 31
0.0
  0
LINE
  5
439
330
1E
100
AcDbEntity
  8
0
100
AcDbLine
 10
111.8999999999999
 20
650.0
 30
0.0
 11
112.114
 21
650.0
 31
0.0
  0
LINE
  5
43A
330
1E
100
AcDbEntity
  8
0
100
AcDbLine
 10
111.8999999999999
 20
650.0
 30
0.0
 11
112.9
 21
650.0
 31
0.0
  0
LINE
  5
43B
330
1E
100
AcDbEntity
  8
0
100
AcDbLine
 10
110.4999999999999
 20
600.0
 30
0.0
 11
111.8999999999999
 21
600.0
 31
0.0
  0
LINE
  5
43C
330
1E
100
AcDbEntity
  8
0
100
AcDbLine
 10
110.4999999999999
 20
600.0
 30
0.0
 11
110.4999999999999
 21
650.0
 31
0.0
  0
LINE
  5
43D
330
1E
100
AcDbEntity
  8
0
100
AcDbLine
 10
110.4999999999999
 20
600.0
 30
0.0
 11
112.3860810853759
 21
600.0
 31
0.0
  0
LINE
  5
43E
330
1E
100
AcDbEntity
  8
0
100
AcDbLine
 10
131.0
 20
600.0
 30
0.0
 11
131.0
 21
80.0
 31
0.0
  0
LINE
  5
43F
330
1E
100
AcDbEntity
  8
0
100
AcDbLine
 10
131.0
 20
600.0
 30
0.0
 11
131.718
 21
600.0
 31
0.0
  0
LINE
  5
440
330
1E
100
AcDbEntity
  8
0
100
AcDbLine
 10
110.3599999999999
 20
843.0
 30
0.0
 11
111.3199999999999
 21
843.0
 31
0.0
  0
LINE
  5
441
330
1E
100
AcDbEntity
  8
0
100
AcDbLine
 10
111.3199999999999
 20
843.0
 30
0.0
 11
112.9199999999999
 21
843.0
 31
0.0
  0
LINE
  5
442
330
1E
100
AcDbEntity
  8
0
100
AcDbLine
 10
112.9199999999999
 20
843.0
 30
0.0
 11
115.04
 21
843.0
 31
0.0
  0
LINE
  5
443
330
1E
100
AcDbEntity
  8
0
100
AcDbLine
 10
110.0
 20
843.0
 30
0.0
 11
110.0
 21
840.0
 31
0.0
  0
LINE
  5
444
330
1E
100
AcDbEntity
  8
0
100
AcDbLine
 10
110.0
 20
843.0
 30
0.0
 11
110.3599999999999
 21
843.0
 31
0.0
  0
LINE
  5
445
330
1E
100
AcDbEntity
  8
0
100
AcDbLine
 10
111.7439999999999
 20
843.0
 30
0.0
 11
114.192
 21
843.0
 31
0.0
  0
LINE
  5
446
330
1E
100
AcDbEntity
  8
0
100
AcDbLine
 10
115.04
 20
843.0
 30
0.0
 11
117.44
 21
843.0
 31
0.0
  0
LINE
  5
447
330
1E
100
AcDbEntity
  8
0
100
AcDbLine
 10
117.44
 20
843.0
 30
0.0
 11
120.0
 21
843.0
 31
0.0
  0
LINE
  5
448
330
1E
100
AcDbEntity
  8
0
100
AcDbLine
 10
114.192
 20
843.0
 30
0.0
 11
116.9759999999999
 21
843.0
 31
0.0
  0
LINE
  5
449
330
1E
100
AcDbEntity
  8
0
100
AcDbLine
 10
116.9759999999999
 20
843.0
 30
0.0
 11
120.0
 21
843.0
 31
0.0
  0
LINE
  5
44A
330
1E
100
AcDbEntity
  8
0
100
AcDbLine
 10
124.96
 20
843.0
 30
0.0
 11
127.0799999999999
 21
843.0
 31
0.0
  0
LINE
  5
44B
330
1E
100
AcDbEntity
  8
0
100
AcDbLine
 10
122.56
 20
843.0
 30
0.0
 11
124.96
 21
843.0
 31
0.0
  0
LINE
  5
44C
330
1E
100
AcDbEntity
  8
0
100
AcDbLine
 10
129.64
 20
843.0
 30
0.0
 11
130.0
 21
843.0
 31
0.0
  0
LINE
  5
44D
330
1E
100
AcDbEntity
  8
0
100
AcDbLine
 10
128.68
 20
843.0
 30
0.0
 11
129.64
 21
843.0
 31
0.0
  0
LINE
  5
44E
330
1E
100
AcDbEntity
  8
0
100
AcDbLine
 10
127.0799999999999
 20
843.0
 30
0.0
 11
128.68
 21
843.0
 31
0.0
  0
LINE
  5
44F
330
1E
100
AcDbEntity
  8
0
100
AcDbLine
 10
128.2559999999999
 20
843.0
 30
0.0
 11
130.1279999999999
 21
843.0
 31
0.0
  0
LINE
  5
450
330
1E
100
AcDbEntity
  8
0
100
AcDbLine
 10
125.8079999999999
 20
843.0
 30
0.0
 11
128.2559999999999
 21
843.0
 31
0.0
  0
LINE
  5
451
330
1E
100
AcDbEntity
  8
0
100
AcDbLine
 10
123.024
 20
843.0
 30
0.0
 11
125.8079999999999
 21
843.0
 31
0.0
  0
LINE
  5
452
330
1E
100
AcDbEntity
  8
0
100
AcDbLine
 10
120.0
 20
843.0
 30
0.0
 11
123.024
 21
843.0
 31
0.0
  0
LINE
  5
453
330
1E
100
AcDbEntity
  8
0
100
AcDbLine
 10
120.0
 20
843.0
 30
0.0
 11
122.56
 21
843.0
 31
0.0
  0
LINE
  5
454
330
1E
100
AcDbEntity
  8
0
100
AcDbLine
 10
109.872
 20
843.0
 30
0.0
 11
110.0
 21
843.0
 31
0.0
  0
LINE
  5
455
330
1E
100
AcDbEntity
  8
0
100
AcDbLine
 10
109.872
 20
843.0
 30
0.0
 11
111.7439999999999
 21
843.0
 31
0.0
  0
LINE
  5
456
330
1E
100
AcDbEntity
  8
0
100
AcDbLine
 10
130.1279999999999
 20
843.0
 30
0.0
 11
131.2799999999999
 21
843.0
 31
0.0
  0
LINE
  5
457
330
1E
100
AcDbEntity
  8
0
100
AcDbLine
 10
130.0
 20
843.0
 30
0.0
 11
130.1279999999999
 21
843.0
 31
0.0
  0
LINE
  5
458
330
1E
100
AcDbEntity
  8
0
100
AcDbLine
 10
130.0
 20
843.0
 30
0.0
 11
130.0
 21
840.0
 31
0.0
  0
LINE
  5
459
330
1E
100
AcDbEntity
  8
0
100
AcDbLine
 10
109.584
 20
853.0
 30
0.0
 11
111.504
 21
853.0
 31
0.0
  0
LINE
  5
45A
330
1E
100
AcDbEntity
  8
0
100
AcDbLine
 10
109.584
 20
843.3849999999999
 30
0.0
 11
111.504
 21
843.3849999999999
 31
0.0
  0
LINE
  5
45B
330
1E
100
AcDbEntity
  8
0
100
AcDbLine
 10
111.504
 20
853.0
 30
0.0
 11
114.0479999999999
 21
853.0
 31
0.0
  0
LINE
  5
45C
330
1E
100
AcDbEntity
  8
0
100
AcDbLine
 10
111.504
 20
843.3849999999999
 30
0.0
 11
114.0479999999999
 21
843.3849999999999
 31
0.0
  0
LINE
  5
45D
330
1E
100
AcDbEntity
  8
0
100
AcDbLine
 10
114.0479999999999
 20
853.0
 30
0.0
 11
116.928
 21
853.0
 31
0.0
  0
LINE
  5
45E
330
1E
100
AcDbEntity
  8
0
100
AcDbLine
 10
114.0479999999999
 20
843.3849999999999
 30
0.0
 11
116.928
 21
843.3849999999999
 31
0.0
  0
LINE
  5
45F
330
1E
100
AcDbEntity
  8
0
100
AcDbLine
 10
116.928
 20
853.0
 30
0.0
 11
120.0
 21
853.0
 31
0.0
  0
LINE
  5
460
330
1E
100
AcDbEntity
  8
0
100
AcDbLine
 10
116.928
 20
843.3849999999999
 30
0.0
 11
120.0
 21
843.3849999999999
 31
0.0
  0
LINE
  5
461
330
1E
100
AcDbEntity
  8
0
100
AcDbLine
 10
109.872
 20
853.3849999999999
 30
0.0
 11
111.7439999999999
 21
853.3849999999999
 31
0.0
  0
LINE
  5
462
330
1E
100
AcDbEntity
  8
0
100
AcDbLine
 10
111.7439999999999
 20
853.3849999999999
 30
0.0
 11
114.192
 21
853.3849999999999
 31
0.0
  0
LINE
  5
463
330
1E
100
AcDbEntity
  8
0
100
AcDbLine
 10
114.192
 20
853.3849999999999
 30
0.0
 11
116.9759999999999
 21
853.3849999999999
 31
0.0
  0
LINE
  5
464
330
1E
100
AcDbEntity
  8
0
100
AcDbLine
 10
116.9759999999999
 20
853.3849999999999
 30
0.0
 11
120.0
 21
853.3849999999999
 31
0.0
  0
LINE
  5
465
330
1E
100
AcDbEntity
  8
0
100
AcDbLine
 10
120.0
 20
853.3849999999999
 30
0.0
 11
123.024
 21
853.3849999999999
 31
0.0
  0
LINE
  5
466
330
1E
100
AcDbEntity
  8
0
100
AcDbLine
 10
120.0
 20
853.0
 30
0.0
 11
123.072
 21
853.0
 31
0.0
  0
LINE
  5
467
330
1E
100
AcDbEntity
  8
0
100
AcDbLine
 10
130.4159999999999
 20
843.3849999999999
 30
0.0
 11
131.5679999999999
 21
843.3849999999999
 31
0.0
  0
LINE
  5
468
330
1E
100
AcDbEntity
  8
0
100
AcDbLine
 10
128.496
 20
843.3849999999999
 30
0.0
 11
130.4159999999999
 21
843.3849999999999
 31
0.0
  0
LINE
  5
469
330
1E
100
AcDbEntity
  8
0
100
AcDbLine
 10
125.952
 20
843.3849999999999
 30
0.0
 11
128.496
 21
843.3849999999999
 31
0.0
  0
LINE
  5
46A
330
1E
100
AcDbEntity
  8
0
100
AcDbLine
 10
123.024
 20
853.3849999999999
 30
0.0
 11
125.8079999999999
 21
853.3849999999999
 31
0.0
  0
LINE
  5
46B
330
1E
100
AcDbEntity
  8
0
100
AcDbLine
 10
130.4159999999999
 20
853.0
 30
0.0
 11
131.5679999999999
 21
853.0
 31
0.0
  0
LINE
  5
46C
330
1E
100
AcDbEntity
  8
0
100
AcDbLine
 10
128.496
 20
853.0
 30
0.0
 11
130.4159999999999
 21
853.0
 31
0.0
  0
LINE
  5
46D
330
1E
100
AcDbEntity
  8
0
100
AcDbLine
 10
130.1279999999999
 20
853.3849999999999
 30
0.0
 11
131.2799999999999
 21
853.3849999999999
 31
0.0
  0
LINE
  5
46E
330
1E
100
AcDbEntity
  8
0
100
AcDbLine
 10
128.2559999999999
 20
853.3849999999999
 30
0.0
 11
130.1279999999999
 21
853.3849999999999
 31
0.0
  0
LINE
  5
46F
330
1E
100
AcDbEntity
  8
0
100
AcDbLine
 10
125.8079999999999
 20
853.3849999999999
 30
0.0
 11
128.2559999999999
 21
853.3849999999999
 31
0.0
  0
LINE
  5
470
330
1E
100
AcDbEntity
  8
0
100
AcDbLine
 10
125.952
 20
853.0
 30
0.0
 11
128.496
 21
853.0
 31
0.0
  0
LINE
  5
471
330
1E
100
AcDbEntity
  8
0
100
AcDbLine
 10
123.072
 20
853.0
 30
0.0
 11
125.952
 21
853.0
 31
0.0
  0
LINE
  5
472
330
1E
100
AcDbEntity
  8
0
100
AcDbLine
 10
123.072
 20
843.3849999999999
 30
0.0
 11
125.952
 21
843.3849999999999
 31
0.0
  0
LINE
  5
473
330
1E
100
AcDbEntity
  8
0
100
AcDbLine
 10
120.0
 20
843.3849999999999
 30
0.0
 11
123.072
 21
843.3849999999999
 31
0.0
  0
LINE
  5
474
330
1E
100
AcDbEntity
  8
0
100
AcDbLine
 10
131.0
 20
843.0
 30
0.0
 11
131.0
 21
840.0
 31
0.0
  0
LINE
  5
475
330
1E
100
AcDbEntity
  8
0
100
AcDbLine
 10
131.0
 20
853.3849999999999
 30
0.0
 11
131.0
 21
1052.0
 31
0.0
  0
LINE
  5
476
330
1E
100
AcDbEntity
  8
0
100
AcDbLine
 10
131.0
 20
840.0
 30
0.0
 11
131.0
 21
843.0
 31
0.0
  0
LINE
  5
477
330
1E
100
AcDbEntity
  8
0
100
AcDbLine
 10
109.0
 20
600.0
 30
0.0
 11
109.0
 21
547.0360678507989
 31
0.0
  0
LINE
  5
478
330
1E
100
AcDbEntity
  8
0
100
AcDbLine
 10
10.0
 20
1050.0
 30
0.0
 11
10.0
 21
1052.0
 31
0.0
  0
LINE
  5
479
330
1E
100
AcDbEntity
  8
0
100
AcDbLine
 10
10.0
 20
1050.0
 30
0.0
 11
12.0
 21
1050.0
 31
0.0
  0
LINE
  5
47A
330
1E
100
AcDbEntity
  8
0
100
AcDbLine
 10
10.0
 20
1052.0
 30
0.0
 11
12.0
 21
1052.0
 31
0.0
  0
LINE
  5
47B
330
1E
100
AcDbEntity
  8
0
100
AcDbLine
 10
10.0
 20
1052.0
 30
0.0
 11
10.0
 21
1050.0
 31
0.0
  0
LINE
  5
47C
330
1E
100
AcDbEntity
  8
0
100
AcDbLine
 10
13.4893
 20
1050.0
 30
0.0
 11
13.4893
 21
1052.0
 31
0.0
  0
LINE
  5
47D
330
1E
100
AcDbEntity
  8
0
100
AcDbLine
 10
13.4893
 20
1050.0
 30
0.0
 11
14.007
 21
1050.0
 31
0.0
  0
LINE
  5
47E
330
1E
100
AcDbEntity
  8
0
100
AcDbLine
 10
13.4893
 20
1050.0
 30
0.0
 11
15.4212
 21
1050.0
 31
0.0
  0
LINE
  5
47F
330
1E
100
AcDbEntity
  8
0
100
AcDbLine
 10
15.9388
 20
1050.0
 30
0.0
 11
15.9388
 21
1052.0
 31
0.0
  0
LINE
  5
480
330
1E
100
AcDbEntity
  8
0
100
AcDbLine
 10
15.4212
 20
1050.0
 30
0.0
 11
15.9388
 21
1050.0
 31
0.0
  0
LINE
  5
481
330
1E
100
AcDbEntity
  8
0
100
AcDbLine
 10
14.007
 20
1050.0
 30
0.0
 11
14.007
 21
1052.0
 31
0.0
  0
LINE
  5
482
330
1E
100
AcDbEntity
  8
0
100
AcDbLine
 10
14.007
 20
1050.0
 30
0.0
 11
15.9388
 21
1050.0
 31
0.0
  0
LINE
  5
483
330
1E
100
AcDbEntity
  8
0
100
AcDbLine
 10
13.4893
 20
1052.0
 30
0.0
 11
14.007
 21
1052.0
 31
0.0
  0
LINE
  5
484
330
1E
100
AcDbEntity
  8
0
100
AcDbLine
 10
13.4893
 20
1052.0
 30
0.0
 11
13.4893
 21
1050.0
 31
0.0
  0
LINE
  5
485
330
1E
100
AcDbEntity
  8
0
100
AcDbLine
 10
14.007
 20
1052.0
 30
0.0
 11
15.9388
 21
1052.0
 31
0.0
  0
LINE
  5
486
330
1E
100
AcDbEntity
  8
0
100
AcDbLine
 10
14.007
 20
1052.0
 30
0.0
 11
14.007
 21
1050.0
 31
0.0
  0
LINE
  5
487
330
1E
100
AcDbEntity
  8
0
100
AcDbLine
 10
12.0
 20
1050.0
 30
0.0
 11
12.0
 21
1052.0
 31
0.0
  0
LINE
  5
488
330
1E
100
AcDbEntity
  8
0
100
AcDbLine
 10
24.2372
 20
1050.0
 30
0.0
 11
24.2372
 21
1052.0
 31
0.0
  0
LINE
  5
489
330
1E
100
AcDbEntity
  8
0
100
AcDbLine
 10
24.2372
 20
1050.0
 30
0.0
 11
25.2372
 21
1050.0
 31
0.0
  0
LINE
  5
48A
330
1E
100
AcDbEntity
  8
0
100
AcDbLine
 10
24.2372
 20
1050.0
 30
0.0
 11
25.9693
 21
1050.0
 31
0.0
  0
LINE
  5
48B
330
1E
100
AcDbEntity
  8
0
100
AcDbLine
 10
25.2372
 20
1050.0
 30
0.0
 11
25.2372
 21
1052.0
 31
0.0
  0
LINE
  5
48C
330
1E
100
AcDbEntity
  8
0
100
AcDbLine
 10
25.2372
 20
1050.0
 30
0.0
 11
26.9693
 21
1050.0
 31
0.0
  0
LINE
  5
48D
330
1E
100
AcDbEntity
  8
0
100
AcDbLine
 10
24.2372
 20
1052.0
 30
0.0
 11
25.2372
 21
1052.0
 31
0.0
  0
LINE
  5
48E
330
1E
100
AcDbEntity
  8
0
100
AcDbLine
 10
24.2372
 20
1052.0
 30
0.0
 11
24.2372
 21
1050.0
 31
0.0
  0
LINE
  5
48F
330
1E
100
AcDbEntity
  8
0
100
AcDbLine
 10
25.2372
 20
1052.0
 30
0.0
 11
26.9693
 21
1052.0
 31
0.0
  0
LINE
  5
490
330
1E
100
AcDbEntity
  8
0
100
AcDbLine
 10
25.2372
 20
1052.0
 30
0.0
 11
25.2372
 21
1050.0
 31
0.0
  0
LINE
  5
491
330
1E
100
AcDbEntity
  8
0
100
AcDbLine
 10
25.0
 20
1050.0
 30
0.0
 11
27.0
 21
1050.0
 31
0.0
  0
LINE
  5
492
330
1E
100
AcDbEntity
  8
0
100
AcDbLine
 10
15.9388
 20
1052.0
 30
0.0
 11
16.89999999999999
 21
1052.0
 31
0.0
  0
LINE
  5
493
330
1E
100
AcDbEntity
  8
0
100
AcDbLine
 10
15.9388
 20
1052.0
 30
0.0
 11
15.9388
 21
1050.0
 31
0.0
  0
LINE
  5
494
330
1E
100
AcDbEntity
  8
0
100
AcDbLine
 10
12.0
 20
1052.0
 30
0.0
 11
13.4893
 21
1052.0
 31
0.0
  0
LINE
  5
495
330
1E
100
AcDbEntity
  8
0
100
AcDbLine
 10
12.0
 20
1052.0
 30
0.0
 11
12.0
 21
1050.0
 31
0.0
  0
LINE
  5
496
330
1E
100
AcDbEntity
  8
0
100
AcDbLine
 10
26.9693
 20
1050.0
 30
0.0
 11
26.9693
 21
1052.0
 31
0.0
  0
LINE
  5
497
330
1E
100
AcDbEntity
  8
0
100
AcDbLine
 10
25.9693
 20
1050.0
 30
0.0
 11
26.9693
 21
1050.0
 31
0.0
  0
LINE
  5
498
330
1E
100
AcDbEntity
  8
0
100
AcDbLine
 10
27.9782
 20
1052.0
 30
0.0
 11
28.4959
 21
1052.0
 31
0.0
  0
LINE
  5
499
330
1E
100
AcDbEntity
  8
0
100
AcDbLine
 10
27.9782
 20
1052.0
 30
0.0
 11
27.9782
 21
1050.0
 31
0.0
  0
LINE
  5
49A
330
1E
100
AcDbEntity
  8
0
100
AcDbLine
 10
27.9782
 20
1050.0
 30
0.0
 11
27.9782
 21
1052.0
 31
0.0
  0
LINE
  5
49B
330
1E
100
AcDbEntity
  8
0
100
AcDbLine
 10
27.9782
 20
1050.0
 30
0.0
 11
28.4959
 21
1050.0
 31
0.0
  0
LINE
  5
49C
330
1E
100
AcDbEntity
  8
0
100
AcDbLine
 10
27.9782
 20
1050.0
 30
0.0
 11
29.9101
 21
1050.0
 31
0.0
  0
LINE
  5
49D
330
1E
100
AcDbEntity
  8
0
100
AcDbLine
 10
30.4277
 20
1050.0
 30
0.0
 11
30.4277
 21
1052.0
 31
0.0
  0
LINE
  5
49E
330
1E
100
AcDbEntity
  8
0
100
AcDbLine
 10
29.9101
 20
1050.0
 30
0.0
 11
30.4277
 21
1050.0
 31
0.0
  0
LINE
  5
49F
330
1E
100
AcDbEntity
  8
0
100
AcDbLine
 10
28.4959
 20
1050.0
 30
0.0
 11
28.4959
 21
1052.0
 31
0.0
  0
LINE
  5
4A0
330
1E
100
AcDbEntity
  8
0
100
AcDbLine
 10
28.4959
 20
1050.0
 30
0.0
 11
30.4277
 21
1050.0
 31
0.0
  0
LINE
  5
4A1
330
1E
100
AcDbEntity
  8
0
100
AcDbLine
 10
28.4959
 20
1052.0
 30
0.0
 11
30.4277
 21
1052.0
 31
0.0
  0
LINE
  5
4A2
330
1E
100
AcDbEntity
  8
0
100
AcDbLine
 10
28.4959
 20
1052.0
 30
0.0
 11
28.4959
 21
1050.0
 31
0.0
  0
LINE
  5
4A3
330
1E
100
AcDbEntity
  8
0
100
AcDbLine
 10
27.0
 20
1050.0
 30
0.0
 11
27.0
 21
1052.0
 31
0.0
  0
LINE
  5
4A4
330
1E
100
AcDbEntity
  8
0
100
AcDbLine
 10
26.9693
 20
1052.0
 30
0.0
 11
26.9693
 21
1050.0
 31
0.0
  0
LINE
  5
4A5
330
1E
100
AcDbEntity
  8
0
100
AcDbLine
 10
30.4277
 20
1052.0
 30
0.0
 11
36.0
 21
1052.0
 31
0.0
  0
LINE
  5
4A6
330
1E
100
AcDbEntity
  8
0
100
AcDbLine
 10
30.4277
 20
1052.0
 30
0.0
 11
30.4277
 21
1050.0
 31
0.0
  0
LINE
  5
4A7
330
1E
100
AcDbEntity
  8
0
100
AcDbLine
 10
27.0
 20
1052.0
 30
0.0
 11
27.9782
 21
1052.0
 31
0.0
  0
LINE
  5
4A8
330
1E
100
AcDbEntity
  8
0
100
AcDbLine
 10
27.0
 20
1052.0
 30
0.0
 11
27.0
 21
1050.0
 31
0.0
  0
LINE
  5
4A9
330
1E
100
AcDbEntity
  8
0
100
AcDbLine
 10
37.2276
 20
1050.0
 30
0.0
 11
37.2276
 21
1052.0
 31
0.0
  0
LINE
  5
4AA
330
1E
100
AcDbEntity
  8
0
100
AcDbLine
 10
37.2276
 20
1050.0
 30
0.0
 11
38.2276
 21
1050.0
 31
0.0
  0
LINE
  5
4AB
330
1E
100
AcDbEntity
  8
0
100
AcDbLine
 10
37.2276
 20
1050.0
 30
0.0
 11
38.9596
 21
1050.0
 31
0.0
  0
LINE
  5
4AC
330
1E
100
AcDbEntity
  8
0
100
AcDbLine
 10
37.2276
 20
1052.0
 30
0.0
 11
38.2276
 21
1052.0
 31
0.0
  0
LINE
  5
4AD
330
1E
100
AcDbEntity
  8
0
100
AcDbLine
 10
37.2276
 20
1052.0
 30
0.0
 11
37.2276
 21
1050.0
 31
0.0
  0
LINE
  5
4AE
330
1E
100
AcDbEntity
  8
0
100
AcDbLine
 10
39.9596
 20
1050.0
 30
0.0
 11
39.9596
 21
1052.0
 31
0.0
  0
LINE
  5
4AF
330
1E
100
AcDbEntity
  8
0
100
AcDbLine
 10
38.9596
 20
1050.0
 30
0.0
 11
39.9596
 21
1050.0
 31
0.0
  0
LINE
  5
4B0
330
1E
100
AcDbEntity
  8
0
100
AcDbLine
 10
38.2276
 20
1050.0
 30
0.0
 11
38.2276
 21
1052.0
 31
0.0
  0
LINE
  5
4B1
330
1E
100
AcDbEntity
  8
0
100
AcDbLine
 10
38.2276
 20
1050.0
 30
0.0
 11
39.9596
 21
1050.0
 31
0.0
  0
LINE
  5
4B2
330
1E
100
AcDbEntity
  8
0
100
AcDbLine
 10
38.2276
 20
1052.0
 30
0.0
 11
39.9596
 21
1052.0
 31
0.0
  0
LINE
  5
4B3
330
1E
100
AcDbEntity
  8
0
100
AcDbLine
 10
38.2276
 20
1052.0
 30
0.0
 11
38.2276
 21
1050.0
 31
0.0
  0
LINE
  5
4B4
330
1E
100
AcDbEntity
  8
0
100
AcDbLine
 10
41.5111
 20
1050.0
 30
0.0
 11
41.5111
 21
1052.0
 31
0.0
  0
LINE
  5
4B5
330
1E
100
AcDbEntity
  8
0
100
AcDbLine
 10
41.5111
 20
1050.0
 30
0.0
 11
42.9254
 21
1050.0
 31
0.0
  0
LINE
  5
4B6
330
1E
100
AcDbEntity
  8
0
100
AcDbLine
 10
42.9254
 20
1050.0
 30
0.0
 11
42.9254
 21
1052.0
 31
0.0
  0
LINE
  5
4B7
330
1E
100
AcDbEntity
  8
0
100
AcDbLine
 10
42.9254
 20
1050.0
 30
0.0
 11
44.33959999999999
 21
1050.0
 31
0.0
  0
LINE
  5
4B8
330
1E
100
AcDbEntity
  8
0
100
AcDbLine
 10
42.4671
 20
1050.0
 30
0.0
 11
42.9848
 21
1050.0
 31
0.0
  0
LINE
  5
4B9
330
1E
100
AcDbEntity
  8
0
100
AcDbLine
 10
42.4671
 20
1050.0
 30
0.0
 11
44.39899999999999
 21
1050.0
 31
0.0
  0
LINE
  5
4BA
330
1E
100
AcDbEntity
  8
0
100
AcDbLine
 10
44.33959999999999
 20
1050.0
 30
0.0
 11
44.33959999999999
 21
1052.0
 31
0.0
  0
LINE
  5
4BB
330
1E
100
AcDbEntity
  8
0
100
AcDbLine
 10
52.1177
 20
1050.0
 30
0.0
 11
52.1177
 21
1052.0
 31
0.0
  0
LINE
  5
4BC
330
1E
100
AcDbEntity
  8
0
100
AcDbLine
 10
52.1177
 20
1050.0
 30
0.0
 11
53.532
 21
1050.0
 31
0.0
  0
LINE
  5
4BD
330
1E
100
AcDbEntity
  8
0
100
AcDbLine
 10
54.9462
 20
1050.0
 30
0.0
 11
54.9462
 21
1052.0
 31
0.0
  0
LINE
  5
4BE
330
1E
100
AcDbEntity
  8
0
100
AcDbLine
 10
53.532
 20
1050.0
 30
0.0
 11
53.532
 21
1052.0
 31
0.0
  0
LINE
  5
4BF
330
1E
100
AcDbEntity
  8
0
100
AcDbLine
 10
53.532
 20
1050.0
 30
0.0
 11
54.9462
 21
1050.0
 31
0.0
  0
LINE
  5
4C0
330
1E
100
AcDbEntity
  8
0
100
AcDbLine
 10
51.95
 20
1050.0
 30
0.0
 11
52.95
 21
1050.0
 31
0.0
  0
LINE
  5
4C1
330
1E
100
AcDbEntity
  8
0
100
AcDbLine
 10
50.218
 20
1050.0
 30
0.0
 11
50.218
 21
1052.0
 31
0.0
  0
LINE
  5
4C2
330
1E
100
AcDbEntity
  8
0
100
AcDbLine
 10
50.218
 20
1050.0
 30
0.0
 11
51.218
 21
1050.0
 31
0.0
  0
LINE
  5
4C3
330
1E
100
AcDbEntity
  8
0
100
AcDbLine
 10
50.218
 20
1050.0
 30
0.0
 11
51.95
 21
1050.0
 31
0.0
  0
LINE
  5
4C4
330
1E
100
AcDbEntity
  8
0
100
AcDbLine
 10
51.218
 20
1050.0
 30
0.0
 11
51.218
 21
1052.0
 31
0.0
  0
LINE
  5
4C5
330
1E
100
AcDbEntity
  8
0
100
AcDbLine
 10
51.218
 20
1050.0
 30
0.0
 11
52.95
 21
1050.0
 31
0.0
  0
LINE
  5
4C6
330
1E
100
AcDbEntity
  8
0
100
AcDbLine
 10
44.9166
 20
1050.0
 30
0.0
 11
44.9166
 21
1052.0
 31
0.0
  0
LINE
  5
4C7
330
1E
100
AcDbEntity
  8
0
100
AcDbLine
 10
44.39899999999999
 20
1050.0
 30
0.0
 11
44.9166
 21
1050.0
 31
0.0
  0
LINE
  5
4C8
330
1E
100
AcDbEntity
  8
0
100
AcDbLine
 10
42.9848
 20
1050.0
 30
0.0
 11
44.9166
 21
1050.0
 31
0.0
  0
LINE
  5
4C9
330
1E
100
AcDbEntity
  8
0
100
AcDbLine
 10
41.5111
 20
1052.0
 30
0.0
 11
42.9254
 21
1052.0
 31
0.0
  0
LINE
  5
4CA
330
1E
100
AcDbEntity
  8
0
100
AcDbLine
 10
41.5111
 20
1052.0
 30
0.0
 11
41.5111
 21
1050.0
 31
0.0
  0
LINE
  5
4CB
330
1E
100
AcDbEntity
  8
0
100
AcDbLine
 10
42.9254
 20
1052.0
 30
0.0
 11
44.33959999999999
 21
1052.0
 31
0.0
  0
LINE
  5
4CC
330
1E
100
AcDbEntity
  8
0
100
AcDbLine
 10
42.9254
 20
1052.0
 30
0.0
 11
42.9254
 21
1050.0
 31
0.0
  0
LINE
  5
4CD
330
1E
100
AcDbEntity
  8
0
100
AcDbLine
 10
52.1177
 20
1052.0
 30
0.0
 11
53.532
 21
1052.0
 31
0.0
  0
LINE
  5
4CE
330
1E
100
AcDbEntity
  8
0
100
AcDbLine
 10
52.1177
 20
1052.0
 30
0.0
 11
52.1177
 21
1050.0
 31
0.0
  0
LINE
  5
4CF
330
1E
100
AcDbEntity
  8
0
100
AcDbLine
 10
53.532
 20
1052.0
 30
0.0
 11
54.9462
 21
1052.0
 31
0.0
  0
LINE
  5
4D0
330
1E
100
AcDbEntity
  8
0
100
AcDbLine
 10
53.532
 20
1052.0
 30
0.0
 11
53.532
 21
1050.0
 31
0.0
  0
LINE
  5
4D1
330
1E
100
AcDbEntity
  8
0
100
AcDbLine
 10
50.218
 20
1052.0
 30
0.0
 11
51.218
 21
1052.0
 31
0.0
  0
LINE
  5
4D2
330
1E
100
AcDbEntity
  8
0
100
AcDbLine
 10
50.218
 20
1052.0
 30
0.0
 11
50.218
 21
1050.0
 31
0.0
  0
LINE
  5
4D3
330
1E
100
AcDbEntity
  8
0
100
AcDbLine
 10
51.218
 20
1052.0
 30
0.0
 11
52.1177
 21
1052.0
 31
0.0
  0
LINE
  5
4D4
330
1E
100
AcDbEntity
  8
0
100
AcDbLine
 10
51.218
 20
1052.0
 30
0.0
 11
51.218
 21
1050.0
 31
0.0
  0
LINE
  5
4D5
330
1E
100
AcDbEntity
  8
0
100
AcDbLine
 10
44.33959999999999
 20
1052.0
 30
0.0
 11
44.9166
 21
1052.0
 31
0.0
  0
LINE
  5
4D6
330
1E
100
AcDbEntity
  8
0
100
AcDbLine
 10
44.33959999999999
 20
1052.0
 30
0.0
 11
44.33959999999999
 21
1050.0
 31
0.0
  0
LINE
  5
4D7
330
1E
100
AcDbEntity
  8
0
100
AcDbLine
 10
40.0
 20
1050.0
 30
0.0
 11
40.0
 21
1052.0
 31
0.0
  0
LINE
  5
4D8
330
1E
100
AcDbEntity
  8
0
100
AcDbLine
 10
40.0
 20
1050.0
 30
0.0
 11
42.0
 21
1050.0
 31
0.0
  0
LINE
  5
4D9
330
1E
100
AcDbEntity
  8
0
100
AcDbLine
 10
40.0
 20
1052.0
 30
0.0
 11
41.5111
 21
1052.0
 31
0.0
  0
LINE
  5
4DA
330
1E
100
AcDbEntity
  8
0
100
AcDbLine
 10
40.0
 20
1052.0
 30
0.0
 11
40.0
 21
1050.0
 31
0.0
  0
LINE
  5
4DB
330
1E
100
AcDbEntity
  8
0
100
AcDbLine
 10
39.9596
 20
1052.0
 30
0.0
 11
39.9596
 21
1050.0
 31
0.0
  0
LINE
  5
4DC
330
1E
100
AcDbEntity
  8
0
100
AcDbLine
 10
44.9166
 20
1052.0
 30
0.0
 11
47.7
 21
1052.0
 31
0.0
  0
LINE
  5
4DD
330
1E
100
AcDbEntity
  8
0
100
AcDbLine
 10
44.9166
 20
1052.0
 30
0.0
 11
44.9166
 21
1050.0
 31
0.0
  0
LINE
  5
4DE
330
1E
100
AcDbEntity
  8
0
100
AcDbLine
 10
56.956
 20
1050.0
 30
0.0
 11
56.956
 21
1052.0
 31
0.0
  0
LINE
  5
4DF
330
1E
100
AcDbEntity
  8
0
100
AcDbLine
 10
56.956
 20
1050.0
 30
0.0
 11
57.4736
 21
1050.0
 31
0.0
  0
LINE
  5
4E0
330
1E
100
AcDbEntity
  8
0
100
AcDbLine
 10
56.956
 20
1050.0
 30
0.0
 11
58.8879
 21
1050.0
 31
0.0
  0
LINE
  5
4E1
330
1E
100
AcDbEntity
  8
0
100
AcDbLine
 10
59.4055
 20
1050.0
 30
0.0
 11
59.4055
 21
1052.0
 31
0.0
  0
LINE
  5
4E2
330
1E
100
AcDbEntity
  8
0
100
AcDbLine
 10
58.8879
 20
1050.0
 30
0.0
 11
59.4055
 21
1050.0
 31
0.0
  0
LINE
  5
4E3
330
1E
100
AcDbEntity
  8
0
100
AcDbLine
 10
57.4736
 20
1050.0
 30
0.0
 11
57.4736
 21
1052.0
 31
0.0
  0
LINE
  5
4E4
330
1E
100
AcDbEntity
  8
0
100
AcDbLine
 10
57.4736
 20
1050.0
 30
0.0
 11
59.4055
 21
1050.0
 31
0.0
  0
LINE
  5
4E5
330
1E
100
AcDbEntity
  8
0
100
AcDbLine
 10
56.956
 20
1052.0
 30
0.0
 11
57.4736
 21
1052.0
 31
0.0
  0
LINE
  5
4E6
330
1E
100
AcDbEntity
  8
0
100
AcDbLine
 10
56.956
 20
1052.0
 30
0.0
 11
56.956
 21
1050.0
 31
0.0
  0
LINE
  5
4E7
330
1E
100
AcDbEntity
  8
0
100
AcDbLine
 10
57.4736
 20
1052.0
 30
0.0
 11
59.4055
 21
1052.0
 31
0.0
  0
LINE
  5
4E8
330
1E
100
AcDbEntity
  8
0
100
AcDbLine
 10
57.4736
 20
1052.0
 30
0.0
 11
57.4736
 21
1050.0
 31
0.0
  0
LINE
  5
4E9
330
1E
100
AcDbEntity
  8
0
100
AcDbLine
 10
55.0
 20
1050.0
 30
0.0
 11
55.0
 21
1052.0
 31
0.0
  0
LINE
  5
4EA
330
1E
100
AcDbEntity
  8
0
100
AcDbLine
 10
55.0
 20
1050.0
 30
0.0
 11
57.0
 21
1050.0
 31
0.0
  0
LINE
  5
4EB
330
1E
100
AcDbEntity
  8
0
100
AcDbLine
 10
55.0
 20
1052.0
 30
0.0
 11
56.956
 21
1052.0
 31
0.0
  0
LINE
  5
4EC
330
1E
100
AcDbEntity
  8
0
100
AcDbLine
 10
55.0
 20
1052.0
 30
0.0
 11
55.0
 21
1050.0
 31
0.0
  0
LINE
  5
4ED
330
1E
100
AcDbEntity
  8
0
100
AcDbLine
 10
54.9462
 20
1052.0
 30
0.0
 11
55.0
 21
1052.0
 31
0.0
  0
LINE
  5
4EE
330
1E
100
AcDbEntity
  8
0
100
AcDbLine
 10
54.9462
 20
1052.0
 30
0.0
 11
54.9462
 21
1050.0
 31
0.0
  0
LINE
  5
4EF
330
1E
100
AcDbEntity
  8
0
100
AcDbLine
 10
59.4055
 20
1052.0
 30
0.0
 11
60.8
 21
1052.0
 31
0.0
  0
LINE
  5
4F0
330
1E
100
AcDbEntity
  8
0
100
AcDbLine
 10
59.4055
 20
1052.0
 30
0.0
 11
59.4055
 21
1050.0
 31
0.0
  0
LINE
  5
4F1
330
1E
100
AcDbEntity
  8
0
100
AcDbLine
 10
36.0
 20
1052.0
 30
0.0
 11
47.7
 21
1052.0
 31
0.0
  0
LINE
  5
4F2
330
1E
100
AcDbEntity
  8
0
100
AcDbLine
 10
36.0
 20
1052.0
 30
0.0
 11
37.2276
 21
1052.0
 31
0.0
  0
LINE
  5
4F3
330
1E
100
AcDbEntity
  8
0
100
AcDbLine
 10
47.7
 20
1052.0
 30
0.0
 11
60.8
 21
1052.0
 31
0.0
  0
LINE
  5
4F4
330
1E
100
AcDbEntity
  8
0
100
AcDbLine
 10
47.7
 20
1052.0
 30
0.0
 11
50.218
 21
1052.0
 31
0.0
  0
LINE
  5
4F5
330
1E
100
AcDbEntity
  8
0
100
AcDbLine
 10
62.72429999999999
 20
1050.0
 30
0.0
 11
62.72429999999999
 21
1052.0
 31
0.0
  0
LINE
  5
4F6
330
1E
100
AcDbEntity
  8
0
100
AcDbLine
 10
62.72429999999999
 20
1050.0
 30
0.0
 11
64.13859999999999
 21
1050.0
 31
0.0
  0
LINE
  5
4F7
330
1E
100
AcDbEntity
  8
0
100
AcDbLine
 10
64.13859999999999
 20
1050.0
 30
0.0
 11
65.5528
 21
1050.0
 31
0.0
  0
LINE
  5
4F8
330
1E
100
AcDbEntity
  8
0
100
AcDbLine
 10
64.134
 20
1050.0
 30
0.0
 11
64.134
 21
1052.0
 31
0.0
  0
LINE
  5
4F9
330
1E
100
AcDbEntity
  8
0
100
AcDbLine
 10
64.134
 20
1050.0
 30
0.0
 11
65.866
 21
1050.0
 31
0.0
  0
LINE
  5
4FA
330
1E
100
AcDbEntity
  8
0
100
AcDbLine
 10
64.134
 20
1050.0
 30
0.0
 11
65.134
 21
1050.0
 31
0.0
  0
LINE
  5
4FB
330
1E
100
AcDbEntity
  8
0
100
AcDbLine
 10
63.2083
 20
1050.0
 30
0.0
 11
64.2084
 21
1050.0
 31
0.0
  0
LINE
  5
4FC
330
1E
100
AcDbEntity
  8
0
100
AcDbLine
 10
63.2083
 20
1050.0
 30
0.0
 11
64.9404
 21
1050.0
 31
0.0
  0
LINE
  5
4FD
330
1E
100
AcDbEntity
  8
0
100
AcDbLine
 10
65.134
 20
1050.0
 30
0.0
 11
66.866
 21
1050.0
 31
0.0
  0
LINE
  5
4FE
330
1E
100
AcDbEntity
  8
0
100
AcDbLine
 10
66.866
 20
1050.0
 30
0.0
 11
66.866
 21
1052.0
 31
0.0
  0
LINE
  5
4FF
330
1E
100
AcDbEntity
  8
0
100
AcDbLine
 10
65.866
 20
1050.0
 30
0.0
 11
65.866
 21
1052.0
 31
0.0
  0
LINE
  5
500
330
1E
100
AcDbEntity
  8
0
100
AcDbLine
 10
65.866
 20
1050.0
 30
0.0
 11
66.866
 21
1050.0
 31
0.0
  0
LINE
  5
501
330
1E
100
AcDbEntity
  8
0
100
AcDbLine
 10
64.9404
 20
1050.0
 30
0.0
 11
65.94039999999999
 21
1050.0
 31
0.0
  0
LINE
  5
502
330
1E
100
AcDbEntity
  8
0
100
AcDbLine
 10
64.2084
 20
1050.0
 30
0.0
 11
65.94039999999999
 21
1050.0
 31
0.0
  0
LINE
  5
503
330
1E
100
AcDbEntity
  8
0
100
AcDbLine
 10
62.72429999999999
 20
1052.0
 30
0.0
 11
64.134
 21
1052.0
 31
0.0
  0
LINE
  5
504
330
1E
100
AcDbEntity
  8
0
100
AcDbLine
 10
62.72429999999999
 20
1052.0
 30
0.0
 11
62.72429999999999
 21
1050.0
 31
0.0
  0
LINE
  5
505
330
1E
100
AcDbEntity
  8
0
100
AcDbLine
 10
64.134
 20
1052.0
 30
0.0
 11
65.866
 21
1052.0
 31
0.0
  0
LINE
  5
506
330
1E
100
AcDbEntity
  8
0
100
AcDbLine
 10
64.134
 20
1052.0
 30
0.0
 11
64.134
 21
1050.0
 31
0.0
  0
LINE
  5
507
330
1E
100
AcDbEntity
  8
0
100
AcDbLine
 10
65.866
 20
1052.0
 30
0.0
 11
66.866
 21
1052.0
 31
0.0
  0
LINE
  5
508
330
1E
100
AcDbEntity
  8
0
100
AcDbLine
 10
65.866
 20
1052.0
 30
0.0
 11
65.866
 21
1050.0
 31
0.0
  0
LINE
  5
509
330
1E
100
AcDbEntity
  8
0
100
AcDbLine
 10
70.0
 20
1050.0
 30
0.0
 11
70.0
 21
1052.0
 31
0.0
  0
LINE
  5
50A
330
1E
100
AcDbEntity
  8
0
100
AcDbLine
 10
70.0
 20
1050.0
 30
0.0
 11
72.0
 21
1050.0
 31
0.0
  0
LINE
  5
50B
330
1E
100
AcDbEntity
  8
0
100
AcDbLine
 10
71.634
 20
1050.0
 30
0.0
 11
71.634
 21
1052.0
 31
0.0
  0
LINE
  5
50C
330
1E
100
AcDbEntity
  8
0
100
AcDbLine
 10
71.634
 20
1050.0
 30
0.0
 11
73.366
 21
1050.0
 31
0.0
  0
LINE
  5
50D
330
1E
100
AcDbEntity
  8
0
100
AcDbLine
 10
71.634
 20
1050.0
 30
0.0
 11
72.634
 21
1050.0
 31
0.0
  0
LINE
  5
50E
330
1E
100
AcDbEntity
  8
0
100
AcDbLine
 10
71.44490000000001
 20
1050.0
 30
0.0
 11
71.44490000000001
 21
1052.0
 31
0.0
  0
LINE
  5
50F
330
1E
100
AcDbEntity
  8
0
100
AcDbLine
 10
71.44490000000001
 20
1050.0
 30
0.0
 11
71.9625
 21
1050.0
 31
0.0
  0
LINE
  5
510
330
1E
100
AcDbEntity
  8
0
100
AcDbLine
 10
71.44490000000001
 20
1050.0
 30
0.0
 11
73.3767
 21
1050.0
 31
0.0
  0
LINE
  5
511
330
1E
100
AcDbEntity
  8
0
100
AcDbLine
 10
73.331
 20
1050.0
 30
0.0
 11
74.7452
 21
1050.0
 31
0.0
  0
LINE
  5
512
330
1E
100
AcDbEntity
  8
0
100
AcDbLine
 10
72.634
 20
1050.0
 30
0.0
 11
74.366
 21
1050.0
 31
0.0
  0
LINE
  5
513
330
1E
100
AcDbEntity
  8
0
100
AcDbLine
 10
76.15940000000001
 20
1050.0
 30
0.0
 11
76.15940000000001
 21
1052.0
 31
0.0
  0
LINE
  5
514
330
1E
100
AcDbEntity
  8
0
100
AcDbLine
 10
74.7452
 20
1050.0
 30
0.0
 11
74.7452
 21
1052.0
 31
0.0
  0
LINE
  5
515
330
1E
100
AcDbEntity
  8
0
100
AcDbLine
 10
74.7452
 20
1050.0
 30
0.0
 11
76.15940000000001
 21
1050.0
 31
0.0
  0
LINE
  5
516
330
1E
100
AcDbEntity
  8
0
100
AcDbLine
 10
74.366
 20
1050.0
 30
0.0
 11
74.366
 21
1052.0
 31
0.0
  0
LINE
  5
517
330
1E
100
AcDbEntity
  8
0
100
AcDbLine
 10
73.366
 20
1050.0
 30
0.0
 11
73.366
 21
1052.0
 31
0.0
  0
LINE
  5
518
330
1E
100
AcDbEntity
  8
0
100
AcDbLine
 10
73.366
 20
1050.0
 30
0.0
 11
74.366
 21
1050.0
 31
0.0
  0
LINE
  5
519
330
1E
100
AcDbEntity
  8
0
100
AcDbLine
 10
73.3767
 20
1050.0
 30
0.0
 11
73.8944
 21
1050.0
 31
0.0
  0
LINE
  5
51A
330
1E
100
AcDbEntity
  8
0
100
AcDbLine
 10
71.9625
 20
1050.0
 30
0.0
 11
73.8944
 21
1050.0
 31
0.0
  0
LINE
  5
51B
330
1E
100
AcDbEntity
  8
0
100
AcDbLine
 10
71.634
 20
1052.0
 30
0.0
 11
73.366
 21
1052.0
 31
0.0
  0
LINE
  5
51C
330
1E
100
AcDbEntity
  8
0
100
AcDbLine
 10
71.634
 20
1052.0
 30
0.0
 11
71.634
 21
1050.0
 31
0.0
  0
LINE
  5
51D
330
1E
100
AcDbEntity
  8
0
100
AcDbLine
 10
74.7452
 20
1052.0
 30
0.0
 11
76.15940000000001
 21
1052.0
 31
0.0
  0
LINE
  5
51E
330
1E
100
AcDbEntity
  8
0
100
AcDbLine
 10
74.7452
 20
1052.0
 30
0.0
 11
74.7452
 21
1050.0
 31
0.0
  0
LINE
  5
51F
330
1E
100
AcDbEntity
  8
0
100
AcDbLine
 10
74.366
 20
1052.0
 30
0.0
 11
74.366
 21
1050.0
 31
0.0
  0
LINE
  5
520
330
1E
100
AcDbEntity
  8
0
100
AcDbLine
 10
74.366
 20
1052.0
 30
0.0
 11
74.7452
 21
1052.0
 31
0.0
  0
LINE
  5
521
330
1E
100
AcDbEntity
  8
0
100
AcDbLine
 10
73.366
 20
1052.0
 30
0.0
 11
74.366
 21
1052.0
 31
0.0
  0
LINE
  5
522
330
1E
100
AcDbEntity
  8
0
100
AcDbLine
 10
73.366
 20
1052.0
 30
0.0
 11
73.366
 21
1050.0
 31
0.0
  0
LINE
  5
523
330
1E
100
AcDbEntity
  8
0
100
AcDbLine
 10
71.44490000000001
 20
1052.0
 30
0.0
 11
71.634
 21
1052.0
 31
0.0
  0
LINE
  5
524
330
1E
100
AcDbEntity
  8
0
100
AcDbLine
 10
71.44490000000001
 20
1052.0
 30
0.0
 11
71.44490000000001
 21
1050.0
 31
0.0
  0
LINE
  5
525
330
1E
100
AcDbEntity
  8
0
100
AcDbLine
 10
70.0
 20
1052.0
 30
0.0
 11
71.44490000000001
 21
1052.0
 31
0.0
  0
LINE
  5
526
330
1E
100
AcDbEntity
  8
0
100
AcDbLine
 10
70.0
 20
1052.0
 30
0.0
 11
70.0
 21
1050.0
 31
0.0
  0
LINE
  5
527
330
1E
100
AcDbEntity
  8
0
100
AcDbLine
 10
66.866
 20
1052.0
 30
0.0
 11
70.0
 21
1052.0
 31
0.0
  0
LINE
  5
528
330
1E
100
AcDbEntity
  8
0
100
AcDbLine
 10
66.866
 20
1052.0
 30
0.0
 11
66.866
 21
1050.0
 31
0.0
  0
LINE
  5
529
330
1E
100
AcDbEntity
  8
0
100
AcDbLine
 10
76.1987
 20
1050.0
 30
0.0
 11
76.1987
 21
1052.0
 31
0.0
  0
LINE
  5
52A
330
1E
100
AcDbEntity
  8
0
100
AcDbLine
 10
76.1987
 20
1050.0
 30
0.0
 11
77.1987
 21
1050.0
 31
0.0
  0
LINE
  5
52B
330
1E
100
AcDbEntity
  8
0
100
AcDbLine
 10
76.1987
 20
1050.0
 30
0.0
 11
77.9308
 21
1050.0
 31
0.0
  0
LINE
  5
52C
330
1E
100
AcDbEntity
  8
0
100
AcDbLine
 10
76.1987
 20
1052.0
 30
0.0
 11
77.1987
 21
1052.0
 31
0.0
  0
LINE
  5
52D
330
1E
100
AcDbEntity
  8
0
100
AcDbLine
 10
76.1987
 20
1052.0
 30
0.0
 11
76.1987
 21
1050.0
 31
0.0
  0
LINE
  5
52E
330
1E
100
AcDbEntity
  8
0
100
AcDbLine
 10
80.13440000000001
 20
1050.0
 30
0.0
 11
81.8656
 21
1050.0
 31
0.0
  0
LINE
  5
52F
330
1E
100
AcDbEntity
  8
0
100
AcDbLine
 10
79.134
 20
1050.0
 30
0.0
 11
79.134
 21
1052.0
 31
0.0
  0
LINE
  5
530
330
1E
100
AcDbEntity
  8
0
100
AcDbLine
 10
79.134
 20
1050.0
 30
0.0
 11
80.8656
 21
1050.0
 31
0.0
  0
LINE
  5
531
330
1E
100
AcDbEntity
  8
0
100
AcDbLine
 10
79.134
 20
1050.0
 30
0.0
 11
80.13440000000001
 21
1050.0
 31
0.0
  0
LINE
  5
532
330
1E
100
AcDbEntity
  8
0
100
AcDbLine
 10
80.8656
 20
1050.0
 30
0.0
 11
80.8656
 21
1052.0
 31
0.0
  0
LINE
  5
533
330
1E
100
AcDbEntity
  8
0
100
AcDbLine
 10
80.8656
 20
1050.0
 30
0.0
 11
81.8656
 21
1050.0
 31
0.0
  0
LINE
  5
534
330
1E
100
AcDbEntity
  8
0
100
AcDbLine
 10
78.93080000000001
 20
1050.0
 30
0.0
 11
78.93080000000001
 21
1052.0
 31
0.0
  0
LINE
  5
535
330
1E
100
AcDbEntity
  8
0
100
AcDbLine
 10
79.134
 20
1052.0
 30
0.0
 11
80.8656
 21
1052.0
 31
0.0
  0
LINE
  5
536
330
1E
100
AcDbEntity
  8
0
100
AcDbLine
 10
79.134
 20
1052.0
 30
0.0
 11
79.134
 21
1050.0
 31
0.0
  0
LINE
  5
537
330
1E
100
AcDbEntity
  8
0
100
AcDbLine
 10
80.8656
 20
1052.0
 30
0.0
 11
81.8656
 21
1052.0
 31
0.0
  0
LINE
  5
538
330
1E
100
AcDbEntity
  8
0
100
AcDbLine
 10
80.8656
 20
1052.0
 30
0.0
 11
80.8656
 21
1050.0
 31
0.0
  0
LINE
  5
539
330
1E
100
AcDbEntity
  8
0
100
AcDbLine
 10
77.9308
 20
1050.0
 30
0.0
 11
78.93080000000001
 21
1050.0
 31
0.0
  0
LINE
  5
53A
330
1E
100
AcDbEntity
  8
0
100
AcDbLine
 10
77.1987
 20
1050.0
 30
0.0
 11
77.1987
 21
1052.0
 31
0.0
  0
LINE
  5
53B
330
1E
100
AcDbEntity
  8
0
100
AcDbLine
 10
77.1987
 20
1050.0
 30
0.0
 11
78.93080000000001
 21
1050.0
 31
0.0
  0
LINE
  5
53C
330
1E
100
AcDbEntity
  8
0
100
AcDbLine
 10
77.1987
 20
1052.0
 30
0.0
 11
78.93080000000001
 21
1052.0
 31
0.0
  0
LINE
  5
53D
330
1E
100
AcDbEntity
  8
0
100
AcDbLine
 10
77.1987
 20
1052.0
 30
0.0
 11
77.1987
 21
1050.0
 31
0.0
  0
LINE
  5
53E
330
1E
100
AcDbEntity
  8
0
100
AcDbLine
 10
76.15940000000001
 20
1052.0
 30
0.0
 11
76.15940000000001
 21
1050.0
 31
0.0
  0
LINE
  5
53F
330
1E
100
AcDbEntity
  8
0
100
AcDbLine
 10
78.93080000000001
 20
1052.0
 30
0.0
 11
79.134
 21
1052.0
 31
0.0
  0
LINE
  5
540
330
1E
100
AcDbEntity
  8
0
100
AcDbLine
 10
78.93080000000001
 20
1052.0
 30
0.0
 11
78.93080000000001
 21
1050.0
 31
0.0
  0
LINE
  5
541
330
1E
100
AcDbEntity
  8
0
100
AcDbLine
 10
60.8
 20
1052.0
 30
0.0
 11
74.5
 21
1052.0
 31
0.0
  0
LINE
  5
542
330
1E
100
AcDbEntity
  8
0
100
AcDbLine
 10
60.8
 20
1052.0
 30
0.0
 11
62.72429999999999
 21
1052.0
 31
0.0
  0
LINE
  5
543
330
1E
100
AcDbEntity
  8
0
100
AcDbLine
 10
74.5
 20
1052.0
 30
0.0
 11
89.29999999999999
 21
1052.0
 31
0.0
  0
LINE
  5
544
330
1E
100
AcDbEntity
  8
0
100
AcDbLine
 10
25.8
 20
1052.0
 30
0.0
 11
36.0
 21
1052.0
 31
0.0
  0
LINE
  5
545
330
1E
100
AcDbEntity
  8
0
100
AcDbLine
 10
16.89999999999999
 20
1052.0
 30
0.0
 11
25.8
 21
1052.0
 31
0.0
  0
LINE
  5
546
330
1E
100
AcDbEntity
  8
0
100
AcDbLine
 10
16.89999999999999
 20
1052.0
 30
0.0
 11
24.2372
 21
1052.0
 31
0.0
  0
LINE
  5
547
330
1E
100
AcDbEntity
  8
0
100
AcDbLine
 10
10.3
 20
1052.0
 30
0.0
 11
16.89999999999999
 21
1052.0
 31
0.0
  0
LINE
  5
548
330
1E
100
AcDbEntity
  8
0
100
AcDbLine
 10
5.299999999999999
 20
1052.0
 30
0.0
 11
10.3
 21
1052.0
 31
0.0
  0
LINE
  5
549
330
1E
100
AcDbEntity
  8
0
100
AcDbLine
 10
5.299999999999999
 20
1052.0
 30
0.0
 11
10.0
 21
1052.0
 31
0.0
  0
LINE
  5
54A
330
1E
100
AcDbEntity
  8
0
100
AcDbLine
 10
2.2
 20
1052.0
 30
0.0
 11
5.299999999999999
 21
1052.0
 31
0.0
  0
LINE
  5
54B
330
1E
100
AcDbEntity
  8
0
100
AcDbLine
 10
0.0000000000000017
 20
1061.0
 30
0.0
 11
0.0000000000000017
 21
1053.0
 31
0.0
  0
LINE
  5
54C
330
1E
100
AcDbEntity
  8
0
100
AcDbLine
 10
0.0000000000000017
 20
1061.0
 30
0.0
 11
1.199999999999999
 21
1061.0
 31
0.0
  0
LINE
  5
54D
330
1E
100
AcDbEntity
  8
0
100
AcDbLine
 10
0.0000000000000017
 20
1061.0
 30
0.0
 11
1.0
 21
1062.0
 31
0.0
  0
LINE
  5
54E
330
1E
100
AcDbEntity
  8
0
100
AcDbLine
 10
35.29999999999999
 20
1053.0
 30
0.0
 11
47.09999999999999
 21
1053.0
 31
0.0
  0
LINE
  5
54F
330
1E
100
AcDbEntity
  8
0
100
AcDbLine
 10
47.09999999999999
 20
1053.0
 30
0.0
 11
60.3
 21
1053.0
 31
0.0
  0
LINE
  5
550
330
1E
100
AcDbEntity
  8
0
100
AcDbLine
 10
60.3
 20
1053.0
 30
0.0
 11
74.2
 21
1053.0
 31
0.0
  0
LINE
  5
551
330
1E
100
AcDbEntity
  8
0
100
AcDbLine
 10
74.2
 20
1053.0
 30
0.0
 11
89.0
 21
1053.0
 31
0.0
  0
LINE
  5
552
330
1E
100
AcDbEntity
  8
0
100
AcDbLine
 10
25.0
 20
1053.0
 30
0.0
 11
35.29999999999999
 21
1053.0
 31
0.0
  0
LINE
  5
553
330
1E
100
AcDbEntity
  8
0
100
AcDbLine
 10
16.1
 20
1053.0
 30
0.0
 11
25.0
 21
1053.0
 31
0.0
  0
LINE
  5
554
330
1E
100
AcDbEntity
  8
0
100
AcDbLine
 10
9.4
 20
1053.0
 30
0.0
 11
16.1
 21
1053.0
 31
0.0
  0
LINE
  5
555
330
1E
100
AcDbEntity
  8
0
100
AcDbLine
 10
4.299999999999999
 20
1053.0
 30
0.0
 11
9.4
 21
1053.0
 31
0.0
  0
LINE
  5
556
330
1E
100
AcDbEntity
  8
0
100
AcDbLine
 10
1.0
 20
1062.0
 30
0.0
 11
2.2
 21
1062.0
 31
0.0
  0
LINE
  5
557
330
1E
100
AcDbEntity
  8
0
100
AcDbLine
 10
35.29999999999999
 20
1061.0
 30
0.0
 11
47.09999999999999
 21
1061.0
 31
0.0
  0
LINE
  5
558
330
1E
100
AcDbEntity
  8
0
100
AcDbLine
 10
47.09999999999999
 20
1061.0
 30
0.0
 11
60.3
 21
1061.0
 31
0.0
  0
LINE
  5
559
330
1E
100
AcDbEntity
  8
0
100
AcDbLine
 10
60.3
 20
1061.0
 30
0.0
 11
74.2
 21
1061.0
 31
0.0
  0
LINE
  5
55A
330
1E
100
AcDbEntity
  8
0
100
AcDbLine
 10
74.2
 20
1061.0
 30
0.0
 11
89.0
 21
1061.0
 31
0.0
  0
LINE
  5
55B
330
1E
100
AcDbEntity
  8
0
100
AcDbLine
 10
25.0
 20
1061.0
 30
0.0
 11
35.29999999999999
 21
1061.0
 31
0.0
  0
LINE
  5
55C
330
1E
100
AcDbEntity
  8
0
100
AcDbLine
 10
16.1
 20
1061.0
 30
0.0
 11
25.0
 21
1061.0
 31
0.0
  0
LINE
  5
55D
330
1E
100
AcDbEntity
  8
0
100
AcDbLine
 10
9.4
 20
1061.0
 30
0.0
 11
16.1
 21
1061.0
 31
0.0
  0
LINE
  5
55E
330
1E
100
AcDbEntity
  8
0
100
AcDbLine
 10
36.0
 20
1062.0
 30
0.0
 11
47.7
 21
1062.0
 31
0.0
  0
LINE
  5
55F
330
1E
100
AcDbEntity
  8
0
100
AcDbLine
 10
47.7
 20
1062.0
 30
0.0
 11
60.8
 21
1062.0
 31
0.0
  0
LINE
  5
560
330
1E
100
AcDbEntity
  8
0
100
AcDbLine
 10
70.0
 20
1062.0
 30
0.0
 11
70.0
 21
1065.0
 31
0.0
  0
LINE
  5
561
330
1E
100
AcDbEntity
  8
0
100
AcDbLine
 10
60.8
 20
1062.0
 30
0.0
 11
74.5
 21
1062.0
 31
0.0
  0
LINE
  5
562
330
1E
100
AcDbEntity
  8
0
100
AcDbLine
 10
74.5
 20
1062.0
 30
0.0
 11
89.29999999999999
 21
1062.0
 31
0.0
  0
LINE
  5
563
330
1E
100
AcDbEntity
  8
0
100
AcDbLine
 10
25.8
 20
1062.0
 30
0.0
 11
36.0
 21
1062.0
 31
0.0
  0
LINE
  5
564
330
1E
100
AcDbEntity
  8
0
100
AcDbLine
 10
16.89999999999999
 20
1062.0
 30
0.0
 11
25.8
 21
1062.0
 31
0.0
  0
LINE
  5
565
330
1E
100
AcDbEntity
  8
0
100
AcDbLine
 10
10.3
 20
1062.0
 30
0.0
 11
16.89999999999999
 21
1062.0
 31
0.0
  0
LINE
  5
566
330
1E
100
AcDbEntity
  8
0
100
AcDbLine
 10
80.4
 20
1065.0
 30
0.0
 11
84.7
 21
1065.0
 31
0.0
  0
LINE
  5
567
330
1E
100
AcDbEntity
  8
0
100
AcDbLine
 10
76.7
 20
1065.0
 30
0.0
 11
80.4
 21
1065.0
 31
0.0
  0
LINE
  5
568
330
1E
100
AcDbEntity
  8
0
100
AcDbLine
 10
73.9
 20
1065.0
 30
0.0
 11
76.7
 21
1065.0
 31
0.0
  0
LINE
  5
569
330
1E
100
AcDbEntity
  8
0
100
AcDbLine
 10
71.79999999999999
 20
1065.0
 30
0.0
 11
73.9
 21
1065.0
 31
0.0
  0
LINE
  5
56A
330
1E
100
AcDbEntity
  8
0
100
AcDbLine
 10
70.5
 20
1065.0
 30
0.0
 11
71.79999999999999
 21
1065.0
 31
0.0
  0
LINE
  5
56B
330
1E
100
AcDbEntity
  8
0
100
AcDbLine
 10
70.0
 20
1065.0
 30
0.0
 11
70.0
 21
1062.0
 31
0.0
  0
LINE
  5
56C
330
1E
100
AcDbEntity
  8
0
100
AcDbLine
 10
70.0
 20
1065.0
 30
0.0
 11
70.5
 21
1065.0
 31
0.0
  0
LINE
  5
56D
330
1E
100
AcDbEntity
  8
0
100
AcDbLine
 10
5.299999999999999
 20
1062.0
 30
0.0
 11
10.3
 21
1062.0
 31
0.0
  0
LINE
  5
56E
330
1E
100
AcDbEntity
  8
0
100
AcDbLine
 10
2.2
 20
1062.0
 30
0.0
 11
5.299999999999999
 21
1062.0
 31
0.0
  0
LINE
  5
56F
330
1E
100
AcDbEntity
  8
0
100
AcDbLine
 10
4.299999999999999
 20
1061.0
 30
0.0
 11
9.4
 21
1061.0
 31
0.0
  0
LINE
  5
570
330
1E
100
AcDbEntity
  8
0
100
AcDbLine
 10
1.199999999999999
 20
1061.0
 30
0.0
 11
4.299999999999999
 21
1061.0
 31
0.0
  0
LINE
  5
571
330
1E
100
AcDbEntity
  8
0
100
AcDbLine
 10
1.199999999999999
 20
1053.0
 30
0.0
 11
4.299999999999999
 21
1053.0
 31
0.0
  0
LINE
  5
572
330
1E
100
AcDbEntity
  8
0
100
AcDbLine
 10
0.0000000000000017
 20
1053.0
 30
0.0
 11
1.199999999999999
 21
1053.0
 31
0.0
  0
LINE
  5
573
330
1E
100
AcDbEntity
  8
0
100
AcDbLine
 10
0.0000000000000017
 20
1053.0
 30
0.0
 11
1.0
 21
1052.0
 31
0.0
  0
LINE
  5
574
330
1E
100
AcDbEntity
  8
0
100
AcDbLine
 10
0.0000000000000017
 20
1053.0
 30
0.0
 11
0.0000000000000017
 21
1061.0
 31
0.0
  0
LINE
  5
575
330
1E
100
AcDbEntity
  8
0
100
AcDbLine
 10
1.0
 20
1052.0
 30
0.0
 11
2.2
 21
1052.0
 31
0.0
  0
LINE
  5
576
330
1E
100
AcDbEntity
  8
0
100
AcDbLine
 10
81.44
 20
1074.76
 30
0.0
 11
85.28
 21
1065.16
 31
0.0
  0
LINE
  5
579
330
1E
100
AcDbEntity
  8
0
100
AcDbLine
 10
80.0
 20
1085.0
 30
0.0
 11
81.44
 21
1095.24
 31
0.0
  0
LINE
  5
57A
330
1E
100
AcDbEntity
  8
0
100
AcDbLine
 10
80.0
 20
1085.0
 30
0.0
 11
81.44
 21
1074.76
 31
0.0
  0
LINE
  5
57B
330
1E
100
AcDbEntity
  8
0
100
AcDbLine
 10
81.8656
 20
1050.0
 30
0.0
 11
81.8656
 21
1052.0
 31
0.0
  0
LINE
  5
57C
330
1E
100
AcDbEntity
  8
0
100
AcDbLine
 10
83.9376
 20
1050.0
 30
0.0
 11
83.9376
 21
1052.0
 31
0.0
  0
LINE
  5
57D
330
1E
100
AcDbEntity
  8
0
100
AcDbLine
 10
83.9376
 20
1050.0
 30
0.0
 11
85.35200000000001
 21
1050.0
 31
0.0
  0
LINE
  5
57E
330
1E
100
AcDbEntity
  8
0
100
AcDbLine
 10
83.9376
 20
1052.0
 30
0.0
 11
85.35200000000001
 21
1052.0
 31
0.0
  0
LINE
  5
57F
330
1E
100
AcDbEntity
  8
0
100
AcDbLine
 10
83.9376
 20
1052.0
 30
0.0
 11
83.9376
 21
1050.0
 31
0.0
  0
LINE
  5
580
330
1E
100
AcDbEntity
  8
0
100
AcDbLine
 10
85.0
 20
1050.0
 30
0.0
 11
87.0
 21
1050.0
 31
0.0
  0
LINE
  5
581
330
1E
100
AcDbEntity
  8
0
100
AcDbLine
 10
84.7
 20
1065.0
 30
0.0
 11
89.59999999999999
 21
1065.0
 31
0.0
  0
LINE
  5
582
330
1E
100
AcDbEntity
  8
0
100
AcDbLine
 10
81.8656
 20
1052.0
 30
0.0
 11
83.9376
 21
1052.0
 31
0.0
  0
LINE
  5
583
330
1E
100
AcDbEntity
  8
0
100
AcDbLine
 10
81.8656
 20
1052.0
 30
0.0
 11
81.8656
 21
1050.0
 31
0.0
  0
LINE
  5
585
330
1E
100
AcDbEntity
  8
0
100
AcDbLine
 10
85.28
 20
1065.16
 30
0.0
 11
85.400754716981
 21
1065.0
 31
0.0
  0
LINE
  5
587
330
1E
100
AcDbEntity
  8
0
100
AcDbLine
 10
85.35200000000001
 20
1050.0
 30
0.0
 11
85.35200000000001
 21
1052.0
 31
0.0
  0
LINE
  5
588
330
1E
100
AcDbEntity
  8
0
100
AcDbLine
 10
85.35200000000001
 20
1050.0
 30
0.0
 11
86.7656
 21
1050.0
 31
0.0
  0
LINE
  5
589
330
1E
100
AcDbEntity
  8
0
100
AcDbLine
 10
87.63440000000001
 20
1050.0
 30
0.0
 11
89.3656
 21
1050.0
 31
0.0
  0
LINE
  5
58A
330
1E
100
AcDbEntity
  8
0
100
AcDbLine
 10
86.63439999999999
 20
1050.0
 30
0.0
 11
86.63439999999999
 21
1052.0
 31
0.0
  0
LINE
  5
58B
330
1E
100
AcDbEntity
  8
0
100
AcDbLine
 10
86.63439999999999
 20
1050.0
 30
0.0
 11
88.3656
 21
1050.0
 31
0.0
  0
LINE
  5
58C
330
1E
100
AcDbEntity
  8
0
100
AcDbLine
 10
86.63439999999999
 20
1050.0
 30
0.0
 11
87.63440000000001
 21
1050.0
 31
0.0
  0
LINE
  5
58D
330
1E
100
AcDbEntity
  8
0
100
AcDbLine
 10
89.3656
 20
1050.0
 30
0.0
 11
89.3656
 21
1052.0
 31
0.0
  0
LINE
  5
58E
330
1E
100
AcDbEntity
  8
0
100
AcDbLine
 10
88.3656
 20
1050.0
 30
0.0
 11
88.3656
 21
1052.0
 31
0.0
  0
LINE
  5
58F
330
1E
100
AcDbEntity
  8
0
100
AcDbLine
 10
88.3656
 20
1050.0
 30
0.0
 11
89.3656
 21
1050.0
 31
0.0
  0
LINE
  5
590
330
1E
100
AcDbEntity
  8
0
100
AcDbLine
 10
89.18879999999999
 20
1050.0
 30
0.0
 11
90.18880000000001
 21
1050.0
 31
0.0
  0
LINE
  5
591
330
1E
100
AcDbEntity
  8
0
100
AcDbLine
 10
89.18879999999999
 20
1050.0
 30
0.0
 11
90.92080000000001
 21
1050.0
 31
0.0
  0
LINE
  5
592
330
1E
100
AcDbEntity
  8
0
100
AcDbLine
 10
91.08159999999999
 20
1050.0
 30
0.0
 11
93.0136
 21
1050.0
 31
0.0
  0
LINE
  5
593
330
1E
100
AcDbEntity
  8
0
100
AcDbLine
 10
90.564
 20
1050.0
 30
0.0
 11
90.564
 21
1052.0
 31
0.0
  0
LINE
  5
594
330
1E
100
AcDbEntity
  8
0
100
AcDbLine
 10
90.564
 20
1050.0
 30
0.0
 11
92.496
 21
1050.0
 31
0.0
  0
LINE
  5
595
330
1E
100
AcDbEntity
  8
0
100
AcDbLine
 10
90.564
 20
1050.0
 30
0.0
 11
91.08159999999999
 21
1050.0
 31
0.0
  0
LINE
  5
596
330
1E
100
AcDbEntity
  8
0
100
AcDbLine
 10
94.54399999999999
 20
1050.0
 30
0.0
 11
95.9584
 21
1050.0
 31
0.0
  0
LINE
  5
597
330
1E
100
AcDbEntity
  8
0
100
AcDbLine
 10
94.13439999999999
 20
1050.0
 30
0.0
 11
94.13439999999999
 21
1052.0
 31
0.0
  0
LINE
  5
598
330
1E
100
AcDbEntity
  8
0
100
AcDbLine
 10
94.13439999999999
 20
1050.0
 30
0.0
 11
95.8656
 21
1050.0
 31
0.0
  0
LINE
  5
599
330
1E
100
AcDbEntity
  8
0
100
AcDbLine
 10
94.13439999999999
 20
1050.0
 30
0.0
 11
95.13440000000001
 21
1050.0
 31
0.0
  0
LINE
  5
59A
330
1E
100
AcDbEntity
  8
0
100
AcDbLine
 10
95.9584
 20
1050.0
 30
0.0
 11
97.3728
 21
1050.0
 31
0.0
  0
LINE
  5
59B
330
1E
100
AcDbEntity
  8
0
100
AcDbLine
 10
95.13440000000001
 20
1050.0
 30
0.0
 11
96.8656
 21
1050.0
 31
0.0
  0
LINE
  5
59C
330
1E
100
AcDbEntity
  8
0
100
AcDbLine
 10
95.8656
 20
1050.0
 30
0.0
 11
96.8656
 21
1050.0
 31
0.0
  0
LINE
  5
59D
330
1E
100
AcDbEntity
  8
0
100
AcDbLine
 10
94.96399999999999
 20
1050.0
 30
0.0
 11
96.896
 21
1050.0
 31
0.0
  0
LINE
  5
59E
330
1E
100
AcDbEntity
  8
0
100
AcDbLine
 10
94.44639999999999
 20
1050.0
 30
0.0
 11
94.44639999999999
 21
1052.0
 31
0.0
  0
LINE
  5
59F
330
1E
100
AcDbEntity
  8
0
100
AcDbLine
 10
94.44639999999999
 20
1050.0
 30
0.0
 11
96.3784
 21
1050.0
 31
0.0
  0
LINE
  5
5A0
330
1E
100
AcDbEntity
  8
0
100
AcDbLine
 10
94.44639999999999
 20
1050.0
 30
0.0
 11
94.96399999999999
 21
1050.0
 31
0.0
  0
LINE
  5
5A1
330
1E
100
AcDbEntity
  8
0
100
AcDbLine
 10
97.3728
 20
1050.0
 30
0.0
 11
97.3728
 21
1052.0
 31
0.0
  0
LINE
  5
5A2
330
1E
100
AcDbEntity
  8
0
100
AcDbLine
 10
98.8464
 20
1050.0
 30
0.0
 11
100.7779999999999
 21
1050.0
 31
0.0
  0
LINE
  5
5A3
330
1E
100
AcDbEntity
  8
0
100
AcDbLine
 10
98.32880000000001
 20
1050.0
 30
0.0
 11
98.32880000000001
 21
1052.0
 31
0.0
  0
LINE
  5
5A4
330
1E
100
AcDbEntity
  8
0
100
AcDbLine
 10
98.32880000000001
 20
1050.0
 30
0.0
 11
100.26
 21
1050.0
 31
0.0
  0
LINE
  5
5A5
330
1E
100
AcDbEntity
  8
0
100
AcDbLine
 10
98.32880000000001
 20
1050.0
 30
0.0
 11
98.8464
 21
1050.0
 31
0.0
  0
LINE
  5
5A6
330
1E
100
AcDbEntity
  8
0
100
AcDbLine
 10
96.896
 20
1050.0
 30
0.0
 11
96.896
 21
1052.0
 31
0.0
  0
LINE
  5
5A7
330
1E
100
AcDbEntity
  8
0
100
AcDbLine
 10
96.3784
 20
1050.0
 30
0.0
 11
96.3784
 21
1052.0
 31
0.0
  0
LINE
  5
5A8
330
1E
100
AcDbEntity
  8
0
100
AcDbLine
 10
96.3784
 20
1050.0
 30
0.0
 11
96.896
 21
1050.0
 31
0.0
  0
LINE
  5
5A9
330
1E
100
AcDbEntity
  8
0
100
AcDbLine
 10
93.0136
 20
1050.0
 30
0.0
 11
93.0136
 21
1052.0
 31
0.0
  0
LINE
  5
5AA
330
1E
100
AcDbEntity
  8
0
100
AcDbLine
 10
92.496
 20
1050.0
 30
0.0
 11
92.496
 21
1052.0
 31
0.0
  0
LINE
  5
5AB
330
1E
100
AcDbEntity
  8
0
100
AcDbLine
 10
92.496
 20
1050.0
 30
0.0
 11
93.0136
 21
1050.0
 31
0.0
  0
LINE
  5
5AC
330
1E
100
AcDbEntity
  8
0
100
AcDbLine
 10
90.92080000000001
 20
1050.0
 30
0.0
 11
91.9208
 21
1050.0
 31
0.0
  0
LINE
  5
5AD
330
1E
100
AcDbEntity
  8
0
100
AcDbLine
 10
90.18880000000001
 20
1050.0
 30
0.0
 11
90.18880000000001
 21
1052.0
 31
0.0
  0
LINE
  5
5AE
330
1E
100
AcDbEntity
  8
0
100
AcDbLine
 10
90.18880000000001
 20
1050.0
 30
0.0
 11
91.9208
 21
1050.0
 31
0.0
  0
LINE
  5
5AF
330
1E
100
AcDbEntity
  8
0
100
AcDbLine
 10
87.86559999999999
 20
1050.0
 30
0.0
 11
88.38320000000001
 21
1050.0
 31
0.0
  0
LINE
  5
5B0
330
1E
100
AcDbEntity
  8
0
100
AcDbLine
 10
85.9336
 20
1050.0
 30
0.0
 11
86.4512
 21
1050.0
 31
0.0
  0
LINE
  5
5B1
330
1E
100
AcDbEntity
  8
0
100
AcDbLine
 10
85.9336
 20
1050.0
 30
0.0
 11
87.86559999999999
 21
1050.0
 31
0.0
  0
LINE
  5
5B2
330
1E
100
AcDbEntity
  8
0
100
AcDbLine
 10
86.4512
 20
1050.0
 30
0.0
 11
88.38320000000001
 21
1050.0
 31
0.0
  0
LINE
  5
5B3
330
1E
100
AcDbEntity
  8
0
100
AcDbLine
 10
100.7779999999999
 20
1050.0
 30
0.0
 11
100.7779999999999
 21
1052.0
 31
0.0
  0
LINE
  5
5B4
330
1E
100
AcDbEntity
  8
0
100
AcDbLine
 10
100.26
 20
1050.0
 30
0.0
 11
100.26
 21
1052.0
 31
0.0
  0
LINE
  5
5B5
330
1E
100
AcDbEntity
  8
0
100
AcDbLine
 10
100.26
 20
1050.0
 30
0.0
 11
100.7779999999999
 21
1050.0
 31
0.0
  0
LINE
  5
5B6
330
1E
100
AcDbEntity
  8
0
100
AcDbLine
 10
100.4229999999999
 20
1050.0
 30
0.0
 11
100.94
 21
1050.0
 31
0.0
  0
LINE
  5
5B7
330
1E
100
AcDbEntity
  8
0
100
AcDbLine
 10
100.4229999999999
 20
1050.0
 30
0.0
 11
102.3549999999999
 21
1050.0
 31
0.0
  0
LINE
  5
5B8
330
1E
100
AcDbEntity
  8
0
100
AcDbLine
 10
102.7279999999999
 20
1050.0
 30
0.0
 11
104.6599999999999
 21
1050.0
 31
0.0
  0
LINE
  5
5B9
330
1E
100
AcDbEntity
  8
0
100
AcDbLine
 10
102.211
 20
1050.0
 30
0.0
 11
102.211
 21
1052.0
 31
0.0
  0
LINE
  5
5BA
330
1E
100
AcDbEntity
  8
0
100
AcDbLine
 10
102.211
 20
1050.0
 30
0.0
 11
104.1429999999999
 21
1050.0
 31
0.0
  0
LINE
  5
5BB
330
1E
100
AcDbEntity
  8
0
100
AcDbLine
 10
102.211
 20
1050.0
 30
0.0
 11
102.7279999999999
 21
1050.0
 31
0.0
  0
LINE
  5
5BC
330
1E
100
AcDbEntity
  8
0
100
AcDbLine
 10
102.634
 20
1050.0
 30
0.0
 11
104.366
 21
1050.0
 31
0.0
  0
LINE
  5
5BD
330
1E
100
AcDbEntity
  8
0
100
AcDbLine
 10
101.634
 20
1050.0
 30
0.0
 11
101.634
 21
1052.0
 31
0.0
  0
LINE
  5
5BE
330
1E
100
AcDbEntity
  8
0
100
AcDbLine
 10
101.634
 20
1050.0
 30
0.0
 11
103.366
 21
1050.0
 31
0.0
  0
LINE
  5
5BF
330
1E
100
AcDbEntity
  8
0
100
AcDbLine
 10
101.634
 20
1050.0
 30
0.0
 11
102.634
 21
1050.0
 31
0.0
  0
LINE
  5
5C0
330
1E
100
AcDbEntity
  8
0
100
AcDbLine
 10
102.1789999999999
 20
1050.0
 30
0.0
 11
103.1789999999999
 21
1050.0
 31
0.0
  0
LINE
  5
5C1
330
1E
100
AcDbEntity
  8
0
100
AcDbLine
 10
102.1789999999999
 20
1050.0
 30
0.0
 11
103.912
 21
1050.0
 31
0.0
  0
LINE
  5
5C2
330
1E
100
AcDbEntity
  8
0
100
AcDbLine
 10
103.366
 20
1050.0
 30
0.0
 11
104.366
 21
1050.0
 31
0.0
  0
LINE
  5
5C3
330
1E
100
AcDbEntity
  8
0
100
AcDbLine
 10
103.1789999999999
 20
1050.0
 30
0.0
 11
104.912
 21
1050.0
 31
0.0
  0
LINE
  5
5C4
330
1E
100
AcDbEntity
  8
0
100
AcDbLine
 10
102.3549999999999
 20
1050.0
 30
0.0
 11
102.872
 21
1050.0
 31
0.0
  0
LINE
  5
5C5
330
1E
100
AcDbEntity
  8
0
100
AcDbLine
 10
100.94
 20
1050.0
 30
0.0
 11
100.94
 21
1052.0
 31
0.0
  0
LINE
  5
5C6
330
1E
100
AcDbEntity
  8
0
100
AcDbLine
 10
100.94
 20
1050.0
 30
0.0
 11
102.872
 21
1050.0
 31
0.0
  0
LINE
  5
5C7
330
1E
100
AcDbEntity
  8
0
100
AcDbLine
 10
100.0
 20
1050.0
 30
0.0
 11
102.0
 21
1050.0
 31
0.0
  0
LINE
  5
5C8
330
1E
100
AcDbEntity
  8
0
100
AcDbLine
 10
104.6599999999999
 20
1050.0
 30
0.0
 11
104.6599999999999
 21
1052.0
 31
0.0
  0
LINE
  5
5C9
330
1E
100
AcDbEntity
  8
0
100
AcDbLine
 10
104.1429999999999
 20
1050.0
 30
0.0
 11
104.1429999999999
 21
1052.0
 31
0.0
  0
LINE
  5
5CA
330
1E
100
AcDbEntity
  8
0
100
AcDbLine
 10
104.1429999999999
 20
1050.0
 30
0.0
 11
104.6599999999999
 21
1050.0
 31
0.0
  0
LINE
  5
5CB
330
1E
100
AcDbEntity
  8
0
100
AcDbLine
 10
105.151
 20
1050.0
 30
0.0
 11
105.151
 21
1052.0
 31
0.0
  0
LINE
  5
5CC
330
1E
100
AcDbEntity
  8
0
100
AcDbLine
 10
105.151
 20
1050.0
 30
0.0
 11
106.5649999999999
 21
1050.0
 31
0.0
  0
LINE
  5
5CD
330
1E
100
AcDbEntity
  8
0
100
AcDbLine
 10
106.5649999999999
 20
1050.0
 30
0.0
 11
107.979
 21
1050.0
 31
0.0
  0
LINE
  5
5CE
330
1E
100
AcDbEntity
  8
0
100
AcDbLine
 10
109.1339999999999
 20
1050.0
 30
0.0
 11
109.1339999999999
 21
1052.0
 31
0.0
  0
LINE
  5
5CF
330
1E
100
AcDbEntity
  8
0
100
AcDbLine
 10
109.1339999999999
 20
1050.0
 30
0.0
 11
110.8659999999999
 21
1050.0
 31
0.0
  0
LINE
  5
5D0
330
1E
100
AcDbEntity
  8
0
100
AcDbLine
 10
109.1339999999999
 20
1050.0
 30
0.0
 11
110.1339999999999
 21
1050.0
 31
0.0
  0
LINE
  5
5D1
330
1E
100
AcDbEntity
  8
0
100
AcDbLine
 10
108.5429999999999
 20
1050.0
 30
0.0
 11
108.5429999999999
 21
1052.0
 31
0.0
  0
LINE
  5
5D2
330
1E
100
AcDbEntity
  8
0
100
AcDbLine
 10
106.611
 20
1050.0
 30
0.0
 11
108.5429999999999
 21
1050.0
 31
0.0
  0
LINE
  5
5D3
330
1E
100
AcDbEntity
  8
0
100
AcDbLine
 10
106.0929999999999
 20
1050.0
 30
0.0
 11
106.0929999999999
 21
1052.0
 31
0.0
  0
LINE
  5
5D4
330
1E
100
AcDbEntity
  8
0
100
AcDbLine
 10
106.0929999999999
 20
1050.0
 30
0.0
 11
108.025
 21
1050.0
 31
0.0
  0
LINE
  5
5D5
330
1E
100
AcDbEntity
  8
0
100
AcDbLine
 10
106.0929999999999
 20
1050.0
 30
0.0
 11
106.611
 21
1050.0
 31
0.0
  0
LINE
  5
5D6
330
1E
100
AcDbEntity
  8
0
100
AcDbLine
 10
108.025
 20
1050.0
 30
0.0
 11
108.025
 21
1052.0
 31
0.0
  0
LINE
  5
5D7
330
1E
100
AcDbEntity
  8
0
100
AcDbLine
 10
108.025
 20
1050.0
 30
0.0
 11
108.5429999999999
 21
1050.0
 31
0.0
  0
LINE
  5
5D8
330
1E
100
AcDbEntity
  8
0
100
AcDbLine
 10
104.912
 20
1050.0
 30
0.0
 11
104.912
 21
1052.0
 31
0.0
  0
LINE
  5
5D9
330
1E
100
AcDbEntity
  8
0
100
AcDbLine
 10
103.912
 20
1050.0
 30
0.0
 11
104.912
 21
1050.0
 31
0.0
  0
LINE
  5
5DA
330
1E
100
AcDbEntity
  8
0
100
AcDbLine
 10
103.6366666666669
 20
1050.0
 30
0.0
 11
109.0
 21
1047.78068965517
 31
0.0
  0
LINE
  5
5DB
330
1E
100
AcDbEntity
  8
0
100
AcDbLine
 10
85.35200000000001
 20
1052.0
 30
0.0
 11
86.63439999999999
 21
1052.0
 31
0.0
  0
LINE
  5
5DC
330
1E
100
AcDbEntity
  8
0
100
AcDbLine
 10
85.35200000000001
 20
1052.0
 30
0.0
 11
85.35200000000001
 21
1050.0
 31
0.0
  0
LINE
  5
5DD
330
1E
100
AcDbEntity
  8
0
100
AcDbLine
 10
86.63439999999999
 20
1052.0
 30
0.0
 11
88.3656
 21
1052.0
 31
0.0
  0
LINE
  5
5DE
330
1E
100
AcDbEntity
  8
0
100
AcDbLine
 10
86.63439999999999
 20
1052.0
 30
0.0
 11
86.63439999999999
 21
1050.0
 31
0.0
  0
LINE
  5
5DF
330
1E
100
AcDbEntity
  8
0
100
AcDbLine
 10
88.3656
 20
1052.0
 30
0.0
 11
89.3656
 21
1052.0
 31
0.0
  0
LINE
  5
5E0
330
1E
100
AcDbEntity
  8
0
100
AcDbLine
 10
88.3656
 20
1052.0
 30
0.0
 11
88.3656
 21
1050.0
 31
0.0
  0
LINE
  5
5E1
330
1E
100
AcDbEntity
  8
0
100
AcDbLine
 10
90.564
 20
1052.0
 30
0.0
 11
92.496
 21
1052.0
 31
0.0
  0
LINE
  5
5E2
330
1E
100
AcDbEntity
  8
0
100
AcDbLine
 10
90.564
 20
1052.0
 30
0.0
 11
90.564
 21
1050.0
 31
0.0
  0
LINE
  5
5E3
330
1E
100
AcDbEntity
  8
0
100
AcDbLine
 10
92.496
 20
1052.0
 30
0.0
 11
93.0136
 21
1052.0
 31
0.0
  0
LINE
  5
5E4
330
1E
100
AcDbEntity
  8
0
100
AcDbLine
 10
92.496
 20
1052.0
 30
0.0
 11
92.496
 21
1050.0
 31
0.0
  0
LINE
  5
5E5
330
1E
100
AcDbEntity
  8
0
100
AcDbLine
 10
89.3656
 20
1052.0
 30
0.0
 11
90.18880000000001
 21
1052.0
 31
0.0
  0
LINE
  5
5E6
330
1E
100
AcDbEntity
  8
0
100
AcDbLine
 10
89.3656
 20
1052.0
 30
0.0
 11
89.3656
 21
1050.0
 31
0.0
  0
LINE
  5
5E7
330
1E
100
AcDbEntity
  8
0
100
AcDbLine
 10
90.18880000000001
 20
1052.0
 30
0.0
 11
90.564
 21
1052.0
 31
0.0
  0
LINE
  5
5E8
330
1E
100
AcDbEntity
  8
0
100
AcDbLine
 10
90.18880000000001
 20
1052.0
 30
0.0
 11
90.18880000000001
 21
1050.0
 31
0.0
  0
LINE
  5
5E9
330
1E
100
AcDbEntity
  8
0
100
AcDbLine
 10
94.13439999999999
 20
1052.0
 30
0.0
 11
94.44639999999999
 21
1052.0
 31
0.0
  0
LINE
  5
5EA
330
1E
100
AcDbEntity
  8
0
100
AcDbLine
 10
94.13439999999999
 20
1052.0
 30
0.0
 11
94.13439999999999
 21
1050.0
 31
0.0
  0
LINE
  5
5EB
330
1E
100
AcDbEntity
  8
0
100
AcDbLine
 10
94.44639999999999
 20
1052.0
 30
0.0
 11
96.3784
 21
1052.0
 31
0.0
  0
LINE
  5
5EC
330
1E
100
AcDbEntity
  8
0
100
AcDbLine
 10
94.44639999999999
 20
1052.0
 30
0.0
 11
94.44639999999999
 21
1050.0
 31
0.0
  0
LINE
  5
5ED
330
1E
100
AcDbEntity
  8
0
100
AcDbLine
 10
96.3784
 20
1052.0
 30
0.0
 11
96.896
 21
1052.0
 31
0.0
  0
LINE
  5
5EE
330
1E
100
AcDbEntity
  8
0
100
AcDbLine
 10
96.3784
 20
1052.0
 30
0.0
 11
96.3784
 21
1050.0
 31
0.0
  0
LINE
  5
5EF
330
1E
100
AcDbEntity
  8
0
100
AcDbLine
 10
96.896
 20
1052.0
 30
0.0
 11
96.896
 21
1050.0
 31
0.0
  0
LINE
  5
5F0
330
1E
100
AcDbEntity
  8
0
100
AcDbLine
 10
96.896
 20
1052.0
 30
0.0
 11
97.3728
 21
1052.0
 31
0.0
  0
LINE
  5
5F1
330
1E
100
AcDbEntity
  8
0
100
AcDbLine
 10
97.3728
 20
1052.0
 30
0.0
 11
98.32880000000001
 21
1052.0
 31
0.0
  0
LINE
  5
5F2
330
1E
100
AcDbEntity
  8
0
100
AcDbLine
 10
97.3728
 20
1052.0
 30
0.0
 11
97.3728
 21
1050.0
 31
0.0
  0
LINE
  5
5F3
330
1E
100
AcDbEntity
  8
0
100
AcDbLine
 10
93.0136
 20
1052.0
 30
0.0
 11
94.13439999999999
 21
1052.0
 31
0.0
  0
LINE
  5
5F4
330
1E
100
AcDbEntity
  8
0
100
AcDbLine
 10
93.0136
 20
1052.0
 30
0.0
 11
93.0136
 21
1050.0
 31
0.0
  0
LINE
  5
5F5
330
1E
100
AcDbEntity
  8
0
100
AcDbLine
 10
89.0
 20
1061.0
 30
0.0
 11
104.4
 21
1061.0
 31
0.0
  0
LINE
  5
5F6
330
1E
100
AcDbEntity
  8
0
100
AcDbLine
 10
89.59999999999999
 20
1065.0
 30
0.0
 11
95.09999999999999
 21
1065.0
 31
0.0
  0
LINE
  5
5F7
330
1E
100
AcDbEntity
  8
0
100
AcDbLine
 10
95.09999999999999
 20
1065.0
 30
0.0
 11
100.9
 21
1065.0
 31
0.0
  0
LINE
  5
5F8
330
1E
100
AcDbEntity
  8
0
100
AcDbLine
 10
89.29999999999999
 20
1062.0
 30
0.0
 11
104.4
 21
1062.0
 31
0.0
  0
LINE
  5
5F9
330
1E
100
AcDbEntity
  8
0
100
AcDbLine
 10
89.0
 20
1053.0
 30
0.0
 11
104.4
 21
1053.0
 31
0.0
  0
LINE
  5
5FA
330
1E
100
AcDbEntity
  8
0
100
AcDbLine
 10
89.29999999999999
 20
1052.0
 30
0.0
 11
104.4
 21
1052.0
 31
0.0
  0
LINE
  5
5FB
330
1E
100
AcDbEntity
  8
0
100
AcDbLine
 10
98.32880000000001
 20
1052.0
 30
0.0
 11
100.26
 21
1052.0
 31
0.0
  0
LINE
  5
5FC
330
1E
100
AcDbEntity
  8
0
100
AcDbLine
 10
98.32880000000001
 20
1052.0
 30
0.0
 11
98.32880000000001
 21
1050.0
 31
0.0
  0
LINE
  5
5FD
330
1E
100
AcDbEntity
  8
0
100
AcDbLine
 10
100.26
 20
1052.0
 30
0.0
 11
100.7779999999999
 21
1052.0
 31
0.0
  0
LINE
  5
5FE
330
1E
100
AcDbEntity
  8
0
100
AcDbLine
 10
100.26
 20
1052.0
 30
0.0
 11
100.26
 21
1050.0
 31
0.0
  0
LINE
  5
5FF
330
1E
100
AcDbEntity
  8
0
100
AcDbLine
 10
100.7779999999999
 20
1052.0
 30
0.0
 11
100.94
 21
1052.0
 31
0.0
  0
LINE
  5
600
330
1E
100
AcDbEntity
  8
0
100
AcDbLine
 10
100.7779999999999
 20
1052.0
 30
0.0
 11
100.7779999999999
 21
1050.0
 31
0.0
  0
LINE
  5
601
330
1E
100
AcDbEntity
  8
0
100
AcDbLine
 10
102.211
 20
1052.0
 30
0.0
 11
104.1429999999999
 21
1052.0
 31
0.0
  0
LINE
  5
602
330
1E
100
AcDbEntity
  8
0
100
AcDbLine
 10
102.211
 20
1052.0
 30
0.0
 11
102.211
 21
1050.0
 31
0.0
  0
LINE
  5
603
330
1E
100
AcDbEntity
  8
0
100
AcDbLine
 10
104.1429999999999
 20
1052.0
 30
0.0
 11
104.6599999999999
 21
1052.0
 31
0.0
  0
LINE
  5
604
330
1E
100
AcDbEntity
  8
0
100
AcDbLine
 10
104.1429999999999
 20
1052.0
 30
0.0
 11
104.1429999999999
 21
1050.0
 31
0.0
  0
LINE
  5
605
330
1E
100
AcDbEntity
  8
0
100
AcDbLine
 10
101.634
 20
1052.0
 30
0.0
 11
102.211
 21
1052.0
 31
0.0
  0
LINE
  5
606
330
1E
100
AcDbEntity
  8
0
100
AcDbLine
 10
101.634
 20
1052.0
 30
0.0
 11
101.634
 21
1050.0
 31
0.0
  0
LINE
  5
607
330
1E
100
AcDbEntity
  8
0
100
AcDbLine
 10
100.94
 20
1052.0
 30
0.0
 11
101.634
 21
1052.0
 31
0.0
  0
LINE
  5
608
330
1E
100
AcDbEntity
  8
0
100
AcDbLine
 10
100.94
 20
1052.0
 30
0.0
 11
100.94
 21
1050.0
 31
0.0
  0
LINE
  5
609
330
1E
100
AcDbEntity
  8
0
100
AcDbLine
 10
100.9
 20
1065.0
 30
0.0
 11
107.0999999999999
 21
1065.0
 31
0.0
  0
LINE
  5
60A
330
1E
100
AcDbEntity
  8
0
100
AcDbLine
 10
104.4
 20
1062.0
 30
0.0
 11
120.0
 21
1062.0
 31
0.0
  0
LINE
  5
60B
330
1E
100
AcDbEntity
  8
0
100
AcDbLine
 10
104.4
 20
1061.0
 30
0.0
 11
120.0
 21
1061.0
 31
0.0
  0
LINE
  5
60C
330
1E
100
AcDbEntity
  8
0
100
AcDbLine
 10
104.4
 20
1053.0
 30
0.0
 11
120.0
 21
1053.0
 31
0.0
  0
LINE
  5
60D
330
1E
100
AcDbEntity
  8
0
100
AcDbLine
 10
105.151
 20
1052.0
 30
0.0
 11
106.0929999999999
 21
1052.0
 31
0.0
  0
LINE
  5
60E
330
1E
100
AcDbEntity
  8
0
100
AcDbLine
 10
105.151
 20
1052.0
 30
0.0
 11
105.151
 21
1050.0
 31
0.0
  0
LINE
  5
60F
330
1E
100
AcDbEntity
  8
0
100
AcDbLine
 10
106.0929999999999
 20
1052.0
 30
0.0
 11
108.025
 21
1052.0
 31
0.0
  0
LINE
  5
610
330
1E
100
AcDbEntity
  8
0
100
AcDbLine
 10
106.0929999999999
 20
1052.0
 30
0.0
 11
106.0929999999999
 21
1050.0
 31
0.0
  0
LINE
  5
611
330
1E
100
AcDbEntity
  8
0
100
AcDbLine
 10
108.025
 20
1052.0
 30
0.0
 11
108.5429999999999
 21
1052.0
 31
0.0
  0
LINE
  5
612
330
1E
100
AcDbEntity
  8
0
100
AcDbLine
 10
108.025
 20
1052.0
 30
0.0
 11
108.025
 21
1050.0
 31
0.0
  0
LINE
  5
613
330
1E
100
AcDbEntity
  8
0
100
AcDbLine
 10
104.6599999999999
 20
1052.0
 30
0.0
 11
104.912
 21
1052.0
 31
0.0
  0
LINE
  5
614
330
1E
100
AcDbEntity
  8
0
100
AcDbLine
 10
104.6599999999999
 20
1052.0
 30
0.0
 11
104.6599999999999
 21
1050.0
 31
0.0
  0
LINE
  5
615
330
1E
100
AcDbEntity
  8
0
100
AcDbLine
 10
109.0
 20
1052.0
 30
0.0
 11
109.0
 21
853.3849999999999
 31
0.0
  0
LINE
  5
616
330
1E
100
AcDbEntity
  8
0
100
AcDbLine
 10
108.5429999999999
 20
1052.0
 30
0.0
 11
109.1339999999999
 21
1052.0
 31
0.0
  0
LINE
  5
617
330
1E
100
AcDbEntity
  8
0
100
AcDbLine
 10
108.5429999999999
 20
1052.0
 30
0.0
 11
108.5429999999999
 21
1050.0
 31
0.0
  0
LINE
  5
618
330
1E
100
AcDbEntity
  8
0
100
AcDbLine
 10
107.0999999999999
 20
1065.0
 30
0.0
 11
113.5
 21
1065.0
 31
0.0
  0
LINE
  5
619
330
1E
100
AcDbEntity
  8
0
100
AcDbLine
 10
104.912
 20
1052.0
 30
0.0
 11
105.151
 21
1052.0
 31
0.0
  0
LINE
  5
61A
330
1E
100
AcDbEntity
  8
0
100
AcDbLine
 10
104.912
 20
1052.0
 30
0.0
 11
104.912
 21
1050.0
 31
0.0
  0
LINE
  5
61B
330
1E
100
AcDbEntity
  8
0
100
AcDbLine
 10
104.4
 20
1052.0
 30
0.0
 11
120.0
 21
1052.0
 31
0.0
  0
LINE
  5
61C
330
1E
100
AcDbEntity
  8
0
100
AcDbLine
 10
109.0
 20
1065.0
 30
0.0
 11
109.0
 21
1078.174519230769
 31
0.0
  0
LINE
  5
61D
330
1E
100
AcDbEntity
  8
0
100
AcDbLine
 10
109.0
 20
1078.174519230769
 30
0.0
 11
109.0
 21
1065.0
 31
0.0
  0
LINE
  5
61E
330
1E
100
AcDbEntity
  8
0
100
AcDbLine
 10
107.312
 20
1085.0
 30
0.0
 11
107.78
 21
1081.72
 31
0.0
  0
LINE
  5
61F
330
1E
100
AcDbEntity
  8
0
100
AcDbLine
 10
107.312
 20
1085.0
 30
0.0
 11
107.78
 21
1088.279999999999
 31
0.0
  0
LINE
  5
620
330
1E
100
AcDbEntity
  8
0
100
AcDbLine
 10
107.78
 20
1081.72
 30
0.0
 11
109.0279999999999
 21
1078.71
 31
0.0
  0
LINE
  5
621
330
1E
100
AcDbEntity
  8
0
100
AcDbLine
 10
109.1339999999999
 20
1052.0
 30
0.0
 11
109.975
 21
1052.0
 31
0.0
  0
LINE
  5
622
330
1E
100
AcDbEntity
  8
0
100
AcDbLine
 10
109.1339999999999
 20
1052.0
 30
0.0
 11
109.1339999999999
 21
1050.0
 31
0.0
  0
LINE
  5
623
330
1E
100
AcDbEntity
  8
0
100
AcDbLine
 10
109.0279999999999
 20
1078.71
 30
0.0
 11
111.0559999999999
 21
1076.06
 31
0.0
  0
LINE
  5
624
330
1E
100
AcDbEntity
  8
0
100
AcDbLine
 10
107.78
 20
1088.279999999999
 30
0.0
 11
109.0279999999999
 21
1091.29
 31
0.0
  0
LINE
  5
625
330
1E
100
AcDbEntity
  8
0
100
AcDbLine
 10
109.0279999999999
 20
1091.29
 30
0.0
 11
111.0559999999999
 21
1093.94
 31
0.0
  0
LINE
  5
629
330
1E
100
AcDbEntity
  8
0
100
AcDbLine
 10
97.88099999999991
 20
1052.0
 30
0.0
 11
98.32880000000001
 21
1051.66203773585
 31
0.0
  0
LINE
  5
62A
330
1E
100
AcDbEntity
  8
0
100
AcDbLine
 10
100.8599999999999
 20
1050.0
 30
0.0
 11
109.0
 21
1046.744
 31
0.0
  0
LINE
  5
62B
330
1E
100
AcDbEntity
  8
0
100
AcDbLine
 10
85.28
 20
1104.84
 30
0.0
 11
91.68000000000001
 21
1113.32
 31
0.0
  0
LINE
  5
62D
330
1E
100
AcDbEntity
  8
0
100
AcDbLine
 10
91.68000000000001
 20
1113.32
 30
0.0
 11
100.16
 21
1119.72
 31
0.0
  0
LINE
  5
62E
330
1E
100
AcDbEntity
  8
0
100
AcDbLine
 10
81.44
 20
1095.24
 30
0.0
 11
85.28
 21
1104.84
 31
0.0
  0
LINE
  5
62F
330
1E
100
AcDbEntity
  8
0
100
AcDbLine
 10
100.16
 20
1119.72
 30
0.0
 11
109.76
 21
1123.56
 31
0.0
  0
LINE
  5
630
330
1E
100
AcDbEntity
  8
0
100
AcDbLine
 10
110.1339999999999
 20
1050.0
 30
0.0
 11
111.8659999999999
 21
1050.0
 31
0.0
  0
LINE
  5
631
330
1E
100
AcDbEntity
  8
0
100
AcDbLine
 10
110.8659999999999
 20
1050.0
 30
0.0
 11
111.8659999999999
 21
1050.0
 31
0.0
  0
LINE
  5
632
330
1E
100
AcDbEntity
  8
0
100
AcDbLine
 10
112.4249999999999
 20
1050.0
 30
0.0
 11
112.4249999999999
 21
1052.0
 31
0.0
  0
LINE
  5
633
330
1E
100
AcDbEntity
  8
0
100
AcDbLine
 10
110.4929999999999
 20
1050.0
 30
0.0
 11
112.4249999999999
 21
1050.0
 31
0.0
  0
LINE
  5
634
330
1E
100
AcDbEntity
  8
0
100
AcDbLine
 10
109.975
 20
1050.0
 30
0.0
 11
109.975
 21
1052.0
 31
0.0
  0
LINE
  5
635
330
1E
100
AcDbEntity
  8
0
100
AcDbLine
 10
109.975
 20
1050.0
 30
0.0
 11
111.907
 21
1050.0
 31
0.0
  0
LINE
  5
636
330
1E
100
AcDbEntity
  8
0
100
AcDbLine
 10
109.975
 20
1050.0
 30
0.0
 11
110.4929999999999
 21
1050.0
 31
0.0
  0
LINE
  5
637
330
1E
100
AcDbEntity
  8
0
100
AcDbLine
 10
109.975
 20
1052.0
 30
0.0
 11
111.907
 21
1052.0
 31
0.0
  0
LINE
  5
638
330
1E
100
AcDbEntity
  8
0
100
AcDbLine
 10
109.975
 20
1052.0
 30
0.0
 11
109.975
 21
1050.0
 31
0.0
  0
LINE
  5
639
330
1E
100
AcDbEntity
  8
0
100
AcDbLine
 10
111.907
 20
1052.0
 30
0.0
 11
112.4249999999999
 21
1052.0
 31
0.0
  0
LINE
  5
63A
330
1E
100
AcDbEntity
  8
0
100
AcDbLine
 10
111.907
 20
1052.0
 30
0.0
 11
111.907
 21
1050.0
 31
0.0
  0
LINE
  5
63B
330
1E
100
AcDbEntity
  8
0
100
AcDbLine
 10
111.907
 20
1050.0
 30
0.0
 11
111.907
 21
1052.0
 31
0.0
  0
LINE
  5
63C
330
1E
100
AcDbEntity
  8
0
100
AcDbLine
 10
111.907
 20
1050.0
 30
0.0
 11
112.4249999999999
 21
1050.0
 31
0.0
  0
LINE
  5
63D
330
1E
100
AcDbEntity
  8
0
100
AcDbLine
 10
115.834
 20
1050.0
 30
0.0
 11
116.602
 21
1050.0
 31
0.0
  0
LINE
  5
63E
330
1E
100
AcDbEntity
  8
0
100
AcDbLine
 10
115.3729999999999
 20
1050.0
 30
0.0
 11
115.834
 21
1050.0
 31
0.0
  0
LINE
  5
63F
330
1E
100
AcDbEntity
  8
0
100
AcDbLine
 10
115.2
 20
1050.0
 30
0.0
 11
115.3729999999999
 21
1050.0
 31
0.0
  0
LINE
  5
640
330
1E
100
AcDbEntity
  8
0
100
AcDbLine
 10
116.602
 20
1050.0
 30
0.0
 11
117.619
 21
1050.0
 31
0.0
  0
LINE
  5
641
330
1E
100
AcDbEntity
  8
0
100
AcDbLine
 10
116.307
 20
1050.0
 30
0.0
 11
116.307
 21
1052.0
 31
0.0
  0
LINE
  5
642
330
1E
100
AcDbEntity
  8
0
100
AcDbLine
 10
114.375
 20
1050.0
 30
0.0
 11
116.307
 21
1050.0
 31
0.0
  0
LINE
  5
643
330
1E
100
AcDbEntity
  8
0
100
AcDbLine
 10
113.8579999999999
 20
1050.0
 30
0.0
 11
113.8579999999999
 21
1052.0
 31
0.0
  0
LINE
  5
644
330
1E
100
AcDbEntity
  8
0
100
AcDbLine
 10
113.8579999999999
 20
1050.0
 30
0.0
 11
115.79
 21
1050.0
 31
0.0
  0
LINE
  5
645
330
1E
100
AcDbEntity
  8
0
100
AcDbLine
 10
113.8579999999999
 20
1050.0
 30
0.0
 11
114.375
 21
1050.0
 31
0.0
  0
LINE
  5
646
330
1E
100
AcDbEntity
  8
0
100
AcDbLine
 10
113.8579999999999
 20
1052.0
 30
0.0
 11
115.79
 21
1052.0
 31
0.0
  0
LINE
  5
647
330
1E
100
AcDbEntity
  8
0
100
AcDbLine
 10
113.8579999999999
 20
1052.0
 30
0.0
 11
113.8579999999999
 21
1050.0
 31
0.0
  0
LINE
  5
648
330
1E
100
AcDbEntity
  8
0
100
AcDbLine
 10
115.79
 20
1052.0
 30
0.0
 11
116.307
 21
1052.0
 31
0.0
  0
LINE
  5
649
330
1E
100
AcDbEntity
  8
0
100
AcDbLine
 10
115.79
 20
1052.0
 30
0.0
 11
115.79
 21
1050.0
 31
0.0
  0
LINE
  5
64A
330
1E
100
AcDbEntity
  8
0
100
AcDbLine
 10
115.79
 20
1050.0
 30
0.0
 11
115.79
 21
1052.0
 31
0.0
  0
LINE
  5
64B
330
1E
100
AcDbEntity
  8
0
100
AcDbLine
 10
115.79
 20
1050.0
 30
0.0
 11
116.307
 21
1050.0
 31
0.0
  0
LINE
  5
64C
330
1E
100
AcDbEntity
  8
0
100
AcDbLine
 10
118.771
 20
1050.0
 30
0.0
 11
120.0
 21
1050.0
 31
0.0
  0
LINE
  5
64D
330
1E
100
AcDbEntity
  8
0
100
AcDbLine
 10
117.619
 20
1050.0
 30
0.0
 11
118.771
 21
1050.0
 31
0.0
  0
LINE
  5
64E
330
1E
100
AcDbEntity
  8
0
100
AcDbLine
 10
120.0
 20
1050.0
 30
0.0
 11
121.229
 21
1050.0
 31
0.0
  0
LINE
  5
64F
330
1E
100
AcDbEntity
  8
0
100
AcDbLine
 10
119.0
 20
1052.0
 30
0.0
 11
119.0
 21
1050.0
 31
0.0
  0
LINE
  5
650
330
1E
100
AcDbEntity
  8
0
100
AcDbLine
 10
119.0
 20
1052.0
 30
0.0
 11
121.0
 21
1052.0
 31
0.0
  0
LINE
  5
651
330
1E
100
AcDbEntity
  8
0
100
AcDbLine
 10
119.0
 20
1050.0
 30
0.0
 11
119.0
 21
1052.0
 31
0.0
  0
LINE
  5
652
330
1E
100
AcDbEntity
  8
0
100
AcDbLine
 10
119.0
 20
1050.0
 30
0.0
 11
121.0
 21
1050.0
 31
0.0
  0
LINE
  5
653
330
1E
100
AcDbEntity
  8
0
100
AcDbLine
 10
118.771
 20
1052.0
 30
0.0
 11
119.0
 21
1052.0
 31
0.0
  0
LINE
  5
654
330
1E
100
AcDbEntity
  8
0
100
AcDbLine
 10
117.619
 20
1052.0
 30
0.0
 11
118.771
 21
1052.0
 31
0.0
  0
LINE
  5
655
330
1E
100
AcDbEntity
  8
0
100
AcDbLine
 10
116.602
 20
1052.0
 30
0.0
 11
117.619
 21
1052.0
 31
0.0
  0
LINE
  5
656
330
1E
100
AcDbEntity
  8
0
100
AcDbLine
 10
116.307
 20
1052.0
 30
0.0
 11
116.602
 21
1052.0
 31
0.0
  0
LINE
  5
657
330
1E
100
AcDbEntity
  8
0
100
AcDbLine
 10
116.307
 20
1052.0
 30
0.0
 11
116.307
 21
1050.0
 31
0.0
  0
LINE
  5
658
330
1E
100
AcDbEntity
  8
0
100
AcDbLine
 10
112.4249999999999
 20
1052.0
 30
0.0
 11
113.8579999999999
 21
1052.0
 31
0.0
  0
LINE
  5
659
330
1E
100
AcDbEntity
  8
0
100
AcDbLine
 10
112.4249999999999
 20
1052.0
 30
0.0
 11
112.4249999999999
 21
1050.0
 31
0.0
  0
LINE
  5
65A
330
1E
100
AcDbEntity
  8
0
100
AcDbLine
 10
120.0
 20
1065.0
 30
0.0
 11
126.5
 21
1065.0
 31
0.0
  0
LINE
  5
65B
330
1E
100
AcDbEntity
  8
0
100
AcDbLine
 10
113.5
 20
1065.0
 30
0.0
 11
120.0
 21
1065.0
 31
0.0
  0
LINE
  5
65C
330
1E
100
AcDbEntity
  8
0
100
AcDbLine
 10
120.0
 20
1062.0
 30
0.0
 11
135.5999999999999
 21
1062.0
 31
0.0
  0
LINE
  5
65D
330
1E
100
AcDbEntity
  8
0
100
AcDbLine
 10
120.0
 20
1061.0
 30
0.0
 11
135.5999999999999
 21
1061.0
 31
0.0
  0
LINE
  5
65E
330
1E
100
AcDbEntity
  8
0
100
AcDbLine
 10
120.0
 20
1053.0
 30
0.0
 11
135.5999999999999
 21
1053.0
 31
0.0
  0
LINE
  5
65F
330
1E
100
AcDbEntity
  8
0
100
AcDbLine
 10
120.0
 20
1052.0
 30
0.0
 11
135.5999999999999
 21
1052.0
 31
0.0
  0
LINE
  5
661
330
1E
100
AcDbEntity
  8
0
100
AcDbLine
 10
111.0559999999999
 20
1093.94
 30
0.0
 11
113.708
 21
1095.97
 31
0.0
  0
LINE
  5
662
330
1E
100
AcDbEntity
  8
0
100
AcDbLine
 10
113.708
 20
1095.97
 30
0.0
 11
116.7239999999999
 21
1097.22
 31
0.0
  0
LINE
  5
665
330
1E
100
AcDbEntity
  8
0
100
AcDbLine
 10
111.0559999999999
 20
1076.06
 30
0.0
 11
113.708
 21
1074.03
 31
0.0
  0
LINE
  5
666
330
1E
100
AcDbEntity
  8
0
100
AcDbLine
 10
113.708
 20
1074.03
 30
0.0
 11
116.7239999999999
 21
1072.78
 31
0.0
  0
LINE
  5
669
330
1E
100
AcDbEntity
  8
0
100
AcDbLine
 10
116.7239999999999
 20
1097.22
 30
0.0
 11
120.0
 21
1097.69
 31
0.0
  0
LINE
  5
66A
330
1E
100
AcDbEntity
  8
0
100
AcDbLine
 10
120.0
 20
1097.69
 30
0.0
 11
123.276
 21
1097.22
 31
0.0
  0
LINE
  5
66C
330
1E
100
AcDbEntity
  8
0
100
AcDbLine
 10
116.7239999999999
 20
1072.78
 30
0.0
 11
120.0
 21
1072.31
 31
0.0
  0
LINE
  5
66E
330
1E
100
AcDbEntity
  8
0
100
AcDbLine
 10
120.0
 20
1072.31
 30
0.0
 11
123.276
 21
1072.78
 31
0.0
  0
LINE
  5
671
330
1E
100
AcDbEntity
  8
0
100
AcDbLine
 10
109.76
 20
1123.56
 30
0.0
 11
120.0
 21
1125.0
 31
0.0
  0
LINE
  5
673
330
1E
100
AcDbEntity
  8
0
100
AcDbLine
 10
121.0
 20
1050.0
 30
0.0
 11
121.0
 21
1052.0
 31
0.0
  0
LINE
  5
674
330
1E
100
AcDbEntity
  8
0
100
AcDbLine
 10
121.229
 20
1050.0
 30
0.0
 11
122.381
 21
1050.0
 31
0.0
  0
LINE
  5
675
330
1E
100
AcDbEntity
  8
0
100
AcDbLine
 10
122.381
 20
1050.0
 30
0.0
 11
123.398
 21
1050.0
 31
0.0
  0
LINE
  5
676
330
1E
100
AcDbEntity
  8
0
100
AcDbLine
 10
121.0
 20
1052.0
 30
0.0
 11
121.229
 21
1052.0
 31
0.0
  0
LINE
  5
677
330
1E
100
AcDbEntity
  8
0
100
AcDbLine
 10
121.0
 20
1052.0
 30
0.0
 11
121.0
 21
1050.0
 31
0.0
  0
LINE
  5
678
330
1E
100
AcDbEntity
  8
0
100
AcDbLine
 10
121.229
 20
1052.0
 30
0.0
 11
122.381
 21
1052.0
 31
0.0
  0
LINE
  5
679
330
1E
100
AcDbEntity
  8
0
100
AcDbLine
 10
123.398
 20
1050.0
 30
0.0
 11
124.1659999999999
 21
1050.0
 31
0.0
  0
LINE
  5
67A
330
1E
100
AcDbEntity
  8
0
100
AcDbLine
 10
124.1659999999999
 20
1050.0
 30
0.0
 11
124.627
 21
1050.0
 31
0.0
  0
LINE
  5
67B
330
1E
100
AcDbEntity
  8
0
100
AcDbLine
 10
123.693
 20
1050.0
 30
0.0
 11
124.2099999999999
 21
1050.0
 31
0.0
  0
LINE
  5
67C
330
1E
100
AcDbEntity
  8
0
100
AcDbLine
 10
123.693
 20
1050.0
 30
0.0
 11
125.625
 21
1050.0
 31
0.0
  0
LINE
  5
67D
330
1E
100
AcDbEntity
  8
0
100
AcDbLine
 10
123.693
 20
1050.0
 30
0.0
 11
123.693
 21
1052.0
 31
0.0
  0
LINE
  5
67E
330
1E
100
AcDbEntity
  8
0
100
AcDbLine
 10
124.627
 20
1050.0
 30
0.0
 11
124.7999999999999
 21
1050.0
 31
0.0
  0
LINE
  5
67F
330
1E
100
AcDbEntity
  8
0
100
AcDbLine
 10
126.142
 20
1050.0
 30
0.0
 11
126.142
 21
1052.0
 31
0.0
  0
LINE
  5
680
330
1E
100
AcDbEntity
  8
0
100
AcDbLine
 10
124.2099999999999
 20
1050.0
 30
0.0
 11
126.142
 21
1050.0
 31
0.0
  0
LINE
  5
681
330
1E
100
AcDbEntity
  8
0
100
AcDbLine
 10
124.2099999999999
 20
1050.0
 30
0.0
 11
124.2099999999999
 21
1052.0
 31
0.0
  0
LINE
  5
682
330
1E
100
AcDbEntity
  8
0
100
AcDbLine
 10
123.693
 20
1052.0
 30
0.0
 11
124.2099999999999
 21
1052.0
 31
0.0
  0
LINE
  5
683
330
1E
100
AcDbEntity
  8
0
100
AcDbLine
 10
123.693
 20
1052.0
 30
0.0
 11
123.693
 21
1050.0
 31
0.0
  0
LINE
  5
684
330
1E
100
AcDbEntity
  8
0
100
AcDbLine
 10
124.2099999999999
 20
1052.0
 30
0.0
 11
126.142
 21
1052.0
 31
0.0
  0
LINE
  5
685
330
1E
100
AcDbEntity
  8
0
100
AcDbLine
 10
124.2099999999999
 20
1052.0
 30
0.0
 11
124.2099999999999
 21
1050.0
 31
0.0
  0
LINE
  5
686
330
1E
100
AcDbEntity
  8
0
100
AcDbLine
 10
125.625
 20
1050.0
 30
0.0
 11
126.142
 21
1050.0
 31
0.0
  0
LINE
  5
687
330
1E
100
AcDbEntity
  8
0
100
AcDbLine
 10
122.381
 20
1052.0
 30
0.0
 11
123.398
 21
1052.0
 31
0.0
  0
LINE
  5
688
330
1E
100
AcDbEntity
  8
0
100
AcDbLine
 10
123.398
 20
1052.0
 30
0.0
 11
123.693
 21
1052.0
 31
0.0
  0
LINE
  5
689
330
1E
100
AcDbEntity
  8
0
100
AcDbLine
 10
126.142
 20
1052.0
 30
0.0
 11
127.575
 21
1052.0
 31
0.0
  0
LINE
  5
68A
330
1E
100
AcDbEntity
  8
0
100
AcDbLine
 10
126.142
 20
1052.0
 30
0.0
 11
126.142
 21
1050.0
 31
0.0
  0
LINE
  5
68B
330
1E
100
AcDbEntity
  8
0
100
AcDbLine
 10
126.292
 20
1074.03
 30
0.0
 11
128.9439999999999
 21
1076.06
 31
0.0
  0
LINE
  5
68C
330
1E
100
AcDbEntity
  8
0
100
AcDbLine
 10
123.276
 20
1072.78
 30
0.0
 11
126.292
 21
1074.03
 31
0.0
  0
LINE
  5
68D
330
1E
100
AcDbEntity
  8
0
100
AcDbLine
 10
127.575
 20
1050.0
 30
0.0
 11
127.575
 21
1052.0
 31
0.0
  0
LINE
  5
68E
330
1E
100
AcDbEntity
  8
0
100
AcDbLine
 10
127.575
 20
1050.0
 30
0.0
 11
128.0929999999999
 21
1050.0
 31
0.0
  0
LINE
  5
68F
330
1E
100
AcDbEntity
  8
0
100
AcDbLine
 10
127.575
 20
1050.0
 30
0.0
 11
129.507
 21
1050.0
 31
0.0
  0
LINE
  5
690
330
1E
100
AcDbEntity
  8
0
100
AcDbLine
 10
128.0929999999999
 20
1050.0
 30
0.0
 11
130.025
 21
1050.0
 31
0.0
  0
LINE
  5
691
330
1E
100
AcDbEntity
  8
0
100
AcDbLine
 10
128.0929999999999
 20
1050.0
 30
0.0
 11
128.0929999999999
 21
1052.0
 31
0.0
  0
LINE
  5
692
330
1E
100
AcDbEntity
  8
0
100
AcDbLine
 10
129.507
 20
1050.0
 30
0.0
 11
130.025
 21
1050.0
 31
0.0
  0
LINE
  5
693
330
1E
100
AcDbEntity
  8
0
100
AcDbLine
 10
128.1339999999999
 20
1050.0
 30
0.0
 11
129.1339999999999
 21
1050.0
 31
0.0
  0
LINE
  5
694
330
1E
100
AcDbEntity
  8
0
100
AcDbLine
 10
128.1339999999999
 20
1050.0
 30
0.0
 11
129.866
 21
1050.0
 31
0.0
  0
LINE
  5
695
330
1E
100
AcDbEntity
  8
0
100
AcDbLine
 10
128.0929999999999
 20
1052.0
 30
0.0
 11
130.025
 21
1052.0
 31
0.0
  0
LINE
  5
696
330
1E
100
AcDbEntity
  8
0
100
AcDbLine
 10
128.0929999999999
 20
1052.0
 30
0.0
 11
128.0929999999999
 21
1050.0
 31
0.0
  0
LINE
  5
697
330
1E
100
AcDbEntity
  8
0
100
AcDbLine
 10
127.575
 20
1052.0
 30
0.0
 11
127.575
 21
1050.0
 31
0.0
  0
LINE
  5
698
330
1E
100
AcDbEntity
  8
0
100
AcDbLine
 10
127.575
 20
1052.0
 30
0.0
 11
128.0929999999999
 21
1052.0
 31
0.0
  0
LINE
  5
699
330
1E
100
AcDbEntity
  8
0
100
AcDbLine
 10
129.1339999999999
 20
1050.0
 30
0.0
 11
130.866
 21
1050.0
 31
0.0
  0
LINE
  5
69A
330
1E
100
AcDbEntity
  8
0
100
AcDbLine
 10
130.025
 20
1052.0
 30
0.0
 11
130.025
 21
1050.0
 31
0.0
  0
LINE
  5
69B
330
1E
100
AcDbEntity
  8
0
100
AcDbLine
 10
130.025
 20
1052.0
 30
0.0
 11
130.866
 21
1052.0
 31
0.0
  0
LINE
  5
69C
330
1E
100
AcDbEntity
  8
0
100
AcDbLine
 10
130.025
 20
1050.0
 30
0.0
 11
130.025
 21
1052.0
 31
0.0
  0
LINE
  5
69D
330
1E
100
AcDbEntity
  8
0
100
AcDbLine
 10
129.866
 20
1050.0
 30
0.0
 11
130.866
 21
1050.0
 31
0.0
  0
LINE
  5
69E
330
1E
100
AcDbEntity
  8
0
100
AcDbLine
 10
126.5
 20
1065.0
 30
0.0
 11
132.9
 21
1065.0
 31
0.0
  0
LINE
  5
6A0
330
1E
100
AcDbEntity
  8
0
100
AcDbLine
 10
126.292
 20
1095.97
 30
0.0
 11
128.9439999999999
 21
1093.94
 31
0.0
  0
LINE
  5
6A1
330
1E
100
AcDbEntity
  8
0
100
AcDbLine
 10
123.276
 20
1097.22
 30
0.0
 11
126.292
 21
1095.97
 31
0.0
  0
LINE
  5
6A2
330
1E
100
AcDbEntity
  8
0
100
AcDbLine
 10
128.9439999999999
 20
1093.94
 30
0.0
 11
130.972
 21
1091.29
 31
0.0
  0
LINE
  5
6A6
330
1E
100
AcDbEntity
  8
0
100
AcDbLine
 10
128.9439999999999
 20
1076.06
 30
0.0
 11
130.972
 21
1078.71
 31
0.0
  0
LINE
  5
6A8
330
1E
100
AcDbEntity
  8
0
100
AcDbLine
 10
130.866
 20
1050.0
 30
0.0
 11
130.866
 21
1052.0
 31
0.0
  0
LINE
  5
6A9
330
1E
100
AcDbEntity
  8
0
100
AcDbLine
 10
131.0
 20
1052.0
 30
0.0
 11
131.0
 21
853.3849999999999
 31
0.0
  0
LINE
  5
6AA
330
1E
100
AcDbEntity
  8
0
100
AcDbLine
 10
130.866
 20
1052.0
 30
0.0
 11
131.457
 21
1052.0
 31
0.0
  0
LINE
  5
6AB
330
1E
100
AcDbEntity
  8
0
100
AcDbLine
 10
130.866
 20
1052.0
 30
0.0
 11
130.866
 21
1050.0
 31
0.0
  0
LINE
  5
6AC
330
1E
100
AcDbEntity
  8
0
100
AcDbLine
 10
131.0
 20
1078.174519230769
 30
0.0
 11
131.0
 21
1065.0
 31
0.0
  0
LINE
  5
6AD
330
1E
100
AcDbEntity
  8
0
100
AcDbLine
 10
131.0
 20
1078.174519230769
 30
0.0
 11
131.284
 21
1078.549999999999
 31
0.0
  0
LINE
  5
6AE
330
1E
100
AcDbEntity
  8
0
100
AcDbLine
 10
131.0
 20
1065.0
 30
0.0
 11
131.0
 21
1078.174519230769
 31
0.0
  0
LINE
  5
6AF
330
1E
100
AcDbEntity
  8
0
100
AcDbLine
 10
130.972
 20
1091.29
 30
0.0
 11
132.22
 21
1088.279999999999
 31
0.0
  0
LINE
  5
6B0
330
1E
100
AcDbEntity
  8
0
100
AcDbLine
 10
130.972
 20
1078.71
 30
0.0
 11
132.22
 21
1081.72
 31
0.0
  0
LINE
  5
6B2
330
1E
100
AcDbEntity
  8
0
100
AcDbLine
 10
130.24
 20
1123.56
 30
0.0
 11
139.84
 21
1119.72
 31
0.0
  0
LINE
  5
6B3
330
1E
100
AcDbEntity
  8
0
100
AcDbLine
 10
120.0
 20
1125.0
 30
0.0
 11
130.24
 21
1123.56
 31
0.0
  0
LINE
  5
6B4
330
1E
100
AcDbEntity
  8
0
100
AcDbLine
 10
131.0
 20
1047.78068965517
 30
0.0
 11
136.363333333333
 21
1050.0
 31
0.0
  0
LINE
  5
6B5
330
1E
100
AcDbEntity
  8
0
100
AcDbLine
 10
131.0
 20
1046.744
 30
0.0
 11
139.1399999999999
 21
1050.0
 31
0.0
  0
LINE
  5
6B7
330
1E
100
AcDbEntity
  8
0
100
AcDbLine
 10
132.7439999999999
 20
50.0
 30
0.0
 11
135.6239999999999
 21
50.0
 31
0.0
  0
LINE
  5
6B8
330
1E
100
AcDbEntity
  8
0
100
AcDbLine
 10
131.718
 20
600.0
 30
0.0
 11
133.014
 21
600.0
 31
0.0
  0
LINE
  5
6B9
330
1E
100
AcDbEntity
  8
0
100
AcDbLine
 10
131.6999999999999
 20
600.0
 30
0.0
 11
133.0
 21
600.0
 31
0.0
  0
LINE
  5
6BA
330
1E
100
AcDbEntity
  8
0
100
AcDbLine
 10
131.143
 20
650.0
 30
0.0
 11
132.0
 21
651.0
 31
0.0
  0
LINE
  5
6BB
330
1E
100
AcDbEntity
  8
0
100
AcDbLine
 10
131.2799999999999
 20
853.3849999999999
 30
0.0
 11
131.712
 21
853.3849999999999
 31
0.0
  0
LINE
  5
6BC
330
1E
100
AcDbEntity
  8
0
100
AcDbLine
 10
131.2799999999999
 20
843.0
 30
0.0
 11
131.712
 21
843.0
 31
0.0
  0
LINE
  5
6BD
330
1E
100
AcDbEntity
  8
0
100
AcDbLine
 10
131.457
 20
1052.0
 30
0.0
 11
131.457
 21
1050.0
 31
0.0
  0
LINE
  5
6BE
330
1E
100
AcDbEntity
  8
0
100
AcDbLine
 10
131.457
 20
1052.0
 30
0.0
 11
131.9749999999999
 21
1052.0
 31
0.0
  0
LINE
  5
6BF
330
1E
100
AcDbEntity
  8
0
100
AcDbLine
 10
131.457
 20
1050.0
 30
0.0
 11
131.457
 21
1052.0
 31
0.0
  0
LINE
  5
6C0
330
1E
100
AcDbEntity
  8
0
100
AcDbLine
 10
131.457
 20
1050.0
 30
0.0
 11
131.9749999999999
 21
1050.0
 31
0.0
  0
LINE
  5
6C1
330
1E
100
AcDbEntity
  8
0
100
AcDbLine
 10
131.457
 20
1050.0
 30
0.0
 11
133.389
 21
1050.0
 31
0.0
  0
LINE
  5
6C2
330
1E
100
AcDbEntity
  8
0
100
AcDbLine
 10
131.5679999999999
 20
853.0
 30
0.0
 11
132.0
 21
853.0
 31
0.0
  0
LINE
  5
6C3
330
1E
100
AcDbEntity
  8
0
100
AcDbLine
 10
131.5679999999999
 20
843.3849999999999
 30
0.0
 11
132.0
 21
843.3849999999999
 31
0.0
  0
LINE
  5
6C4
330
1E
100
AcDbEntity
  8
0
100
AcDbLine
 10
131.2799999999999
 20
840.0
 30
0.0
 11
131.712
 21
840.0
 31
0.0
  0
LINE
  5
6C5
330
1E
100
AcDbEntity
  8
0
100
AcDbLine
 10
131.5679999999999
 20
839.615
 30
0.0
 11
132.0
 21
839.615
 31
0.0
  0
LINE
  5
6C6
330
1E
100
AcDbEntity
  8
0
100
AcDbLine
 10
131.5679999999999
 20
825.3849999999999
 30
0.0
 11
132.0
 21
825.3849999999999
 31
0.0
  0
LINE
  5
6C7
330
1E
100
AcDbEntity
  8
0
100
AcDbLine
 10
131.2799999999999
 20
825.0
 30
0.0
 11
131.712
 21
825.0
 31
0.0
  0
LINE
  5
6C8
330
1E
100
AcDbEntity
  8
0
100
AcDbLine
 10
131.143
 20
825.0
 30
0.0
 11
132.0
 21
824.0
 31
0.0
  0
LINE
  5
6C9
330
1E
100
AcDbEntity
  8
0
100
AcDbLine
 10
131.143
 20
825.0
 30
0.0
 11
131.2799999999999
 21
825.0
 31
0.0
  0
LINE
  5
6CA
330
1E
100
AcDbEntity
  8
0
100
AcDbLine
 10
131.5709999999999
 20
824.0
 30
0.0
 11
132.0
 21
824.0
 31
0.0
  0
LINE
  5
6CB
330
1E
100
AcDbEntity
  8
0
100
AcDbLine
 10
132.0
 20
825.3849999999999
 30
0.0
 11
132.0
 21
839.615
 31
0.0
  0
LINE
  5
6CC
330
1E
100
AcDbEntity
  8
0
100
AcDbLine
 10
131.712
 20
825.0
 30
0.0
 11
132.0
 21
825.3849999999999
 31
0.0
  0
LINE
  5
6CD
330
1E
100
AcDbEntity
  8
0
100
AcDbLine
 10
132.0
 20
839.615
 30
0.0
 11
132.0
 21
825.3849999999999
 31
0.0
  0
LINE
  5
6CE
330
1E
100
AcDbEntity
  8
0
100
AcDbLine
 10
131.712
 20
843.0
 30
0.0
 11
132.0
 21
843.3849999999999
 31
0.0
  0
LINE
  5
6CF
330
1E
100
AcDbEntity
  8
0
100
AcDbLine
 10
132.0
 20
843.3849999999999
 30
0.0
 11
132.0
 21
853.0
 31
0.0
  0
LINE
  5
6D0
330
1E
100
AcDbEntity
  8
0
100
AcDbLine
 10
131.9749999999999
 20
1052.0
 30
0.0
 11
133.907
 21
1052.0
 31
0.0
  0
LINE
  5
6D1
330
1E
100
AcDbEntity
  8
0
100
AcDbLine
 10
131.9749999999999
 20
1052.0
 30
0.0
 11
131.9749999999999
 21
1050.0
 31
0.0
  0
LINE
  5
6D2
330
1E
100
AcDbEntity
  8
0
100
AcDbLine
 10
131.9749999999999
 20
1050.0
 30
0.0
 11
133.907
 21
1050.0
 31
0.0
  0
LINE
  5
6D3
330
1E
100
AcDbEntity
  8
0
100
AcDbLine
 10
131.9749999999999
 20
1050.0
 30
0.0
 11
131.9749999999999
 21
1052.0
 31
0.0
  0
LINE
  5
6D4
330
1E
100
AcDbEntity
  8
0
100
AcDbLine
 10
132.0
 20
853.0
 30
0.0
 11
132.0
 21
843.3849999999999
 31
0.0
  0
LINE
  5
6D5
330
1E
100
AcDbEntity
  8
0
100
AcDbLine
 10
131.712
 20
853.3849999999999
 30
0.0
 11
132.0
 21
853.0
 31
0.0
  0
LINE
  5
6D6
330
1E
100
AcDbEntity
  8
0
100
AcDbLine
 10
131.712
 20
840.0
 30
0.0
 11
132.0
 21
839.615
 31
0.0
  0
LINE
  5
6D7
330
1E
100
AcDbEntity
  8
0
100
AcDbLine
 10
132.021
 20
1050.0
 30
0.0
 11
133.435
 21
1050.0
 31
0.0
  0
LINE
  5
6D8
330
1E
100
AcDbEntity
  8
0
100
AcDbLine
 10
132.0
 20
824.0
 30
0.0
 11
132.0
 21
651.0
 31
0.0
  0
LINE
  5
6D9
330
1E
100
AcDbEntity
  8
0
100
AcDbLine
 10
132.0
 20
651.0
 30
0.0
 11
132.0
 21
824.0
 31
0.0
  0
LINE
  5
6DA
330
1E
100
AcDbEntity
  8
0
100
AcDbLine
 10
131.5709999999999
 20
651.0
 30
0.0
 11
132.0
 21
651.0
 31
0.0
  0
LINE
  5
6DB
330
1E
100
AcDbEntity
  8
0
100
AcDbLine
 10
131.6999999999999
 20
650.0
 30
0.0
 11
133.0
 21
650.0
 31
0.0
  0
LINE
  5
6DC
330
1E
100
AcDbEntity
  8
0
100
AcDbLine
 10
133.0
 20
650.0
 30
0.0
 11
133.4999999999999
 21
650.0
 31
0.0
  0
LINE
  5
6DD
330
1E
100
AcDbEntity
  8
0
100
AcDbLine
 10
131.0999999999999
 20
600.0
 30
0.0
 11
131.4999999999999
 21
600.0
 31
0.0
  0
LINE
  5
6DE
330
1E
100
AcDbEntity
  8
0
100
AcDbLine
 10
133.014
 20
600.0
 30
0.0
 11
133.4999999999999
 21
600.0
 31
0.0
  0
LINE
  5
6DF
330
1E
100
AcDbEntity
  8
0
100
AcDbLine
 10
133.389
 20
1050.0
 30
0.0
 11
133.907
 21
1050.0
 31
0.0
  0
LINE
  5
6E0
330
1E
100
AcDbEntity
  8
0
100
AcDbLine
 10
133.435
 20
1050.0
 30
0.0
 11
134.8489999999999
 21
1050.0
 31
0.0
  0
LINE
  5
6E1
330
1E
100
AcDbEntity
  8
0
100
AcDbLine
 10
134.8489999999999
 20
1050.0
 30
0.0
 11
134.8489999999999
 21
1052.0
 31
0.0
  0
LINE
  5
6E2
330
1E
100
AcDbEntity
  8
0
100
AcDbLine
 10
133.907
 20
1052.0
 30
0.0
 11
133.907
 21
1050.0
 31
0.0
  0
LINE
  5
6E3
330
1E
100
AcDbEntity
  8
0
100
AcDbLine
 10
133.907
 20
1052.0
 30
0.0
 11
134.8489999999999
 21
1052.0
 31
0.0
  0
LINE
  5
6E4
330
1E
100
AcDbEntity
  8
0
100
AcDbLine
 10
133.907
 20
1050.0
 30
0.0
 11
133.907
 21
1052.0
 31
0.0
  0
LINE
  5
6E5
330
1E
100
AcDbEntity
  8
0
100
AcDbLine
 10
133.4999999999999
 20
650.0
 30
0.0
 11
133.4999999999999
 21
600.0
 31
0.0
  0
LINE
  5
6E6
330
1E
100
AcDbEntity
  8
0
100
AcDbLine
 10
133.4999999999999
 20
600.0
 30
0.0
 11
133.4999999999999
 21
650.0
 31
0.0
  0
LINE
  5
6E7
330
1E
100
AcDbEntity
  8
0
100
AcDbLine
 10
133.0
 20
600.0
 30
0.0
 11
133.4999999999999
 21
600.0
 31
0.0
  0
LINE
  5
6E8
330
1E
100
AcDbEntity
  8
0
100
AcDbLine
 10
132.3839999999999
 20
79.9999999999999
 30
0.0
 11
135.192
 21
79.9999999999999
 31
0.0
  0
LINE
  5
6E9
330
1E
100
AcDbEntity
  8
0
100
AcDbLine
 10
135.0879999999999
 20
1052.0
 30
0.0
 11
135.0879999999999
 21
1050.0
 31
0.0
  0
LINE
  5
6EA
330
1E
100
AcDbEntity
  8
0
100
AcDbLine
 10
135.0879999999999
 20
1052.0
 30
0.0
 11
135.34
 21
1052.0
 31
0.0
  0
LINE
  5
6EB
330
1E
100
AcDbEntity
  8
0
100
AcDbLine
 10
135.34
 20
1052.0
 30
0.0
 11
135.857
 21
1052.0
 31
0.0
  0
LINE
  5
6EC
330
1E
100
AcDbEntity
  8
0
100
AcDbLine
 10
135.34
 20
1052.0
 30
0.0
 11
135.34
 21
1050.0
 31
0.0
  0
LINE
  5
6ED
330
1E
100
AcDbEntity
  8
0
100
AcDbLine
 10
135.34
 20
1050.0
 30
0.0
 11
135.857
 21
1050.0
 31
0.0
  0
LINE
  5
6EE
330
1E
100
AcDbEntity
  8
0
100
AcDbLine
 10
135.34
 20
1050.0
 30
0.0
 11
137.272
 21
1050.0
 31
0.0
  0
LINE
  5
6EF
330
1E
100
AcDbEntity
  8
0
100
AcDbLine
 10
135.34
 20
1050.0
 30
0.0
 11
135.34
 21
1052.0
 31
0.0
  0
LINE
  5
6F0
330
1E
100
AcDbEntity
  8
0
100
AcDbLine
 10
135.0879999999999
 20
1050.0
 30
0.0
 11
135.0879999999999
 21
1052.0
 31
0.0
  0
LINE
  5
6F1
330
1E
100
AcDbEntity
  8
0
100
AcDbLine
 10
135.0879999999999
 20
1050.0
 30
0.0
 11
136.8209999999999
 21
1050.0
 31
0.0
  0
LINE
  5
6F2
330
1E
100
AcDbEntity
  8
0
100
AcDbLine
 10
135.0879999999999
 20
1050.0
 30
0.0
 11
136.0879999999999
 21
1050.0
 31
0.0
  0
LINE
  5
6F3
330
1E
100
AcDbEntity
  8
0
100
AcDbLine
 10
135.192
 20
79.9999999999999
 30
0.0
 11
136.9199999999999
 21
79.9999999999999
 31
0.0
  0
LINE
  5
6F4
330
1E
100
AcDbEntity
  8
0
100
AcDbLine
 10
134.8489999999999
 20
1052.0
 30
0.0
 11
135.0879999999999
 21
1052.0
 31
0.0
  0
LINE
  5
6F5
330
1E
100
AcDbEntity
  8
0
100
AcDbLine
 10
134.8489999999999
 20
1052.0
 30
0.0
 11
134.8489999999999
 21
1050.0
 31
0.0
  0
LINE
  5
6F7
330
1E
100
AcDbEntity
  8
0
100
AcDbLine
 10
132.9
 20
1065.0
 30
0.0
 11
139.1
 21
1065.0
 31
0.0
  0
LINE
  5
6F8
330
1E
100
AcDbEntity
  8
0
100
AcDbLine
 10
135.5999999999999
 20
1062.0
 30
0.0
 11
150.6999999999999
 21
1062.0
 31
0.0
  0
LINE
  5
6F9
330
1E
100
AcDbEntity
  8
0
100
AcDbLine
 10
135.5999999999999
 20
1061.0
 30
0.0
 11
151.0
 21
1061.0
 31
0.0
  0
LINE
  5
6FA
330
1E
100
AcDbEntity
  8
0
100
AcDbLine
 10
135.5999999999999
 20
1053.0
 30
0.0
 11
151.0
 21
1053.0
 31
0.0
  0
LINE
  5
6FB
330
1E
100
AcDbEntity
  8
0
100
AcDbLine
 10
138.0
 20
49.99999999999989
 30
0.0
 11
138.0
 21
-0.0000000000000625
 31
0.0
  0
LINE
  5
6FC
330
1E
100
AcDbEntity
  8
0
100
AcDbLine
 10
137.352
 20
49.99999999999989
 30
0.0
 11
138.0
 21
49.99999999999989
 31
0.0
  0
LINE
  5
6FD
330
1E
100
AcDbEntity
  8
0
100
AcDbLine
 10
135.6239999999999
 20
50.0
 30
0.0
 11
137.352
 21
49.99999999999989
 31
0.0
  0
LINE
  5
6FE
330
1E
100
AcDbEntity
  8
0
100
AcDbLine
 10
136.9199999999999
 20
79.9999999999999
 30
0.0
 11
137.5679999999999
 21
79.9999999999999
 31
0.0
  0
LINE
  5
6FF
330
1E
100
AcDbEntity
  8
0
100
AcDbLine
 10
138.0
 20
51.15389999999989
 30
0.0
 11
138.0
 21
78.84619999999999
 31
0.0
  0
LINE
  5
700
330
1E
100
AcDbEntity
  8
0
100
AcDbLine
 10
137.5679999999999
 20
49.99999999999989
 30
0.0
 11
138.0
 21
51.15389999999989
 31
0.0
  0
LINE
  5
701
330
1E
100
AcDbEntity
  8
0
100
AcDbLine
 10
138.0
 20
78.84619999999999
 30
0.0
 11
138.0
 21
51.15389999999989
 31
0.0
  0
LINE
  5
702
330
1E
100
AcDbEntity
  8
0
100
AcDbLine
 10
135.857
 20
1050.0
 30
0.0
 11
137.7889999999999
 21
1050.0
 31
0.0
  0
LINE
  5
703
330
1E
100
AcDbEntity
  8
0
100
AcDbLine
 10
135.857
 20
1050.0
 30
0.0
 11
135.857
 21
1052.0
 31
0.0
  0
LINE
  5
704
330
1E
100
AcDbEntity
  8
0
100
AcDbLine
 10
135.6339999999999
 20
1050.0
 30
0.0
 11
136.6339999999999
 21
1050.0
 31
0.0
  0
LINE
  5
705
330
1E
100
AcDbEntity
  8
0
100
AcDbLine
 10
135.6339999999999
 20
1050.0
 30
0.0
 11
137.366
 21
1050.0
 31
0.0
  0
LINE
  5
706
330
1E
100
AcDbEntity
  8
0
100
AcDbLine
 10
136.6339999999999
 20
1050.0
 30
0.0
 11
138.366
 21
1050.0
 31
0.0
  0
LINE
  5
707
330
1E
100
AcDbEntity
  8
0
100
AcDbLine
 10
136.8209999999999
 20
1050.0
 30
0.0
 11
137.8209999999999
 21
1050.0
 31
0.0
  0
LINE
  5
708
330
1E
100
AcDbEntity
  8
0
100
AcDbLine
 10
136.0879999999999
 20
1050.0
 30
0.0
 11
137.8209999999999
 21
1050.0
 31
0.0
  0
LINE
  5
709
330
1E
100
AcDbEntity
  8
0
100
AcDbLine
 10
137.7889999999999
 20
1050.0
 30
0.0
 11
137.7889999999999
 21
1052.0
 31
0.0
  0
LINE
  5
70A
330
1E
100
AcDbEntity
  8
0
100
AcDbLine
 10
137.272
 20
1050.0
 30
0.0
 11
137.7889999999999
 21
1050.0
 31
0.0
  0
LINE
  5
70B
330
1E
100
AcDbEntity
  8
0
100
AcDbLine
 10
137.366
 20
1050.0
 30
0.0
 11
138.366
 21
1050.0
 31
0.0
  0
LINE
  5
70C
330
1E
100
AcDbEntity
  8
0
100
AcDbLine
 10
137.1279999999999
 20
1050.0
 30
0.0
 11
139.06
 21
1050.0
 31
0.0
  0
LINE
  5
70D
330
1E
100
AcDbEntity
  8
0
100
AcDbLine
 10
137.1279999999999
 20
1050.0
 30
0.0
 11
137.645
 21
1050.0
 31
0.0
  0
LINE
  5
70E
330
1E
100
AcDbEntity
  8
0
100
AcDbLine
 10
137.7889999999999
 20
1052.0
 30
0.0
 11
137.7889999999999
 21
1050.0
 31
0.0
  0
LINE
  5
70F
330
1E
100
AcDbEntity
  8
0
100
AcDbLine
 10
137.7889999999999
 20
1052.0
 30
0.0
 11
138.366
 21
1052.0
 31
0.0
  0
LINE
  5
710
330
1E
100
AcDbEntity
  8
0
100
AcDbLine
 10
135.857
 20
1052.0
 30
0.0
 11
137.7889999999999
 21
1052.0
 31
0.0
  0
LINE
  5
711
330
1E
100
AcDbEntity
  8
0
100
AcDbLine
 10
135.857
 20
1052.0
 30
0.0
 11
135.857
 21
1050.0
 31
0.0
  0
LINE
  5
712
330
1E
100
AcDbEntity
  8
0
100
AcDbLine
 10
137.645
 20
1050.0
 30
0.0
 11
139.5769999999999
 21
1050.0
 31
0.0
  0
LINE
  5
713
330
1E
100
AcDbEntity
  8
0
100
AcDbLine
 10
138.0
 20
1050.0
 30
0.0
 11
140.0
 21
1050.0
 31
0.0
  0
LINE
  5
714
330
1E
100
AcDbEntity
  8
0
100
AcDbLine
 10
137.5679999999999
 20
79.9999999999999
 30
0.0
 11
138.0
 21
78.84619999999999
 31
0.0
  0
LINE
  5
715
330
1E
100
AcDbEntity
  8
0
100
AcDbLine
 10
135.5999999999999
 20
1052.0
 30
0.0
 11
150.6999999999999
 21
1052.0
 31
0.0
  0
LINE
  5
716
330
1E
100
AcDbEntity
  8
0
100
AcDbLine
 10
132.22
 20
1088.279999999999
 30
0.0
 11
132.6879999999999
 21
1085.0
 31
0.0
  0
LINE
  5
718
330
1E
100
AcDbEntity
  8
0
100
AcDbLine
 10
132.22
 20
1081.72
 30
0.0
 11
132.6879999999999
 21
1085.0
 31
0.0
  0
LINE
  5
71A
330
1E
100
AcDbEntity
  8
0
100
AcDbLine
 10
131.0
 20
103.2559999999999
 30
0.0
 11
139.84
 21
99.7199999999999
 31
0.0
  0
LINE
  5
71C
330
1E
100
AcDbEntity
  8
0
100
AcDbLine
 10
138.366
 20
1050.0
 30
0.0
 11
138.366
 21
1052.0
 31
0.0
  0
LINE
  5
71D
330
1E
100
AcDbEntity
  8
0
100
AcDbLine
 10
139.06
 20
1052.0
 30
0.0
 11
139.222
 21
1052.0
 31
0.0
  0
LINE
  5
71E
330
1E
100
AcDbEntity
  8
0
100
AcDbLine
 10
139.06
 20
1052.0
 30
0.0
 11
139.06
 21
1050.0
 31
0.0
  0
LINE
  5
71F
330
1E
100
AcDbEntity
  8
0
100
AcDbLine
 10
138.366
 20
1052.0
 30
0.0
 11
138.366
 21
1050.0
 31
0.0
  0
LINE
  5
720
330
1E
100
AcDbEntity
  8
0
100
AcDbLine
 10
138.366
 20
1052.0
 30
0.0
 11
139.06
 21
1052.0
 31
0.0
  0
LINE
  5
721
330
1E
100
AcDbEntity
  8
0
100
AcDbLine
 10
139.06
 20
1050.0
 30
0.0
 11
139.5769999999999
 21
1050.0
 31
0.0
  0
LINE
  5
722
330
1E
100
AcDbEntity
  8
0
100
AcDbLine
 10
139.06
 20
1050.0
 30
0.0
 11
139.06
 21
1052.0
 31
0.0
  0
LINE
  5
723
330
1E
100
AcDbEntity
  8
0
100
AcDbLine
 10
139.222
 20
1050.0
 30
0.0
 11
139.74
 21
1050.0
 31
0.0
  0
LINE
  5
724
330
1E
100
AcDbEntity
  8
0
100
AcDbLine
 10
139.222
 20
1050.0
 30
0.0
 11
141.154
 21
1050.0
 31
0.0
  0
LINE
  5
725
330
1E
100
AcDbEntity
  8
0
100
AcDbLine
 10
139.222
 20
1050.0
 30
0.0
 11
139.222
 21
1052.0
 31
0.0
  0
LINE
  5
726
330
1E
100
AcDbEntity
  8
0
100
AcDbLine
 10
139.222
 20
1052.0
 30
0.0
 11
139.74
 21
1052.0
 31
0.0
  0
LINE
  5
727
330
1E
100
AcDbEntity
  8
0
100
AcDbLine
 10
139.222
 20
1052.0
 30
0.0
 11
139.222
 21
1050.0
 31
0.0
  0
LINE
  5
728
330
1E
100
AcDbEntity
  8
0
100
AcDbLine
 10
139.74
 20
1052.0
 30
0.0
 11
141.6709999999999
 21
1052.0
 31
0.0
  0
LINE
  5
729
330
1E
100
AcDbEntity
  8
0
100
AcDbLine
 10
139.74
 20
1052.0
 30
0.0
 11
139.74
 21
1050.0
 31
0.0
  0
LINE
  5
72A
330
1E
100
AcDbEntity
  8
0
100
AcDbLine
 10
139.74
 20
1050.0
 30
0.0
 11
141.6709999999999
 21
1050.0
 31
0.0
  0
LINE
  5
72B
330
1E
100
AcDbEntity
  8
0
100
AcDbLine
 10
139.74
 20
1050.0
 30
0.0
 11
139.74
 21
1052.0
 31
0.0
  0
LINE
  5
72C
330
1E
100
AcDbEntity
  8
0
100
AcDbLine
 10
139.1
 20
1065.0
 30
0.0
 11
144.9
 21
1065.0
 31
0.0
  0
LINE
  5
72D
330
1E
100
AcDbEntity
  8
0
100
AcDbLine
 10
139.84
 20
1119.72
 30
0.0
 11
148.3199999999999
 21
1113.32
 31
0.0
  0
LINE
  5
72E
330
1E
100
AcDbEntity
  8
0
100
AcDbLine
 10
141.6709999999999
 20
1050.0
 30
0.0
 11
141.6709999999999
 21
1052.0
 31
0.0
  0
LINE
  5
72F
330
1E
100
AcDbEntity
  8
0
100
AcDbLine
 10
143.1039999999999
 20
1050.0
 30
0.0
 11
143.622
 21
1050.0
 31
0.0
  0
LINE
  5
730
330
1E
100
AcDbEntity
  8
0
100
AcDbLine
 10
143.1039999999999
 20
1050.0
 30
0.0
 11
145.036
 21
1050.0
 31
0.0
  0
LINE
  5
731
330
1E
100
AcDbEntity
  8
0
100
AcDbLine
 10
143.1039999999999
 20
1050.0
 30
0.0
 11
143.1039999999999
 21
1052.0
 31
0.0
  0
LINE
  5
732
330
1E
100
AcDbEntity
  8
0
100
AcDbLine
 10
141.154
 20
1050.0
 30
0.0
 11
141.6709999999999
 21
1050.0
 31
0.0
  0
LINE
  5
733
330
1E
100
AcDbEntity
  8
0
100
AcDbLine
 10
143.622
 20
1050.0
 30
0.0
 11
145.554
 21
1050.0
 31
0.0
  0
LINE
  5
734
330
1E
100
AcDbEntity
  8
0
100
AcDbLine
 10
143.622
 20
1050.0
 30
0.0
 11
143.622
 21
1052.0
 31
0.0
  0
LINE
  5
735
330
1E
100
AcDbEntity
  8
0
100
AcDbLine
 10
143.1339999999999
 20
1050.0
 30
0.0
 11
144.1339999999999
 21
1050.0
 31
0.0
  0
LINE
  5
736
330
1E
100
AcDbEntity
  8
0
100
AcDbLine
 10
143.1339999999999
 20
1050.0
 30
0.0
 11
144.866
 21
1050.0
 31
0.0
  0
LINE
  5
737
330
1E
100
AcDbEntity
  8
0
100
AcDbLine
 10
142.627
 20
1050.0
 30
0.0
 11
142.627
 21
1052.0
 31
0.0
  0
LINE
  5
738
330
1E
100
AcDbEntity
  8
0
100
AcDbLine
 10
142.627
 20
1050.0
 30
0.0
 11
144.042
 21
1050.0
 31
0.0
  0
LINE
  5
739
330
1E
100
AcDbEntity
  8
0
100
AcDbLine
 10
145.866
 20
1050.0
 30
0.0
 11
145.866
 21
1052.0
 31
0.0
  0
LINE
  5
73A
330
1E
100
AcDbEntity
  8
0
100
AcDbLine
 10
145.554
 20
1050.0
 30
0.0
 11
145.554
 21
1052.0
 31
0.0
  0
LINE
  5
73B
330
1E
100
AcDbEntity
  8
0
100
AcDbLine
 10
146.987
 20
1050.0
 30
0.0
 11
146.987
 21
1052.0
 31
0.0
  0
LINE
  5
73C
330
1E
100
AcDbEntity
  8
0
100
AcDbLine
 10
146.987
 20
1050.0
 30
0.0
 11
147.5039999999999
 21
1050.0
 31
0.0
  0
LINE
  5
73D
330
1E
100
AcDbEntity
  8
0
100
AcDbLine
 10
146.987
 20
1050.0
 30
0.0
 11
148.918
 21
1050.0
 31
0.0
  0
LINE
  5
73E
330
1E
100
AcDbEntity
  8
0
100
AcDbLine
 10
147.5039999999999
 20
1050.0
 30
0.0
 11
149.436
 21
1050.0
 31
0.0
  0
LINE
  5
73F
330
1E
100
AcDbEntity
  8
0
100
AcDbLine
 10
147.5039999999999
 20
1050.0
 30
0.0
 11
147.5039999999999
 21
1052.0
 31
0.0
  0
LINE
  5
740
330
1E
100
AcDbEntity
  8
0
100
AcDbLine
 10
145.036
 20
1050.0
 30
0.0
 11
145.554
 21
1050.0
 31
0.0
  0
LINE
  5
741
330
1E
100
AcDbEntity
  8
0
100
AcDbLine
 10
144.1339999999999
 20
1050.0
 30
0.0
 11
145.866
 21
1050.0
 31
0.0
  0
LINE
  5
742
330
1E
100
AcDbEntity
  8
0
100
AcDbLine
 10
144.866
 20
1050.0
 30
0.0
 11
145.866
 21
1050.0
 31
0.0
  0
LINE
  5
743
330
1E
100
AcDbEntity
  8
0
100
AcDbLine
 10
144.042
 20
1050.0
 30
0.0
 11
145.456
 21
1050.0
 31
0.0
  0
LINE
  5
744
330
1E
100
AcDbEntity
  8
0
100
AcDbLine
 10
148.079
 20
1050.0
 30
0.0
 11
149.811
 21
1050.0
 31
0.0
  0
LINE
  5
745
330
1E
100
AcDbEntity
  8
0
100
AcDbLine
 10
148.079
 20
1050.0
 30
0.0
 11
149.079
 21
1050.0
 31
0.0
  0
LINE
  5
746
330
1E
100
AcDbEntity
  8
0
100
AcDbLine
 10
143.1039999999999
 20
1052.0
 30
0.0
 11
143.622
 21
1052.0
 31
0.0
  0
LINE
  5
747
330
1E
100
AcDbEntity
  8
0
100
AcDbLine
 10
143.1039999999999
 20
1052.0
 30
0.0
 11
143.1039999999999
 21
1050.0
 31
0.0
  0
LINE
  5
748
330
1E
100
AcDbEntity
  8
0
100
AcDbLine
 10
145.554
 20
1052.0
 30
0.0
 11
145.554
 21
1050.0
 31
0.0
  0
LINE
  5
749
330
1E
100
AcDbEntity
  8
0
100
AcDbLine
 10
145.554
 20
1052.0
 30
0.0
 11
145.866
 21
1052.0
 31
0.0
  0
LINE
  5
74A
330
1E
100
AcDbEntity
  8
0
100
AcDbLine
 10
143.622
 20
1052.0
 30
0.0
 11
145.554
 21
1052.0
 31
0.0
  0
LINE
  5
74B
330
1E
100
AcDbEntity
  8
0
100
AcDbLine
 10
143.622
 20
1052.0
 30
0.0
 11
143.622
 21
1050.0
 31
0.0
  0
LINE
  5
74C
330
1E
100
AcDbEntity
  8
0
100
AcDbLine
 10
147.5039999999999
 20
1052.0
 30
0.0
 11
149.436
 21
1052.0
 31
0.0
  0
LINE
  5
74D
330
1E
100
AcDbEntity
  8
0
100
AcDbLine
 10
147.5039999999999
 20
1052.0
 30
0.0
 11
147.5039999999999
 21
1050.0
 31
0.0
  0
LINE
  5
74E
330
1E
100
AcDbEntity
  8
0
100
AcDbLine
 10
146.987
 20
1052.0
 30
0.0
 11
146.987
 21
1050.0
 31
0.0
  0
LINE
  5
74F
330
1E
100
AcDbEntity
  8
0
100
AcDbLine
 10
146.987
 20
1052.0
 30
0.0
 11
147.5039999999999
 21
1052.0
 31
0.0
  0
LINE
  5
750
330
1E
100
AcDbEntity
  8
0
100
AcDbLine
 10
142.627
 20
1052.0
 30
0.0
 11
142.627
 21
1050.0
 31
0.0
  0
LINE
  5
751
330
1E
100
AcDbEntity
  8
0
100
AcDbLine
 10
142.627
 20
1052.0
 30
0.0
 11
143.1039999999999
 21
1052.0
 31
0.0
  0
LINE
  5
752
330
1E
100
AcDbEntity
  8
0
100
AcDbLine
 10
141.6709999999999
 20
1052.0
 30
0.0
 11
142.627
 21
1052.0
 31
0.0
  0
LINE
  5
753
330
1E
100
AcDbEntity
  8
0
100
AcDbLine
 10
141.6709999999999
 20
1052.0
 30
0.0
 11
141.6709999999999
 21
1050.0
 31
0.0
  0
LINE
  5
754
330
1E
100
AcDbEntity
  8
0
100
AcDbLine
 10
144.9
 20
1065.0
 30
0.0
 11
150.4
 21
1065.0
 31
0.0
  0
LINE
  5
755
330
1E
100
AcDbEntity
  8
0
100
AcDbLine
 10
145.866
 20
1052.0
 30
0.0
 11
146.987
 21
1052.0
 31
0.0
  0
LINE
  5
756
330
1E
100
AcDbEntity
  8
0
100
AcDbLine
 10
145.866
 20
1052.0
 30
0.0
 11
145.866
 21
1050.0
 31
0.0
  0
LINE
  5
757
330
1E
100
AcDbEntity
  8
0
100
AcDbLine
 10
148.3199999999999
 20
1113.32
 30
0.0
 11
154.72
 21
1104.84
 31
0.0
  0
LINE
  5
758
330
1E
100
AcDbEntity
  8
0
100
AcDbLine
 10
141.6709999999999
 20
1051.66188679245
 30
0.0
 11
142.1189999999999
 21
1052.0
 31
0.0
  0
LINE
  5
759
330
1E
100
AcDbEntity
  8
0
100
AcDbLine
 10
139.84
 20
99.7199999999999
 30
0.0
 11
148.3199999999999
 21
93.31999999999991
 31
0.0
  0
LINE
  5
75A
330
1E
100
AcDbEntity
  8
0
100
AcDbLine
 10
148.3199999999999
 20
93.31999999999991
 30
0.0
 11
154.72
 21
84.83999999999991
 31
0.0
  0
LINE
  5
75D
330
1E
100
AcDbEntity
  8
0
100
AcDbLine
 10
148.918
 20
1050.0
 30
0.0
 11
149.436
 21
1050.0
 31
0.0
  0
LINE
  5
75E
330
1E
100
AcDbEntity
  8
0
100
AcDbLine
 10
149.436
 20
1050.0
 30
0.0
 11
149.436
 21
1052.0
 31
0.0
  0
LINE
  5
75F
330
1E
100
AcDbEntity
  8
0
100
AcDbLine
 10
150.6339999999999
 20
1050.0
 30
0.0
 11
151.6339999999999
 21
1050.0
 31
0.0
  0
LINE
  5
760
330
1E
100
AcDbEntity
  8
0
100
AcDbLine
 10
150.6339999999999
 20
1050.0
 30
0.0
 11
152.366
 21
1050.0
 31
0.0
  0
LINE
  5
761
330
1E
100
AcDbEntity
  8
0
100
AcDbLine
 10
150.6339999999999
 20
1050.0
 30
0.0
 11
150.6339999999999
 21
1052.0
 31
0.0
  0
LINE
  5
762
330
1E
100
AcDbEntity
  8
0
100
AcDbLine
 10
149.811
 20
1052.0
 30
0.0
 11
150.6339999999999
 21
1052.0
 31
0.0
  0
LINE
  5
763
330
1E
100
AcDbEntity
  8
0
100
AcDbLine
 10
149.811
 20
1052.0
 30
0.0
 11
149.811
 21
1050.0
 31
0.0
  0
LINE
  5
764
330
1E
100
AcDbEntity
  8
0
100
AcDbLine
 10
150.6339999999999
 20
1052.0
 30
0.0
 11
151.6339999999999
 21
1052.0
 31
0.0
  0
LINE
  5
765
330
1E
100
AcDbEntity
  8
0
100
AcDbLine
 10
150.6339999999999
 20
1052.0
 30
0.0
 11
150.6339999999999
 21
1050.0
 31
0.0
  0
LINE
  5
766
330
1E
100
AcDbEntity
  8
0
100
AcDbLine
 10
149.436
 20
1052.0
 30
0.0
 11
149.436
 21
1050.0
 31
0.0
  0
LINE
  5
767
330
1E
100
AcDbEntity
  8
0
100
AcDbLine
 10
149.436
 20
1052.0
 30
0.0
 11
149.811
 21
1052.0
 31
0.0
  0
LINE
  5
768
330
1E
100
AcDbEntity
  8
0
100
AcDbLine
 10
149.811
 20
1050.0
 30
0.0
 11
150.811
 21
1050.0
 31
0.0
  0
LINE
  5
769
330
1E
100
AcDbEntity
  8
0
100
AcDbLine
 10
149.811
 20
1050.0
 30
0.0
 11
149.811
 21
1052.0
 31
0.0
  0
LINE
  5
76A
330
1E
100
AcDbEntity
  8
0
100
AcDbLine
 10
149.079
 20
1050.0
 30
0.0
 11
150.811
 21
1050.0
 31
0.0
  0
LINE
  5
76B
330
1E
100
AcDbEntity
  8
0
100
AcDbLine
 10
150.4
 20
1065.0
 30
0.0
 11
155.3
 21
1065.0
 31
0.0
  0
LINE
  5
76C
330
1E
100
AcDbEntity
  8
0
100
AcDbLine
 10
150.6999999999999
 20
1062.0
 30
0.0
 11
165.5
 21
1062.0
 31
0.0
  0
LINE
  5
76D
330
1E
100
AcDbEntity
  8
0
100
AcDbLine
 10
151.6339999999999
 20
1050.0
 30
0.0
 11
153.366
 21
1050.0
 31
0.0
  0
LINE
  5
76E
330
1E
100
AcDbEntity
  8
0
100
AcDbLine
 10
151.6339999999999
 20
1050.0
 30
0.0
 11
151.6339999999999
 21
1052.0
 31
0.0
  0
LINE
  5
76F
330
1E
100
AcDbEntity
  8
0
100
AcDbLine
 10
152.366
 20
1050.0
 30
0.0
 11
153.366
 21
1050.0
 31
0.0
  0
LINE
  5
770
330
1E
100
AcDbEntity
  8
0
100
AcDbLine
 10
151.617
 20
1050.0
 30
0.0
 11
153.549
 21
1050.0
 31
0.0
  0
LINE
  5
771
330
1E
100
AcDbEntity
  8
0
100
AcDbLine
 10
151.617
 20
1050.0
 30
0.0
 11
152.1339999999999
 21
1050.0
 31
0.0
  0
LINE
  5
772
330
1E
100
AcDbEntity
  8
0
100
AcDbLine
 10
151.6339999999999
 20
1052.0
 30
0.0
 11
153.366
 21
1052.0
 31
0.0
  0
LINE
  5
773
330
1E
100
AcDbEntity
  8
0
100
AcDbLine
 10
151.6339999999999
 20
1052.0
 30
0.0
 11
151.6339999999999
 21
1050.0
 31
0.0
  0
LINE
  5
774
330
1E
100
AcDbEntity
  8
0
100
AcDbLine
 10
152.1339999999999
 20
1050.0
 30
0.0
 11
154.066
 21
1050.0
 31
0.0
  0
LINE
  5
775
330
1E
100
AcDbEntity
  8
0
100
AcDbLine
 10
153.366
 20
1050.0
 30
0.0
 11
153.366
 21
1052.0
 31
0.0
  0
LINE
  5
776
330
1E
100
AcDbEntity
  8
0
100
AcDbLine
 10
153.234
 20
1050.0
 30
0.0
 11
154.648
 21
1050.0
 31
0.0
  0
LINE
  5
777
330
1E
100
AcDbEntity
  8
0
100
AcDbLine
 10
153.366
 20
1052.0
 30
0.0
 11
153.366
 21
1050.0
 31
0.0
  0
LINE
  5
778
330
1E
100
AcDbEntity
  8
0
100
AcDbLine
 10
153.366
 20
1052.0
 30
0.0
 11
154.648
 21
1052.0
 31
0.0
  0
LINE
  5
779
330
1E
100
AcDbEntity
  8
0
100
AcDbLine
 10
153.549
 20
1050.0
 30
0.0
 11
154.066
 21
1050.0
 31
0.0
  0
LINE
  5
77A
330
1E
100
AcDbEntity
  8
0
100
AcDbLine
 10
153.0
 20
1050.0
 30
0.0
 11
155.0
 21
1050.0
 31
0.0
  0
LINE
  5
77B
330
1E
100
AcDbEntity
  8
0
100
AcDbLine
 10
151.0
 20
1061.0
 30
0.0
 11
165.8
 21
1061.0
 31
0.0
  0
LINE
  5
77C
330
1E
100
AcDbEntity
  8
0
100
AcDbLine
 10
151.0
 20
1053.0
 30
0.0
 11
165.8
 21
1053.0
 31
0.0
  0
LINE
  5
77D
330
1E
100
AcDbEntity
  8
0
100
AcDbLine
 10
150.6999999999999
 20
1052.0
 30
0.0
 11
165.5
 21
1052.0
 31
0.0
  0
LINE
  5
780
330
1E
100
AcDbEntity
  8
0
100
AcDbLine
 10
154.648
 20
1052.0
 30
0.0
 11
156.062
 21
1052.0
 31
0.0
  0
LINE
  5
781
330
1E
100
AcDbEntity
  8
0
100
AcDbLine
 10
154.648
 20
1052.0
 30
0.0
 11
154.648
 21
1050.0
 31
0.0
  0
LINE
  5
782
330
1E
100
AcDbEntity
  8
0
100
AcDbLine
 10
154.648
 20
1050.0
 30
0.0
 11
156.062
 21
1050.0
 31
0.0
  0
LINE
  5
783
330
1E
100
AcDbEntity
  8
0
100
AcDbLine
 10
154.648
 20
1050.0
 30
0.0
 11
154.648
 21
1052.0
 31
0.0
  0
LINE
  5
784
330
1E
100
AcDbEntity
  8
0
100
AcDbLine
 10
156.062
 20
1050.0
 30
0.0
 11
156.062
 21
1052.0
 31
0.0
  0
LINE
  5
785
330
1E
100
AcDbEntity
  8
0
100
AcDbLine
 10
155.3
 20
1065.0
 30
0.0
 11
159.6
 21
1065.0
 31
0.0
  0
LINE
  5
786
330
1E
100
AcDbEntity
  8
0
100
AcDbLine
 10
156.062
 20
1052.0
 30
0.0
 11
158.1339999999999
 21
1052.0
 31
0.0
  0
LINE
  5
787
330
1E
100
AcDbEntity
  8
0
100
AcDbLine
 10
156.062
 20
1052.0
 30
0.0
 11
156.062
 21
1050.0
 31
0.0
  0
LINE
  5
789
330
1E
100
AcDbEntity
  8
0
100
AcDbLine
 10
154.72
 20
1104.84
 30
0.0
 11
158.56
 21
1095.24
 31
0.0
  0
LINE
  5
78B
330
1E
100
AcDbEntity
  8
0
100
AcDbLine
 10
154.72
 20
1065.16
 30
0.0
 11
158.56
 21
1074.76
 31
0.0
  0
LINE
  5
78C
330
1E
100
AcDbEntity
  8
0
100
AcDbLine
 10
154.599245283019
 20
1065.0
 30
0.0
 11
154.72
 21
1065.16
 31
0.0
  0
LINE
  5
78D
330
1E
100
AcDbEntity
  8
0
100
AcDbLine
 10
154.72
 20
84.83999999999991
 30
0.0
 11
158.56
 21
75.24
 31
0.0
  0
LINE
  5
78E
330
1E
100
AcDbEntity
  8
0
100
AcDbLine
 10
158.1339999999999
 20
1052.0
 30
0.0
 11
158.1339999999999
 21
1050.0
 31
0.0
  0
LINE
  5
78F
330
1E
100
AcDbEntity
  8
0
100
AcDbLine
 10
158.1339999999999
 20
1052.0
 30
0.0
 11
159.1339999999999
 21
1052.0
 31
0.0
  0
LINE
  5
790
330
1E
100
AcDbEntity
  8
0
100
AcDbLine
 10
158.1339999999999
 20
1050.0
 30
0.0
 11
158.1339999999999
 21
1052.0
 31
0.0
  0
LINE
  5
791
330
1E
100
AcDbEntity
  8
0
100
AcDbLine
 10
158.1339999999999
 20
1050.0
 30
0.0
 11
159.1339999999999
 21
1050.0
 31
0.0
  0
LINE
  5
792
330
1E
100
AcDbEntity
  8
0
100
AcDbLine
 10
158.1339999999999
 20
1050.0
 30
0.0
 11
159.866
 21
1050.0
 31
0.0
  0
LINE
  5
793
330
1E
100
AcDbEntity
  8
0
100
AcDbLine
 10
158.56
 20
1095.24
 30
0.0
 11
160.0
 21
1085.0
 31
0.0
  0
LINE
  5
794
330
1E
100
AcDbEntity
  8
0
100
AcDbLine
 10
158.56
 20
1074.76
 30
0.0
 11
160.0
 21
1085.0
 31
0.0
  0
LINE
  5
795
330
1E
100
AcDbEntity
  8
0
100
AcDbLine
 10
158.56
 20
75.24
 30
0.0
 11
160.0
 21
64.9999999999999
 31
0.0
  0
LINE
  5
798
330
1E
100
AcDbEntity
  8
0
100
AcDbLine
 10
160.866
 20
1050.0
 30
0.0
 11
160.866
 21
1052.0
 31
0.0
  0
LINE
  5
799
330
1E
100
AcDbEntity
  8
0
100
AcDbLine
 10
159.1339999999999
 20
1050.0
 30
0.0
 11
160.866
 21
1050.0
 31
0.0
  0
LINE
  5
79A
330
1E
100
AcDbEntity
  8
0
100
AcDbLine
 10
159.1339999999999
 20
1050.0
 30
0.0
 11
159.1339999999999
 21
1052.0
 31
0.0
  0
LINE
  5
79B
330
1E
100
AcDbEntity
  8
0
100
AcDbLine
 10
159.1339999999999
 20
1052.0
 30
0.0
 11
160.866
 21
1052.0
 31
0.0
  0
LINE
  5
79C
330
1E
100
AcDbEntity
  8
0
100
AcDbLine
 10
159.1339999999999
 20
1052.0
 30
0.0
 11
159.1339999999999
 21
1050.0
 31
0.0
  0
LINE
  5
79D
330
1E
100
AcDbEntity
  8
0
100
AcDbLine
 10
159.866
 20
1050.0
 30
0.0
 11
160.866
 21
1050.0
 31
0.0
  0
LINE
  5
79E
330
1E
100
AcDbEntity
  8
0
100
AcDbLine
 10
161.0689999999999
 20
1050.0
 30
0.0
 11
161.0689999999999
 21
1052.0
 31
0.0
  0
LINE
  5
79F
330
1E
100
AcDbEntity
  8
0
100
AcDbLine
 10
161.0689999999999
 20
1050.0
 30
0.0
 11
162.801
 21
1050.0
 31
0.0
  0
LINE
  5
7A0
330
1E
100
AcDbEntity
  8
0
100
AcDbLine
 10
161.0689999999999
 20
1050.0
 30
0.0
 11
162.0689999999999
 21
1050.0
 31
0.0
  0
LINE
  5
7A1
330
1E
100
AcDbEntity
  8
0
100
AcDbLine
 10
163.801
 20
1050.0
 30
0.0
 11
163.801
 21
1052.0
 31
0.0
  0
LINE
  5
7A2
330
1E
100
AcDbEntity
  8
0
100
AcDbLine
 10
163.8409999999999
 20
1050.0
 30
0.0
 11
163.8409999999999
 21
1052.0
 31
0.0
  0
LINE
  5
7A3
330
1E
100
AcDbEntity
  8
0
100
AcDbLine
 10
163.8409999999999
 20
1050.0
 30
0.0
 11
165.2549999999999
 21
1050.0
 31
0.0
  0
LINE
  5
7A4
330
1E
100
AcDbEntity
  8
0
100
AcDbLine
 10
165.634
 20
1050.0
 30
0.0
 11
166.634
 21
1050.0
 31
0.0
  0
LINE
  5
7A5
330
1E
100
AcDbEntity
  8
0
100
AcDbLine
 10
165.634
 20
1050.0
 30
0.0
 11
167.3659999999999
 21
1050.0
 31
0.0
  0
LINE
  5
7A6
330
1E
100
AcDbEntity
  8
0
100
AcDbLine
 10
165.634
 20
1050.0
 30
0.0
 11
165.634
 21
1052.0
 31
0.0
  0
LINE
  5
7A7
330
1E
100
AcDbEntity
  8
0
100
AcDbLine
 10
166.634
 20
1050.0
 30
0.0
 11
168.3659999999999
 21
1050.0
 31
0.0
  0
LINE
  5
7A8
330
1E
100
AcDbEntity
  8
0
100
AcDbLine
 10
166.634
 20
1050.0
 30
0.0
 11
166.634
 21
1052.0
 31
0.0
  0
LINE
  5
7A9
330
1E
100
AcDbEntity
  8
0
100
AcDbLine
 10
167.3659999999999
 20
1050.0
 30
0.0
 11
168.3659999999999
 21
1050.0
 31
0.0
  0
LINE
  5
7AA
330
1E
100
AcDbEntity
  8
0
100
AcDbLine
 10
165.2549999999999
 20
1050.0
 30
0.0
 11
166.669
 21
1050.0
 31
0.0
  0
LINE
  5
7AB
330
1E
100
AcDbEntity
  8
0
100
AcDbLine
 10
165.2549999999999
 20
1050.0
 30
0.0
 11
165.2549999999999
 21
1052.0
 31
0.0
  0
LINE
  5
7AC
330
1E
100
AcDbEntity
  8
0
100
AcDbLine
 10
162.801
 20
1050.0
 30
0.0
 11
163.801
 21
1050.0
 31
0.0
  0
LINE
  5
7AD
330
1E
100
AcDbEntity
  8
0
100
AcDbLine
 10
162.801
 20
1050.0
 30
0.0
 11
162.801
 21
1052.0
 31
0.0
  0
LINE
  5
7AE
330
1E
100
AcDbEntity
  8
0
100
AcDbLine
 10
162.0689999999999
 20
1050.0
 30
0.0
 11
163.801
 21
1050.0
 31
0.0
  0
LINE
  5
7AF
330
1E
100
AcDbEntity
  8
0
100
AcDbLine
 10
166.1059999999999
 20
1050.0
 30
0.0
 11
168.037
 21
1050.0
 31
0.0
  0
LINE
  5
7B0
330
1E
100
AcDbEntity
  8
0
100
AcDbLine
 10
166.1059999999999
 20
1050.0
 30
0.0
 11
166.6229999999999
 21
1050.0
 31
0.0
  0
LINE
  5
7B1
330
1E
100
AcDbEntity
  8
0
100
AcDbLine
 10
168.555
 20
1050.0
 30
0.0
 11
168.555
 21
1052.0
 31
0.0
  0
LINE
  5
7B2
330
1E
100
AcDbEntity
  8
0
100
AcDbLine
 10
168.3659999999999
 20
1050.0
 30
0.0
 11
168.3659999999999
 21
1052.0
 31
0.0
  0
LINE
  5
7B3
330
1E
100
AcDbEntity
  8
0
100
AcDbLine
 10
168.037
 20
1050.0
 30
0.0
 11
168.555
 21
1050.0
 31
0.0
  0
LINE
  5
7B4
330
1E
100
AcDbEntity
  8
0
100
AcDbLine
 10
166.6229999999999
 20
1050.0
 30
0.0
 11
168.555
 21
1050.0
 31
0.0
  0
LINE
  5
7B5
330
1E
100
AcDbEntity
  8
0
100
AcDbLine
 10
173.134
 20
1050.0
 30
0.0
 11
173.134
 21
1052.0
 31
0.0
  0
LINE
  5
7B6
330
1E
100
AcDbEntity
  8
0
100
AcDbLine
 10
173.134
 20
1050.0
 30
0.0
 11
174.134
 21
1050.0
 31
0.0
  0
LINE
  5
7B7
330
1E
100
AcDbEntity
  8
0
100
AcDbLine
 10
173.134
 20
1050.0
 30
0.0
 11
174.8659999999999
 21
1050.0
 31
0.0
  0
LINE
  5
7B8
330
1E
100
AcDbEntity
  8
0
100
AcDbLine
 10
174.134
 20
1050.0
 30
0.0
 11
175.8659999999999
 21
1050.0
 31
0.0
  0
LINE
  5
7B9
330
1E
100
AcDbEntity
  8
0
100
AcDbLine
 10
174.134
 20
1050.0
 30
0.0
 11
174.134
 21
1052.0
 31
0.0
  0
LINE
  5
7BA
330
1E
100
AcDbEntity
  8
0
100
AcDbLine
 10
174.8659999999999
 20
1050.0
 30
0.0
 11
175.8659999999999
 21
1050.0
 31
0.0
  0
LINE
  5
7BB
330
1E
100
AcDbEntity
  8
0
100
AcDbLine
 10
174.4469999999999
 20
1050.0
 30
0.0
 11
175.861
 21
1050.0
 31
0.0
  0
LINE
  5
7BC
330
1E
100
AcDbEntity
  8
0
100
AcDbLine
 10
174.06
 20
1050.0
 30
0.0
 11
175.792
 21
1050.0
 31
0.0
  0
LINE
  5
7BD
330
1E
100
AcDbEntity
  8
0
100
AcDbLine
 10
174.06
 20
1050.0
 30
0.0
 11
175.06
 21
1050.0
 31
0.0
  0
LINE
  5
7BE
330
1E
100
AcDbEntity
  8
0
100
AcDbLine
 10
177.2759999999999
 20
1050.0
 30
0.0
 11
177.2759999999999
 21
1052.0
 31
0.0
  0
LINE
  5
7BF
330
1E
100
AcDbEntity
  8
0
100
AcDbLine
 10
175.8659999999999
 20
1050.0
 30
0.0
 11
175.8659999999999
 21
1052.0
 31
0.0
  0
LINE
  5
7C0
330
1E
100
AcDbEntity
  8
0
100
AcDbLine
 10
175.861
 20
1050.0
 30
0.0
 11
177.2759999999999
 21
1050.0
 31
0.0
  0
LINE
  5
7C1
330
1E
100
AcDbEntity
  8
0
100
AcDbLine
 10
175.792
 20
1050.0
 30
0.0
 11
176.792
 21
1050.0
 31
0.0
  0
LINE
  5
7C2
330
1E
100
AcDbEntity
  8
0
100
AcDbLine
 10
175.06
 20
1050.0
 30
0.0
 11
176.792
 21
1050.0
 31
0.0
  0
LINE
  5
7C3
330
1E
100
AcDbEntity
  8
0
100
AcDbLine
 10
170.0
 20
1050.0
 30
0.0
 11
170.0
 21
1052.0
 31
0.0
  0
LINE
  5
7C4
330
1E
100
AcDbEntity
  8
0
100
AcDbLine
 10
162.801
 20
1052.0
 30
0.0
 11
163.801
 21
1052.0
 31
0.0
  0
LINE
  5
7C5
330
1E
100
AcDbEntity
  8
0
100
AcDbLine
 10
162.801
 20
1052.0
 30
0.0
 11
162.801
 21
1050.0
 31
0.0
  0
LINE
  5
7C6
330
1E
100
AcDbEntity
  8
0
100
AcDbLine
 10
165.2549999999999
 20
1052.0
 30
0.0
 11
165.634
 21
1052.0
 31
0.0
  0
LINE
  5
7C7
330
1E
100
AcDbEntity
  8
0
100
AcDbLine
 10
165.2549999999999
 20
1052.0
 30
0.0
 11
165.2549999999999
 21
1050.0
 31
0.0
  0
LINE
  5
7C8
330
1E
100
AcDbEntity
  8
0
100
AcDbLine
 10
165.634
 20
1052.0
 30
0.0
 11
166.634
 21
1052.0
 31
0.0
  0
LINE
  5
7C9
330
1E
100
AcDbEntity
  8
0
100
AcDbLine
 10
165.634
 20
1052.0
 30
0.0
 11
165.634
 21
1050.0
 31
0.0
  0
LINE
  5
7CA
330
1E
100
AcDbEntity
  8
0
100
AcDbLine
 10
168.3659999999999
 20
1052.0
 30
0.0
 11
168.3659999999999
 21
1050.0
 31
0.0
  0
LINE
  5
7CB
330
1E
100
AcDbEntity
  8
0
100
AcDbLine
 10
168.3659999999999
 20
1052.0
 30
0.0
 11
168.555
 21
1052.0
 31
0.0
  0
LINE
  5
7CC
330
1E
100
AcDbEntity
  8
0
100
AcDbLine
 10
166.634
 20
1052.0
 30
0.0
 11
168.3659999999999
 21
1052.0
 31
0.0
  0
LINE
  5
7CD
330
1E
100
AcDbEntity
  8
0
100
AcDbLine
 10
166.634
 20
1052.0
 30
0.0
 11
166.634
 21
1050.0
 31
0.0
  0
LINE
  5
7CE
330
1E
100
AcDbEntity
  8
0
100
AcDbLine
 10
163.8409999999999
 20
1052.0
 30
0.0
 11
163.8409999999999
 21
1050.0
 31
0.0
  0
LINE
  5
7CF
330
1E
100
AcDbEntity
  8
0
100
AcDbLine
 10
163.8409999999999
 20
1052.0
 30
0.0
 11
165.2549999999999
 21
1052.0
 31
0.0
  0
LINE
  5
7D0
330
1E
100
AcDbEntity
  8
0
100
AcDbLine
 10
161.0689999999999
 20
1052.0
 30
0.0
 11
161.0689999999999
 21
1050.0
 31
0.0
  0
LINE
  5
7D1
330
1E
100
AcDbEntity
  8
0
100
AcDbLine
 10
161.0689999999999
 20
1052.0
 30
0.0
 11
162.801
 21
1052.0
 31
0.0
  0
LINE
  5
7D2
330
1E
100
AcDbEntity
  8
0
100
AcDbLine
 10
175.8659999999999
 20
1052.0
 30
0.0
 11
175.8659999999999
 21
1050.0
 31
0.0
  0
LINE
  5
7D3
330
1E
100
AcDbEntity
  8
0
100
AcDbLine
 10
175.8659999999999
 20
1052.0
 30
0.0
 11
177.2759999999999
 21
1052.0
 31
0.0
  0
LINE
  5
7D4
330
1E
100
AcDbEntity
  8
0
100
AcDbLine
 10
174.134
 20
1052.0
 30
0.0
 11
175.8659999999999
 21
1052.0
 31
0.0
  0
LINE
  5
7D5
330
1E
100
AcDbEntity
  8
0
100
AcDbLine
 10
174.134
 20
1052.0
 30
0.0
 11
174.134
 21
1050.0
 31
0.0
  0
LINE
  5
7D6
330
1E
100
AcDbEntity
  8
0
100
AcDbLine
 10
173.134
 20
1052.0
 30
0.0
 11
173.134
 21
1050.0
 31
0.0
  0
LINE
  5
7D7
330
1E
100
AcDbEntity
  8
0
100
AcDbLine
 10
173.134
 20
1052.0
 30
0.0
 11
174.134
 21
1052.0
 31
0.0
  0
LINE
  5
7D8
330
1E
100
AcDbEntity
  8
0
100
AcDbLine
 10
168.555
 20
1052.0
 30
0.0
 11
170.0
 21
1052.0
 31
0.0
  0
LINE
  5
7D9
330
1E
100
AcDbEntity
  8
0
100
AcDbLine
 10
168.555
 20
1052.0
 30
0.0
 11
168.555
 21
1050.0
 31
0.0
  0
LINE
  5
7DA
330
1E
100
AcDbEntity
  8
0
100
AcDbLine
 10
168.0
 20
1050.0
 30
0.0
 11
170.0
 21
1050.0
 31
0.0
  0
LINE
  5
7DB
330
1E
100
AcDbEntity
  8
0
100
AcDbLine
 10
177.2759999999999
 20
1052.0
 30
0.0
 11
179.1999999999999
 21
1052.0
 31
0.0
  0
LINE
  5
7DC
330
1E
100
AcDbEntity
  8
0
100
AcDbLine
 10
177.2759999999999
 20
1052.0
 30
0.0
 11
177.2759999999999
 21
1050.0
 31
0.0
  0
LINE
  5
7DD
330
1E
100
AcDbEntity
  8
0
100
AcDbLine
 10
170.0
 20
1052.0
 30
0.0
 11
173.134
 21
1052.0
 31
0.0
  0
LINE
  5
7DE
330
1E
100
AcDbEntity
  8
0
100
AcDbLine
 10
170.0
 20
1052.0
 30
0.0
 11
170.0
 21
1050.0
 31
0.0
  0
LINE
  5
7DF
330
1E
100
AcDbEntity
  8
0
100
AcDbLine
 10
160.866
 20
1052.0
 30
0.0
 11
161.0689999999999
 21
1052.0
 31
0.0
  0
LINE
  5
7E0
330
1E
100
AcDbEntity
  8
0
100
AcDbLine
 10
160.866
 20
1052.0
 30
0.0
 11
160.866
 21
1050.0
 31
0.0
  0
LINE
  5
7E1
330
1E
100
AcDbEntity
  8
0
100
AcDbLine
 10
163.801
 20
1052.0
 30
0.0
 11
163.801
 21
1050.0
 31
0.0
  0
LINE
  5
7E2
330
1E
100
AcDbEntity
  8
0
100
AcDbLine
 10
180.5949999999999
 20
1050.0
 30
0.0
 11
180.5949999999999
 21
1052.0
 31
0.0
  0
LINE
  5
7E3
330
1E
100
AcDbEntity
  8
0
100
AcDbLine
 10
180.5949999999999
 20
1050.0
 30
0.0
 11
182.5259999999999
 21
1050.0
 31
0.0
  0
LINE
  5
7E4
330
1E
100
AcDbEntity
  8
0
100
AcDbLine
 10
180.5949999999999
 20
1050.0
 30
0.0
 11
181.112
 21
1050.0
 31
0.0
  0
LINE
  5
7E5
330
1E
100
AcDbEntity
  8
0
100
AcDbLine
 10
183.044
 20
1050.0
 30
0.0
 11
183.044
 21
1052.0
 31
0.0
  0
LINE
  5
7E6
330
1E
100
AcDbEntity
  8
0
100
AcDbLine
 10
182.5259999999999
 20
1050.0
 30
0.0
 11
183.044
 21
1050.0
 31
0.0
  0
LINE
  5
7E7
330
1E
100
AcDbEntity
  8
0
100
AcDbLine
 10
182.5259999999999
 20
1050.0
 30
0.0
 11
182.5259999999999
 21
1052.0
 31
0.0
  0
LINE
  5
7E8
330
1E
100
AcDbEntity
  8
0
100
AcDbLine
 10
181.112
 20
1050.0
 30
0.0
 11
183.044
 21
1050.0
 31
0.0
  0
LINE
  5
7E9
330
1E
100
AcDbEntity
  8
0
100
AcDbLine
 10
185.054
 20
1050.0
 30
0.0
 11
185.054
 21
1052.0
 31
0.0
  0
LINE
  5
7EA
330
1E
100
AcDbEntity
  8
0
100
AcDbLine
 10
185.054
 20
1050.0
 30
0.0
 11
186.4679999999999
 21
1050.0
 31
0.0
  0
LINE
  5
7EB
330
1E
100
AcDbEntity
  8
0
100
AcDbLine
 10
187.882
 20
1050.0
 30
0.0
 11
187.882
 21
1052.0
 31
0.0
  0
LINE
  5
7EC
330
1E
100
AcDbEntity
  8
0
100
AcDbLine
 10
186.4679999999999
 20
1050.0
 30
0.0
 11
187.882
 21
1050.0
 31
0.0
  0
LINE
  5
7ED
330
1E
100
AcDbEntity
  8
0
100
AcDbLine
 10
186.4679999999999
 20
1050.0
 30
0.0
 11
186.4679999999999
 21
1052.0
 31
0.0
  0
LINE
  5
7EE
330
1E
100
AcDbEntity
  8
0
100
AcDbLine
 10
187.05
 20
1050.0
 30
0.0
 11
188.7819999999999
 21
1050.0
 31
0.0
  0
LINE
  5
7EF
330
1E
100
AcDbEntity
  8
0
100
AcDbLine
 10
187.05
 20
1050.0
 30
0.0
 11
188.0499999999999
 21
1050.0
 31
0.0
  0
LINE
  5
7F0
330
1E
100
AcDbEntity
  8
0
100
AcDbLine
 10
189.782
 20
1050.0
 30
0.0
 11
189.782
 21
1052.0
 31
0.0
  0
LINE
  5
7F1
330
1E
100
AcDbEntity
  8
0
100
AcDbLine
 10
188.7819999999999
 20
1050.0
 30
0.0
 11
189.782
 21
1050.0
 31
0.0
  0
LINE
  5
7F2
330
1E
100
AcDbEntity
  8
0
100
AcDbLine
 10
188.7819999999999
 20
1050.0
 30
0.0
 11
188.7819999999999
 21
1052.0
 31
0.0
  0
LINE
  5
7F3
330
1E
100
AcDbEntity
  8
0
100
AcDbLine
 10
188.0499999999999
 20
1050.0
 30
0.0
 11
189.782
 21
1050.0
 31
0.0
  0
LINE
  5
7F4
330
1E
100
AcDbEntity
  8
0
100
AcDbLine
 10
185.0
 20
1050.0
 30
0.0
 11
185.0
 21
1052.0
 31
0.0
  0
LINE
  5
7F5
330
1E
100
AcDbEntity
  8
0
100
AcDbLine
 10
182.5259999999999
 20
1052.0
 30
0.0
 11
183.044
 21
1052.0
 31
0.0
  0
LINE
  5
7F6
330
1E
100
AcDbEntity
  8
0
100
AcDbLine
 10
182.5259999999999
 20
1052.0
 30
0.0
 11
182.5259999999999
 21
1050.0
 31
0.0
  0
LINE
  5
7F7
330
1E
100
AcDbEntity
  8
0
100
AcDbLine
 10
180.5949999999999
 20
1052.0
 30
0.0
 11
180.5949999999999
 21
1050.0
 31
0.0
  0
LINE
  5
7F8
330
1E
100
AcDbEntity
  8
0
100
AcDbLine
 10
180.5949999999999
 20
1052.0
 30
0.0
 11
182.5259999999999
 21
1052.0
 31
0.0
  0
LINE
  5
7F9
330
1E
100
AcDbEntity
  8
0
100
AcDbLine
 10
188.7819999999999
 20
1052.0
 30
0.0
 11
189.782
 21
1052.0
 31
0.0
  0
LINE
  5
7FA
330
1E
100
AcDbEntity
  8
0
100
AcDbLine
 10
188.7819999999999
 20
1052.0
 30
0.0
 11
188.7819999999999
 21
1050.0
 31
0.0
  0
LINE
  5
7FB
330
1E
100
AcDbEntity
  8
0
100
AcDbLine
 10
187.882
 20
1052.0
 30
0.0
 11
187.882
 21
1050.0
 31
0.0
  0
LINE
  5
7FC
330
1E
100
AcDbEntity
  8
0
100
AcDbLine
 10
187.882
 20
1052.0
 30
0.0
 11
188.7819999999999
 21
1052.0
 31
0.0
  0
LINE
  5
7FD
330
1E
100
AcDbEntity
  8
0
100
AcDbLine
 10
186.4679999999999
 20
1052.0
 30
0.0
 11
187.882
 21
1052.0
 31
0.0
  0
LINE
  5
7FE
330
1E
100
AcDbEntity
  8
0
100
AcDbLine
 10
186.4679999999999
 20
1052.0
 30
0.0
 11
186.4679999999999
 21
1050.0
 31
0.0
  0
LINE
  5
7FF
330
1E
100
AcDbEntity
  8
0
100
AcDbLine
 10
185.054
 20
1052.0
 30
0.0
 11
185.054
 21
1050.0
 31
0.0
  0
LINE
  5
800
330
1E
100
AcDbEntity
  8
0
100
AcDbLine
 10
185.054
 20
1052.0
 30
0.0
 11
186.4679999999999
 21
1052.0
 31
0.0
  0
LINE
  5
801
330
1E
100
AcDbEntity
  8
0
100
AcDbLine
 10
183.044
 20
1052.0
 30
0.0
 11
185.0
 21
1052.0
 31
0.0
  0
LINE
  5
802
330
1E
100
AcDbEntity
  8
0
100
AcDbLine
 10
183.044
 20
1052.0
 30
0.0
 11
183.044
 21
1050.0
 31
0.0
  0
LINE
  5
803
330
1E
100
AcDbEntity
  8
0
100
AcDbLine
 10
183.0
 20
1050.0
 30
0.0
 11
185.0
 21
1050.0
 31
0.0
  0
LINE
  5
804
330
1E
100
AcDbEntity
  8
0
100
AcDbLine
 10
195.66
 20
1050.0
 30
0.0
 11
197.0749999999999
 21
1050.0
 31
0.0
  0
LINE
  5
805
330
1E
100
AcDbEntity
  8
0
100
AcDbLine
 10
195.66
 20
1050.0
 30
0.0
 11
195.66
 21
1052.0
 31
0.0
  0
LINE
  5
806
330
1E
100
AcDbEntity
  8
0
100
AcDbLine
 10
195.083
 20
1050.0
 30
0.0
 11
195.083
 21
1052.0
 31
0.0
  0
LINE
  5
807
330
1E
100
AcDbEntity
  8
0
100
AcDbLine
 10
195.083
 20
1050.0
 30
0.0
 11
197.0149999999999
 21
1050.0
 31
0.0
  0
LINE
  5
808
330
1E
100
AcDbEntity
  8
0
100
AcDbLine
 10
195.083
 20
1050.0
 30
0.0
 11
195.601
 21
1050.0
 31
0.0
  0
LINE
  5
809
330
1E
100
AcDbEntity
  8
0
100
AcDbLine
 10
198.489
 20
1050.0
 30
0.0
 11
198.489
 21
1052.0
 31
0.0
  0
LINE
  5
80A
330
1E
100
AcDbEntity
  8
0
100
AcDbLine
 10
197.0749999999999
 20
1050.0
 30
0.0
 11
198.489
 21
1050.0
 31
0.0
  0
LINE
  5
80B
330
1E
100
AcDbEntity
  8
0
100
AcDbLine
 10
197.0749999999999
 20
1050.0
 30
0.0
 11
197.0749999999999
 21
1052.0
 31
0.0
  0
LINE
  5
80C
330
1E
100
AcDbEntity
  8
0
100
AcDbLine
 10
197.0149999999999
 20
1050.0
 30
0.0
 11
197.5329999999999
 21
1050.0
 31
0.0
  0
LINE
  5
80D
330
1E
100
AcDbEntity
  8
0
100
AcDbLine
 10
195.601
 20
1050.0
 30
0.0
 11
197.5329999999999
 21
1050.0
 31
0.0
  0
LINE
  5
80E
330
1E
100
AcDbEntity
  8
0
100
AcDbLine
 10
200.0399999999999
 20
1050.0
 30
0.0
 11
200.0399999999999
 21
1052.0
 31
0.0
  0
LINE
  5
80F
330
1E
100
AcDbEntity
  8
0
100
AcDbLine
 10
200.0399999999999
 20
1050.0
 30
0.0
 11
201.772
 21
1050.0
 31
0.0
  0
LINE
  5
810
330
1E
100
AcDbEntity
  8
0
100
AcDbLine
 10
200.0399999999999
 20
1050.0
 30
0.0
 11
201.0399999999999
 21
1050.0
 31
0.0
  0
LINE
  5
811
330
1E
100
AcDbEntity
  8
0
100
AcDbLine
 10
202.772
 20
1050.0
 30
0.0
 11
202.772
 21
1052.0
 31
0.0
  0
LINE
  5
812
330
1E
100
AcDbEntity
  8
0
100
AcDbLine
 10
201.772
 20
1050.0
 30
0.0
 11
202.772
 21
1050.0
 31
0.0
  0
LINE
  5
813
330
1E
100
AcDbEntity
  8
0
100
AcDbLine
 10
201.772
 20
1050.0
 30
0.0
 11
201.772
 21
1052.0
 31
0.0
  0
LINE
  5
814
330
1E
100
AcDbEntity
  8
0
100
AcDbLine
 10
201.0399999999999
 20
1050.0
 30
0.0
 11
202.772
 21
1050.0
 31
0.0
  0
LINE
  5
815
330
1E
100
AcDbEntity
  8
0
100
AcDbLine
 10
200.0
 20
1050.0
 30
0.0
 11
200.0
 21
1052.0
 31
0.0
  0
LINE
  5
816
330
1E
100
AcDbEntity
  8
0
100
AcDbLine
 10
195.66
 20
1052.0
 30
0.0
 11
197.0749999999999
 21
1052.0
 31
0.0
  0
LINE
  5
817
330
1E
100
AcDbEntity
  8
0
100
AcDbLine
 10
195.66
 20
1052.0
 30
0.0
 11
195.66
 21
1050.0
 31
0.0
  0
LINE
  5
818
330
1E
100
AcDbEntity
  8
0
100
AcDbLine
 10
197.0749999999999
 20
1052.0
 30
0.0
 11
198.489
 21
1052.0
 31
0.0
  0
LINE
  5
819
330
1E
100
AcDbEntity
  8
0
100
AcDbLine
 10
197.0749999999999
 20
1052.0
 30
0.0
 11
197.0749999999999
 21
1050.0
 31
0.0
  0
LINE
  5
81A
330
1E
100
AcDbEntity
  8
0
100
AcDbLine
 10
195.083
 20
1052.0
 30
0.0
 11
195.083
 21
1050.0
 31
0.0
  0
LINE
  5
81B
330
1E
100
AcDbEntity
  8
0
100
AcDbLine
 10
195.083
 20
1052.0
 30
0.0
 11
195.66
 21
1052.0
 31
0.0
  0
LINE
  5
81C
330
1E
100
AcDbEntity
  8
0
100
AcDbLine
 10
201.772
 20
1052.0
 30
0.0
 11
202.772
 21
1052.0
 31
0.0
  0
LINE
  5
81D
330
1E
100
AcDbEntity
  8
0
100
AcDbLine
 10
201.772
 20
1052.0
 30
0.0
 11
201.772
 21
1050.0
 31
0.0
  0
LINE
  5
81E
330
1E
100
AcDbEntity
  8
0
100
AcDbLine
 10
200.0399999999999
 20
1052.0
 30
0.0
 11
200.0399999999999
 21
1050.0
 31
0.0
  0
LINE
  5
81F
330
1E
100
AcDbEntity
  8
0
100
AcDbLine
 10
200.0399999999999
 20
1052.0
 30
0.0
 11
201.772
 21
1052.0
 31
0.0
  0
LINE
  5
820
330
1E
100
AcDbEntity
  8
0
100
AcDbLine
 10
198.489
 20
1052.0
 30
0.0
 11
200.0
 21
1052.0
 31
0.0
  0
LINE
  5
821
330
1E
100
AcDbEntity
  8
0
100
AcDbLine
 10
198.489
 20
1052.0
 30
0.0
 11
198.489
 21
1050.0
 31
0.0
  0
LINE
  5
822
330
1E
100
AcDbEntity
  8
0
100
AcDbLine
 10
198.0
 20
1050.0
 30
0.0
 11
200.0
 21
1050.0
 31
0.0
  0
LINE
  5
823
330
1E
100
AcDbEntity
  8
0
100
AcDbLine
 10
209.572
 20
1050.0
 30
0.0
 11
209.572
 21
1052.0
 31
0.0
  0
LINE
  5
824
330
1E
100
AcDbEntity
  8
0
100
AcDbLine
 10
209.572
 20
1050.0
 30
0.0
 11
211.504
 21
1050.0
 31
0.0
  0
LINE
  5
825
330
1E
100
AcDbEntity
  8
0
100
AcDbLine
 10
209.572
 20
1050.0
 30
0.0
 11
210.09
 21
1050.0
 31
0.0
  0
LINE
  5
826
330
1E
100
AcDbEntity
  8
0
100
AcDbLine
 10
212.022
 20
1050.0
 30
0.0
 11
212.022
 21
1052.0
 31
0.0
  0
LINE
  5
827
330
1E
100
AcDbEntity
  8
0
100
AcDbLine
 10
211.504
 20
1050.0
 30
0.0
 11
212.022
 21
1050.0
 31
0.0
  0
LINE
  5
828
330
1E
100
AcDbEntity
  8
0
100
AcDbLine
 10
211.504
 20
1050.0
 30
0.0
 11
211.504
 21
1052.0
 31
0.0
  0
LINE
  5
829
330
1E
100
AcDbEntity
  8
0
100
AcDbLine
 10
211.504
 20
1052.0
 30
0.0
 11
212.022
 21
1052.0
 31
0.0
  0
LINE
  5
82A
330
1E
100
AcDbEntity
  8
0
100
AcDbLine
 10
211.504
 20
1052.0
 30
0.0
 11
211.504
 21
1050.0
 31
0.0
  0
LINE
  5
82B
330
1E
100
AcDbEntity
  8
0
100
AcDbLine
 10
209.572
 20
1052.0
 30
0.0
 11
209.572
 21
1050.0
 31
0.0
  0
LINE
  5
82C
330
1E
100
AcDbEntity
  8
0
100
AcDbLine
 10
209.572
 20
1052.0
 30
0.0
 11
211.504
 21
1052.0
 31
0.0
  0
LINE
  5
82D
330
1E
100
AcDbEntity
  8
0
100
AcDbLine
 10
210.09
 20
1050.0
 30
0.0
 11
212.022
 21
1050.0
 31
0.0
  0
LINE
  5
82E
330
1E
100
AcDbEntity
  8
0
100
AcDbLine
 10
202.772
 20
1052.0
 30
0.0
 11
204.0
 21
1052.0
 31
0.0
  0
LINE
  5
82F
330
1E
100
AcDbEntity
  8
0
100
AcDbLine
 10
202.772
 20
1052.0
 30
0.0
 11
202.772
 21
1050.0
 31
0.0
  0
LINE
  5
830
330
1E
100
AcDbEntity
  8
0
100
AcDbLine
 10
200.0
 20
1052.0
 30
0.0
 11
200.0
 21
1050.0
 31
0.0
  0
LINE
  5
831
330
1E
100
AcDbEntity
  8
0
100
AcDbLine
 10
189.782
 20
1052.0
 30
0.0
 11
192.3
 21
1052.0
 31
0.0
  0
LINE
  5
832
330
1E
100
AcDbEntity
  8
0
100
AcDbLine
 10
189.782
 20
1052.0
 30
0.0
 11
189.782
 21
1050.0
 31
0.0
  0
LINE
  5
833
330
1E
100
AcDbEntity
  8
0
100
AcDbLine
 10
185.0
 20
1052.0
 30
0.0
 11
185.054
 21
1052.0
 31
0.0
  0
LINE
  5
834
330
1E
100
AcDbEntity
  8
0
100
AcDbLine
 10
185.0
 20
1052.0
 30
0.0
 11
185.0
 21
1050.0
 31
0.0
  0
LINE
  5
835
330
1E
100
AcDbEntity
  8
0
100
AcDbLine
 10
213.0309999999999
 20
1050.0
 30
0.0
 11
214.7629999999999
 21
1050.0
 31
0.0
  0
LINE
  5
836
330
1E
100
AcDbEntity
  8
0
100
AcDbLine
 10
213.0309999999999
 20
1050.0
 30
0.0
 11
214.0309999999999
 21
1050.0
 31
0.0
  0
LINE
  5
837
330
1E
100
AcDbEntity
  8
0
100
AcDbLine
 10
213.0309999999999
 20
1050.0
 30
0.0
 11
213.0309999999999
 21
1052.0
 31
0.0
  0
LINE
  5
838
330
1E
100
AcDbEntity
  8
0
100
AcDbLine
 10
214.0309999999999
 20
1050.0
 30
0.0
 11
215.763
 21
1050.0
 31
0.0
  0
LINE
  5
839
330
1E
100
AcDbEntity
  8
0
100
AcDbLine
 10
213.0309999999999
 20
1052.0
 30
0.0
 11
214.7629999999999
 21
1052.0
 31
0.0
  0
LINE
  5
83A
330
1E
100
AcDbEntity
  8
0
100
AcDbLine
 10
213.0309999999999
 20
1052.0
 30
0.0
 11
213.0309999999999
 21
1050.0
 31
0.0
  0
LINE
  5
83B
330
1E
100
AcDbEntity
  8
0
100
AcDbLine
 10
213.0
 20
1052.0
 30
0.0
 11
213.0
 21
1050.0
 31
0.0
  0
LINE
  5
83C
330
1E
100
AcDbEntity
  8
0
100
AcDbLine
 10
213.0
 20
1050.0
 30
0.0
 11
215.0
 21
1050.0
 31
0.0
  0
LINE
  5
83D
330
1E
100
AcDbEntity
  8
0
100
AcDbLine
 10
213.0
 20
1050.0
 30
0.0
 11
213.0
 21
1052.0
 31
0.0
  0
LINE
  5
83E
330
1E
100
AcDbEntity
  8
0
100
AcDbLine
 10
212.022
 20
1052.0
 30
0.0
 11
213.0
 21
1052.0
 31
0.0
  0
LINE
  5
83F
330
1E
100
AcDbEntity
  8
0
100
AcDbLine
 10
212.022
 20
1052.0
 30
0.0
 11
212.022
 21
1050.0
 31
0.0
  0
LINE
  5
840
330
1E
100
AcDbEntity
  8
0
100
AcDbLine
 10
204.0
 20
1052.0
 30
0.0
 11
214.1999999999999
 21
1052.0
 31
0.0
  0
LINE
  5
841
330
1E
100
AcDbEntity
  8
0
100
AcDbLine
 10
204.0
 20
1052.0
 30
0.0
 11
209.572
 21
1052.0
 31
0.0
  0
LINE
  5
842
330
1E
100
AcDbEntity
  8
0
100
AcDbLine
 10
215.763
 20
1050.0
 30
0.0
 11
215.763
 21
1052.0
 31
0.0
  0
LINE
  5
843
330
1E
100
AcDbEntity
  8
0
100
AcDbLine
 10
214.7629999999999
 20
1050.0
 30
0.0
 11
215.763
 21
1050.0
 31
0.0
  0
LINE
  5
844
330
1E
100
AcDbEntity
  8
0
100
AcDbLine
 10
214.7629999999999
 20
1050.0
 30
0.0
 11
214.7629999999999
 21
1052.0
 31
0.0
  0
LINE
  5
845
330
1E
100
AcDbEntity
  8
0
100
AcDbLine
 10
214.7629999999999
 20
1052.0
 30
0.0
 11
215.763
 21
1052.0
 31
0.0
  0
LINE
  5
846
330
1E
100
AcDbEntity
  8
0
100
AcDbLine
 10
214.7629999999999
 20
1052.0
 30
0.0
 11
214.7629999999999
 21
1050.0
 31
0.0
  0
LINE
  5
847
330
1E
100
AcDbEntity
  8
0
100
AcDbLine
 10
224.0609999999999
 20
1050.0
 30
0.0
 11
224.0609999999999
 21
1052.0
 31
0.0
  0
LINE
  5
848
330
1E
100
AcDbEntity
  8
0
100
AcDbLine
 10
224.0609999999999
 20
1050.0
 30
0.0
 11
225.993
 21
1050.0
 31
0.0
  0
LINE
  5
849
330
1E
100
AcDbEntity
  8
0
100
AcDbLine
 10
224.0609999999999
 20
1050.0
 30
0.0
 11
224.5789999999999
 21
1050.0
 31
0.0
  0
LINE
  5
84A
330
1E
100
AcDbEntity
  8
0
100
AcDbLine
 10
226.5109999999999
 20
1050.0
 30
0.0
 11
226.5109999999999
 21
1052.0
 31
0.0
  0
LINE
  5
84B
330
1E
100
AcDbEntity
  8
0
100
AcDbLine
 10
225.993
 20
1050.0
 30
0.0
 11
226.5109999999999
 21
1050.0
 31
0.0
  0
LINE
  5
84C
330
1E
100
AcDbEntity
  8
0
100
AcDbLine
 10
225.993
 20
1050.0
 30
0.0
 11
225.993
 21
1052.0
 31
0.0
  0
LINE
  5
84D
330
1E
100
AcDbEntity
  8
0
100
AcDbLine
 10
224.5789999999999
 20
1050.0
 30
0.0
 11
226.5109999999999
 21
1050.0
 31
0.0
  0
LINE
  5
84E
330
1E
100
AcDbEntity
  8
0
100
AcDbLine
 10
225.993
 20
1052.0
 30
0.0
 11
226.5109999999999
 21
1052.0
 31
0.0
  0
LINE
  5
84F
330
1E
100
AcDbEntity
  8
0
100
AcDbLine
 10
225.993
 20
1052.0
 30
0.0
 11
225.993
 21
1050.0
 31
0.0
  0
LINE
  5
850
330
1E
100
AcDbEntity
  8
0
100
AcDbLine
 10
224.0609999999999
 20
1052.0
 30
0.0
 11
224.0609999999999
 21
1050.0
 31
0.0
  0
LINE
  5
851
330
1E
100
AcDbEntity
  8
0
100
AcDbLine
 10
224.0609999999999
 20
1052.0
 30
0.0
 11
225.993
 21
1052.0
 31
0.0
  0
LINE
  5
852
330
1E
100
AcDbEntity
  8
0
100
AcDbLine
 10
228.0
 20
1052.0
 30
0.0
 11
228.0
 21
1050.0
 31
0.0
  0
LINE
  5
853
330
1E
100
AcDbEntity
  8
0
100
AcDbLine
 10
228.0
 20
1052.0
 30
0.0
 11
230.0
 21
1052.0
 31
0.0
  0
LINE
  5
854
330
1E
100
AcDbEntity
  8
0
100
AcDbLine
 10
228.0
 20
1050.0
 30
0.0
 11
230.0
 21
1050.0
 31
0.0
  0
LINE
  5
855
330
1E
100
AcDbEntity
  8
0
100
AcDbLine
 10
228.0
 20
1050.0
 30
0.0
 11
228.0
 21
1052.0
 31
0.0
  0
LINE
  5
856
330
1E
100
AcDbEntity
  8
0
100
AcDbLine
 10
215.763
 20
1052.0
 30
0.0
 11
223.0999999999999
 21
1052.0
 31
0.0
  0
LINE
  5
857
330
1E
100
AcDbEntity
  8
0
100
AcDbLine
 10
215.763
 20
1052.0
 30
0.0
 11
215.763
 21
1050.0
 31
0.0
  0
LINE
  5
858
330
1E
100
AcDbEntity
  8
0
100
AcDbLine
 10
226.5109999999999
 20
1052.0
 30
0.0
 11
228.0
 21
1052.0
 31
0.0
  0
LINE
  5
859
330
1E
100
AcDbEntity
  8
0
100
AcDbLine
 10
226.5109999999999
 20
1052.0
 30
0.0
 11
226.5109999999999
 21
1050.0
 31
0.0
  0
LINE
  5
85A
330
1E
100
AcDbEntity
  8
0
100
AcDbLine
 10
214.1999999999999
 20
1052.0
 30
0.0
 11
223.0999999999999
 21
1052.0
 31
0.0
  0
LINE
  5
85B
330
1E
100
AcDbEntity
  8
0
100
AcDbLine
 10
223.0999999999999
 20
1052.0
 30
0.0
 11
229.7
 21
1052.0
 31
0.0
  0
LINE
  5
85C
330
1E
100
AcDbEntity
  8
0
100
AcDbLine
 10
223.0999999999999
 20
1052.0
 30
0.0
 11
224.0609999999999
 21
1052.0
 31
0.0
  0
LINE
  5
85D
330
1E
100
AcDbEntity
  8
0
100
AcDbLine
 10
230.0
 20
1050.0
 30
0.0
 11
230.0
 21
1052.0
 31
0.0
  0
LINE
  5
85E
330
1E
100
AcDbEntity
  8
0
100
AcDbLine
 10
230.0
 20
1052.0
 30
0.0
 11
234.6999999999999
 21
1052.0
 31
0.0
  0
LINE
  5
85F
330
1E
100
AcDbEntity
  8
0
100
AcDbLine
 10
230.0
 20
1052.0
 30
0.0
 11
230.0
 21
1050.0
 31
0.0
  0
LINE
  5
860
330
1E
100
AcDbEntity
  8
0
100
AcDbLine
 10
229.7
 20
1052.0
 30
0.0
 11
234.6999999999999
 21
1052.0
 31
0.0
  0
LINE
  5
861
330
1E
100
AcDbEntity
  8
0
100
AcDbLine
 10
234.6999999999999
 20
1052.0
 30
0.0
 11
237.8
 21
1052.0
 31
0.0
  0
LINE
  5
862
330
1E
100
AcDbEntity
  8
0
100
AcDbLine
 10
239.0
 20
1052.0
 30
0.0
 11
240.0
 21
1053.0
 31
0.0
  0
LINE
  5
863
330
1E
100
AcDbEntity
  8
0
100
AcDbLine
 10
237.8
 20
1052.0
 30
0.0
 11
239.0
 21
1052.0
 31
0.0
  0
LINE
  5
864
330
1E
100
AcDbEntity
  8
0
100
AcDbLine
 10
192.3
 20
1052.0
 30
0.0
 11
204.0
 21
1052.0
 31
0.0
  0
LINE
  5
865
330
1E
100
AcDbEntity
  8
0
100
AcDbLine
 10
192.3
 20
1052.0
 30
0.0
 11
195.083
 21
1052.0
 31
0.0
  0
LINE
  5
866
330
1E
100
AcDbEntity
  8
0
100
AcDbLine
 10
179.1999999999999
 20
1052.0
 30
0.0
 11
192.3
 21
1052.0
 31
0.0
  0
LINE
  5
867
330
1E
100
AcDbEntity
  8
0
100
AcDbLine
 10
179.1999999999999
 20
1052.0
 30
0.0
 11
180.5949999999999
 21
1052.0
 31
0.0
  0
LINE
  5
868
330
1E
100
AcDbEntity
  8
0
100
AcDbLine
 10
159.6
 20
1065.0
 30
0.0
 11
163.3
 21
1065.0
 31
0.0
  0
LINE
  5
869
330
1E
100
AcDbEntity
  8
0
100
AcDbLine
 10
163.3
 20
1065.0
 30
0.0
 11
166.1
 21
1065.0
 31
0.0
  0
LINE
  5
86A
330
1E
100
AcDbEntity
  8
0
100
AcDbLine
 10
165.5
 20
1062.0
 30
0.0
 11
179.1999999999999
 21
1062.0
 31
0.0
  0
LINE
  5
86B
330
1E
100
AcDbEntity
  8
0
100
AcDbLine
 10
165.8
 20
1061.0
 30
0.0
 11
179.6999999999999
 21
1061.0
 31
0.0
  0
LINE
  5
86C
330
1E
100
AcDbEntity
  8
0
100
AcDbLine
 10
204.6999999999999
 20
1053.0
 30
0.0
 11
215.0
 21
1053.0
 31
0.0
  0
LINE
  5
86D
330
1E
100
AcDbEntity
  8
0
100
AcDbLine
 10
215.0
 20
1053.0
 30
0.0
 11
223.9
 21
1053.0
 31
0.0
  0
LINE
  5
86E
330
1E
100
AcDbEntity
  8
0
100
AcDbLine
 10
223.9
 20
1053.0
 30
0.0
 11
230.6
 21
1053.0
 31
0.0
  0
LINE
  5
86F
330
1E
100
AcDbEntity
  8
0
100
AcDbLine
 10
230.6
 20
1053.0
 30
0.0
 11
235.6999999999999
 21
1053.0
 31
0.0
  0
LINE
  5
870
330
1E
100
AcDbEntity
  8
0
100
AcDbLine
 10
240.0
 20
1053.0
 30
0.0
 11
240.0
 21
1061.0
 31
0.0
  0
LINE
  5
871
330
1E
100
AcDbEntity
  8
0
100
AcDbLine
 10
235.6999999999999
 20
1053.0
 30
0.0
 11
238.8
 21
1053.0
 31
0.0
  0
LINE
  5
872
330
1E
100
AcDbEntity
  8
0
100
AcDbLine
 10
238.8
 20
1053.0
 30
0.0
 11
240.0
 21
1053.0
 31
0.0
  0
LINE
  5
873
330
1E
100
AcDbEntity
  8
0
100
AcDbLine
 10
192.9
 20
1053.0
 30
0.0
 11
204.6999999999999
 21
1053.0
 31
0.0
  0
LINE
  5
874
330
1E
100
AcDbEntity
  8
0
100
AcDbLine
 10
170.0
 20
1062.0
 30
0.0
 11
170.0
 21
1065.0
 31
0.0
  0
LINE
  5
875
330
1E
100
AcDbEntity
  8
0
100
AcDbLine
 10
166.1
 20
1065.0
 30
0.0
 11
168.1999999999999
 21
1065.0
 31
0.0
  0
LINE
  5
876
330
1E
100
AcDbEntity
  8
0
100
AcDbLine
 10
168.1999999999999
 20
1065.0
 30
0.0
 11
169.5
 21
1065.0
 31
0.0
  0
LINE
  5
877
330
1E
100
AcDbEntity
  8
0
100
AcDbLine
 10
170.0
 20
1065.0
 30
0.0
 11
170.0
 21
1062.0
 31
0.0
  0
LINE
  5
878
330
1E
100
AcDbEntity
  8
0
100
AcDbLine
 10
169.5
 20
1065.0
 30
0.0
 11
170.0
 21
1065.0
 31
0.0
  0
LINE
  5
879
330
1E
100
AcDbEntity
  8
0
100
AcDbLine
 10
179.1999999999999
 20
1062.0
 30
0.0
 11
192.3
 21
1062.0
 31
0.0
  0
LINE
  5
87A
330
1E
100
AcDbEntity
  8
0
100
AcDbLine
 10
204.6999999999999
 20
1061.0
 30
0.0
 11
215.0
 21
1061.0
 31
0.0
  0
LINE
  5
87B
330
1E
100
AcDbEntity
  8
0
100
AcDbLine
 10
215.0
 20
1061.0
 30
0.0
 11
223.9
 21
1061.0
 31
0.0
  0
LINE
  5
87C
330
1E
100
AcDbEntity
  8
0
100
AcDbLine
 10
223.9
 20
1061.0
 30
0.0
 11
230.6
 21
1061.0
 31
0.0
  0
LINE
  5
87D
330
1E
100
AcDbEntity
  8
0
100
AcDbLine
 10
230.6
 20
1061.0
 30
0.0
 11
235.6999999999999
 21
1061.0
 31
0.0
  0
LINE
  5
87E
330
1E
100
AcDbEntity
  8
0
100
AcDbLine
 10
235.6999999999999
 20
1061.0
 30
0.0
 11
238.8
 21
1061.0
 31
0.0
  0
LINE
  5
87F
330
1E
100
AcDbEntity
  8
0
100
AcDbLine
 10
240.0
 20
1061.0
 30
0.0
 11
240.0
 21
1053.0
 31
0.0
  0
LINE
  5
880
330
1E
100
AcDbEntity
  8
0
100
AcDbLine
 10
238.8
 20
1061.0
 30
0.0
 11
240.0
 21
1061.0
 31
0.0
  0
LINE
  5
881
330
1E
100
AcDbEntity
  8
0
100
AcDbLine
 10
204.0
 20
1062.0
 30
0.0
 11
214.1999999999999
 21
1062.0
 31
0.0
  0
LINE
  5
882
330
1E
100
AcDbEntity
  8
0
100
AcDbLine
 10
214.1999999999999
 20
1062.0
 30
0.0
 11
223.0999999999999
 21
1062.0
 31
0.0
  0
LINE
  5
883
330
1E
100
AcDbEntity
  8
0
100
AcDbLine
 10
223.0999999999999
 20
1062.0
 30
0.0
 11
229.7
 21
1062.0
 31
0.0
  0
LINE
  5
884
330
1E
100
AcDbEntity
  8
0
100
AcDbLine
 10
229.7
 20
1062.0
 30
0.0
 11
234.6999999999999
 21
1062.0
 31
0.0
  0
LINE
  5
885
330
1E
100
AcDbEntity
  8
0
100
AcDbLine
 10
234.6999999999999
 20
1062.0
 30
0.0
 11
237.8
 21
1062.0
 31
0.0
  0
LINE
  5
886
330
1E
100
AcDbEntity
  8
0
100
AcDbLine
 10
239.0
 20
1062.0
 30
0.0
 11
240.0
 21
1061.0
 31
0.0
  0
LINE
  5
887
330
1E
100
AcDbEntity
  8
0
100
AcDbLine
 10
237.8
 20
1062.0
 30
0.0
 11
239.0
 21
1062.0
 31
0.0
  0
LINE
  5
888
330
1E
100
AcDbEntity
  8
0
100
AcDbLine
 10
192.3
 20
1062.0
 30
0.0
 11
204.0
 21
1062.0
 31
0.0
  0
LINE
  5
889
330
1E
100
AcDbEntity
  8
0
100
AcDbLine
 10
192.9
 20
1061.0
 30
0.0
 11
204.6999999999999
 21
1061.0
 31
0.0
  0
LINE
  5
88A
330
1E
100
AcDbEntity
  8
0
100
AcDbLine
 10
179.6999999999999
 20
1061.0
 30
0.0
 11
192.9
 21
1061.0
 31
0.0
  0
LINE
  5
88B
330
1E
100
AcDbEntity
  8
0
100
AcDbLine
 10
179.6999999999999
 20
1053.0
 30
0.0
 11
192.9
 21
1053.0
 31
0.0
  0
LINE
  5
88C
330
1E
100
AcDbEntity
  8
0
100
AcDbLine
 10
165.8
 20
1053.0
 30
0.0
 11
179.6999999999999
 21
1053.0
 31
0.0
  0
LINE
  5
88D
330
1E
100
AcDbEntity
  8
0
100
AcDbLine
 10
165.5
 20
1052.0
 30
0.0
 11
179.1999999999999
 21
1052.0
 31
0.0
  0
LINE
  5
88E
330
1E
100
AcDbEntity
  8
0
100
AcDbLine
 10
158.56
 20
54.7599999999999
 30
0.0
 11
160.0
 21
64.9999999999999
 31
0.0
  0
LINE
  5
88F
330
1E
100
AcDbEntity
  8
0
100
AcDbLine
 10
154.72
 20
45.1599999999999
 30
0.0
 11
158.56
 21
54.7599999999999
 31
0.0
  0
LINE
  5
890
330
1E
100
AcDbEntity
  8
0
100
AcDbLine
 10
148.3199999999999
 20
36.6799999999999
 30
0.0
 11
154.72
 21
45.1599999999999
 31
0.0
  0
LINE
  5
891
330
1E
100
AcDbEntity
  8
0
100
AcDbLine
 10
139.84
 20
30.27999999999989
 30
0.0
 11
148.3199999999999
 21
36.6799999999999
 31
0.0
  0
LINE
  5
892
330
1E
100
AcDbEntity
  8
0
100
AcDbLine
 10
138.0
 20
29.5439999999999
 30
0.0
 11
139.84
 21
30.27999999999989
 31
0.0
  0
LINE
  5
897
330
1E
100
AcDbEntity
  8
0
100
AcDbLine
 10
123.571
 20
736.0
 30
0.0
 11
124.429
 21
736.0
 31
0.0
  0
LINE
  5
898
330
1E
100
AcDbEntity
  8
0
100
AcDbLine
 10
123.571
 20
742.7999999999999
 30
0.0
 11
124.429
 21
742.7999999999999
 31
0.0
  0
LINE
  5
899
330
1E
100
AcDbEntity
  8
0
100
AcDbLine
 10
123.571
 20
749.6
 30
0.0
 11
124.429
 21
749.6
 31
0.0
  0
LINE
  5
89A
330
1E
100
AcDbEntity
  8
0
100
AcDbLine
 10
123.571
 20
756.4
 30
0.0
 11
124.429
 21
756.4
 31
0.0
  0
LINE
  5
89B
330
1E
100
AcDbEntity
  8
0
100
AcDbLine
 10
123.571
 20
763.2
 30
0.0
 11
124.429
 21
763.2
 31
0.0
  0
LINE
  5
89C
330
1E
100
AcDbEntity
  8
0
100
AcDbLine
 10
123.571
 20
770.0
 30
0.0
 11
124.429
 21
770.0
 31
0.0
  0
LINE
  5
89D
330
1E
100
AcDbEntity
  8
0
100
AcDbLine
 10
123.571
 20
776.7999999999999
 30
0.0
 11
124.429
 21
776.7999999999999
 31
0.0
  0
LINE
  5
89E
330
1E
100
AcDbEntity
  8
0
100
AcDbLine
 10
123.571
 20
783.6
 30
0.0
 11
124.429
 21
783.6
 31
0.0
  0
LINE
  5
89F
330
1E
100
AcDbEntity
  8
0
100
AcDbLine
 10
123.571
 20
788.4
 30
0.0
 11
124.429
 21
788.4
 31
0.0
  0
LINE
  5
8A0
330
1E
100
AcDbEntity
  8
0
100
AcDbLine
 10
123.571
 20
795.2
 30
0.0
 11
124.429
 21
795.2
 31
0.0
  0
LINE
  5
8A1
330
1E
100
AcDbEntity
  8
0
100
AcDbLine
 10
123.571
 20
790.3999999999999
 30
0.0
 11
124.429
 21
790.3999999999999
 31
0.0
  0
LINE
  5
8A2
330
1E
100
AcDbEntity
  8
0
100
AcDbLine
 10
123.571
 20
797.2
 30
0.0
 11
124.429
 21
797.2
 31
0.0
  0
LINE
  5
8A3
330
1E
100
AcDbEntity
  8
0
100
AcDbLine
 10
123.571
 20
804.0
 30
0.0
 11
124.429
 21
804.0
 31
0.0
  0
LINE
  5
8A4
330
1E
100
AcDbEntity
  8
0
100
AcDbLine
 10
123.571
 20
802.0
 30
0.0
 11
124.429
 21
802.0
 31
0.0
  0
LINE
  5
8A5
330
1E
100
AcDbEntity
  8
0
100
AcDbLine
 10
123.571
 20
781.6
 30
0.0
 11
124.429
 21
781.6
 31
0.0
  0
LINE
  5
8A6
330
1E
100
AcDbEntity
  8
0
100
AcDbLine
 10
123.571
 20
774.7999999999999
 30
0.0
 11
124.429
 21
774.7999999999999
 31
0.0
  0
LINE
  5
8A7
330
1E
100
AcDbEntity
  8
0
100
AcDbLine
 10
123.571
 20
768.0
 30
0.0
 11
124.429
 21
768.0
 31
0.0
  0
LINE
  5
8A8
330
1E
100
AcDbEntity
  8
0
100
AcDbLine
 10
123.571
 20
761.2
 30
0.0
 11
124.429
 21
761.2
 31
0.0
  0
LINE
  5
8A9
330
1E
100
AcDbEntity
  8
0
100
AcDbLine
 10
123.571
 20
754.3999999999999
 30
0.0
 11
124.429
 21
754.3999999999999
 31
0.0
  0
LINE
  5
8AA
330
1E
100
AcDbEntity
  8
0
100
AcDbLine
 10
123.571
 20
747.5999999999999
 30
0.0
 11
124.429
 21
747.5999999999999
 31
0.0
  0
LINE
  5
8AB
330
1E
100
AcDbEntity
  8
0
100
AcDbLine
 10
123.571
 20
740.7999999999999
 30
0.0
 11
124.429
 21
740.7999999999999
 31
0.0
  0
LINE
  5
8AC
330
1E
100
AcDbEntity
  8
0
100
AcDbLine
 10
123.571
 20
734.0
 30
0.0
 11
124.429
 21
734.0
 31
0.0
  0
LINE
  5
8AD
330
1E
100
AcDbEntity
  8
0
100
AcDbLine
 10
123.1429999999999
 20
734.4999999999999
 30
0.0
 11
123.1429999999999
 21
735.5
 31
0.0
  0
LINE
  5
8AE
330
1E
100
AcDbEntity
  8
0
100
AcDbLine
 10
123.1429999999999
 20
734.4999999999999
 30
0.0
 11
123.571
 21
734.0
 31
0.0
  0
LINE
  5
8AF
330
1E
100
AcDbEntity
  8
0
100
AcDbLine
 10
123.1429999999999
 20
735.5
 30
0.0
 11
123.1429999999999
 21
734.4999999999999
 31
0.0
  0
LINE
  5
8B0
330
1E
100
AcDbEntity
  8
0
100
AcDbLine
 10
123.1429999999999
 20
735.5
 30
0.0
 11
123.571
 21
736.0
 31
0.0
  0
LINE
  5
8B1
330
1E
100
AcDbEntity
  8
0
100
AcDbLine
 10
123.1429999999999
 20
783.1
 30
0.0
 11
123.1429999999999
 21
782.1
 31
0.0
  0
LINE
  5
8B2
330
1E
100
AcDbEntity
  8
0
100
AcDbLine
 10
123.1429999999999
 20
782.1
 30
0.0
 11
123.1429999999999
 21
783.1
 31
0.0
  0
LINE
  5
8B3
330
1E
100
AcDbEntity
  8
0
100
AcDbLine
 10
123.1429999999999
 20
742.3
 30
0.0
 11
123.1429999999999
 21
741.2999999999999
 31
0.0
  0
LINE
  5
8B4
330
1E
100
AcDbEntity
  8
0
100
AcDbLine
 10
123.1429999999999
 20
742.3
 30
0.0
 11
123.571
 21
742.7999999999999
 31
0.0
  0
LINE
  5
8B5
330
1E
100
AcDbEntity
  8
0
100
AcDbLine
 10
123.1429999999999
 20
749.1
 30
0.0
 11
123.1429999999999
 21
748.1
 31
0.0
  0
LINE
  5
8B6
330
1E
100
AcDbEntity
  8
0
100
AcDbLine
 10
123.1429999999999
 20
749.1
 30
0.0
 11
123.571
 21
749.6
 31
0.0
  0
LINE
  5
8B7
330
1E
100
AcDbEntity
  8
0
100
AcDbLine
 10
123.1429999999999
 20
755.9
 30
0.0
 11
123.1429999999999
 21
754.8999999999999
 31
0.0
  0
LINE
  5
8B8
330
1E
100
AcDbEntity
  8
0
100
AcDbLine
 10
123.1429999999999
 20
755.9
 30
0.0
 11
123.571
 21
756.4
 31
0.0
  0
LINE
  5
8B9
330
1E
100
AcDbEntity
  8
0
100
AcDbLine
 10
123.1429999999999
 20
754.8999999999999
 30
0.0
 11
123.571
 21
754.3999999999999
 31
0.0
  0
LINE
  5
8BA
330
1E
100
AcDbEntity
  8
0
100
AcDbLine
 10
123.1429999999999
 20
754.8999999999999
 30
0.0
 11
123.1429999999999
 21
755.9
 31
0.0
  0
LINE
  5
8BB
330
1E
100
AcDbEntity
  8
0
100
AcDbLine
 10
123.1429999999999
 20
748.1
 30
0.0
 11
123.1429999999999
 21
749.1
 31
0.0
  0
LINE
  5
8BC
330
1E
100
AcDbEntity
  8
0
100
AcDbLine
 10
123.1429999999999
 20
748.1
 30
0.0
 11
123.571
 21
747.5999999999999
 31
0.0
  0
LINE
  5
8BD
330
1E
100
AcDbEntity
  8
0
100
AcDbLine
 10
123.1429999999999
 20
741.2999999999999
 30
0.0
 11
123.1429999999999
 21
742.3
 31
0.0
  0
LINE
  5
8BE
330
1E
100
AcDbEntity
  8
0
100
AcDbLine
 10
123.1429999999999
 20
741.2999999999999
 30
0.0
 11
123.571
 21
740.7999999999999
 31
0.0
  0
LINE
  5
8BF
330
1E
100
AcDbEntity
  8
0
100
AcDbLine
 10
123.1429999999999
 20
762.7
 30
0.0
 11
123.1429999999999
 21
761.7
 31
0.0
  0
LINE
  5
8C0
330
1E
100
AcDbEntity
  8
0
100
AcDbLine
 10
123.1429999999999
 20
762.7
 30
0.0
 11
123.571
 21
763.2
 31
0.0
  0
LINE
  5
8C1
330
1E
100
AcDbEntity
  8
0
100
AcDbLine
 10
123.1429999999999
 20
769.5
 30
0.0
 11
123.1429999999999
 21
768.5
 31
0.0
  0
LINE
  5
8C2
330
1E
100
AcDbEntity
  8
0
100
AcDbLine
 10
123.1429999999999
 20
769.5
 30
0.0
 11
123.571
 21
770.0
 31
0.0
  0
LINE
  5
8C3
330
1E
100
AcDbEntity
  8
0
100
AcDbLine
 10
123.1429999999999
 20
776.2999999999999
 30
0.0
 11
123.1429999999999
 21
775.3
 31
0.0
  0
LINE
  5
8C4
330
1E
100
AcDbEntity
  8
0
100
AcDbLine
 10
123.1429999999999
 20
776.2999999999999
 30
0.0
 11
123.571
 21
776.7999999999999
 31
0.0
  0
LINE
  5
8C5
330
1E
100
AcDbEntity
  8
0
100
AcDbLine
 10
123.1429999999999
 20
782.1
 30
0.0
 11
123.571
 21
781.6
 31
0.0
  0
LINE
  5
8C6
330
1E
100
AcDbEntity
  8
0
100
AcDbLine
 10
123.1429999999999
 20
775.3
 30
0.0
 11
123.571
 21
774.7999999999999
 31
0.0
  0
LINE
  5
8C7
330
1E
100
AcDbEntity
  8
0
100
AcDbLine
 10
123.1429999999999
 20
775.3
 30
0.0
 11
123.1429999999999
 21
776.2999999999999
 31
0.0
  0
LINE
  5
8C8
330
1E
100
AcDbEntity
  8
0
100
AcDbLine
 10
123.1429999999999
 20
768.5
 30
0.0
 11
123.571
 21
768.0
 31
0.0
  0
LINE
  5
8C9
330
1E
100
AcDbEntity
  8
0
100
AcDbLine
 10
123.1429999999999
 20
768.5
 30
0.0
 11
123.1429999999999
 21
769.5
 31
0.0
  0
LINE
  5
8CA
330
1E
100
AcDbEntity
  8
0
100
AcDbLine
 10
123.1429999999999
 20
761.7
 30
0.0
 11
123.1429999999999
 21
762.7
 31
0.0
  0
LINE
  5
8CB
330
1E
100
AcDbEntity
  8
0
100
AcDbLine
 10
123.1429999999999
 20
761.7
 30
0.0
 11
123.571
 21
761.2
 31
0.0
  0
LINE
  5
8CC
330
1E
100
AcDbEntity
  8
0
100
AcDbLine
 10
123.1429999999999
 20
783.1
 30
0.0
 11
123.571
 21
783.6
 31
0.0
  0
LINE
  5
8CD
330
1E
100
AcDbEntity
  8
0
100
AcDbLine
 10
123.1429999999999
 20
788.9
 30
0.0
 11
123.1429999999999
 21
789.9
 31
0.0
  0
LINE
  5
8CE
330
1E
100
AcDbEntity
  8
0
100
AcDbLine
 10
123.1429999999999
 20
788.9
 30
0.0
 11
123.571
 21
788.4
 31
0.0
  0
LINE
  5
8CF
330
1E
100
AcDbEntity
  8
0
100
AcDbLine
 10
123.1429999999999
 20
795.7
 30
0.0
 11
123.1429999999999
 21
796.7
 31
0.0
  0
LINE
  5
8D0
330
1E
100
AcDbEntity
  8
0
100
AcDbLine
 10
123.1429999999999
 20
795.7
 30
0.0
 11
123.571
 21
795.2
 31
0.0
  0
LINE
  5
8D1
330
1E
100
AcDbEntity
  8
0
100
AcDbLine
 10
123.1429999999999
 20
796.7
 30
0.0
 11
123.571
 21
797.2
 31
0.0
  0
LINE
  5
8D2
330
1E
100
AcDbEntity
  8
0
100
AcDbLine
 10
123.1429999999999
 20
796.7
 30
0.0
 11
123.1429999999999
 21
795.7
 31
0.0
  0
LINE
  5
8D3
330
1E
100
AcDbEntity
  8
0
100
AcDbLine
 10
123.1429999999999
 20
803.5
 30
0.0
 11
123.1429999999999
 21
802.5
 31
0.0
  0
LINE
  5
8D4
330
1E
100
AcDbEntity
  8
0
100
AcDbLine
 10
123.1429999999999
 20
803.5
 30
0.0
 11
123.571
 21
804.0
 31
0.0
  0
LINE
  5
8D5
330
1E
100
AcDbEntity
  8
0
100
AcDbLine
 10
123.1429999999999
 20
802.5
 30
0.0
 11
123.571
 21
802.0
 31
0.0
  0
LINE
  5
8D6
330
1E
100
AcDbEntity
  8
0
100
AcDbLine
 10
123.1429999999999
 20
802.5
 30
0.0
 11
123.1429999999999
 21
803.5
 31
0.0
  0
LINE
  5
8D7
330
1E
100
AcDbEntity
  8
0
100
AcDbLine
 10
123.1429999999999
 20
789.9
 30
0.0
 11
123.1429999999999
 21
788.9
 31
0.0
  0
LINE
  5
8D8
330
1E
100
AcDbEntity
  8
0
100
AcDbLine
 10
123.1429999999999
 20
789.9
 30
0.0
 11
123.571
 21
790.3999999999999
 31
0.0
  0
LINE
  5
8D9
330
1E
100
AcDbEntity
  8
0
100
AcDbLine
 10
124.429
 20
734.0
 30
0.0
 11
124.857
 21
734.4999999999999
 31
0.0
  0
LINE
  5
8DA
330
1E
100
AcDbEntity
  8
0
100
AcDbLine
 10
124.857
 20
735.5
 30
0.0
 11
124.857
 21
734.4999999999999
 31
0.0
  0
LINE
  5
8DB
330
1E
100
AcDbEntity
  8
0
100
AcDbLine
 10
124.429
 20
736.0
 30
0.0
 11
124.857
 21
735.5
 31
0.0
  0
LINE
  5
8DC
330
1E
100
AcDbEntity
  8
0
100
AcDbLine
 10
124.857
 20
734.4999999999999
 30
0.0
 11
124.857
 21
735.5
 31
0.0
  0
LINE
  5
8DD
330
1E
100
AcDbEntity
  8
0
100
AcDbLine
 10
124.857
 20
783.1
 30
0.0
 11
124.857
 21
782.1
 31
0.0
  0
LINE
  5
8DE
330
1E
100
AcDbEntity
  8
0
100
AcDbLine
 10
124.857
 20
782.1
 30
0.0
 11
124.857
 21
783.1
 31
0.0
  0
LINE
  5
8DF
330
1E
100
AcDbEntity
  8
0
100
AcDbLine
 10
124.429
 20
742.7999999999999
 30
0.0
 11
124.857
 21
742.3
 31
0.0
  0
LINE
  5
8E0
330
1E
100
AcDbEntity
  8
0
100
AcDbLine
 10
124.857
 20
742.3
 30
0.0
 11
124.857
 21
741.2999999999999
 31
0.0
  0
LINE
  5
8E1
330
1E
100
AcDbEntity
  8
0
100
AcDbLine
 10
124.857
 20
749.1
 30
0.0
 11
124.857
 21
748.1
 31
0.0
  0
LINE
  5
8E2
330
1E
100
AcDbEntity
  8
0
100
AcDbLine
 10
124.857
 20
748.1
 30
0.0
 11
124.857
 21
749.1
 31
0.0
  0
LINE
  5
8E3
330
1E
100
AcDbEntity
  8
0
100
AcDbLine
 10
124.857
 20
754.8999999999999
 30
0.0
 11
124.857
 21
755.9
 31
0.0
  0
LINE
  5
8E4
330
1E
100
AcDbEntity
  8
0
100
AcDbLine
 10
124.857
 20
755.9
 30
0.0
 11
124.857
 21
754.8999999999999
 31
0.0
  0
LINE
  5
8E5
330
1E
100
AcDbEntity
  8
0
100
AcDbLine
 10
124.857
 20
741.2999999999999
 30
0.0
 11
124.857
 21
742.3
 31
0.0
  0
LINE
  5
8E6
330
1E
100
AcDbEntity
  8
0
100
AcDbLine
 10
124.429
 20
740.7999999999999
 30
0.0
 11
124.857
 21
741.2999999999999
 31
0.0
  0
LINE
  5
8E7
330
1E
100
AcDbEntity
  8
0
100
AcDbLine
 10
124.429
 20
749.6
 30
0.0
 11
124.857
 21
749.1
 31
0.0
  0
LINE
  5
8E8
330
1E
100
AcDbEntity
  8
0
100
AcDbLine
 10
124.429
 20
747.5999999999999
 30
0.0
 11
124.857
 21
748.1
 31
0.0
  0
LINE
  5
8E9
330
1E
100
AcDbEntity
  8
0
100
AcDbLine
 10
124.429
 20
756.4
 30
0.0
 11
124.857
 21
755.9
 31
0.0
  0
LINE
  5
8EA
330
1E
100
AcDbEntity
  8
0
100
AcDbLine
 10
124.429
 20
754.3999999999999
 30
0.0
 11
124.857
 21
754.8999999999999
 31
0.0
  0
LINE
  5
8EB
330
1E
100
AcDbEntity
  8
0
100
AcDbLine
 10
124.857
 20
762.7
 30
0.0
 11
124.857
 21
761.7
 31
0.0
  0
LINE
  5
8EC
330
1E
100
AcDbEntity
  8
0
100
AcDbLine
 10
124.857
 20
761.7
 30
0.0
 11
124.857
 21
762.7
 31
0.0
  0
LINE
  5
8ED
330
1E
100
AcDbEntity
  8
0
100
AcDbLine
 10
124.857
 20
768.5
 30
0.0
 11
124.857
 21
769.5
 31
0.0
  0
LINE
  5
8EE
330
1E
100
AcDbEntity
  8
0
100
AcDbLine
 10
124.857
 20
769.5
 30
0.0
 11
124.857
 21
768.5
 31
0.0
  0
LINE
  5
8EF
330
1E
100
AcDbEntity
  8
0
100
AcDbLine
 10
124.857
 20
775.3
 30
0.0
 11
124.857
 21
776.2999999999999
 31
0.0
  0
LINE
  5
8F0
330
1E
100
AcDbEntity
  8
0
100
AcDbLine
 10
124.857
 20
776.2999999999999
 30
0.0
 11
124.857
 21
775.3
 31
0.0
  0
LINE
  5
8F1
330
1E
100
AcDbEntity
  8
0
100
AcDbLine
 10
124.429
 20
763.2
 30
0.0
 11
124.857
 21
762.7
 31
0.0
  0
LINE
  5
8F2
330
1E
100
AcDbEntity
  8
0
100
AcDbLine
 10
124.429
 20
761.2
 30
0.0
 11
124.857
 21
761.7
 31
0.0
  0
LINE
  5
8F3
330
1E
100
AcDbEntity
  8
0
100
AcDbLine
 10
124.429
 20
770.0
 30
0.0
 11
124.857
 21
769.5
 31
0.0
  0
LINE
  5
8F4
330
1E
100
AcDbEntity
  8
0
100
AcDbLine
 10
124.429
 20
768.0
 30
0.0
 11
124.857
 21
768.5
 31
0.0
  0
LINE
  5
8F5
330
1E
100
AcDbEntity
  8
0
100
AcDbLine
 10
124.429
 20
776.7999999999999
 30
0.0
 11
124.857
 21
776.2999999999999
 31
0.0
  0
LINE
  5
8F6
330
1E
100
AcDbEntity
  8
0
100
AcDbLine
 10
124.429
 20
774.7999999999999
 30
0.0
 11
124.857
 21
775.3
 31
0.0
  0
LINE
  5
8F7
330
1E
100
AcDbEntity
  8
0
100
AcDbLine
 10
124.429
 20
781.6
 30
0.0
 11
124.857
 21
782.1
 31
0.0
  0
LINE
  5
8F8
330
1E
100
AcDbEntity
  8
0
100
AcDbLine
 10
124.857
 20
796.7
 30
0.0
 11
124.857
 21
795.7
 31
0.0
  0
LINE
  5
8F9
330
1E
100
AcDbEntity
  8
0
100
AcDbLine
 10
124.857
 20
795.7
 30
0.0
 11
124.857
 21
796.7
 31
0.0
  0
LINE
  5
8FA
330
1E
100
AcDbEntity
  8
0
100
AcDbLine
 10
124.857
 20
802.5
 30
0.0
 11
124.857
 21
803.5
 31
0.0
  0
LINE
  5
8FB
330
1E
100
AcDbEntity
  8
0
100
AcDbLine
 10
124.857
 20
803.5
 30
0.0
 11
124.857
 21
802.5
 31
0.0
  0
LINE
  5
8FC
330
1E
100
AcDbEntity
  8
0
100
AcDbLine
 10
124.857
 20
789.9
 30
0.0
 11
124.857
 21
788.9
 31
0.0
  0
LINE
  5
8FD
330
1E
100
AcDbEntity
  8
0
100
AcDbLine
 10
124.857
 20
788.9
 30
0.0
 11
124.857
 21
789.9
 31
0.0
  0
LINE
  5
8FE
330
1E
100
AcDbEntity
  8
0
100
AcDbLine
 10
124.429
 20
783.6
 30
0.0
 11
124.857
 21
783.1
 31
0.0
  0
LINE
  5
8FF
330
1E
100
AcDbEntity
  8
0
100
AcDbLine
 10
124.429
 20
788.4
 30
0.0
 11
124.857
 21
788.9
 31
0.0
  0
LINE
  5
900
330
1E
100
AcDbEntity
  8
0
100
AcDbLine
 10
124.429
 20
795.2
 30
0.0
 11
124.857
 21
795.7
 31
0.0
  0
LINE
  5
901
330
1E
100
AcDbEntity
  8
0
100
AcDbLine
 10
124.429
 20
797.2
 30
0.0
 11
124.857
 21
796.7
 31
0.0
  0
LINE
  5
902
330
1E
100
AcDbEntity
  8
0
100
AcDbLine
 10
124.429
 20
804.0
 30
0.0
 11
124.857
 21
803.5
 31
0.0
  0
LINE
  5
903
330
1E
100
AcDbEntity
  8
0
100
AcDbLine
 10
124.429
 20
802.0
 30
0.0
 11
124.857
 21
802.5
 31
0.0
  0
LINE
  5
904
330
1E
100
AcDbEntity
  8
0
100
AcDbLine
 10
124.429
 20
790.3999999999999
 30
0.0
 11
124.857
 21
789.9
 31
0.0
  0
LINE
  5
905
330
1E
100
AcDbEntity
  8
0
100
AcDbLine
 10
128.429
 20
736.0
 30
0.0
 11
128.857
 21
735.5
 31
0.0
  0
LINE
  5
906
330
1E
100
AcDbEntity
  8
0
100
AcDbLine
 10
128.429
 20
734.0
 30
0.0
 11
128.857
 21
734.4999999999999
 31
0.0
  0
LINE
  5
907
330
1E
100
AcDbEntity
  8
0
100
AcDbLine
 10
127.1429999999999
 20
735.5
 30
0.0
 11
127.5709999999999
 21
736.0
 31
0.0
  0
LINE
  5
908
330
1E
100
AcDbEntity
  8
0
100
AcDbLine
 10
127.1429999999999
 20
735.5
 30
0.0
 11
127.1429999999999
 21
734.4999999999999
 31
0.0
  0
LINE
  5
909
330
1E
100
AcDbEntity
  8
0
100
AcDbLine
 10
127.1429999999999
 20
734.4999999999999
 30
0.0
 11
127.5709999999999
 21
734.0
 31
0.0
  0
LINE
  5
90A
330
1E
100
AcDbEntity
  8
0
100
AcDbLine
 10
127.1429999999999
 20
734.4999999999999
 30
0.0
 11
127.1429999999999
 21
735.5
 31
0.0
  0
LINE
  5
90B
330
1E
100
AcDbEntity
  8
0
100
AcDbLine
 10
127.5709999999999
 20
734.0
 30
0.0
 11
128.429
 21
734.0
 31
0.0
  0
LINE
  5
90C
330
1E
100
AcDbEntity
  8
0
100
AcDbLine
 10
127.5709999999999
 20
736.0
 30
0.0
 11
128.429
 21
736.0
 31
0.0
  0
LINE
  5
90D
330
1E
100
AcDbEntity
  8
0
100
AcDbLine
 10
128.857
 20
734.4999999999999
 30
0.0
 11
128.857
 21
735.5
 31
0.0
  0
LINE
  5
90E
330
1E
100
AcDbEntity
  8
0
100
AcDbLine
 10
128.857
 20
735.5
 30
0.0
 11
128.857
 21
734.4999999999999
 31
0.0
  0
LINE
  5
90F
330
1E
100
AcDbEntity
  8
0
100
AcDbLine
 10
128.857
 20
782.1
 30
0.0
 11
128.857
 21
783.1
 31
0.0
  0
LINE
  5
910
330
1E
100
AcDbEntity
  8
0
100
AcDbLine
 10
128.857
 20
783.1
 30
0.0
 11
128.857
 21
782.1
 31
0.0
  0
LINE
  5
911
330
1E
100
AcDbEntity
  8
0
100
AcDbLine
 10
127.1429999999999
 20
782.1
 30
0.0
 11
127.1429999999999
 21
783.1
 31
0.0
  0
LINE
  5
912
330
1E
100
AcDbEntity
  8
0
100
AcDbLine
 10
127.1429999999999
 20
783.1
 30
0.0
 11
127.1429999999999
 21
782.1
 31
0.0
  0
LINE
  5
913
330
1E
100
AcDbEntity
  8
0
100
AcDbLine
 10
128.429
 20
781.6
 30
0.0
 11
128.857
 21
782.1
 31
0.0
  0
LINE
  5
914
330
1E
100
AcDbEntity
  8
0
100
AcDbLine
 10
128.429
 20
774.7999999999999
 30
0.0
 11
128.857
 21
775.3
 31
0.0
  0
LINE
  5
915
330
1E
100
AcDbEntity
  8
0
100
AcDbLine
 10
128.429
 20
776.7999999999999
 30
0.0
 11
128.857
 21
776.2999999999999
 31
0.0
  0
LINE
  5
916
330
1E
100
AcDbEntity
  8
0
100
AcDbLine
 10
128.429
 20
768.0
 30
0.0
 11
128.857
 21
768.5
 31
0.0
  0
LINE
  5
917
330
1E
100
AcDbEntity
  8
0
100
AcDbLine
 10
128.429
 20
770.0
 30
0.0
 11
128.857
 21
769.5
 31
0.0
  0
LINE
  5
918
330
1E
100
AcDbEntity
  8
0
100
AcDbLine
 10
128.429
 20
761.2
 30
0.0
 11
128.857
 21
761.7
 31
0.0
  0
LINE
  5
919
330
1E
100
AcDbEntity
  8
0
100
AcDbLine
 10
128.429
 20
763.2
 30
0.0
 11
128.857
 21
762.7
 31
0.0
  0
LINE
  5
91A
330
1E
100
AcDbEntity
  8
0
100
AcDbLine
 10
128.429
 20
754.3999999999999
 30
0.0
 11
128.857
 21
754.8999999999999
 31
0.0
  0
LINE
  5
91B
330
1E
100
AcDbEntity
  8
0
100
AcDbLine
 10
128.429
 20
756.4
 30
0.0
 11
128.857
 21
755.9
 31
0.0
  0
LINE
  5
91C
330
1E
100
AcDbEntity
  8
0
100
AcDbLine
 10
128.429
 20
747.5999999999999
 30
0.0
 11
128.857
 21
748.1
 31
0.0
  0
LINE
  5
91D
330
1E
100
AcDbEntity
  8
0
100
AcDbLine
 10
128.429
 20
749.6
 30
0.0
 11
128.857
 21
749.1
 31
0.0
  0
LINE
  5
91E
330
1E
100
AcDbEntity
  8
0
100
AcDbLine
 10
128.429
 20
740.7999999999999
 30
0.0
 11
128.857
 21
741.2999999999999
 31
0.0
  0
LINE
  5
91F
330
1E
100
AcDbEntity
  8
0
100
AcDbLine
 10
128.429
 20
742.7999999999999
 30
0.0
 11
128.857
 21
742.3
 31
0.0
  0
LINE
  5
920
330
1E
100
AcDbEntity
  8
0
100
AcDbLine
 10
127.1429999999999
 20
741.2999999999999
 30
0.0
 11
127.5709999999999
 21
740.7999999999999
 31
0.0
  0
LINE
  5
921
330
1E
100
AcDbEntity
  8
0
100
AcDbLine
 10
127.1429999999999
 20
741.2999999999999
 30
0.0
 11
127.1429999999999
 21
742.3
 31
0.0
  0
LINE
  5
922
330
1E
100
AcDbEntity
  8
0
100
AcDbLine
 10
127.1429999999999
 20
748.1
 30
0.0
 11
127.5709999999999
 21
747.5999999999999
 31
0.0
  0
LINE
  5
923
330
1E
100
AcDbEntity
  8
0
100
AcDbLine
 10
127.1429999999999
 20
748.1
 30
0.0
 11
127.1429999999999
 21
749.1
 31
0.0
  0
LINE
  5
924
330
1E
100
AcDbEntity
  8
0
100
AcDbLine
 10
127.1429999999999
 20
754.8999999999999
 30
0.0
 11
127.1429999999999
 21
755.9
 31
0.0
  0
LINE
  5
925
330
1E
100
AcDbEntity
  8
0
100
AcDbLine
 10
127.1429999999999
 20
754.8999999999999
 30
0.0
 11
127.5709999999999
 21
754.3999999999999
 31
0.0
  0
LINE
  5
926
330
1E
100
AcDbEntity
  8
0
100
AcDbLine
 10
127.1429999999999
 20
755.9
 30
0.0
 11
127.5709999999999
 21
756.4
 31
0.0
  0
LINE
  5
927
330
1E
100
AcDbEntity
  8
0
100
AcDbLine
 10
127.1429999999999
 20
755.9
 30
0.0
 11
127.1429999999999
 21
754.8999999999999
 31
0.0
  0
LINE
  5
928
330
1E
100
AcDbEntity
  8
0
100
AcDbLine
 10
127.1429999999999
 20
749.1
 30
0.0
 11
127.5709999999999
 21
749.6
 31
0.0
  0
LINE
  5
929
330
1E
100
AcDbEntity
  8
0
100
AcDbLine
 10
127.1429999999999
 20
749.1
 30
0.0
 11
127.1429999999999
 21
748.1
 31
0.0
  0
LINE
  5
92A
330
1E
100
AcDbEntity
  8
0
100
AcDbLine
 10
127.1429999999999
 20
742.3
 30
0.0
 11
127.5709999999999
 21
742.7999999999999
 31
0.0
  0
LINE
  5
92B
330
1E
100
AcDbEntity
  8
0
100
AcDbLine
 10
127.1429999999999
 20
742.3
 30
0.0
 11
127.1429999999999
 21
741.2999999999999
 31
0.0
  0
LINE
  5
92C
330
1E
100
AcDbEntity
  8
0
100
AcDbLine
 10
127.5709999999999
 20
740.7999999999999
 30
0.0
 11
128.429
 21
740.7999999999999
 31
0.0
  0
LINE
  5
92D
330
1E
100
AcDbEntity
  8
0
100
AcDbLine
 10
127.5709999999999
 20
747.5999999999999
 30
0.0
 11
128.429
 21
747.5999999999999
 31
0.0
  0
LINE
  5
92E
330
1E
100
AcDbEntity
  8
0
100
AcDbLine
 10
127.5709999999999
 20
754.3999999999999
 30
0.0
 11
128.429
 21
754.3999999999999
 31
0.0
  0
LINE
  5
92F
330
1E
100
AcDbEntity
  8
0
100
AcDbLine
 10
127.5709999999999
 20
756.4
 30
0.0
 11
128.429
 21
756.4
 31
0.0
  0
LINE
  5
930
330
1E
100
AcDbEntity
  8
0
100
AcDbLine
 10
127.5709999999999
 20
749.6
 30
0.0
 11
128.429
 21
749.6
 31
0.0
  0
LINE
  5
931
330
1E
100
AcDbEntity
  8
0
100
AcDbLine
 10
127.5709999999999
 20
742.7999999999999
 30
0.0
 11
128.429
 21
742.7999999999999
 31
0.0
  0
LINE
  5
932
330
1E
100
AcDbEntity
  8
0
100
AcDbLine
 10
127.1429999999999
 20
761.7
 30
0.0
 11
127.5709999999999
 21
761.2
 31
0.0
  0
LINE
  5
933
330
1E
100
AcDbEntity
  8
0
100
AcDbLine
 10
127.1429999999999
 20
761.7
 30
0.0
 11
127.1429999999999
 21
762.7
 31
0.0
  0
LINE
  5
934
330
1E
100
AcDbEntity
  8
0
100
AcDbLine
 10
127.1429999999999
 20
768.5
 30
0.0
 11
127.1429999999999
 21
769.5
 31
0.0
  0
LINE
  5
935
330
1E
100
AcDbEntity
  8
0
100
AcDbLine
 10
127.1429999999999
 20
768.5
 30
0.0
 11
127.5709999999999
 21
768.0
 31
0.0
  0
LINE
  5
936
330
1E
100
AcDbEntity
  8
0
100
AcDbLine
 10
127.1429999999999
 20
775.3
 30
0.0
 11
127.1429999999999
 21
776.2999999999999
 31
0.0
  0
LINE
  5
937
330
1E
100
AcDbEntity
  8
0
100
AcDbLine
 10
127.1429999999999
 20
775.3
 30
0.0
 11
127.5709999999999
 21
774.7999999999999
 31
0.0
  0
LINE
  5
938
330
1E
100
AcDbEntity
  8
0
100
AcDbLine
 10
127.1429999999999
 20
782.1
 30
0.0
 11
127.5709999999999
 21
781.6
 31
0.0
  0
LINE
  5
939
330
1E
100
AcDbEntity
  8
0
100
AcDbLine
 10
127.1429999999999
 20
776.2999999999999
 30
0.0
 11
127.5709999999999
 21
776.7999999999999
 31
0.0
  0
LINE
  5
93A
330
1E
100
AcDbEntity
  8
0
100
AcDbLine
 10
127.1429999999999
 20
776.2999999999999
 30
0.0
 11
127.1429999999999
 21
775.3
 31
0.0
  0
LINE
  5
93B
330
1E
100
AcDbEntity
  8
0
100
AcDbLine
 10
127.1429999999999
 20
769.5
 30
0.0
 11
127.5709999999999
 21
770.0
 31
0.0
  0
LINE
  5
93C
330
1E
100
AcDbEntity
  8
0
100
AcDbLine
 10
127.1429999999999
 20
769.5
 30
0.0
 11
127.1429999999999
 21
768.5
 31
0.0
  0
LINE
  5
93D
330
1E
100
AcDbEntity
  8
0
100
AcDbLine
 10
127.1429999999999
 20
762.7
 30
0.0
 11
127.5709999999999
 21
763.2
 31
0.0
  0
LINE
  5
93E
330
1E
100
AcDbEntity
  8
0
100
AcDbLine
 10
127.1429999999999
 20
762.7
 30
0.0
 11
127.1429999999999
 21
761.7
 31
0.0
  0
LINE
  5
93F
330
1E
100
AcDbEntity
  8
0
100
AcDbLine
 10
127.5709999999999
 20
761.2
 30
0.0
 11
128.429
 21
761.2
 31
0.0
  0
LINE
  5
940
330
1E
100
AcDbEntity
  8
0
100
AcDbLine
 10
127.5709999999999
 20
768.0
 30
0.0
 11
128.429
 21
768.0
 31
0.0
  0
LINE
  5
941
330
1E
100
AcDbEntity
  8
0
100
AcDbLine
 10
127.5709999999999
 20
774.7999999999999
 30
0.0
 11
128.429
 21
774.7999999999999
 31
0.0
  0
LINE
  5
942
330
1E
100
AcDbEntity
  8
0
100
AcDbLine
 10
127.5709999999999
 20
781.6
 30
0.0
 11
128.429
 21
781.6
 31
0.0
  0
LINE
  5
943
330
1E
100
AcDbEntity
  8
0
100
AcDbLine
 10
127.5709999999999
 20
776.7999999999999
 30
0.0
 11
128.429
 21
776.7999999999999
 31
0.0
  0
LINE
  5
944
330
1E
100
AcDbEntity
  8
0
100
AcDbLine
 10
127.5709999999999
 20
770.0
 30
0.0
 11
128.429
 21
770.0
 31
0.0
  0
LINE
  5
945
330
1E
100
AcDbEntity
  8
0
100
AcDbLine
 10
127.5709999999999
 20
763.2
 30
0.0
 11
128.429
 21
763.2
 31
0.0
  0
LINE
  5
946
330
1E
100
AcDbEntity
  8
0
100
AcDbLine
 10
128.857
 20
741.2999999999999
 30
0.0
 11
128.857
 21
742.3
 31
0.0
  0
LINE
  5
947
330
1E
100
AcDbEntity
  8
0
100
AcDbLine
 10
128.857
 20
755.9
 30
0.0
 11
128.857
 21
754.8999999999999
 31
0.0
  0
LINE
  5
948
330
1E
100
AcDbEntity
  8
0
100
AcDbLine
 10
128.857
 20
754.8999999999999
 30
0.0
 11
128.857
 21
755.9
 31
0.0
  0
LINE
  5
949
330
1E
100
AcDbEntity
  8
0
100
AcDbLine
 10
128.857
 20
748.1
 30
0.0
 11
128.857
 21
749.1
 31
0.0
  0
LINE
  5
94A
330
1E
100
AcDbEntity
  8
0
100
AcDbLine
 10
128.857
 20
749.1
 30
0.0
 11
128.857
 21
748.1
 31
0.0
  0
LINE
  5
94B
330
1E
100
AcDbEntity
  8
0
100
AcDbLine
 10
128.857
 20
742.3
 30
0.0
 11
128.857
 21
741.2999999999999
 31
0.0
  0
LINE
  5
94C
330
1E
100
AcDbEntity
  8
0
100
AcDbLine
 10
128.857
 20
776.2999999999999
 30
0.0
 11
128.857
 21
775.3
 31
0.0
  0
LINE
  5
94D
330
1E
100
AcDbEntity
  8
0
100
AcDbLine
 10
128.857
 20
775.3
 30
0.0
 11
128.857
 21
776.2999999999999
 31
0.0
  0
LINE
  5
94E
330
1E
100
AcDbEntity
  8
0
100
AcDbLine
 10
128.857
 20
769.5
 30
0.0
 11
128.857
 21
768.5
 31
0.0
  0
LINE
  5
94F
330
1E
100
AcDbEntity
  8
0
100
AcDbLine
 10
128.857
 20
768.5
 30
0.0
 11
128.857
 21
769.5
 31
0.0
  0
LINE
  5
950
330
1E
100
AcDbEntity
  8
0
100
AcDbLine
 10
128.857
 20
761.7
 30
0.0
 11
128.857
 21
762.7
 31
0.0
  0
LINE
  5
951
330
1E
100
AcDbEntity
  8
0
100
AcDbLine
 10
128.857
 20
762.7
 30
0.0
 11
128.857
 21
761.7
 31
0.0
  0
LINE
  5
952
330
1E
100
AcDbEntity
  8
0
100
AcDbLine
 10
128.429
 20
790.3999999999999
 30
0.0
 11
128.857
 21
789.9
 31
0.0
  0
LINE
  5
953
330
1E
100
AcDbEntity
  8
0
100
AcDbLine
 10
128.429
 20
802.0
 30
0.0
 11
128.857
 21
802.5
 31
0.0
  0
LINE
  5
954
330
1E
100
AcDbEntity
  8
0
100
AcDbLine
 10
128.429
 20
804.0
 30
0.0
 11
128.857
 21
803.5
 31
0.0
  0
LINE
  5
955
330
1E
100
AcDbEntity
  8
0
100
AcDbLine
 10
128.429
 20
797.2
 30
0.0
 11
128.857
 21
796.7
 31
0.0
  0
LINE
  5
956
330
1E
100
AcDbEntity
  8
0
100
AcDbLine
 10
128.429
 20
795.2
 30
0.0
 11
128.857
 21
795.7
 31
0.0
  0
LINE
  5
957
330
1E
100
AcDbEntity
  8
0
100
AcDbLine
 10
128.429
 20
788.4
 30
0.0
 11
128.857
 21
788.9
 31
0.0
  0
LINE
  5
958
330
1E
100
AcDbEntity
  8
0
100
AcDbLine
 10
128.429
 20
783.6
 30
0.0
 11
128.857
 21
783.1
 31
0.0
  0
LINE
  5
959
330
1E
100
AcDbEntity
  8
0
100
AcDbLine
 10
127.1429999999999
 20
789.9
 30
0.0
 11
127.5709999999999
 21
790.3999999999999
 31
0.0
  0
LINE
  5
95A
330
1E
100
AcDbEntity
  8
0
100
AcDbLine
 10
127.1429999999999
 20
789.9
 30
0.0
 11
127.1429999999999
 21
788.9
 31
0.0
  0
LINE
  5
95B
330
1E
100
AcDbEntity
  8
0
100
AcDbLine
 10
127.1429999999999
 20
802.5
 30
0.0
 11
127.1429999999999
 21
803.5
 31
0.0
  0
LINE
  5
95C
330
1E
100
AcDbEntity
  8
0
100
AcDbLine
 10
127.1429999999999
 20
802.5
 30
0.0
 11
127.5709999999999
 21
802.0
 31
0.0
  0
LINE
  5
95D
330
1E
100
AcDbEntity
  8
0
100
AcDbLine
 10
127.1429999999999
 20
803.5
 30
0.0
 11
127.5709999999999
 21
804.0
 31
0.0
  0
LINE
  5
95E
330
1E
100
AcDbEntity
  8
0
100
AcDbLine
 10
127.1429999999999
 20
803.5
 30
0.0
 11
127.1429999999999
 21
802.5
 31
0.0
  0
LINE
  5
95F
330
1E
100
AcDbEntity
  8
0
100
AcDbLine
 10
127.1429999999999
 20
796.7
 30
0.0
 11
127.1429999999999
 21
795.7
 31
0.0
  0
LINE
  5
960
330
1E
100
AcDbEntity
  8
0
100
AcDbLine
 10
127.1429999999999
 20
796.7
 30
0.0
 11
127.5709999999999
 21
797.2
 31
0.0
  0
LINE
  5
961
330
1E
100
AcDbEntity
  8
0
100
AcDbLine
 10
127.1429999999999
 20
795.7
 30
0.0
 11
127.5709999999999
 21
795.2
 31
0.0
  0
LINE
  5
962
330
1E
100
AcDbEntity
  8
0
100
AcDbLine
 10
127.1429999999999
 20
795.7
 30
0.0
 11
127.1429999999999
 21
796.7
 31
0.0
  0
LINE
  5
963
330
1E
100
AcDbEntity
  8
0
100
AcDbLine
 10
127.1429999999999
 20
788.9
 30
0.0
 11
127.5709999999999
 21
788.4
 31
0.0
  0
LINE
  5
964
330
1E
100
AcDbEntity
  8
0
100
AcDbLine
 10
127.1429999999999
 20
788.9
 30
0.0
 11
127.1429999999999
 21
789.9
 31
0.0
  0
LINE
  5
965
330
1E
100
AcDbEntity
  8
0
100
AcDbLine
 10
127.1429999999999
 20
783.1
 30
0.0
 11
127.5709999999999
 21
783.6
 31
0.0
  0
LINE
  5
966
330
1E
100
AcDbEntity
  8
0
100
AcDbLine
 10
127.5709999999999
 20
802.0
 30
0.0
 11
128.429
 21
802.0
 31
0.0
  0
LINE
  5
967
330
1E
100
AcDbEntity
  8
0
100
AcDbLine
 10
127.5709999999999
 20
804.0
 30
0.0
 11
128.429
 21
804.0
 31
0.0
  0
LINE
  5
968
330
1E
100
AcDbEntity
  8
0
100
AcDbLine
 10
127.5709999999999
 20
797.2
 30
0.0
 11
128.429
 21
797.2
 31
0.0
  0
LINE
  5
969
330
1E
100
AcDbEntity
  8
0
100
AcDbLine
 10
127.5709999999999
 20
790.3999999999999
 30
0.0
 11
128.429
 21
790.3999999999999
 31
0.0
  0
LINE
  5
96A
330
1E
100
AcDbEntity
  8
0
100
AcDbLine
 10
127.5709999999999
 20
795.2
 30
0.0
 11
128.429
 21
795.2
 31
0.0
  0
LINE
  5
96B
330
1E
100
AcDbEntity
  8
0
100
AcDbLine
 10
127.5709999999999
 20
788.4
 30
0.0
 11
128.429
 21
788.4
 31
0.0
  0
LINE
  5
96C
330
1E
100
AcDbEntity
  8
0
100
AcDbLine
 10
127.5709999999999
 20
783.6
 30
0.0
 11
128.429
 21
783.6
 31
0.0
  0
LINE
  5
96D
330
1E
100
AcDbEntity
  8
0
100
AcDbLine
 10
128.857
 20
788.9
 30
0.0
 11
128.857
 21
789.9
 31
0.0
  0
LINE
  5
96E
330
1E
100
AcDbEntity
  8
0
100
AcDbLine
 10
128.857
 20
789.9
 30
0.0
 11
128.857
 21
788.9
 31
0.0
  0
LINE
  5
96F
330
1E
100
AcDbEntity
  8
0
100
AcDbLine
 10
128.857
 20
803.5
 30
0.0
 11
128.857
 21
802.5
 31
0.0
  0
LINE
  5
970
330
1E
100
AcDbEntity
  8
0
100
AcDbLine
 10
128.857
 20
802.5
 30
0.0
 11
128.857
 21
803.5
 31
0.0
  0
LINE
  5
971
330
1E
100
AcDbEntity
  8
0
100
AcDbLine
 10
128.857
 20
795.7
 30
0.0
 11
128.857
 21
796.7
 31
0.0
  0
LINE
  5
972
330
1E
100
AcDbEntity
  8
0
100
AcDbLine
 10
128.857
 20
796.7
 30
0.0
 11
128.857
 21
795.7
 31
0.0
  0
LINE
  5
973
330
1E
100
AcDbEntity
  8
0
100
AcDbLine
 10
111.5709999999999
 20
736.0
 30
0.0
 11
112.429
 21
736.0
 31
0.0
  0
LINE
  5
974
330
1E
100
AcDbEntity
  8
0
100
AcDbLine
 10
111.5709999999999
 20
742.7999999999999
 30
0.0
 11
112.429
 21
742.7999999999999
 31
0.0
  0
LINE
  5
975
330
1E
100
AcDbEntity
  8
0
100
AcDbLine
 10
111.5709999999999
 20
749.6
 30
0.0
 11
112.429
 21
749.6
 31
0.0
  0
LINE
  5
976
330
1E
100
AcDbEntity
  8
0
100
AcDbLine
 10
111.5709999999999
 20
756.4
 30
0.0
 11
112.429
 21
756.4
 31
0.0
  0
LINE
  5
977
330
1E
100
AcDbEntity
  8
0
100
AcDbLine
 10
111.5709999999999
 20
763.2
 30
0.0
 11
112.429
 21
763.2
 31
0.0
  0
LINE
  5
978
330
1E
100
AcDbEntity
  8
0
100
AcDbLine
 10
111.5709999999999
 20
770.0
 30
0.0
 11
112.429
 21
770.0
 31
0.0
  0
LINE
  5
979
330
1E
100
AcDbEntity
  8
0
100
AcDbLine
 10
111.5709999999999
 20
776.7999999999999
 30
0.0
 11
112.429
 21
776.7999999999999
 31
0.0
  0
LINE
  5
97A
330
1E
100
AcDbEntity
  8
0
100
AcDbLine
 10
111.5709999999999
 20
783.6
 30
0.0
 11
112.429
 21
783.6
 31
0.0
  0
LINE
  5
97B
330
1E
100
AcDbEntity
  8
0
100
AcDbLine
 10
111.5709999999999
 20
788.4
 30
0.0
 11
112.429
 21
788.4
 31
0.0
  0
LINE
  5
97C
330
1E
100
AcDbEntity
  8
0
100
AcDbLine
 10
111.5709999999999
 20
795.2
 30
0.0
 11
112.429
 21
795.2
 31
0.0
  0
LINE
  5
97D
330
1E
100
AcDbEntity
  8
0
100
AcDbLine
 10
111.5709999999999
 20
790.3999999999999
 30
0.0
 11
112.429
 21
790.3999999999999
 31
0.0
  0
LINE
  5
97E
330
1E
100
AcDbEntity
  8
0
100
AcDbLine
 10
111.5709999999999
 20
797.2
 30
0.0
 11
112.429
 21
797.2
 31
0.0
  0
LINE
  5
97F
330
1E
100
AcDbEntity
  8
0
100
AcDbLine
 10
111.5709999999999
 20
804.0
 30
0.0
 11
112.429
 21
804.0
 31
0.0
  0
LINE
  5
980
330
1E
100
AcDbEntity
  8
0
100
AcDbLine
 10
111.5709999999999
 20
802.0
 30
0.0
 11
112.429
 21
802.0
 31
0.0
  0
LINE
  5
981
330
1E
100
AcDbEntity
  8
0
100
AcDbLine
 10
111.5709999999999
 20
781.6
 30
0.0
 11
112.429
 21
781.6
 31
0.0
  0
LINE
  5
982
330
1E
100
AcDbEntity
  8
0
100
AcDbLine
 10
111.5709999999999
 20
774.7999999999999
 30
0.0
 11
112.429
 21
774.7999999999999
 31
0.0
  0
LINE
  5
983
330
1E
100
AcDbEntity
  8
0
100
AcDbLine
 10
111.5709999999999
 20
768.0
 30
0.0
 11
112.429
 21
768.0
 31
0.0
  0
LINE
  5
984
330
1E
100
AcDbEntity
  8
0
100
AcDbLine
 10
111.5709999999999
 20
761.2
 30
0.0
 11
112.429
 21
761.2
 31
0.0
  0
LINE
  5
985
330
1E
100
AcDbEntity
  8
0
100
AcDbLine
 10
111.5709999999999
 20
754.3999999999999
 30
0.0
 11
112.429
 21
754.3999999999999
 31
0.0
  0
LINE
  5
986
330
1E
100
AcDbEntity
  8
0
100
AcDbLine
 10
111.5709999999999
 20
747.5999999999999
 30
0.0
 11
112.429
 21
747.5999999999999
 31
0.0
  0
LINE
  5
987
330
1E
100
AcDbEntity
  8
0
100
AcDbLine
 10
111.5709999999999
 20
740.7999999999999
 30
0.0
 11
112.429
 21
740.7999999999999
 31
0.0
  0
LINE
  5
988
330
1E
100
AcDbEntity
  8
0
100
AcDbLine
 10
111.5709999999999
 20
734.0
 30
0.0
 11
112.429
 21
734.0
 31
0.0
  0
LINE
  5
989
330
1E
100
AcDbEntity
  8
0
100
AcDbLine
 10
111.1429999999999
 20
734.4999999999999
 30
0.0
 11
111.1429999999999
 21
735.5
 31
0.0
  0
LINE
  5
98A
330
1E
100
AcDbEntity
  8
0
100
AcDbLine
 10
111.1429999999999
 20
734.4999999999999
 30
0.0
 11
111.5709999999999
 21
734.0
 31
0.0
  0
LINE
  5
98B
330
1E
100
AcDbEntity
  8
0
100
AcDbLine
 10
111.1429999999999
 20
735.5
 30
0.0
 11
111.1429999999999
 21
734.4999999999999
 31
0.0
  0
LINE
  5
98C
330
1E
100
AcDbEntity
  8
0
100
AcDbLine
 10
111.1429999999999
 20
735.5
 30
0.0
 11
111.5709999999999
 21
736.0
 31
0.0
  0
LINE
  5
98D
330
1E
100
AcDbEntity
  8
0
100
AcDbLine
 10
111.1429999999999
 20
783.1
 30
0.0
 11
111.1429999999999
 21
782.1
 31
0.0
  0
LINE
  5
98E
330
1E
100
AcDbEntity
  8
0
100
AcDbLine
 10
111.1429999999999
 20
782.1
 30
0.0
 11
111.1429999999999
 21
783.1
 31
0.0
  0
LINE
  5
98F
330
1E
100
AcDbEntity
  8
0
100
AcDbLine
 10
111.1429999999999
 20
742.3
 30
0.0
 11
111.1429999999999
 21
741.2999999999999
 31
0.0
  0
LINE
  5
990
330
1E
100
AcDbEntity
  8
0
100
AcDbLine
 10
111.1429999999999
 20
742.3
 30
0.0
 11
111.5709999999999
 21
742.7999999999999
 31
0.0
  0
LINE
  5
991
330
1E
100
AcDbEntity
  8
0
100
AcDbLine
 10
111.1429999999999
 20
749.1
 30
0.0
 11
111.1429999999999
 21
748.1
 31
0.0
  0
LINE
  5
992
330
1E
100
AcDbEntity
  8
0
100
AcDbLine
 10
111.1429999999999
 20
749.1
 30
0.0
 11
111.5709999999999
 21
749.6
 31
0.0
  0
LINE
  5
993
330
1E
100
AcDbEntity
  8
0
100
AcDbLine
 10
111.1429999999999
 20
755.9
 30
0.0
 11
111.1429999999999
 21
754.8999999999999
 31
0.0
  0
LINE
  5
994
330
1E
100
AcDbEntity
  8
0
100
AcDbLine
 10
111.1429999999999
 20
755.9
 30
0.0
 11
111.5709999999999
 21
756.4
 31
0.0
  0
LINE
  5
995
330
1E
100
AcDbEntity
  8
0
100
AcDbLine
 10
111.1429999999999
 20
754.8999999999999
 30
0.0
 11
111.5709999999999
 21
754.3999999999999
 31
0.0
  0
LINE
  5
996
330
1E
100
AcDbEntity
  8
0
100
AcDbLine
 10
111.1429999999999
 20
754.8999999999999
 30
0.0
 11
111.1429999999999
 21
755.9
 31
0.0
  0
LINE
  5
997
330
1E
100
AcDbEntity
  8
0
100
AcDbLine
 10
111.1429999999999
 20
748.1
 30
0.0
 11
111.1429999999999
 21
749.1
 31
0.0
  0
LINE
  5
998
330
1E
100
AcDbEntity
  8
0
100
AcDbLine
 10
111.1429999999999
 20
748.1
 30
0.0
 11
111.5709999999999
 21
747.5999999999999
 31
0.0
  0
LINE
  5
999
330
1E
100
AcDbEntity
  8
0
100
AcDbLine
 10
111.1429999999999
 20
741.2999999999999
 30
0.0
 11
111.1429999999999
 21
742.3
 31
0.0
  0
LINE
  5
99A
330
1E
100
AcDbEntity
  8
0
100
AcDbLine
 10
111.1429999999999
 20
741.2999999999999
 30
0.0
 11
111.5709999999999
 21
740.7999999999999
 31
0.0
  0
LINE
  5
99B
330
1E
100
AcDbEntity
  8
0
100
AcDbLine
 10
111.1429999999999
 20
762.7
 30
0.0
 11
111.1429999999999
 21
761.7
 31
0.0
  0
LINE
  5
99C
330
1E
100
AcDbEntity
  8
0
100
AcDbLine
 10
111.1429999999999
 20
762.7
 30
0.0
 11
111.5709999999999
 21
763.2
 31
0.0
  0
LINE
  5
99D
330
1E
100
AcDbEntity
  8
0
100
AcDbLine
 10
111.1429999999999
 20
769.5
 30
0.0
 11
111.1429999999999
 21
768.5
 31
0.0
  0
LINE
  5
99E
330
1E
100
AcDbEntity
  8
0
100
AcDbLine
 10
111.1429999999999
 20
769.5
 30
0.0
 11
111.5709999999999
 21
770.0
 31
0.0
  0
LINE
  5
99F
330
1E
100
AcDbEntity
  8
0
100
AcDbLine
 10
111.1429999999999
 20
776.2999999999999
 30
0.0
 11
111.1429999999999
 21
775.3
 31
0.0
  0
LINE
  5
9A0
330
1E
100
AcDbEntity
  8
0
100
AcDbLine
 10
111.1429999999999
 20
776.2999999999999
 30
0.0
 11
111.5709999999999
 21
776.7999999999999
 31
0.0
  0
LINE
  5
9A1
330
1E
100
AcDbEntity
  8
0
100
AcDbLine
 10
111.1429999999999
 20
782.1
 30
0.0
 11
111.5709999999999
 21
781.6
 31
0.0
  0
LINE
  5
9A2
330
1E
100
AcDbEntity
  8
0
100
AcDbLine
 10
111.1429999999999
 20
775.3
 30
0.0
 11
111.5709999999999
 21
774.7999999999999
 31
0.0
  0
LINE
  5
9A3
330
1E
100
AcDbEntity
  8
0
100
AcDbLine
 10
111.1429999999999
 20
775.3
 30
0.0
 11
111.1429999999999
 21
776.2999999999999
 31
0.0
  0
LINE
  5
9A4
330
1E
100
AcDbEntity
  8
0
100
AcDbLine
 10
111.1429999999999
 20
768.5
 30
0.0
 11
111.5709999999999
 21
768.0
 31
0.0
  0
LINE
  5
9A5
330
1E
100
AcDbEntity
  8
0
100
AcDbLine
 10
111.1429999999999
 20
768.5
 30
0.0
 11
111.1429999999999
 21
769.5
 31
0.0
  0
LINE
  5
9A6
330
1E
100
AcDbEntity
  8
0
100
AcDbLine
 10
111.1429999999999
 20
761.7
 30
0.0
 11
111.1429999999999
 21
762.7
 31
0.0
  0
LINE
  5
9A7
330
1E
100
AcDbEntity
  8
0
100
AcDbLine
 10
111.1429999999999
 20
761.7
 30
0.0
 11
111.5709999999999
 21
761.2
 31
0.0
  0
LINE
  5
9A8
330
1E
100
AcDbEntity
  8
0
100
AcDbLine
 10
111.1429999999999
 20
783.1
 30
0.0
 11
111.5709999999999
 21
783.6
 31
0.0
  0
LINE
  5
9A9
330
1E
100
AcDbEntity
  8
0
100
AcDbLine
 10
111.1429999999999
 20
788.9
 30
0.0
 11
111.1429999999999
 21
789.9
 31
0.0
  0
LINE
  5
9AA
330
1E
100
AcDbEntity
  8
0
100
AcDbLine
 10
111.1429999999999
 20
788.9
 30
0.0
 11
111.5709999999999
 21
788.4
 31
0.0
  0
LINE
  5
9AB
330
1E
100
AcDbEntity
  8
0
100
AcDbLine
 10
111.1429999999999
 20
795.7
 30
0.0
 11
111.1429999999999
 21
796.7
 31
0.0
  0
LINE
  5
9AC
330
1E
100
AcDbEntity
  8
0
100
AcDbLine
 10
111.1429999999999
 20
795.7
 30
0.0
 11
111.5709999999999
 21
795.2
 31
0.0
  0
LINE
  5
9AD
330
1E
100
AcDbEntity
  8
0
100
AcDbLine
 10
111.1429999999999
 20
796.7
 30
0.0
 11
111.5709999999999
 21
797.2
 31
0.0
  0
LINE
  5
9AE
330
1E
100
AcDbEntity
  8
0
100
AcDbLine
 10
111.1429999999999
 20
796.7
 30
0.0
 11
111.1429999999999
 21
795.7
 31
0.0
  0
LINE
  5
9AF
330
1E
100
AcDbEntity
  8
0
100
AcDbLine
 10
111.1429999999999
 20
803.5
 30
0.0
 11
111.1429999999999
 21
802.5
 31
0.0
  0
LINE
  5
9B0
330
1E
100
AcDbEntity
  8
0
100
AcDbLine
 10
111.1429999999999
 20
803.5
 30
0.0
 11
111.5709999999999
 21
804.0
 31
0.0
  0
LINE
  5
9B1
330
1E
100
AcDbEntity
  8
0
100
AcDbLine
 10
111.1429999999999
 20
802.5
 30
0.0
 11
111.5709999999999
 21
802.0
 31
0.0
  0
LINE
  5
9B2
330
1E
100
AcDbEntity
  8
0
100
AcDbLine
 10
111.1429999999999
 20
802.5
 30
0.0
 11
111.1429999999999
 21
803.5
 31
0.0
  0
LINE
  5
9B3
330
1E
100
AcDbEntity
  8
0
100
AcDbLine
 10
111.1429999999999
 20
789.9
 30
0.0
 11
111.1429999999999
 21
788.9
 31
0.0
  0
LINE
  5
9B4
330
1E
100
AcDbEntity
  8
0
100
AcDbLine
 10
111.1429999999999
 20
789.9
 30
0.0
 11
111.5709999999999
 21
790.3999999999999
 31
0.0
  0
LINE
  5
9B5
330
1E
100
AcDbEntity
  8
0
100
AcDbLine
 10
116.429
 20
736.0
 30
0.0
 11
116.857
 21
735.5
 31
0.0
  0
LINE
  5
9B6
330
1E
100
AcDbEntity
  8
0
100
AcDbLine
 10
116.429
 20
734.0
 30
0.0
 11
116.857
 21
734.4999999999999
 31
0.0
  0
LINE
  5
9B7
330
1E
100
AcDbEntity
  8
0
100
AcDbLine
 10
112.429
 20
734.0
 30
0.0
 11
112.857
 21
734.4999999999999
 31
0.0
  0
LINE
  5
9B8
330
1E
100
AcDbEntity
  8
0
100
AcDbLine
 10
112.857
 20
735.5
 30
0.0
 11
112.857
 21
734.4999999999999
 31
0.0
  0
LINE
  5
9B9
330
1E
100
AcDbEntity
  8
0
100
AcDbLine
 10
112.429
 20
736.0
 30
0.0
 11
112.857
 21
735.5
 31
0.0
  0
LINE
  5
9BA
330
1E
100
AcDbEntity
  8
0
100
AcDbLine
 10
112.857
 20
734.4999999999999
 30
0.0
 11
112.857
 21
735.5
 31
0.0
  0
LINE
  5
9BB
330
1E
100
AcDbEntity
  8
0
100
AcDbLine
 10
115.1429999999999
 20
735.5
 30
0.0
 11
115.571
 21
736.0
 31
0.0
  0
LINE
  5
9BC
330
1E
100
AcDbEntity
  8
0
100
AcDbLine
 10
115.1429999999999
 20
735.5
 30
0.0
 11
115.1429999999999
 21
734.4999999999999
 31
0.0
  0
LINE
  5
9BD
330
1E
100
AcDbEntity
  8
0
100
AcDbLine
 10
115.1429999999999
 20
734.4999999999999
 30
0.0
 11
115.571
 21
734.0
 31
0.0
  0
LINE
  5
9BE
330
1E
100
AcDbEntity
  8
0
100
AcDbLine
 10
115.1429999999999
 20
734.4999999999999
 30
0.0
 11
115.1429999999999
 21
735.5
 31
0.0
  0
LINE
  5
9BF
330
1E
100
AcDbEntity
  8
0
100
AcDbLine
 10
115.571
 20
734.0
 30
0.0
 11
116.429
 21
734.0
 31
0.0
  0
LINE
  5
9C0
330
1E
100
AcDbEntity
  8
0
100
AcDbLine
 10
115.571
 20
736.0
 30
0.0
 11
116.429
 21
736.0
 31
0.0
  0
LINE
  5
9C1
330
1E
100
AcDbEntity
  8
0
100
AcDbLine
 10
116.857
 20
734.4999999999999
 30
0.0
 11
116.857
 21
735.5
 31
0.0
  0
LINE
  5
9C2
330
1E
100
AcDbEntity
  8
0
100
AcDbLine
 10
116.857
 20
735.5
 30
0.0
 11
116.857
 21
734.4999999999999
 31
0.0
  0
LINE
  5
9C3
330
1E
100
AcDbEntity
  8
0
100
AcDbLine
 10
116.857
 20
782.1
 30
0.0
 11
116.857
 21
783.1
 31
0.0
  0
LINE
  5
9C4
330
1E
100
AcDbEntity
  8
0
100
AcDbLine
 10
116.857
 20
783.1
 30
0.0
 11
116.857
 21
782.1
 31
0.0
  0
LINE
  5
9C5
330
1E
100
AcDbEntity
  8
0
100
AcDbLine
 10
115.1429999999999
 20
782.1
 30
0.0
 11
115.1429999999999
 21
783.1
 31
0.0
  0
LINE
  5
9C6
330
1E
100
AcDbEntity
  8
0
100
AcDbLine
 10
115.1429999999999
 20
783.1
 30
0.0
 11
115.1429999999999
 21
782.1
 31
0.0
  0
LINE
  5
9C7
330
1E
100
AcDbEntity
  8
0
100
AcDbLine
 10
112.857
 20
783.1
 30
0.0
 11
112.857
 21
782.1
 31
0.0
  0
LINE
  5
9C8
330
1E
100
AcDbEntity
  8
0
100
AcDbLine
 10
112.857
 20
782.1
 30
0.0
 11
112.857
 21
783.1
 31
0.0
  0
LINE
  5
9C9
330
1E
100
AcDbEntity
  8
0
100
AcDbLine
 10
116.429
 20
781.6
 30
0.0
 11
116.857
 21
782.1
 31
0.0
  0
LINE
  5
9CA
330
1E
100
AcDbEntity
  8
0
100
AcDbLine
 10
116.429
 20
774.7999999999999
 30
0.0
 11
116.857
 21
775.3
 31
0.0
  0
LINE
  5
9CB
330
1E
100
AcDbEntity
  8
0
100
AcDbLine
 10
116.429
 20
776.7999999999999
 30
0.0
 11
116.857
 21
776.2999999999999
 31
0.0
  0
LINE
  5
9CC
330
1E
100
AcDbEntity
  8
0
100
AcDbLine
 10
116.429
 20
768.0
 30
0.0
 11
116.857
 21
768.5
 31
0.0
  0
LINE
  5
9CD
330
1E
100
AcDbEntity
  8
0
100
AcDbLine
 10
116.429
 20
770.0
 30
0.0
 11
116.857
 21
769.5
 31
0.0
  0
LINE
  5
9CE
330
1E
100
AcDbEntity
  8
0
100
AcDbLine
 10
116.429
 20
761.2
 30
0.0
 11
116.857
 21
761.7
 31
0.0
  0
LINE
  5
9CF
330
1E
100
AcDbEntity
  8
0
100
AcDbLine
 10
116.429
 20
763.2
 30
0.0
 11
116.857
 21
762.7
 31
0.0
  0
LINE
  5
9D0
330
1E
100
AcDbEntity
  8
0
100
AcDbLine
 10
116.429
 20
754.3999999999999
 30
0.0
 11
116.857
 21
754.8999999999999
 31
0.0
  0
LINE
  5
9D1
330
1E
100
AcDbEntity
  8
0
100
AcDbLine
 10
116.429
 20
756.4
 30
0.0
 11
116.857
 21
755.9
 31
0.0
  0
LINE
  5
9D2
330
1E
100
AcDbEntity
  8
0
100
AcDbLine
 10
116.429
 20
747.5999999999999
 30
0.0
 11
116.857
 21
748.1
 31
0.0
  0
LINE
  5
9D3
330
1E
100
AcDbEntity
  8
0
100
AcDbLine
 10
116.429
 20
749.6
 30
0.0
 11
116.857
 21
749.1
 31
0.0
  0
LINE
  5
9D4
330
1E
100
AcDbEntity
  8
0
100
AcDbLine
 10
116.429
 20
740.7999999999999
 30
0.0
 11
116.857
 21
741.2999999999999
 31
0.0
  0
LINE
  5
9D5
330
1E
100
AcDbEntity
  8
0
100
AcDbLine
 10
116.429
 20
742.7999999999999
 30
0.0
 11
116.857
 21
742.3
 31
0.0
  0
LINE
  5
9D6
330
1E
100
AcDbEntity
  8
0
100
AcDbLine
 10
112.429
 20
742.7999999999999
 30
0.0
 11
112.857
 21
742.3
 31
0.0
  0
LINE
  5
9D7
330
1E
100
AcDbEntity
  8
0
100
AcDbLine
 10
112.857
 20
742.3
 30
0.0
 11
112.857
 21
741.2999999999999
 31
0.0
  0
LINE
  5
9D8
330
1E
100
AcDbEntity
  8
0
100
AcDbLine
 10
112.857
 20
749.1
 30
0.0
 11
112.857
 21
748.1
 31
0.0
  0
LINE
  5
9D9
330
1E
100
AcDbEntity
  8
0
100
AcDbLine
 10
112.857
 20
748.1
 30
0.0
 11
112.857
 21
749.1
 31
0.0
  0
LINE
  5
9DA
330
1E
100
AcDbEntity
  8
0
100
AcDbLine
 10
112.857
 20
754.8999999999999
 30
0.0
 11
112.857
 21
755.9
 31
0.0
  0
LINE
  5
9DB
330
1E
100
AcDbEntity
  8
0
100
AcDbLine
 10
112.857
 20
755.9
 30
0.0
 11
112.857
 21
754.8999999999999
 31
0.0
  0
LINE
  5
9DC
330
1E
100
AcDbEntity
  8
0
100
AcDbLine
 10
112.857
 20
741.2999999999999
 30
0.0
 11
112.857
 21
742.3
 31
0.0
  0
LINE
  5
9DD
330
1E
100
AcDbEntity
  8
0
100
AcDbLine
 10
112.429
 20
740.7999999999999
 30
0.0
 11
112.857
 21
741.2999999999999
 31
0.0
  0
LINE
  5
9DE
330
1E
100
AcDbEntity
  8
0
100
AcDbLine
 10
112.429
 20
749.6
 30
0.0
 11
112.857
 21
749.1
 31
0.0
  0
LINE
  5
9DF
330
1E
100
AcDbEntity
  8
0
100
AcDbLine
 10
112.429
 20
747.5999999999999
 30
0.0
 11
112.857
 21
748.1
 31
0.0
  0
LINE
  5
9E0
330
1E
100
AcDbEntity
  8
0
100
AcDbLine
 10
112.429
 20
756.4
 30
0.0
 11
112.857
 21
755.9
 31
0.0
  0
LINE
  5
9E1
330
1E
100
AcDbEntity
  8
0
100
AcDbLine
 10
112.429
 20
754.3999999999999
 30
0.0
 11
112.857
 21
754.8999999999999
 31
0.0
  0
LINE
  5
9E2
330
1E
100
AcDbEntity
  8
0
100
AcDbLine
 10
115.1429999999999
 20
741.2999999999999
 30
0.0
 11
115.571
 21
740.7999999999999
 31
0.0
  0
LINE
  5
9E3
330
1E
100
AcDbEntity
  8
0
100
AcDbLine
 10
115.1429999999999
 20
741.2999999999999
 30
0.0
 11
115.1429999999999
 21
742.3
 31
0.0
  0
LINE
  5
9E4
330
1E
100
AcDbEntity
  8
0
100
AcDbLine
 10
115.1429999999999
 20
748.1
 30
0.0
 11
115.571
 21
747.5999999999999
 31
0.0
  0
LINE
  5
9E5
330
1E
100
AcDbEntity
  8
0
100
AcDbLine
 10
115.1429999999999
 20
748.1
 30
0.0
 11
115.1429999999999
 21
749.1
 31
0.0
  0
LINE
  5
9E6
330
1E
100
AcDbEntity
  8
0
100
AcDbLine
 10
115.1429999999999
 20
754.8999999999999
 30
0.0
 11
115.1429999999999
 21
755.9
 31
0.0
  0
LINE
  5
9E7
330
1E
100
AcDbEntity
  8
0
100
AcDbLine
 10
115.1429999999999
 20
754.8999999999999
 30
0.0
 11
115.571
 21
754.3999999999999
 31
0.0
  0
LINE
  5
9E8
330
1E
100
AcDbEntity
  8
0
100
AcDbLine
 10
115.1429999999999
 20
755.9
 30
0.0
 11
115.571
 21
756.4
 31
0.0
  0
LINE
  5
9E9
330
1E
100
AcDbEntity
  8
0
100
AcDbLine
 10
115.1429999999999
 20
755.9
 30
0.0
 11
115.1429999999999
 21
754.8999999999999
 31
0.0
  0
LINE
  5
9EA
330
1E
100
AcDbEntity
  8
0
100
AcDbLine
 10
115.1429999999999
 20
749.1
 30
0.0
 11
115.571
 21
749.6
 31
0.0
  0
LINE
  5
9EB
330
1E
100
AcDbEntity
  8
0
100
AcDbLine
 10
115.1429999999999
 20
749.1
 30
0.0
 11
115.1429999999999
 21
748.1
 31
0.0
  0
LINE
  5
9EC
330
1E
100
AcDbEntity
  8
0
100
AcDbLine
 10
115.1429999999999
 20
742.3
 30
0.0
 11
115.571
 21
742.7999999999999
 31
0.0
  0
LINE
  5
9ED
330
1E
100
AcDbEntity
  8
0
100
AcDbLine
 10
115.1429999999999
 20
742.3
 30
0.0
 11
115.1429999999999
 21
741.2999999999999
 31
0.0
  0
LINE
  5
9EE
330
1E
100
AcDbEntity
  8
0
100
AcDbLine
 10
115.571
 20
740.7999999999999
 30
0.0
 11
116.429
 21
740.7999999999999
 31
0.0
  0
LINE
  5
9EF
330
1E
100
AcDbEntity
  8
0
100
AcDbLine
 10
115.571
 20
747.5999999999999
 30
0.0
 11
116.429
 21
747.5999999999999
 31
0.0
  0
LINE
  5
9F0
330
1E
100
AcDbEntity
  8
0
100
AcDbLine
 10
115.571
 20
754.3999999999999
 30
0.0
 11
116.429
 21
754.3999999999999
 31
0.0
  0
LINE
  5
9F1
330
1E
100
AcDbEntity
  8
0
100
AcDbLine
 10
115.571
 20
756.4
 30
0.0
 11
116.429
 21
756.4
 31
0.0
  0
LINE
  5
9F2
330
1E
100
AcDbEntity
  8
0
100
AcDbLine
 10
115.571
 20
749.6
 30
0.0
 11
116.429
 21
749.6
 31
0.0
  0
LINE
  5
9F3
330
1E
100
AcDbEntity
  8
0
100
AcDbLine
 10
115.571
 20
742.7999999999999
 30
0.0
 11
116.429
 21
742.7999999999999
 31
0.0
  0
LINE
  5
9F4
330
1E
100
AcDbEntity
  8
0
100
AcDbLine
 10
112.857
 20
762.7
 30
0.0
 11
112.857
 21
761.7
 31
0.0
  0
LINE
  5
9F5
330
1E
100
AcDbEntity
  8
0
100
AcDbLine
 10
112.857
 20
761.7
 30
0.0
 11
112.857
 21
762.7
 31
0.0
  0
LINE
  5
9F6
330
1E
100
AcDbEntity
  8
0
100
AcDbLine
 10
112.857
 20
768.5
 30
0.0
 11
112.857
 21
769.5
 31
0.0
  0
LINE
  5
9F7
330
1E
100
AcDbEntity
  8
0
100
AcDbLine
 10
112.857
 20
769.5
 30
0.0
 11
112.857
 21
768.5
 31
0.0
  0
LINE
  5
9F8
330
1E
100
AcDbEntity
  8
0
100
AcDbLine
 10
112.857
 20
775.3
 30
0.0
 11
112.857
 21
776.2999999999999
 31
0.0
  0
LINE
  5
9F9
330
1E
100
AcDbEntity
  8
0
100
AcDbLine
 10
112.857
 20
776.2999999999999
 30
0.0
 11
112.857
 21
775.3
 31
0.0
  0
LINE
  5
9FA
330
1E
100
AcDbEntity
  8
0
100
AcDbLine
 10
112.429
 20
763.2
 30
0.0
 11
112.857
 21
762.7
 31
0.0
  0
LINE
  5
9FB
330
1E
100
AcDbEntity
  8
0
100
AcDbLine
 10
112.429
 20
761.2
 30
0.0
 11
112.857
 21
761.7
 31
0.0
  0
LINE
  5
9FC
330
1E
100
AcDbEntity
  8
0
100
AcDbLine
 10
112.429
 20
770.0
 30
0.0
 11
112.857
 21
769.5
 31
0.0
  0
LINE
  5
9FD
330
1E
100
AcDbEntity
  8
0
100
AcDbLine
 10
112.429
 20
768.0
 30
0.0
 11
112.857
 21
768.5
 31
0.0
  0
LINE
  5
9FE
330
1E
100
AcDbEntity
  8
0
100
AcDbLine
 10
112.429
 20
776.7999999999999
 30
0.0
 11
112.857
 21
776.2999999999999
 31
0.0
  0
LINE
  5
9FF
330
1E
100
AcDbEntity
  8
0
100
AcDbLine
 10
112.429
 20
774.7999999999999
 30
0.0
 11
112.857
 21
775.3
 31
0.0
  0
LINE
  5
A00
330
1E
100
AcDbEntity
  8
0
100
AcDbLine
 10
112.429
 20
781.6
 30
0.0
 11
112.857
 21
782.1
 31
0.0
  0
LINE
  5
A01
330
1E
100
AcDbEntity
  8
0
100
AcDbLine
 10
115.1429999999999
 20
761.7
 30
0.0
 11
115.571
 21
761.2
 31
0.0
  0
LINE
  5
A02
330
1E
100
AcDbEntity
  8
0
100
AcDbLine
 10
115.1429999999999
 20
761.7
 30
0.0
 11
115.1429999999999
 21
762.7
 31
0.0
  0
LINE
  5
A03
330
1E
100
AcDbEntity
  8
0
100
AcDbLine
 10
115.1429999999999
 20
768.5
 30
0.0
 11
115.1429999999999
 21
769.5
 31
0.0
  0
LINE
  5
A04
330
1E
100
AcDbEntity
  8
0
100
AcDbLine
 10
115.1429999999999
 20
768.5
 30
0.0
 11
115.571
 21
768.0
 31
0.0
  0
LINE
  5
A05
330
1E
100
AcDbEntity
  8
0
100
AcDbLine
 10
115.1429999999999
 20
775.3
 30
0.0
 11
115.1429999999999
 21
776.2999999999999
 31
0.0
  0
LINE
  5
A06
330
1E
100
AcDbEntity
  8
0
100
AcDbLine
 10
115.1429999999999
 20
775.3
 30
0.0
 11
115.571
 21
774.7999999999999
 31
0.0
  0
LINE
  5
A07
330
1E
100
AcDbEntity
  8
0
100
AcDbLine
 10
115.1429999999999
 20
782.1
 30
0.0
 11
115.571
 21
781.6
 31
0.0
  0
LINE
  5
A08
330
1E
100
AcDbEntity
  8
0
100
AcDbLine
 10
115.1429999999999
 20
776.2999999999999
 30
0.0
 11
115.571
 21
776.7999999999999
 31
0.0
  0
LINE
  5
A09
330
1E
100
AcDbEntity
  8
0
100
AcDbLine
 10
115.1429999999999
 20
776.2999999999999
 30
0.0
 11
115.1429999999999
 21
775.3
 31
0.0
  0
LINE
  5
A0A
330
1E
100
AcDbEntity
  8
0
100
AcDbLine
 10
115.1429999999999
 20
769.5
 30
0.0
 11
115.571
 21
770.0
 31
0.0
  0
LINE
  5
A0B
330
1E
100
AcDbEntity
  8
0
100
AcDbLine
 10
115.1429999999999
 20
769.5
 30
0.0
 11
115.1429999999999
 21
768.5
 31
0.0
  0
LINE
  5
A0C
330
1E
100
AcDbEntity
  8
0
100
AcDbLine
 10
115.1429999999999
 20
762.7
 30
0.0
 11
115.571
 21
763.2
 31
0.0
  0
LINE
  5
A0D
330
1E
100
AcDbEntity
  8
0
100
AcDbLine
 10
115.1429999999999
 20
762.7
 30
0.0
 11
115.1429999999999
 21
761.7
 31
0.0
  0
LINE
  5
A0E
330
1E
100
AcDbEntity
  8
0
100
AcDbLine
 10
115.571
 20
761.2
 30
0.0
 11
116.429
 21
761.2
 31
0.0
  0
LINE
  5
A0F
330
1E
100
AcDbEntity
  8
0
100
AcDbLine
 10
115.571
 20
768.0
 30
0.0
 11
116.429
 21
768.0
 31
0.0
  0
LINE
  5
A10
330
1E
100
AcDbEntity
  8
0
100
AcDbLine
 10
115.571
 20
774.7999999999999
 30
0.0
 11
116.429
 21
774.7999999999999
 31
0.0
  0
LINE
  5
A11
330
1E
100
AcDbEntity
  8
0
100
AcDbLine
 10
115.571
 20
781.6
 30
0.0
 11
116.429
 21
781.6
 31
0.0
  0
LINE
  5
A12
330
1E
100
AcDbEntity
  8
0
100
AcDbLine
 10
115.571
 20
776.7999999999999
 30
0.0
 11
116.429
 21
776.7999999999999
 31
0.0
  0
LINE
  5
A13
330
1E
100
AcDbEntity
  8
0
100
AcDbLine
 10
115.571
 20
770.0
 30
0.0
 11
116.429
 21
770.0
 31
0.0
  0
LINE
  5
A14
330
1E
100
AcDbEntity
  8
0
100
AcDbLine
 10
115.571
 20
763.2
 30
0.0
 11
116.429
 21
763.2
 31
0.0
  0
LINE
  5
A15
330
1E
100
AcDbEntity
  8
0
100
AcDbLine
 10
116.857
 20
741.2999999999999
 30
0.0
 11
116.857
 21
742.3
 31
0.0
  0
LINE
  5
A16
330
1E
100
AcDbEntity
  8
0
100
AcDbLine
 10
116.857
 20
755.9
 30
0.0
 11
116.857
 21
754.8999999999999
 31
0.0
  0
LINE
  5
A17
330
1E
100
AcDbEntity
  8
0
100
AcDbLine
 10
116.857
 20
754.8999999999999
 30
0.0
 11
116.857
 21
755.9
 31
0.0
  0
LINE
  5
A18
330
1E
100
AcDbEntity
  8
0
100
AcDbLine
 10
116.857
 20
748.1
 30
0.0
 11
116.857
 21
749.1
 31
0.0
  0
LINE
  5
A19
330
1E
100
AcDbEntity
  8
0
100
AcDbLine
 10
116.857
 20
749.1
 30
0.0
 11
116.857
 21
748.1
 31
0.0
  0
LINE
  5
A1A
330
1E
100
AcDbEntity
  8
0
100
AcDbLine
 10
116.857
 20
742.3
 30
0.0
 11
116.857
 21
741.2999999999999
 31
0.0
  0
LINE
  5
A1B
330
1E
100
AcDbEntity
  8
0
100
AcDbLine
 10
116.857
 20
776.2999999999999
 30
0.0
 11
116.857
 21
775.3
 31
0.0
  0
LINE
  5
A1C
330
1E
100
AcDbEntity
  8
0
100
AcDbLine
 10
116.857
 20
775.3
 30
0.0
 11
116.857
 21
776.2999999999999
 31
0.0
  0
LINE
  5
A1D
330
1E
100
AcDbEntity
  8
0
100
AcDbLine
 10
116.857
 20
769.5
 30
0.0
 11
116.857
 21
768.5
 31
0.0
  0
LINE
  5
A1E
330
1E
100
AcDbEntity
  8
0
100
AcDbLine
 10
116.857
 20
768.5
 30
0.0
 11
116.857
 21
769.5
 31
0.0
  0
LINE
  5
A1F
330
1E
100
AcDbEntity
  8
0
100
AcDbLine
 10
116.857
 20
761.7
 30
0.0
 11
116.857
 21
762.7
 31
0.0
  0
LINE
  5
A20
330
1E
100
AcDbEntity
  8
0
100
AcDbLine
 10
116.857
 20
762.7
 30
0.0
 11
116.857
 21
761.7
 31
0.0
  0
LINE
  5
A21
330
1E
100
AcDbEntity
  8
0
100
AcDbLine
 10
116.429
 20
790.3999999999999
 30
0.0
 11
116.857
 21
789.9
 31
0.0
  0
LINE
  5
A22
330
1E
100
AcDbEntity
  8
0
100
AcDbLine
 10
116.429
 20
802.0
 30
0.0
 11
116.857
 21
802.5
 31
0.0
  0
LINE
  5
A23
330
1E
100
AcDbEntity
  8
0
100
AcDbLine
 10
116.429
 20
804.0
 30
0.0
 11
116.857
 21
803.5
 31
0.0
  0
LINE
  5
A24
330
1E
100
AcDbEntity
  8
0
100
AcDbLine
 10
116.429
 20
797.2
 30
0.0
 11
116.857
 21
796.7
 31
0.0
  0
LINE
  5
A25
330
1E
100
AcDbEntity
  8
0
100
AcDbLine
 10
116.429
 20
795.2
 30
0.0
 11
116.857
 21
795.7
 31
0.0
  0
LINE
  5
A26
330
1E
100
AcDbEntity
  8
0
100
AcDbLine
 10
116.429
 20
788.4
 30
0.0
 11
116.857
 21
788.9
 31
0.0
  0
LINE
  5
A27
330
1E
100
AcDbEntity
  8
0
100
AcDbLine
 10
116.429
 20
783.6
 30
0.0
 11
116.857
 21
783.1
 31
0.0
  0
LINE
  5
A28
330
1E
100
AcDbEntity
  8
0
100
AcDbLine
 10
112.857
 20
796.7
 30
0.0
 11
112.857
 21
795.7
 31
0.0
  0
LINE
  5
A29
330
1E
100
AcDbEntity
  8
0
100
AcDbLine
 10
112.857
 20
795.7
 30
0.0
 11
112.857
 21
796.7
 31
0.0
  0
LINE
  5
A2A
330
1E
100
AcDbEntity
  8
0
100
AcDbLine
 10
112.857
 20
802.5
 30
0.0
 11
112.857
 21
803.5
 31
0.0
  0
LINE
  5
A2B
330
1E
100
AcDbEntity
  8
0
100
AcDbLine
 10
112.857
 20
803.5
 30
0.0
 11
112.857
 21
802.5
 31
0.0
  0
LINE
  5
A2C
330
1E
100
AcDbEntity
  8
0
100
AcDbLine
 10
112.857
 20
789.9
 30
0.0
 11
112.857
 21
788.9
 31
0.0
  0
LINE
  5
A2D
330
1E
100
AcDbEntity
  8
0
100
AcDbLine
 10
112.857
 20
788.9
 30
0.0
 11
112.857
 21
789.9
 31
0.0
  0
LINE
  5
A2E
330
1E
100
AcDbEntity
  8
0
100
AcDbLine
 10
112.429
 20
783.6
 30
0.0
 11
112.857
 21
783.1
 31
0.0
  0
LINE
  5
A2F
330
1E
100
AcDbEntity
  8
0
100
AcDbLine
 10
112.429
 20
788.4
 30
0.0
 11
112.857
 21
788.9
 31
0.0
  0
LINE
  5
A30
330
1E
100
AcDbEntity
  8
0
100
AcDbLine
 10
112.429
 20
795.2
 30
0.0
 11
112.857
 21
795.7
 31
0.0
  0
LINE
  5
A31
330
1E
100
AcDbEntity
  8
0
100
AcDbLine
 10
112.429
 20
797.2
 30
0.0
 11
112.857
 21
796.7
 31
0.0
  0
LINE
  5
A32
330
1E
100
AcDbEntity
  8
0
100
AcDbLine
 10
112.429
 20
804.0
 30
0.0
 11
112.857
 21
803.5
 31
0.0
  0
LINE
  5
A33
330
1E
100
AcDbEntity
  8
0
100
AcDbLine
 10
112.429
 20
802.0
 30
0.0
 11
112.857
 21
802.5
 31
0.0
  0
LINE
  5
A34
330
1E
100
AcDbEntity
  8
0
100
AcDbLine
 10
112.429
 20
790.3999999999999
 30
0.0
 11
112.857
 21
789.9
 31
0.0
  0
LINE
  5
A35
330
1E
100
AcDbEntity
  8
0
100
AcDbLine
 10
115.1429999999999
 20
789.9
 30
0.0
 11
115.571
 21
790.3999999999999
 31
0.0
  0
LINE
  5
A36
330
1E
100
AcDbEntity
  8
0
100
AcDbLine
 10
115.1429999999999
 20
789.9
 30
0.0
 11
115.1429999999999
 21
788.9
 31
0.0
  0
LINE
  5
A37
330
1E
100
AcDbEntity
  8
0
100
AcDbLine
 10
115.1429999999999
 20
802.5
 30
0.0
 11
115.1429999999999
 21
803.5
 31
0.0
  0
LINE
  5
A38
330
1E
100
AcDbEntity
  8
0
100
AcDbLine
 10
115.1429999999999
 20
802.5
 30
0.0
 11
115.571
 21
802.0
 31
0.0
  0
LINE
  5
A39
330
1E
100
AcDbEntity
  8
0
100
AcDbLine
 10
115.1429999999999
 20
803.5
 30
0.0
 11
115.571
 21
804.0
 31
0.0
  0
LINE
  5
A3A
330
1E
100
AcDbEntity
  8
0
100
AcDbLine
 10
115.1429999999999
 20
803.5
 30
0.0
 11
115.1429999999999
 21
802.5
 31
0.0
  0
LINE
  5
A3B
330
1E
100
AcDbEntity
  8
0
100
AcDbLine
 10
115.1429999999999
 20
796.7
 30
0.0
 11
115.1429999999999
 21
795.7
 31
0.0
  0
LINE
  5
A3C
330
1E
100
AcDbEntity
  8
0
100
AcDbLine
 10
115.1429999999999
 20
796.7
 30
0.0
 11
115.571
 21
797.2
 31
0.0
  0
LINE
  5
A3D
330
1E
100
AcDbEntity
  8
0
100
AcDbLine
 10
115.1429999999999
 20
795.7
 30
0.0
 11
115.571
 21
795.2
 31
0.0
  0
LINE
  5
A3E
330
1E
100
AcDbEntity
  8
0
100
AcDbLine
 10
115.1429999999999
 20
795.7
 30
0.0
 11
115.1429999999999
 21
796.7
 31
0.0
  0
LINE
  5
A3F
330
1E
100
AcDbEntity
  8
0
100
AcDbLine
 10
115.1429999999999
 20
788.9
 30
0.0
 11
115.571
 21
788.4
 31
0.0
  0
LINE
  5
A40
330
1E
100
AcDbEntity
  8
0
100
AcDbLine
 10
115.1429999999999
 20
788.9
 30
0.0
 11
115.1429999999999
 21
789.9
 31
0.0
  0
LINE
  5
A41
330
1E
100
AcDbEntity
  8
0
100
AcDbLine
 10
115.1429999999999
 20
783.1
 30
0.0
 11
115.571
 21
783.6
 31
0.0
  0
LINE
  5
A42
330
1E
100
AcDbEntity
  8
0
100
AcDbLine
 10
115.571
 20
802.0
 30
0.0
 11
116.429
 21
802.0
 31
0.0
  0
LINE
  5
A43
330
1E
100
AcDbEntity
  8
0
100
AcDbLine
 10
115.571
 20
804.0
 30
0.0
 11
116.429
 21
804.0
 31
0.0
  0
LINE
  5
A44
330
1E
100
AcDbEntity
  8
0
100
AcDbLine
 10
115.571
 20
797.2
 30
0.0
 11
116.429
 21
797.2
 31
0.0
  0
LINE
  5
A45
330
1E
100
AcDbEntity
  8
0
100
AcDbLine
 10
115.571
 20
790.3999999999999
 30
0.0
 11
116.429
 21
790.3999999999999
 31
0.0
  0
LINE
  5
A46
330
1E
100
AcDbEntity
  8
0
100
AcDbLine
 10
115.571
 20
795.2
 30
0.0
 11
116.429
 21
795.2
 31
0.0
  0
LINE
  5
A47
330
1E
100
AcDbEntity
  8
0
100
AcDbLine
 10
115.571
 20
788.4
 30
0.0
 11
116.429
 21
788.4
 31
0.0
  0
LINE
  5
A48
330
1E
100
AcDbEntity
  8
0
100
AcDbLine
 10
115.571
 20
783.6
 30
0.0
 11
116.429
 21
783.6
 31
0.0
  0
LINE
  5
A49
330
1E
100
AcDbEntity
  8
0
100
AcDbLine
 10
116.857
 20
788.9
 30
0.0
 11
116.857
 21
789.9
 31
0.0
  0
LINE
  5
A4A
330
1E
100
AcDbEntity
  8
0
100
AcDbLine
 10
116.857
 20
789.9
 30
0.0
 11
116.857
 21
788.9
 31
0.0
  0
LINE
  5
A4B
330
1E
100
AcDbEntity
  8
0
100
AcDbLine
 10
116.857
 20
803.5
 30
0.0
 11
116.857
 21
802.5
 31
0.0
  0
LINE
  5
A4C
330
1E
100
AcDbEntity
  8
0
100
AcDbLine
 10
116.857
 20
802.5
 30
0.0
 11
116.857
 21
803.5
 31
0.0
  0
LINE
  5
A4D
330
1E
100
AcDbEntity
  8
0
100
AcDbLine
 10
116.857
 20
795.7
 30
0.0
 11
116.857
 21
796.7
 31
0.0
  0
LINE
  5
A4E
330
1E
100
AcDbEntity
  8
0
100
AcDbLine
 10
116.857
 20
796.7
 30
0.0
 11
116.857
 21
795.7
 31
0.0
  0
ENDSEC
  0
SECTION
  2
OBJECTS
  0
DICTIONARY
  5
C
330
0
100
AcDbDictionary
281
     1
  3
ACAD_GROUP
350
D
  3
ACAD_LAYOUT
350
19
  3
ACAD_MLINESTYLE
350
16
  3
ACAD_PLOTSETTINGS
350
18
  3
ACAD_PLOTSTYLENAME
350
E
  3
AcDbVariableDictionary
350
A4F
  0
DICTIONARY
  5
D
102
{ACAD_REACTORS
330
C
102
}
330
C
100
AcDbDictionary
281
     1
  0
DICTIONARY
  5
19
102
{ACAD_REACTORS
330
C
102
}
330
C
100
AcDbDictionary
281
     1
  3
Layout1
350
1D
  3
Model
350
21
  0
DICTIONARY
  5
16
102
{ACAD_REACTORS
330
C
102
}
330
C
100
AcDbDictionary
281
     1
  3
Standard
350
17
  0
DICTIONARY
  5
18
102
{ACAD_REACTORS
330
C
102
}
330
C
100
AcDbDictionary
281
     1
  0
ACDBDICTIONARYWDFLT
  5
E
102
{ACAD_REACTORS
330
C
102
}
330
C
100
AcDbDictionary
281
     1
  3
Normal
350
F
100
AcDbDictionaryWithDefault
340
F
  0
DICTIONARY
  5
A4F
102
{ACAD_REACTORS
330
C
102
}
330
C
100
AcDbDictionary
281
     1
  3
DIMASSOC
350
A50
  0
LAYOUT
  5
1D
102
{ACAD_REACTORS
330
19
102
}
330
19
100
AcDbPlotSettings
  1

  2
hp deskjet 980c series
  4

  6

 40
0.0
 41
0.0
 42
0.0
 43
0.0
 44
0.0
 45
0.0
 46
0.0
 47
0.0
 48
0.0
 49
0.0
140
0.0
141
0.0
142
1.0
143
1.0
 70
   688
 72
     0
 73
     0
 74
     5
  7

 75
    16
147
1.0
148
0.0
149
0.0
100
AcDbLayout
  1
Layout1
 70
     1
 71
     1
 10
0.0
 20
0.0
 11
12.0
 21
9.0
 12
0.0
 22
0.0
 32
0.0
 14
1.000000000000000E+20
 24
1.000000000000000E+20
 34
1.000000000000000E+20
 15
-1.000000000000000E+20
 25
-1.000000000000000E+20
 35
-1.000000000000000E+20
146
0.0
 13
0.0
 23
0.0
 33
0.0
 16
1.0
 26
0.0
 36
0.0
 17
0.0
 27
1.0
 37
0.0
 76
     0
330
1A
  0
LAYOUT
  5
21
102
{ACAD_REACTORS
330
19
102
}
330
19
100
AcDbPlotSettings
  1

  2
hp deskjet 980c series
  4

  6

 40
0.0
 41
0.0
 42
0.0
 43
0.0
 44
0.0
 45
0.0
 46
0.0
 47
0.0
 48
0.0
 49
0.0
140
0.0
141
0.0
142
1.0
143
1.0
 70
  1712
 72
     0
 73
     0
 74
     0
  7

 75
     0
147
1.0
148
0.0
149
0.0
100
AcDbLayout
  1
Model
 70
     1
 71
     0
 10
0.0
 20
0.0
 11
12.0
 21
9.0
 12
0.0
 22
0.0
 32
0.0
 14
0.0
 24
0.0
 34
0.0
 15
0.0
 25
0.0
 35
0.0
146
0.0
 13
0.0
 23
0.0
 33
0.0
 16
1.0
 26
0.0
 36
0.0
 17
0.0
 27
1.0
 37
0.0
 76
     0
330
1E
  0
MLINESTYLE
  5
17
102
{ACAD_REACTORS
330
16
102
}
330
16
100
AcDbMlineStyle
  2
STANDARD
 70
     0
  3

 62
   256
 51
90.0
 52
90.0
 71
     2
 49
0.5
 62
   256
  6
BYLAYER
 49
-0.5
 62
   256
  6
BYLAYER
  0
ACDBPLACEHOLDER
  5
F
102
{ACAD_REACTORS
330
E
102
}
330
E
  0
DICTIONARYVAR
  5
A50
102
{ACAD_REACTORS
330
A4F
102
}
330
A4F
100
DictionaryVariables
280
     0
  1
1
  0
ENDSEC
  0
EOF
