  0
SECTION
  2
HEADER
  9
$ACADVER
  1
AC1015
  9
$ACADMAINTVER
 70
    13
  9
$DWGCODEPAGE
  3
ANSI_1252
  9
$INSBASE
 10
0.0
 20
0.0
 30
0.0
  9
$EXTMIN
 10
0.214425000000002
 20
0.0000000000000492
 30
0.0
  9
$EXTMAX
 10
294.785575
 20
1627.0
 30
0.0
  9
$LIMMIN
 10
0.0
 20
0.0
  9
$LIMMAX
 10
12.0
 20
9.0
  9
$ORTHOMODE
 70
     0
  9
$REGENMODE
 70
     1
  9
$FILLMODE
 70
     1
  9
$QTEXTMODE
 70
     0
  9
$MIRRTEXT
 70
     1
  9
$LTSCALE
 40
1.0
  9
$ATTMODE
 70
     1
  9
$TEXTSIZE
 40
0.2
  9
$TRACEWID
 40
0.05
  9
$TEXTSTYLE
  7
Standard
  9
$CLAYER
  8
0
  9
$CELTYPE
  6
Continuous
  9
$CECOLOR
 62
   256
  9
$CELTSCALE
 40
1.0
  9
$DISPSILH
 70
     0
  9
$DIMSCALE
 40
1.0
  9
$DIMASZ
 40
0.18
  9
$DIMEXO
 40
0.0625
  9
$DIMDLI
 40
0.38
  9
$DIMRND
 40
0.0
  9
$DIMDLE
 40
0.0
  9
$DIMEXE
 40
0.18
  9
$DIMTP
 40
0.0
  9
$DIMTM
 40
0.0
  9
$DIMTXT
 40
0.18
  9
$DIMCEN
 40
0.09
  9
$DIMTSZ
 40
0.0
  9
$DIMTOL
 70
     0
  9
$DIMLIM
 70
     0
  9
$DIMTIH
 70
     1
  9
$DIMTOH
 70
     1
  9
$DIMSE1
 70
     0
  9
$DIMSE2
 70
     0
  9
$DIMTAD
 70
     0
  9
$DIMZIN
 70
     0
  9
$DIMBLK
  1

  9
$DIMASO
 70
     1
  9
$DIMSHO
 70
     1
  9
$DIMPOST
  1

  9
$DIMAPOST
  1

  9
$DIMALT
 70
     0
  9
$DIMALTD
 70
     2
  9
$DIMALTF
 40
25.4
  9
$DIMLFAC
 40
1.0
  9
$DIMTOFL
 70
     0
  9
$DIMTVP
 40
0.0
  9
$DIMTIX
 70
     0
  9
$DIMSOXD
 70
     0
  9
$DIMSAH
 70
     0
  9
$DIMBLK1
  1

  9
$DIMBLK2
  1

  9
$DIMSTYLE
  2
Standard
  9
$DIMCLRD
 70
     0
  9
$DIMCLRE
 70
     0
  9
$DIMCLRT
 70
     0
  9
$DIMTFAC
 40
1.0
  9
$DIMGAP
 40
0.09
  9
$DIMJUST
 70
     0
  9
$DIMSD1
 70
     0
  9
$DIMSD2
 70
     0
  9
$DIMTOLJ
 70
     1
  9
$DIMTZIN
 70
     0
  9
$DIMALTZ
 70
     0
  9
$DIMALTTZ
 70
     0
  9
$DIMUPT
 70
     0
  9
$DIMDEC
 70
     4
  9
$DIMTDEC
 70
     4
  9
$DIMALTU
 70
     2
  9
$DIMALTTD
 70
     2
  9
$DIMTXSTY
  7
Standard
  9
$DIMAUNIT
 70
     0
  9
$DIMADEC
 70
     0
  9
$DIMALTRND
 40
0.0
  9
$DIMAZIN
 70
     0
  9
$DIMDSEP
 70
    46
  9
$DIMATFIT
 70
     3
  9
$DIMFRAC
 70
     0
  9
$DIMLDRBLK
  1

  9
$DIMLUNIT
 70
     2
  9
$DIMLWD
 70
    -2
  9
$DIMLWE
 70
    -2
  9
$DIMTMOVE
 70
     0
  9
$LUNITS
 70
     2
  9
$LUPREC
 70
     4
  9
$SKETCHINC
 40
0.1
  9
$FILLETRAD
 40
0.0
  9
$AUNITS
 70
     0
  9
$AUPREC
 70
     0
  9
$MENU
  1
.
  9
$ELEVATION
 40
0.0
  9
$PELEVATION
 40
0.0
  9
$THICKNESS
 40
0.0
  9
$LIMCHECK
 70
     0
  9
$CHAMFERA
 40
0.0
  9
$CHAMFERB
 40
0.0
  9
$CHAMFERC
 40
0.0
  9
$CHAMFERD
 40
0.0
  9
$SKPOLY
 70
     0
  9
$TDCREATE
 40
2454738.458276539
  9
$TDUCREATE
 40
2454738.374943206
  9
$TDUPDATE
 40
2454738.460847071
  9
$TDUUPDATE
 40
2454738.377513738
  9
$TDINDWG
 40
0.0025707176
  9
$TDUSRTIMER
 40
0.0025707176
  9
$USRTIMER
 70
     1
  9
$ANGBASE
 50
0.0
  9
$ANGDIR
 70
     0
  9
$PDMODE
 70
     0
  9
$PDSIZE
 40
0.0
  9
$PLINEWID
 40
0.0
  9
$SPLFRAME
 70
     0
  9
$SPLINETYPE
 70
     6
  9
$SPLINESEGS
 70
     8
  9
$HANDSEED
  5
5E8
  9
$SURFTAB1
 70
     6
  9
$SURFTAB2
 70
     6
  9
$SURFTYPE
 70
     6
  9
$SURFU
 70
     6
  9
$SURFV
 70
     6
  9
$UCSBASE
  2

  9
$UCSNAME
  2

  9
$UCSORG
 10
0.0
 20
0.0
 30
0.0
  9
$UCSXDIR
 10
1.0
 20
0.0
 30
0.0
  9
$UCSYDIR
 10
0.0
 20
1.0
 30
0.0
  9
$UCSORTHOREF
  2

  9
$UCSORTHOVIEW
 70
     1
  9
$UCSORGTOP
 10
0.0
 20
0.0
 30
0.0
  9
$UCSORGBOTTOM
 10
0.0
 20
0.0
 30
0.0
  9
$UCSORGLEFT
 10
0.0
 20
0.0
 30
0.0
  9
$UCSORGRIGHT
 10
0.0
 20
0.0
 30
0.0
  9
$UCSORGFRONT
 10
0.0
 20
0.0
 30
0.0
  9
$UCSORGBACK
 10
0.0
 20
0.0
 30
0.0
  9
$PUCSBASE
  2

  9
$PUCSNAME
  2

  9
$PUCSORG
 10
0.0
 20
0.0
 30
0.0
  9
$PUCSXDIR
 10
1.0
 20
0.0
 30
0.0
  9
$PUCSYDIR
 10
0.0
 20
1.0
 30
0.0
  9
$PUCSORTHOREF
  2

  9
$PUCSORTHOVIEW
 70
     0
  9
$PUCSORGTOP
 10
0.0
 20
0.0
 30
0.0
  9
$PUCSORGBOTTOM
 10
0.0
 20
0.0
 30
0.0
  9
$PUCSORGLEFT
 10
0.0
 20
0.0
 30
0.0
  9
$PUCSORGRIGHT
 10
0.0
 20
0.0
 30
0.0
  9
$PUCSORGFRONT
 10
0.0
 20
0.0
 30
0.0
  9
$PUCSORGBACK
 10
0.0
 20
0.0
 30
0.0
  9
$USERI1
 70
     0
  9
$USERI2
 70
     0
  9
$USERI3
 70
     0
  9
$USERI4
 70
     0
  9
$USERI5
 70
     0
  9
$USERR1
 40
0.0
  9
$USERR2
 40
0.0
  9
$USERR3
 40
0.0
  9
$USERR4
 40
0.0
  9
$USERR5
 40
0.0
  9
$WORLDVIEW
 70
     1
  9
$SHADEDGE
 70
     3
  9
$SHADEDIF
 70
    70
  9
$TILEMODE
 70
     1
  9
$MAXACTVP
 70
    64
  9
$PINSBASE
 10
0.0
 20
0.0
 30
0.0
  9
$PLIMCHECK
 70
     0
  9
$PEXTMIN
 10
1.000000000000000E+20
 20
1.000000000000000E+20
 30
1.000000000000000E+20
  9
$PEXTMAX
 10
-1.000000000000000E+20
 20
-1.000000000000000E+20
 30
-1.000000000000000E+20
  9
$PLIMMIN
 10
0.0
 20
0.0
  9
$PLIMMAX
 10
12.0
 20
9.0
  9
$UNITMODE
 70
     0
  9
$VISRETAIN
 70
     1
  9
$PLINEGEN
 70
     0
  9
$PSLTSCALE
 70
     1
  9
$TREEDEPTH
 70
  3020
  9
$CMLSTYLE
  2
Standard
  9
$CMLJUST
 70
     0
  9
$CMLSCALE
 40
1.0
  9
$PROXYGRAPHICS
 70
     1
  9
$MEASUREMENT
 70
     0
  9
$CELWEIGHT
370
    -1
  9
$ENDCAPS
280
     0
  9
$JOINSTYLE
280
     0
  9
$LWDISPLAY
290
     0
  9
$INSUNITS
 70
     0
  9
$HYPERLINKBASE
  1

  9
$STYLESHEET
  1

  9
$XEDIT
290
     1
  9
$CEPSNTYPE
380
     0
  9
$PSTYLEMODE
290
     1
  9
$FINGERPRINTGUID
  2
{46444ED3-8DC2-4A62-BFA9-4897FE418DB8}
  9
$VERSIONGUID
  2
{6FD1D8FD-BBEE-4579-A077-3869EAEEA617}
  9
$EXTNAMES
290
     1
  9
$PSVPSCALE
 40
0.0
  9
$OLESTARTUP
290
     0
  0
ENDSEC
  0
SECTION
  2
CLASSES
  0
CLASS
  1
ACDBDICTIONARYWDFLT
  2
AcDbDictionaryWithDefault
  3
AutoCAD 2000
 90
        0
280
     0
281
     0
  0
CLASS
  1
ACDBPLACEHOLDER
  2
AcDbPlaceHolder
  3
AutoCAD 2000
 90
        0
280
     0
281
     0
  0
CLASS
  1
LAYOUT
  2
AcDbLayout
  3
AutoCAD 2000
 90
        0
280
     0
281
     0
  0
CLASS
  1
DICTIONARYVAR
  2
AcDbDictionaryVar
  3
AutoCAD 2000
 90
        0
280
     0
281
     0
  0
ENDSEC
  0
SECTION
  2
TABLES
  0
TABLE
  2
VPORT
  5
8
330
0
100
AcDbSymbolTable
 70
     2
  0
VPORT
  5
5E7
330
8
100
AcDbSymbolTableRecord
100
AcDbViewportTableRecord
  2
*Active
 70
     0
 10
0.0
 20
0.0
 11
1.0
 21
1.0
 12
147.5
 22
813.4999999999999
 13
0.0
 23
0.0
 14
1.0
 24
1.0
 15
0.0
 25
0.0
 16
0.0
 26
0.0
 36
1.0
 17
0.0
 27
0.0
 37
0.0
 40
1639.483375959079
 41
2.078104993597951
 42
50.0
 43
0.0
 44
0.0
 50
0.0
 51
0.0
 71
     0
 72
   100
 73
     1
 74
     3
 75
     0
 76
     0
 77
     0
 78
     0
281
     0
 65
     1
110
0.0
120
0.0
130
0.0
111
1.0
121
0.0
131
0.0
112
0.0
122
1.0
132
0.0
 79
     1
146
0.0
  0
ENDTAB
  0
TABLE
  2
LTYPE
  5
5
330
0
100
AcDbSymbolTable
 70
     1
  0
LTYPE
  5
13
330
5
100
AcDbSymbolTableRecord
100
AcDbLinetypeTableRecord
  2
ByBlock
 70
     0
  3

 72
    65
 73
     0
 40
0.0
  0
LTYPE
  5
14
330
5
100
AcDbSymbolTableRecord
100
AcDbLinetypeTableRecord
  2
ByLayer
 70
     0
  3

 72
    65
 73
     0
 40
0.0
  0
LTYPE
  5
15
330
5
100
AcDbSymbolTableRecord
100
AcDbLinetypeTableRecord
  2
Continuous
 70
     0
  3
Solid line
 72
    65
 73
     0
 40
0.0
  0
ENDTAB
  0
TABLE
  2
LAYER
  5
2
330
0
100
AcDbSymbolTable
 70
     1
  0
LAYER
  5
10
330
2
100
AcDbSymbolTableRecord
100
AcDbLayerTableRecord
  2
0
 70
     0
 62
     7
  6
Continuous
370
    -3
390
F
  0
ENDTAB
  0
TABLE
  2
STYLE
  5
3
330
0
100
AcDbSymbolTable
 70
     1
  0
STYLE
  5
11
330
3
100
AcDbSymbolTableRecord
100
AcDbTextStyleTableRecord
  2
Standard
 70
     0
 40
0.0
 41
1.0
 50
0.0
 71
     0
 42
0.2
  3
txt
  4

  0
ENDTAB
  0
TABLE
  2
VIEW
  5
6
330
0
100
AcDbSymbolTable
 70
     0
  0
ENDTAB
  0
TABLE
  2
UCS
  5
7
330
0
100
AcDbSymbolTable
 70
     0
  0
ENDTAB
  0
TABLE
  2
APPID
  5
9
330
0
100
AcDbSymbolTable
 70
     1
  0
APPID
  5
12
330
9
100
AcDbSymbolTableRecord
100
AcDbRegAppTableRecord
  2
ACAD
 70
     0
  0
ENDTAB
  0
TABLE
  2
DIMSTYLE
  5
A
330
0
100
AcDbSymbolTable
 70
     1
100
AcDbDimStyleTable
 71
     0
  0
DIMSTYLE
105
5DC
330
A
100
AcDbSymbolTableRecord
100
AcDbDimStyleTableRecord
  2
Standard
 70
     0
340
11
  0
ENDTAB
  0
TABLE
  2
BLOCK_RECORD
  5
1
330
0
100
AcDbSymbolTable
 70
     0
  0
BLOCK_RECORD
  5
1E
330
1
100
AcDbSymbolTableRecord
100
AcDbBlockTableRecord
  2
*Model_Space
340
21
  0
BLOCK_RECORD
  5
1A
330
1
100
AcDbSymbolTableRecord
100
AcDbBlockTableRecord
  2
*Paper_Space
340
1D
  0
ENDTAB
  0
ENDSEC
  0
SECTION
  2
BLOCKS
  0
BLOCK
  5
1F
330
1E
100
AcDbEntity
  8
0
100
AcDbBlockBegin
  2
*Model_Space
 70
     0
 10
0.0
 20
0.0
 30
0.0
  3
*Model_Space
  1

  0
ENDBLK
  5
20
330
1E
100
AcDbEntity
  8
0
100
AcDbBlockEnd
  0
BLOCK
  5
1B
330
1A
100
AcDbEntity
 67
     1
  8
0
100
AcDbBlockBegin
  2
*Paper_Space
 70
     0
 10
0.0
 20
0.0
 30
0.0
  3
*Paper_Space
  1

  0
ENDBLK
  5
1C
330
1A
100
AcDbEntity
 67
     1
  8
0
100
AcDbBlockEnd
  0
ENDSEC
  0
SECTION
  2
ENTITIES
  0
LINE
  5
22
330
1E
100
AcDbEntity
  8
0
100
AcDbLine
 10
96.79937500000001
 20
1382.93
 30
0.0
 11
97.126475
 21
1383.9
 31
0.0
  0
LINE
  5
23
330
1E
100
AcDbEntity
  8
0
100
AcDbLine
 10
96.176375
 20
1382.249999999999
 30
0.0
 11
96.79937500000001
 21
1382.93
 31
0.0
  0
LINE
  5
24
330
1E
100
AcDbEntity
  8
0
100
AcDbLine
 10
95.493375
 20
1382.07
 30
0.0
 11
96.176375
 21
1382.249999999999
 31
0.0
  0
LINE
  5
25
330
1E
100
AcDbEntity
  8
0
100
AcDbLine
 10
94.577375
 20
1382.48
 30
0.0
 11
95.493375
 21
1382.07
 31
0.0
  0
LINE
  5
26
330
1E
100
AcDbEntity
  8
0
100
AcDbLine
 10
92.809375
 20
1385.22
 30
0.0
 11
93.94737499999999
 21
1383.19
 31
0.0
  0
LINE
  5
27
330
1E
100
AcDbEntity
  8
0
100
AcDbLine
 10
97.126475
 20
1383.9
 30
0.0
 11
97.16369869059171
 21
1387.2319742554
 31
0.0
  0
LINE
  5
28
330
1E
100
AcDbEntity
  8
0
100
AcDbLine
 10
93.94737499999999
 20
1383.19
 30
0.0
 11
94.577375
 21
1382.48
 31
0.0
  0
LINE
  5
29
330
1E
100
AcDbEntity
  8
0
100
AcDbLine
 10
92.777475
 20
1385.28
 30
0.0
 11
93.94737499999999
 21
1383.19
 31
0.0
  0
LINE
  5
2A
330
1E
100
AcDbEntity
  8
0
100
AcDbLine
 10
94.36637500000001
 20
1387.7
 30
0.0
 11
94.86426685590641
 21
1388.56135291072
 31
0.0
  0
LINE
  5
2B
330
1E
100
AcDbEntity
  8
0
100
AcDbLine
 10
96.83637500000001
 20
1387.42
 30
0.0
 11
98.07237499999999
 21
1386.71
 31
0.0
  0
LINE
  5
2C
330
1E
100
AcDbEntity
  8
0
100
AcDbLine
 10
98.07237499999999
 20
1386.71
 30
0.0
 11
98.58147500000001
 21
1386.42
 31
0.0
  0
LINE
  5
2D
330
1E
100
AcDbEntity
  8
0
100
AcDbLine
 10
98.58147500000001
 20
1386.42
 30
0.0
 11
99.80757500000001
 21
1386.859999999999
 31
0.0
  0
LINE
  5
2E
330
1E
100
AcDbEntity
  8
0
100
AcDbLine
 10
97.990375
 20
1387.91
 30
0.0
 11
99.29837499999999
 21
1387.16
 31
0.0
  0
LINE
  5
2F
330
1E
100
AcDbEntity
  8
0
100
AcDbLine
 10
99.80757500000001
 20
1386.859999999999
 30
0.0
 11
100.4104259581889
 21
1387.90436751709
 31
0.0
  0
LINE
  5
30
330
1E
100
AcDbEntity
  8
0
100
AcDbLine
 10
99.29837499999999
 20
1387.16
 30
0.0
 11
99.80757500000001
 21
1386.859999999999
 31
0.0
  0
LINE
  5
31
330
1E
100
AcDbEntity
  8
0
100
AcDbLine
 10
0.950425000000002
 20
1442.779999999999
 30
0.0
 11
2.186424999999999
 21
1442.07
 31
0.0
  0
LINE
  5
32
330
1E
100
AcDbEntity
  8
0
100
AcDbLine
 10
0.950425000000002
 20
1442.779999999999
 30
0.0
 11
2.186424999999999
 21
1442.07
 31
0.0
  0
LINE
  5
33
330
1E
100
AcDbEntity
  8
0
100
AcDbLine
 10
0.7234250000000021
 20
1444.069999999999
 30
0.0
 11
2.032424999999999
 21
1443.31
 31
0.0
  0
LINE
  5
34
330
1E
100
AcDbEntity
  8
0
100
AcDbLine
 10
0.4414250000000021
 20
1443.08
 30
0.0
 11
0.950425000000002
 21
1442.779999999999
 31
0.0
  0
LINE
  5
35
330
1E
100
AcDbEntity
  8
0
100
AcDbLine
 10
3.740425
 20
1440.02
 30
0.0
 11
4.0794405440307
 21
1439.82414507773
 31
0.0
  0
LINE
  5
36
330
1E
100
AcDbEntity
  8
0
100
AcDbLine
 10
3.740425
 20
1440.02
 30
0.0
 11
5.000424999999999
 21
1439.289999999999
 31
0.0
  0
LINE
  5
37
330
1E
100
AcDbEntity
  8
0
100
AcDbLine
 10
3.655425
 20
1440.07
 30
0.0
 11
4.382424999999999
 21
1439.65
 31
0.0
  0
LINE
  5
38
330
1E
100
AcDbEntity
  8
0
100
AcDbLine
 10
3.655425
 20
1440.07
 30
0.0
 11
4.153452467514849
 21
1440.9315875188
 31
0.0
  0
LINE
  5
39
330
1E
100
AcDbEntity
  8
0
100
AcDbLine
 10
3.655425
 20
1440.07
 30
0.0
 11
4.914424999999999
 21
1439.34
 31
0.0
  0
LINE
  5
3A
330
1E
100
AcDbEntity
  8
0
100
AcDbLine
 10
2.64978128101993
 20
1441.8018336514
 30
0.0
 11
4.09986609225024
 21
1440.83888308959
 31
0.0
  0
LINE
  5
3B
330
1E
100
AcDbEntity
  8
0
100
AcDbLine
 10
2.64978128101993
 20
1441.8018336514
 30
0.0
 11
4.09986609225024
 21
1440.83888308959
 31
0.0
  0
LINE
  5
3C
330
1E
100
AcDbEntity
  8
0
100
AcDbLine
 10
6.857425
 20
1438.22
 30
0.0
 11
7.584425
 21
1437.8
 31
0.0
  0
LINE
  5
3D
330
1E
100
AcDbEntity
  8
0
100
AcDbLine
 10
5.000424999999999
 20
1439.289999999999
 30
0.0
 11
5.726424999999999
 21
1438.87
 31
0.0
  0
LINE
  5
3E
330
1E
100
AcDbEntity
  8
0
100
AcDbLine
 10
5.30240945587807
 20
1439.11585492233
 30
0.0
 11
5.726424999999999
 21
1438.87
 31
0.0
  0
LINE
  5
3F
330
1E
100
AcDbEntity
  8
0
100
AcDbLine
 10
4.914424999999999
 20
1439.34
 30
0.0
 11
5.641424999999999
 21
1438.92
 31
0.0
  0
LINE
  5
40
330
1E
100
AcDbEntity
  8
0
100
AcDbLine
 10
4.382424999999999
 20
1439.65
 30
0.0
 11
4.858569045650679
 21
1440.47372919898
 31
0.0
  0
LINE
  5
41
330
1E
100
AcDbEntity
  8
0
100
AcDbLine
 10
4.382424999999999
 20
1439.65
 30
0.0
 11
5.641424999999999
 21
1438.92
 31
0.0
  0
LINE
  5
42
330
1E
100
AcDbEntity
  8
0
100
AcDbLine
 10
5.598424999999999
 20
1438.95
 30
0.0
 11
6.325425
 21
1438.53
 31
0.0
  0
LINE
  5
43
330
1E
100
AcDbEntity
  8
0
100
AcDbLine
 10
5.598424999999999
 20
1438.95
 30
0.0
 11
6.096482610780659
 21
1439.81163966665
 31
0.0
  0
LINE
  5
44
330
1E
100
AcDbEntity
  8
0
100
AcDbLine
 10
5.598424999999999
 20
1438.95
 30
0.0
 11
6.857425
 21
1438.22
 31
0.0
  0
LINE
  5
45
330
1E
100
AcDbEntity
  8
0
100
AcDbLine
 10
6.325425
 20
1438.53
 30
0.0
 11
6.82395813345257
 21
1439.39246232087
 31
0.0
  0
LINE
  5
46
330
1E
100
AcDbEntity
  8
0
100
AcDbLine
 10
6.325425
 20
1438.53
 30
0.0
 11
7.584425
 21
1437.8
 31
0.0
  0
LINE
  5
47
330
1E
100
AcDbEntity
  8
0
100
AcDbLine
 10
4.294425
 20
1440.85
 30
0.0
 11
6.984424999999999
 21
1439.3
 31
0.0
  0
LINE
  5
48
330
1E
100
AcDbEntity
  8
0
100
AcDbLine
 10
2.186424999999999
 20
1442.07
 30
0.0
 11
4.294425
 21
1440.85
 31
0.0
  0
LINE
  5
49
330
1E
100
AcDbEntity
  8
0
100
AcDbLine
 10
2.186424999999999
 20
1442.07
 30
0.0
 11
3.120462953529049
 21
1441.52942774986
 31
0.0
  0
LINE
  5
4A
330
1E
100
AcDbEntity
  8
0
100
AcDbLine
 10
7.585032971580349
 20
1437.80105179083
 30
0.0
 11
7.898424999999999
 21
1437.619999999999
 31
0.0
  0
LINE
  5
4B
330
1E
100
AcDbEntity
  8
0
100
AcDbLine
 10
7.898424999999999
 20
1437.619999999999
 30
0.0
 11
8.20472203924189
 21
1438.14989387789
 31
0.0
  0
LINE
  5
4C
330
1E
100
AcDbEntity
  8
0
100
AcDbLine
 10
7.585319063760529
 20
1437.80154673031
 30
0.0
 11
7.898424999999999
 21
1437.619999999999
 31
0.0
  0
LINE
  5
4D
330
1E
100
AcDbEntity
  8
0
100
AcDbLine
 10
7.584425
 20
1437.8
 30
0.0
 11
8.022050413048049
 21
1438.55709196457
 31
0.0
  0
LINE
  5
4E
330
1E
100
AcDbEntity
  8
0
100
AcDbLine
 10
9.300425
 20
1436.81
 30
0.0
 11
10.027375
 21
1436.39
 31
0.0
  0
LINE
  5
4F
330
1E
100
AcDbEntity
  8
0
100
AcDbLine
 10
9.300425
 20
1436.81
 30
0.0
 11
9.79959490657049
 21
1437.673607118719
 31
0.0
  0
LINE
  5
50
330
1E
100
AcDbEntity
  8
0
100
AcDbLine
 10
9.300425
 20
1436.81
 30
0.0
 11
10.559475
 21
1436.08
 31
0.0
  0
LINE
  5
51
330
1E
100
AcDbEntity
  8
0
100
AcDbLine
 10
9.300425
 20
1436.81
 30
0.0
 11
9.54074979517193
 21
1437.22578268478
 31
0.0
  0
LINE
  5
52
330
1E
100
AcDbEntity
  8
0
100
AcDbLine
 10
10.559475
 20
1436.08
 30
0.0
 11
11.28637499999999
 21
1435.66
 31
0.0
  0
LINE
  5
53
330
1E
100
AcDbEntity
  8
0
100
AcDbLine
 10
10.027375
 20
1436.39
 30
0.0
 11
10.52657363154919
 21
1437.25361363258
 31
0.0
  0
LINE
  5
54
330
1E
100
AcDbEntity
  8
0
100
AcDbLine
 10
10.027375
 20
1436.39
 30
0.0
 11
11.28637499999999
 21
1435.66
 31
0.0
  0
LINE
  5
55
330
1E
100
AcDbEntity
  8
0
100
AcDbLine
 10
7.88721941049186
 20
1438.32383433015
 30
0.0
 11
9.54074979517193
 21
1437.22578268478
 31
0.0
  0
LINE
  5
56
330
1E
100
AcDbEntity
  8
0
100
AcDbLine
 10
10.61937499999999
 20
1437.199999999999
 30
0.0
 11
14.835475
 21
1434.77
 31
0.0
  0
LINE
  5
57
330
1E
100
AcDbEntity
  8
0
100
AcDbLine
 10
6.984424999999999
 20
1439.3
 30
0.0
 11
10.61937499999999
 21
1437.199999999999
 31
0.0
  0
LINE
  5
58
330
1E
100
AcDbEntity
  8
0
100
AcDbLine
 10
10.537475
 20
1438.4
 30
0.0
 11
14.826375
 21
1435.93
 31
0.0
  0
LINE
  5
59
330
1E
100
AcDbEntity
  8
0
100
AcDbLine
 10
6.902425
 20
1440.5
 30
0.0
 11
10.537475
 21
1438.4
 31
0.0
  0
LINE
  5
5A
330
1E
100
AcDbEntity
  8
0
100
AcDbLine
 10
4.067425
 20
1442.14
 30
0.0
 11
6.902425
 21
1440.5
 31
0.0
  0
LINE
  5
5B
330
1E
100
AcDbEntity
  8
0
100
AcDbLine
 10
2.032424999999999
 20
1443.31
 30
0.0
 11
4.067425
 21
1442.14
 31
0.0
  0
LINE
  5
5C
330
1E
100
AcDbEntity
  8
0
100
AcDbLine
 10
0.214425000000002
 20
1444.36
 30
0.0
 11
0.7234250000000021
 21
1444.069999999999
 31
0.0
  0
LINE
  5
5D
330
1E
100
AcDbEntity
  8
0
100
AcDbLine
 10
0.7234250000000021
 20
1444.069999999999
 30
0.0
 11
2.032424999999999
 21
1443.31
 31
0.0
  0
LINE
  5
5E
330
1E
100
AcDbEntity
  8
0
100
AcDbLine
 10
0.214425000000002
 20
1444.36
 30
0.0
 11
10.714475
 21
1462.55
 31
0.0
  0
LINE
  5
5F
330
1E
100
AcDbEntity
  8
0
100
AcDbLine
 10
0.214425000000002
 20
1444.36
 30
0.0
 11
0.7234250000000021
 21
1444.069999999999
 31
0.0
  0
LINE
  5
60
330
1E
100
AcDbEntity
  8
0
100
AcDbLine
 10
0.214425000000002
 20
1444.36
 30
0.0
 11
0.4414250000000021
 21
1443.08
 31
0.0
  0
LINE
  5
61
330
1E
100
AcDbEntity
  8
0
100
AcDbLine
 10
0.214425000000002
 20
1444.36
 30
0.0
 11
10.714475
 21
1462.55
 31
0.0
  0
LINE
  5
62
330
1E
100
AcDbEntity
  8
0
100
AcDbLine
 10
11.28637499999999
 20
1435.66
 30
0.0
 11
11.7874093122218
 21
1436.52678936014
 31
0.0
  0
LINE
  5
63
330
1E
100
AcDbEntity
  8
0
100
AcDbLine
 10
11.28637499999999
 20
1435.66
 30
0.0
 11
11.45620083772009
 21
1435.95379869926
 31
0.0
  0
LINE
  5
64
330
1E
100
AcDbEntity
  8
0
100
AcDbLine
 10
11.45620083772009
 20
1435.95379869926
 30
0.0
 11
13.467245361565
 21
1434.618334429119
 31
0.0
  0
LINE
  5
65
330
1E
100
AcDbEntity
  8
0
100
AcDbLine
 10
11.223375
 20
1462.26
 30
0.0
 11
12.532475
 21
1461.5
 31
0.0
  0
LINE
  5
66
330
1E
100
AcDbEntity
  8
0
100
AcDbLine
 10
10.714475
 20
1462.55
 30
0.0
 11
11.223375
 21
1462.26
 31
0.0
  0
LINE
  5
67
330
1E
100
AcDbEntity
  8
0
100
AcDbLine
 10
10.714475
 20
1462.55
 30
0.0
 11
11.941475
 21
1463.0
 31
0.0
  0
LINE
  5
68
330
1E
100
AcDbEntity
  8
0
100
AcDbLine
 10
12.160475
 20
1434.579999999999
 30
0.0
 11
12.887375
 21
1434.16
 31
0.0
  0
LINE
  5
69
330
1E
100
AcDbEntity
  8
0
100
AcDbLine
 10
12.160475
 20
1434.579999999999
 30
0.0
 11
12.573537468499
 21
1435.2945980705
 31
0.0
  0
LINE
  5
6A
330
1E
100
AcDbEntity
  8
0
100
AcDbLine
 10
12.160475
 20
1434.579999999999
 30
0.0
 11
13.1241018904973
 21
1434.021264789469
 31
0.0
  0
LINE
  5
6B
330
1E
100
AcDbEntity
  8
0
100
AcDbLine
 10
12.887375
 20
1434.16
 30
0.0
 11
13.2755565803784
 21
1434.83155413405
 31
0.0
  0
LINE
  5
6C
330
1E
100
AcDbEntity
  8
0
100
AcDbLine
 10
12.887375
 20
1434.16
 30
0.0
 11
13.1247424176621
 21
1434.02237930673
 31
0.0
  0
LINE
  5
6D
330
1E
100
AcDbEntity
  8
0
100
AcDbLine
 10
13.12337499999999
 20
1434.02
 30
0.0
 11
13.850375
 21
1433.6
 31
0.0
  0
LINE
  5
6E
330
1E
100
AcDbEntity
  8
0
100
AcDbLine
 10
13.12337499999999
 20
1434.02
 30
0.0
 11
13.57443954215439
 21
1434.80485230335
 31
0.0
  0
LINE
  5
6F
330
1E
100
AcDbEntity
  8
0
100
AcDbLine
 10
12.532475
 20
1461.5
 30
0.0
 11
14.567375
 21
1460.329999999999
 31
0.0
  0
LINE
  5
70
330
1E
100
AcDbEntity
  8
0
100
AcDbLine
 10
15.449375
 20
1432.68
 30
0.0
 11
15.7226370415721
 21
1433.152696062309
 31
0.0
  0
LINE
  5
71
330
1E
100
AcDbEntity
  8
0
100
AcDbLine
 10
14.55637499999969
 20
1433.19625099285
 30
0.0
 11
14.722375
 21
1433.1
 31
0.0
  0
LINE
  5
72
330
1E
100
AcDbEntity
  8
0
100
AcDbLine
 10
14.722375
 20
1433.1
 30
0.0
 11
15.449375
 21
1432.68
 31
0.0
  0
LINE
  5
73
330
1E
100
AcDbEntity
  8
0
100
AcDbLine
 10
14.7534106973626
 20
1433.083569736219
 30
0.0
 11
15.449375
 21
1432.68
 31
0.0
  0
LINE
  5
74
330
1E
100
AcDbEntity
  8
0
100
AcDbLine
 10
15.109375
 20
1432.88
 30
0.0
 11
15.3595602668479
 21
1433.31277723392
 31
0.0
  0
LINE
  5
75
330
1E
100
AcDbEntity
  8
0
100
AcDbLine
 10
15.537475
 20
1433.21
 30
0.0
 11
16.03816247146659
 21
1434.076189325639
 31
0.0
  0
LINE
  5
76
330
1E
100
AcDbEntity
  8
0
100
AcDbLine
 10
14.03238773410089
 20
1433.495910112349
 30
0.0
 11
14.146475
 21
1433.43
 31
0.0
  0
LINE
  5
77
330
1E
100
AcDbEntity
  8
0
100
AcDbLine
 10
14.0621863117271
 20
1433.478868828879
 30
0.0
 11
14.146475
 21
1433.43
 31
0.0
  0
LINE
  5
78
330
1E
100
AcDbEntity
  8
0
100
AcDbLine
 10
13.850375
 20
1433.6
 30
0.0
 11
14.1026097776083
 21
1434.03888851304
 31
0.0
  0
LINE
  5
79
330
1E
100
AcDbEntity
  8
0
100
AcDbLine
 10
13.850375
 20
1433.6
 30
0.0
 11
15.109375
 21
1432.88
 31
0.0
  0
LINE
  5
7A
330
1E
100
AcDbEntity
  8
0
100
AcDbLine
 10
15.5514960881043
 20
1433.23425648242
 30
0.0
 11
15.934375
 21
1432.98
 31
0.0
  0
LINE
  5
7B
330
1E
100
AcDbEntity
  8
0
100
AcDbLine
 10
15.934375
 20
1432.98
 30
0.0
 11
16.8342346808833
 21
1432.408041844739
 31
0.0
  0
LINE
  5
7C
330
1E
100
AcDbEntity
  8
0
100
AcDbLine
 10
15.5514960881043
 20
1433.23425648242
 30
0.0
 11
15.934375
 21
1432.98
 31
0.0
  0
LINE
  5
7D
330
1E
100
AcDbEntity
  8
0
100
AcDbLine
 10
14.083375
 20
1434.05
 30
0.0
 11
15.537475
 21
1433.21
 31
0.0
  0
LINE
  5
7E
330
1E
100
AcDbEntity
  8
0
100
AcDbLine
 10
14.083375
 20
1434.05
 30
0.0
 11
14.583505452404
 21
1434.91522568266
 31
0.0
  0
LINE
  5
7F
330
1E
100
AcDbEntity
  8
0
100
AcDbLine
 10
16.2018972927049
 20
1433.98173339304
 30
0.0
 11
17.35601595772109
 21
1433.31594126643
 31
0.0
  0
LINE
  5
80
330
1E
100
AcDbEntity
  8
0
100
AcDbLine
 10
16.60547499999999
 20
1432.01
 30
0.0
 11
17.331475
 21
1431.589999999999
 31
0.0
  0
LINE
  5
81
330
1E
100
AcDbEntity
  8
0
100
AcDbLine
 10
16.60547499999999
 20
1432.01
 30
0.0
 11
17.06232673235779
 21
1432.8049220143
 31
0.0
  0
LINE
  5
82
330
1E
100
AcDbEntity
  8
0
100
AcDbLine
 10
17.331475
 20
1431.589999999999
 30
0.0
 11
17.7636388011827
 21
1432.34196501406
 31
0.0
  0
LINE
  5
83
330
1E
100
AcDbEntity
  8
0
100
AcDbLine
 10
17.331475
 20
1431.589999999999
 30
0.0
 11
18.591375
 21
1430.87
 31
0.0
  0
LINE
  5
84
330
1E
100
AcDbEntity
  8
0
100
AcDbLine
 10
16.434375
 20
1433.84
 30
0.0
 11
21.014375
 21
1431.2
 31
0.0
  0
LINE
  5
85
330
1E
100
AcDbEntity
  8
0
100
AcDbLine
 10
14.826375
 20
1435.93
 30
0.0
 11
19.76947499999999
 21
1433.07
 31
0.0
  0
LINE
  5
86
330
1E
100
AcDbEntity
  8
0
100
AcDbLine
 10
13.9198399811992
 20
1435.29773726802
 30
0.0
 11
16.434375
 21
1433.84
 31
0.0
  0
LINE
  5
87
330
1E
100
AcDbEntity
  8
0
100
AcDbLine
 10
14.835475
 20
1434.77
 30
0.0
 11
16.434375
 21
1433.84
 31
0.0
  0
LINE
  5
88
330
1E
100
AcDbEntity
  8
0
100
AcDbLine
 10
14.835475
 20
1434.77
 30
0.0
 11
19.706475
 21
1431.96
 31
0.0
  0
LINE
  5
89
330
1E
100
AcDbEntity
  8
0
100
AcDbLine
 10
17.402375
 20
1458.689999999999
 30
0.0
 11
21.037475
 21
1456.59
 31
0.0
  0
LINE
  5
8A
330
1E
100
AcDbEntity
  8
0
100
AcDbLine
 10
14.567375
 20
1460.329999999999
 30
0.0
 11
17.402375
 21
1458.689999999999
 31
0.0
  0
LINE
  5
8B
330
1E
100
AcDbEntity
  8
0
100
AcDbLine
 10
18.591375
 20
1430.87
 30
0.0
 11
18.97861408419549
 21
1431.53992361566
 31
0.0
  0
LINE
  5
8C
330
1E
100
AcDbEntity
  8
0
100
AcDbLine
 10
18.76942186693289
 20
1431.17802107979
 30
0.0
 11
21.70515742953079
 21
1429.31204360309
 31
0.0
  0
LINE
  5
8D
330
1E
100
AcDbEntity
  8
0
100
AcDbLine
 10
19.3427275611761
 20
1432.169839930829
 30
0.0
 11
19.706475
 21
1431.96
 31
0.0
  0
LINE
  5
8E
330
1E
100
AcDbEntity
  8
0
100
AcDbLine
 10
20.794475
 20
1430.17
 30
0.0
 11
22.248475
 21
1429.33
 31
0.0
  0
LINE
  5
8F
330
1E
100
AcDbEntity
  8
0
100
AcDbLine
 10
20.794475
 20
1430.17
 30
0.0
 11
21.2952769593471
 21
1431.04139540926
 31
0.0
  0
LINE
  5
90
330
1E
100
AcDbEntity
  8
0
100
AcDbLine
 10
20.794475
 20
1430.17
 30
0.0
 11
21.27711761918499
 21
1431.00979815738
 31
0.0
  0
LINE
  5
91
330
1E
100
AcDbEntity
  8
0
100
AcDbLine
 10
21.014375
 20
1431.2
 30
0.0
 11
26.176475
 21
1428.22
 31
0.0
  0
LINE
  5
92
330
1E
100
AcDbEntity
  8
0
100
AcDbLine
 10
21.014375
 20
1431.2
 30
0.0
 11
21.2937425171003
 21
1431.03872547975
 31
0.0
  0
LINE
  5
93
330
1E
100
AcDbEntity
  8
0
100
AcDbLine
 10
19.706475
 20
1431.96
 30
0.0
 11
25.085475
 21
1428.849999999999
 31
0.0
  0
LINE
  5
94
330
1E
100
AcDbEntity
  8
0
100
AcDbLine
 10
19.76947499999999
 20
1433.07
 30
0.0
 11
25.222375
 21
1429.93
 31
0.0
  0
LINE
  5
95
330
1E
100
AcDbEntity
  8
0
100
AcDbLine
 10
40.395475
 20
1416.5
 30
0.0
 11
40.839375
 21
1416.249999999999
 31
0.0
  0
LINE
  5
96
330
1E
100
AcDbEntity
  8
0
100
AcDbLine
 10
40.839375
 20
1416.249999999999
 30
0.0
 11
41.20637499999999
 21
1416.03
 31
0.0
  0
LINE
  5
97
330
1E
100
AcDbEntity
  8
0
100
AcDbLine
 10
41.20637499999999
 20
1416.03
 30
0.0
 11
41.428375
 21
1415.91
 31
0.0
  0
LINE
  5
98
330
1E
100
AcDbEntity
  8
0
100
AcDbLine
 10
41.428375
 20
1415.91
 30
0.0
 11
41.504375
 21
1415.86
 31
0.0
  0
LINE
  5
99
330
1E
100
AcDbEntity
  8
0
100
AcDbLine
 10
41.504375
 20
1415.86
 30
0.0
 11
42.4583704831042
 21
1416.51287448882
 31
0.0
  0
LINE
  5
9A
330
1E
100
AcDbEntity
  8
0
100
AcDbLine
 10
42.4568478705637
 20
1416.51183247667
 30
0.0
 11
43.3888627287982
 21
1415.97431077082
 31
0.0
  0
LINE
  5
9B
330
1E
100
AcDbEntity
  8
0
100
AcDbLine
 10
42.4542112125537
 20
1416.51002805853
 30
0.0
 11
43.3876434033617
 21
1415.97220133782
 31
0.0
  0
LINE
  5
9C
330
1E
100
AcDbEntity
  8
0
100
AcDbLine
 10
43.120475
 20
1415.51
 30
0.0
 11
43.307475
 21
1415.4
 31
0.0
  0
LINE
  5
9D
330
1E
100
AcDbEntity
  8
0
100
AcDbLine
 10
43.120475
 20
1415.51
 30
0.0
 11
43.3893133245524
 21
1415.97509030148
 31
0.0
  0
LINE
  5
9E
330
1E
100
AcDbEntity
  8
0
100
AcDbLine
 10
42.4583704831042
 20
1416.51287448882
 30
0.0
 11
43.3893133245524
 21
1415.97509030148
 31
0.0
  0
LINE
  5
9F
330
1E
100
AcDbEntity
  8
0
100
AcDbLine
 10
38.699375
 20
1417.48
 30
0.0
 11
39.287475
 21
1417.14
 31
0.0
  0
LINE
  5
A0
330
1E
100
AcDbEntity
  8
0
100
AcDbLine
 10
39.87647499999999
 20
1416.8
 30
0.0
 11
40.395475
 21
1416.5
 31
0.0
  0
LINE
  5
A1
330
1E
100
AcDbEntity
  8
0
100
AcDbLine
 10
39.287475
 20
1417.14
 30
0.0
 11
39.87647499999999
 21
1416.8
 31
0.0
  0
LINE
  5
A2
330
1E
100
AcDbEntity
  8
0
100
AcDbLine
 10
38.179375
 20
1417.78
 30
0.0
 11
38.699375
 21
1417.48
 31
0.0
  0
LINE
  5
A3
330
1E
100
AcDbEntity
  8
0
100
AcDbLine
 10
37.73537499999999
 20
1418.04
 30
0.0
 11
38.179375
 21
1417.78
 31
0.0
  0
LINE
  5
A4
330
1E
100
AcDbEntity
  8
0
100
AcDbLine
 10
40.344375
 20
1417.73
 30
0.0
 11
40.8119799722313
 21
1418.538956601959
 31
0.0
  0
LINE
  5
A5
330
1E
100
AcDbEntity
  8
0
100
AcDbLine
 10
39.528475
 20
1417.62
 30
0.0
 11
39.77931733835629
 21
1418.056465668739
 31
0.0
  0
LINE
  5
A6
330
1E
100
AcDbEntity
  8
0
100
AcDbLine
 10
40.805475
 20
1417.46
 30
0.0
 11
44.32138141653829
 21
1415.43419840779
 31
0.0
  0
LINE
  5
A7
330
1E
100
AcDbEntity
  8
0
100
AcDbLine
 10
37.36847499999999
 20
1418.25
 30
0.0
 11
37.73537499999999
 21
1418.04
 31
0.0
  0
LINE
  5
A8
330
1E
100
AcDbEntity
  8
0
100
AcDbLine
 10
37.147475
 20
1418.38
 30
0.0
 11
37.36847499999999
 21
1418.25
 31
0.0
  0
LINE
  5
A9
330
1E
100
AcDbEntity
  8
0
100
AcDbLine
 10
37.070475
 20
1418.42
 30
0.0
 11
37.1581940229192
 21
1419.571550636979
 31
0.0
  0
LINE
  5
AA
330
1E
100
AcDbEntity
  8
0
100
AcDbLine
 10
37.070475
 20
1418.42
 30
0.0
 11
37.147475
 21
1418.38
 31
0.0
  0
LINE
  5
AB
330
1E
100
AcDbEntity
  8
0
100
AcDbLine
 10
38.890475
 20
1418.569999999999
 30
0.0
 11
40.344375
 21
1417.73
 31
0.0
  0
LINE
  5
AC
330
1E
100
AcDbEntity
  8
0
100
AcDbLine
 10
38.890475
 20
1418.569999999999
 30
0.0
 11
39.1392415824808
 21
1419.00036618769
 31
0.0
  0
LINE
  5
AD
330
1E
100
AcDbEntity
  8
0
100
AcDbLine
 10
38.074375
 20
1418.46
 30
0.0
 11
39.528475
 21
1417.62
 31
0.0
  0
LINE
  5
AE
330
1E
100
AcDbEntity
  8
0
100
AcDbLine
 10
38.074375
 20
1418.46
 30
0.0
 11
38.5536883723765
 21
1419.29400526794
 31
0.0
  0
LINE
  5
AF
330
1E
100
AcDbEntity
  8
0
100
AcDbLine
 10
38.074375
 20
1418.46
 30
0.0
 11
38.5151806033712
 21
1419.227001749869
 31
0.0
  0
LINE
  5
B0
330
1E
100
AcDbEntity
  8
0
100
AcDbLine
 10
39.866375
 20
1418.58
 30
0.0
 11
40.1853546699952
 21
1419.13502462579
 31
0.0
  0
LINE
  5
B1
330
1E
100
AcDbEntity
  8
0
100
AcDbLine
 10
39.95537499999999
 20
1419.109999999999
 30
0.0
 11
40.45552320092699
 21
1419.9752563876
 31
0.0
  0
LINE
  5
B2
330
1E
100
AcDbEntity
  8
0
100
AcDbLine
 10
39.7791997799312
 20
1418.05626111708
 30
0.0
 11
40.805475
 21
1417.46
 31
0.0
  0
LINE
  5
B3
330
1E
100
AcDbEntity
  8
0
100
AcDbLine
 10
42.18637499999999
 20
1416.67
 30
0.0
 11
43.640475
 21
1415.829999999999
 31
0.0
  0
LINE
  5
B4
330
1E
100
AcDbEntity
  8
0
100
AcDbLine
 10
42.18637499999999
 20
1416.67
 30
0.0
 11
43.63493699435021
 21
1415.83407094397
 31
0.0
  0
LINE
  5
B5
330
1E
100
AcDbEntity
  8
0
100
AcDbLine
 10
41.7171076386362
 20
1416.93846347706
 30
0.0
 11
43.7115736061921
 21
1415.78819345758
 31
0.0
  0
LINE
  5
B6
330
1E
100
AcDbEntity
  8
0
100
AcDbLine
 10
42.3571750370116
 20
1416.5706860343
 30
0.0
 11
43.2509334938999
 21
1416.05502913495
 31
0.0
  0
LINE
  5
B7
330
1E
100
AcDbEntity
  8
0
100
AcDbLine
 10
46.98647499999999
 20
1413.28
 30
0.0
 11
48.316375
 21
1412.51
 31
0.0
  0
LINE
  5
B8
330
1E
100
AcDbEntity
  8
0
100
AcDbLine
 10
47.784475
 20
1413.44
 30
0.0
 11
48.2824476351964
 21
1414.30149265889
 31
0.0
  0
LINE
  5
B9
330
1E
100
AcDbEntity
  8
0
100
AcDbLine
 10
47.784475
 20
1413.44
 30
0.0
 11
49.238475
 21
1412.6
 31
0.0
  0
LINE
  5
BA
330
1E
100
AcDbEntity
  8
0
100
AcDbLine
 10
47.534475
 20
1413.0
 30
0.0
 11
47.7877249657272
 21
1413.43812244071
 31
0.0
  0
LINE
  5
BB
330
1E
100
AcDbEntity
  8
0
100
AcDbLine
 10
47.534475
 20
1413.0
 30
0.0
 11
48.988475
 21
1412.16
 31
0.0
  0
LINE
  5
BC
330
1E
100
AcDbEntity
  8
0
100
AcDbLine
 10
45.37102702714829
 20
1414.21058005707
 30
0.0
 11
48.316375
 21
1412.51
 31
0.0
  0
LINE
  5
BD
330
1E
100
AcDbEntity
  8
0
100
AcDbLine
 10
44.63737499999999
 20
1414.63
 30
0.0
 11
45.739375
 21
1414.0
 31
0.0
  0
LINE
  5
BE
330
1E
100
AcDbEntity
  8
0
100
AcDbLine
 10
44.63737499999999
 20
1414.63
 30
0.0
 11
48.316375
 21
1412.51
 31
0.0
  0
LINE
  5
BF
330
1E
100
AcDbEntity
  8
0
100
AcDbLine
 10
45.739375
 20
1414.0
 30
0.0
 11
46.98647499999999
 21
1413.28
 31
0.0
  0
LINE
  5
C0
330
1E
100
AcDbEntity
  8
0
100
AcDbLine
 10
48.034475
 20
1413.87
 30
0.0
 11
48.3425246078774
 21
1414.402925821629
 31
0.0
  0
LINE
  5
C1
330
1E
100
AcDbEntity
  8
0
100
AcDbLine
 10
48.034475
 20
1413.87
 30
0.0
 11
49.488475
 21
1413.03
 31
0.0
  0
LINE
  5
C2
330
1E
100
AcDbEntity
  8
0
100
AcDbLine
 10
48.316375
 20
1412.51
 30
0.0
 11
49.646475
 21
1411.739999999999
 31
0.0
  0
LINE
  5
C3
330
1E
100
AcDbEntity
  8
0
100
AcDbLine
 10
49.238475
 20
1412.6
 30
0.0
 11
49.487391678091
 21
1413.0306258531
 31
0.0
  0
LINE
  5
C4
330
1E
100
AcDbEntity
  8
0
100
AcDbLine
 10
48.988475
 20
1412.16
 30
0.0
 11
49.32544407805
 21
1412.74632619581
 31
0.0
  0
LINE
  5
C5
330
1E
100
AcDbEntity
  8
0
100
AcDbLine
 10
49.488475
 20
1413.03
 30
0.0
 11
49.7373916780911
 21
1413.4606258531
 31
0.0
  0
LINE
  5
C6
330
1E
100
AcDbEntity
  8
0
100
AcDbLine
 10
48.284475
 20
1414.3
 30
0.0
 11
48.78641507092811
 21
1415.16835632271
 31
0.0
  0
LINE
  5
C7
330
1E
100
AcDbEntity
  8
0
100
AcDbLine
 10
48.284475
 20
1414.3
 30
0.0
 11
49.738475
 21
1413.46
 31
0.0
  0
LINE
  5
C8
330
1E
100
AcDbEntity
  8
0
100
AcDbLine
 10
43.307475
 20
1415.4
 30
0.0
 11
43.806475
 21
1415.11
 31
0.0
  0
LINE
  5
C9
330
1E
100
AcDbEntity
  8
0
100
AcDbLine
 10
43.806475
 20
1415.11
 30
0.0
 11
44.63737499999999
 21
1414.63
 31
0.0
  0
LINE
  5
CA
330
1E
100
AcDbEntity
  8
0
100
AcDbLine
 10
45.240375
 20
1414.9
 30
0.0
 11
46.83937499999999
 21
1413.98
 31
0.0
  0
LINE
  5
CB
330
1E
100
AcDbEntity
  8
0
100
AcDbLine
 10
50.60286014851289
 20
1410.60841584159
 30
0.0
 11
50.871375
 21
1410.45
 31
0.0
  0
LINE
  5
CC
330
1E
100
AcDbEntity
  8
0
100
AcDbLine
 10
53.019375
 20
1409.21
 30
0.0
 11
53.07916707920821
 21
1409.17623762376
 31
0.0
  0
LINE
  5
CD
330
1E
100
AcDbEntity
  8
0
100
AcDbLine
 10
53.020475
 20
1409.21
 30
0.0
 11
53.559375
 21
1408.9
 31
0.0
  0
LINE
  5
CE
330
1E
100
AcDbEntity
  8
0
100
AcDbLine
 10
51.899375
 20
1409.86
 30
0.0
 11
51.97829569638139
 21
1409.81491051091
 31
0.0
  0
LINE
  5
CF
330
1E
100
AcDbEntity
  8
0
100
AcDbLine
 10
51.343375
 20
1410.18
 30
0.0
 11
51.40427500000019
 21
1410.145555555559
 31
0.0
  0
LINE
  5
D0
330
1E
100
AcDbEntity
  8
0
100
AcDbLine
 10
50.892375
 20
1410.44
 30
0.0
 11
51.344375
 21
1410.18
 31
0.0
  0
LINE
  5
D1
330
1E
100
AcDbEntity
  8
0
100
AcDbLine
 10
51.79014244186849
 20
1409.92366925064
 30
0.0
 11
51.899375
 21
1409.86
 31
0.0
  0
LINE
  5
D2
330
1E
100
AcDbEntity
  8
0
100
AcDbLine
 10
51.344375
 20
1410.18
 30
0.0
 11
51.88347499999999
 21
1409.869999999999
 31
0.0
  0
LINE
  5
D3
330
1E
100
AcDbEntity
  8
0
100
AcDbLine
 10
51.88347499999999
 20
1409.869999999999
 30
0.0
 11
52.451475
 21
1409.539999999999
 31
0.0
  0
LINE
  5
D4
330
1E
100
AcDbEntity
  8
0
100
AcDbLine
 10
52.9433391975305
 20
1409.254814814819
 30
0.0
 11
53.019375
 21
1409.21
 31
0.0
  0
LINE
  5
D5
330
1E
100
AcDbEntity
  8
0
100
AcDbLine
 10
52.506943085107
 20
1409.50835480971
 30
0.0
 11
53.020475
 21
1409.21
 31
0.0
  0
LINE
  5
D6
330
1E
100
AcDbEntity
  8
0
100
AcDbLine
 10
52.451475
 20
1409.539999999999
 30
0.0
 11
53.012375
 21
1409.22
 31
0.0
  0
LINE
  5
D7
330
1E
100
AcDbEntity
  8
0
100
AcDbLine
 10
53.012375
 20
1409.22
 30
0.0
 11
53.560375
 21
1408.9
 31
0.0
  0
LINE
  5
D8
330
1E
100
AcDbEntity
  8
0
100
AcDbLine
 10
50.871375
 20
1410.45
 30
0.0
 11
51.343375
 21
1410.18
 31
0.0
  0
LINE
  5
D9
330
1E
100
AcDbEntity
  8
0
100
AcDbLine
 10
50.531375
 20
1410.65
 30
0.0
 11
50.892375
 21
1410.44
 31
0.0
  0
LINE
  5
DA
330
1E
100
AcDbEntity
  8
0
100
AcDbLine
 10
50.303375
 20
1410.779999999999
 30
0.0
 11
50.531375
 21
1410.65
 31
0.0
  0
LINE
  5
DB
330
1E
100
AcDbEntity
  8
0
100
AcDbLine
 10
50.23537499999999
 20
1410.82
 30
0.0
 11
50.3288825375052
 21
1411.966333144969
 31
0.0
  0
LINE
  5
DC
330
1E
100
AcDbEntity
  8
0
100
AcDbLine
 10
50.23537499999999
 20
1410.82
 30
0.0
 11
50.303375
 21
1410.779999999999
 31
0.0
  0
LINE
  5
DD
330
1E
100
AcDbEntity
  8
0
100
AcDbLine
 10
49.646475
 20
1411.739999999999
 30
0.0
 11
50.2805541091297
 21
1411.373862411919
 31
0.0
  0
LINE
  5
DE
330
1E
100
AcDbEntity
  8
0
100
AcDbLine
 10
52.66359601863389
 20
1410.61617678295
 30
0.0
 11
53.382475
 21
1410.2
 31
0.0
  0
LINE
  5
DF
330
1E
100
AcDbEntity
  8
0
100
AcDbLine
 10
54.011375
 20
1408.64
 30
0.0
 11
54.371375
 21
1408.43
 31
0.0
  0
LINE
  5
E0
330
1E
100
AcDbEntity
  8
0
100
AcDbLine
 10
53.559375
 20
1408.9
 30
0.0
 11
54.011375
 21
1408.64
 31
0.0
  0
LINE
  5
E1
330
1E
100
AcDbEntity
  8
0
100
AcDbLine
 10
54.032375
 20
1408.63
 30
0.0
 11
54.371375
 21
1408.43
 31
0.0
  0
LINE
  5
E2
330
1E
100
AcDbEntity
  8
0
100
AcDbLine
 10
53.560375
 20
1408.9
 30
0.0
 11
54.032375
 21
1408.63
 31
0.0
  0
LINE
  5
E3
330
1E
100
AcDbEntity
  8
0
100
AcDbLine
 10
53.382475
 20
1410.2
 30
0.0
 11
54.836375
 21
1409.359999999999
 31
0.0
  0
LINE
  5
E4
330
1E
100
AcDbEntity
  8
0
100
AcDbLine
 10
49.738475
 20
1413.46
 30
0.0
 11
50.24081939514129
 21
1414.32905580359
 31
0.0
  0
LINE
  5
E5
330
1E
100
AcDbEntity
  8
0
100
AcDbLine
 10
49.5576022684339
 20
1412.41307430753
 30
0.0
 11
50.183475
 21
1412.049999999999
 31
0.0
  0
LINE
  5
E6
330
1E
100
AcDbEntity
  8
0
100
AcDbLine
 10
50.183475
 20
1412.049999999999
 30
0.0
 11
51.782375
 21
1411.13
 31
0.0
  0
LINE
  5
E7
330
1E
100
AcDbEntity
  8
0
100
AcDbLine
 10
49.511375
 20
1414.75
 30
0.0
 11
55.836375
 21
1411.1
 31
0.0
  0
LINE
  5
E8
330
1E
100
AcDbEntity
  8
0
100
AcDbLine
 10
49.511375
 20
1414.75
 30
0.0
 11
55.69047499999999
 21
1411.18
 31
0.0
  0
LINE
  5
E9
330
1E
100
AcDbEntity
  8
0
100
AcDbLine
 10
43.640475
 20
1415.829999999999
 30
0.0
 11
45.240375
 21
1414.9
 31
0.0
  0
LINE
  5
EA
330
1E
100
AcDbEntity
  8
0
100
AcDbLine
 10
50.011375
 20
1415.61
 30
0.0
 11
56.40837499999999
 21
1411.92
 31
0.0
  0
LINE
  5
EB
330
1E
100
AcDbEntity
  8
0
100
AcDbLine
 10
43.186375
 20
1418.4
 30
0.0
 11
49.511375
 21
1414.75
 31
0.0
  0
LINE
  5
EC
330
1E
100
AcDbEntity
  8
0
100
AcDbLine
 10
25.168475
 20
1426.49
 30
0.0
 11
25.895375
 21
1426.07
 31
0.0
  0
LINE
  5
ED
330
1E
100
AcDbEntity
  8
0
100
AcDbLine
 10
29.21347499999999
 20
1423.58
 30
0.0
 11
29.940475
 21
1423.16
 31
0.0
  0
LINE
  5
EE
330
1E
100
AcDbEntity
  8
0
100
AcDbLine
 10
29.21347499999999
 20
1423.58
 30
0.0
 11
29.6582289845285
 21
1424.34942439323
 31
0.0
  0
LINE
  5
EF
330
1E
100
AcDbEntity
  8
0
100
AcDbLine
 10
29.21347499999999
 20
1423.58
 30
0.0
 11
30.472375
 21
1422.849999999999
 31
0.0
  0
LINE
  5
F0
330
1E
100
AcDbEntity
  8
0
100
AcDbLine
 10
29.940475
 20
1423.16
 30
0.0
 11
30.1900633105542
 21
1423.59178777726
 31
0.0
  0
LINE
  5
F1
330
1E
100
AcDbEntity
  8
0
100
AcDbLine
 10
29.940475
 20
1423.16
 30
0.0
 11
31.199475
 21
1422.43
 31
0.0
  0
LINE
  5
F2
330
1E
100
AcDbEntity
  8
0
100
AcDbLine
 10
29.91637499999999
 20
1423.75
 30
0.0
 11
31.369475
 21
1422.91
 31
0.0
  0
LINE
  5
F3
330
1E
100
AcDbEntity
  8
0
100
AcDbLine
 10
29.91637499999999
 20
1423.75
 30
0.0
 11
30.1677591815738
 21
1424.18489463412
 31
0.0
  0
LINE
  5
F4
330
1E
100
AcDbEntity
  8
0
100
AcDbLine
 10
30.245475
 20
1424.14
 30
0.0
 11
30.64295782548189
 21
1424.82764528808
 31
0.0
  0
LINE
  5
F5
330
1E
100
AcDbEntity
  8
0
100
AcDbLine
 10
28.791375
 20
1424.98
 30
0.0
 11
30.245475
 21
1424.14
 31
0.0
  0
LINE
  5
F6
330
1E
100
AcDbEntity
  8
0
100
AcDbLine
 10
28.791375
 20
1424.98
 30
0.0
 11
29.0430692737422
 21
1425.415431093569
 31
0.0
  0
LINE
  5
F7
330
1E
100
AcDbEntity
  8
0
100
AcDbLine
 10
30.472375
 20
1422.849999999999
 30
0.0
 11
31.199475
 21
1422.43
 31
0.0
  0
LINE
  5
F8
330
1E
100
AcDbEntity
  8
0
100
AcDbLine
 10
30.333375
 20
1424.67
 30
0.0
 11
30.8335760905004
 21
1425.53534788657
 31
0.0
  0
LINE
  5
F9
330
1E
100
AcDbEntity
  8
0
100
AcDbLine
 10
28.87937499999999
 20
1425.51
 30
0.0
 11
30.333375
 21
1424.67
 31
0.0
  0
LINE
  5
FA
330
1E
100
AcDbEntity
  8
0
100
AcDbLine
 10
28.87937499999999
 20
1425.51
 30
0.0
 11
29.3789487599418
 21
1426.3742626047
 31
0.0
  0
LINE
  5
FB
330
1E
100
AcDbEntity
  8
0
100
AcDbLine
 10
25.895375
 20
1426.07
 30
0.0
 11
26.2914346144442
 21
1426.75914372913
 31
0.0
  0
LINE
  5
FC
330
1E
100
AcDbEntity
  8
0
100
AcDbLine
 10
25.895375
 20
1426.07
 30
0.0
 11
26.1491701339637
 21
1426.5116035331
 31
0.0
  0
LINE
  5
FD
330
1E
100
AcDbEntity
  8
0
100
AcDbLine
 10
26.1389787797052
 20
1426.49387057669
 30
0.0
 11
30.0482885874335
 21
1424.00908136623
 31
0.0
  0
LINE
  5
FE
330
1E
100
AcDbEntity
  8
0
100
AcDbLine
 10
31.199475
 20
1422.43
 30
0.0
 11
31.59103069833129
 21
1423.1113750526
 31
0.0
  0
LINE
  5
FF
330
1E
100
AcDbEntity
  8
0
100
AcDbLine
 10
31.369475
 20
1422.91
 30
0.0
 11
31.7634286461517
 21
1423.59153980784
 31
0.0
  0
LINE
  5
100
330
1E
100
AcDbEntity
  8
0
100
AcDbLine
 10
31.214475
 20
1422.42
 30
0.0
 11
31.941375
 21
1422.01
 31
0.0
  0
LINE
  5
101
330
1E
100
AcDbEntity
  8
0
100
AcDbLine
 10
31.214475
 20
1422.42
 30
0.0
 11
31.6807863216814
 21
1423.231462846009
 31
0.0
  0
LINE
  5
102
330
1E
100
AcDbEntity
  8
0
100
AcDbLine
 10
31.214475
 20
1422.42
 30
0.0
 11
32.473475
 21
1421.7
 31
0.0
  0
LINE
  5
103
330
1E
100
AcDbEntity
  8
0
100
AcDbLine
 10
31.214475
 20
1422.42
 30
0.0
 11
31.5871289202863
 21
1423.068482669569
 31
0.0
  0
LINE
  5
104
330
1E
100
AcDbEntity
  8
0
100
AcDbLine
 10
32.473475
 20
1421.7
 30
0.0
 11
33.200375
 21
1421.28
 31
0.0
  0
LINE
  5
105
330
1E
100
AcDbEntity
  8
0
100
AcDbLine
 10
33.200375
 20
1421.28
 30
0.0
 11
33.626076176813
 21
1422.016463035889
 31
0.0
  0
LINE
  5
106
330
1E
100
AcDbEntity
  8
0
100
AcDbLine
 10
31.941375
 20
1422.01
 30
0.0
 11
32.402457110139
 21
1422.80767205054
 31
0.0
  0
LINE
  5
107
330
1E
100
AcDbEntity
  8
0
100
AcDbLine
 10
31.941375
 20
1422.01
 30
0.0
 11
33.200375
 21
1421.28
 31
0.0
  0
LINE
  5
108
330
1E
100
AcDbEntity
  8
0
100
AcDbLine
 10
31.4790977630263
 20
1423.099647380039
 30
0.0
 11
31.5713443189466
 21
1423.04101471644
 31
0.0
  0
LINE
  5
109
330
1E
100
AcDbEntity
  8
0
100
AcDbLine
 10
36.80747499999999
 20
1419.769999999999
 30
0.0
 11
38.32444276745349
 21
1418.895117915369
 31
0.0
  0
LINE
  5
10A
330
1E
100
AcDbEntity
  8
0
100
AcDbLine
 10
36.80747499999999
 20
1419.769999999999
 30
0.0
 11
37.1579152002361
 21
1419.56789033129
 31
0.0
  0
LINE
  5
10B
330
1E
100
AcDbEntity
  8
0
100
AcDbLine
 10
36.22537499999999
 20
1420.11
 30
0.0
 11
36.80747499999999
 21
1419.769999999999
 31
0.0
  0
LINE
  5
10C
330
1E
100
AcDbEntity
  8
0
100
AcDbLine
 10
35.789375
 20
1420.36
 30
0.0
 11
37.2062523729287
 21
1419.542527910919
 31
0.0
  0
LINE
  5
10D
330
1E
100
AcDbEntity
  8
0
100
AcDbLine
 10
35.935375
 20
1420.279999999999
 30
0.0
 11
36.22537499999999
 21
1420.11
 31
0.0
  0
LINE
  5
10E
330
1E
100
AcDbEntity
  8
0
100
AcDbLine
 10
35.935375
 20
1420.279999999999
 30
0.0
 11
37.66149264707179
 21
1419.28352941176
 31
0.0
  0
LINE
  5
10F
330
1E
100
AcDbEntity
  8
0
100
AcDbLine
 10
35.935375
 20
1420.279999999999
 30
0.0
 11
36.70400209117149
 21
1419.83627920786
 31
0.0
  0
LINE
  5
110
330
1E
100
AcDbEntity
  8
0
100
AcDbLine
 10
35.935375
 20
1420.279999999999
 30
0.0
 11
36.70400209117149
 21
1419.83627920786
 31
0.0
  0
LINE
  5
111
330
1E
100
AcDbEntity
  8
0
100
AcDbLine
 10
33.50709930733779
 20
1421.81063305169
 30
0.0
 11
35.789375
 21
1420.36
 31
0.0
  0
LINE
  5
112
330
1E
100
AcDbEntity
  8
0
100
AcDbLine
 10
31.628375
 20
1425.07
 30
0.0
 11
34.3035199854471
 21
1423.52837716369
 31
0.0
  0
LINE
  5
113
330
1E
100
AcDbEntity
  8
0
100
AcDbLine
 10
30.756375
 20
1425.58
 30
0.0
 11
37.153475
 21
1421.88
 31
0.0
  0
LINE
  5
114
330
1E
100
AcDbEntity
  8
0
100
AcDbLine
 10
22.671475
 20
1427.93
 30
0.0
 11
23.0309992187489
 21
1427.7272421875
 31
0.0
  0
LINE
  5
115
330
1E
100
AcDbEntity
  8
0
100
AcDbLine
 10
22.139375
 20
1428.24
 30
0.0
 11
22.5990313677406
 21
1427.97715146948
 31
0.0
  0
LINE
  5
116
330
1E
100
AcDbEntity
  8
0
100
AcDbLine
 10
22.61137499999999
 20
1427.97
 30
0.0
 11
23.337375
 21
1427.55
 31
0.0
  0
LINE
  5
117
330
1E
100
AcDbEntity
  8
0
100
AcDbLine
 10
23.33931838344189
 20
1427.55336205335
 30
0.0
 11
23.398475
 21
1427.52
 31
0.0
  0
LINE
  5
118
330
1E
100
AcDbEntity
  8
0
100
AcDbLine
 10
23.398475
 20
1427.52
 30
0.0
 11
23.7243306385772
 21
1428.08373025474
 31
0.0
  0
LINE
  5
119
330
1E
100
AcDbEntity
  8
0
100
AcDbLine
 10
23.339520782807
 20
1427.55371220426
 30
0.0
 11
23.398475
 21
1427.52
 31
0.0
  0
LINE
  5
11A
330
1E
100
AcDbEntity
  8
0
100
AcDbLine
 10
23.337375
 20
1427.55
 30
0.0
 11
23.58896839983019
 21
1427.985256581709
 31
0.0
  0
LINE
  5
11B
330
1E
100
AcDbEntity
  8
0
100
AcDbLine
 10
21.41247499999999
 20
1428.66
 30
0.0
 11
22.139375
 21
1428.24
 31
0.0
  0
LINE
  5
11C
330
1E
100
AcDbEntity
  8
0
100
AcDbLine
 10
21.41247499999999
 20
1428.66
 30
0.0
 11
22.671475
 21
1427.93
 31
0.0
  0
LINE
  5
11D
330
1E
100
AcDbEntity
  8
0
100
AcDbLine
 10
21.351375
 20
1428.7
 30
0.0
 11
22.078475
 21
1428.279999999999
 31
0.0
  0
LINE
  5
11E
330
1E
100
AcDbEntity
  8
0
100
AcDbLine
 10
21.351375
 20
1428.7
 30
0.0
 11
21.76071120449989
 21
1429.40815163378
 31
0.0
  0
LINE
  5
11F
330
1E
100
AcDbEntity
  8
0
100
AcDbLine
 10
21.351375
 20
1428.7
 30
0.0
 11
22.61137499999999
 21
1427.97
 31
0.0
  0
LINE
  5
120
330
1E
100
AcDbEntity
  8
0
100
AcDbLine
 10
22.078475
 20
1428.279999999999
 30
0.0
 11
22.3289146844704
 21
1428.71326065413
 31
0.0
  0
LINE
  5
121
330
1E
100
AcDbEntity
  8
0
100
AcDbLine
 10
22.078475
 20
1428.279999999999
 30
0.0
 11
23.337375
 21
1427.55
 31
0.0
  0
LINE
  5
122
330
1E
100
AcDbEntity
  8
0
100
AcDbLine
 10
23.615375
 20
1427.97
 30
0.0
 11
24.0577552215061
 21
1428.73531778321
 31
0.0
  0
LINE
  5
123
330
1E
100
AcDbEntity
  8
0
100
AcDbLine
 10
23.615375
 20
1427.97
 30
0.0
 11
23.9555366534096
 21
1428.5584796604
 31
0.0
  0
LINE
  5
124
330
1E
100
AcDbEntity
  8
0
100
AcDbLine
 10
22.16147499999999
 20
1428.81
 30
0.0
 11
23.615375
 21
1427.97
 31
0.0
  0
LINE
  5
125
330
1E
100
AcDbEntity
  8
0
100
AcDbLine
 10
22.16147499999999
 20
1428.81
 30
0.0
 11
22.5760376243141
 21
1429.527193340059
 31
0.0
  0
LINE
  5
126
330
1E
100
AcDbEntity
  8
0
100
AcDbLine
 10
23.909375
 20
1427.22
 30
0.0
 11
24.636375
 21
1426.8
 31
0.0
  0
LINE
  5
127
330
1E
100
AcDbEntity
  8
0
100
AcDbLine
 10
23.909375
 20
1427.22
 30
0.0
 11
24.36045890245349
 21
1428.000375151239
 31
0.0
  0
LINE
  5
128
330
1E
100
AcDbEntity
  8
0
100
AcDbLine
 10
23.909375
 20
1427.22
 30
0.0
 11
25.168475
 21
1426.49
 31
0.0
  0
LINE
  5
129
330
1E
100
AcDbEntity
  8
0
100
AcDbLine
 10
23.909375
 20
1427.22
 30
0.0
 11
24.2114855276881
 21
1427.7426512129
 31
0.0
  0
LINE
  5
12A
330
1E
100
AcDbEntity
  8
0
100
AcDbLine
 10
24.636375
 20
1426.8
 30
0.0
 11
25.0694820348072
 21
1427.54927517022
 31
0.0
  0
LINE
  5
12B
330
1E
100
AcDbEntity
  8
0
100
AcDbLine
 10
24.636375
 20
1426.8
 30
0.0
 11
25.895375
 21
1426.07
 31
0.0
  0
LINE
  5
12C
330
1E
100
AcDbEntity
  8
0
100
AcDbLine
 10
23.6694387844202
 20
1428.063530347049
 30
0.0
 11
24.2014880146063
 21
1427.725355515269
 31
0.0
  0
LINE
  5
12D
330
1E
100
AcDbEntity
  8
0
100
AcDbLine
 10
22.74874263132629
 20
1430.200465678509
 30
0.0
 11
22.91102666719019
 21
1430.10672438424
 31
0.0
  0
LINE
  5
12E
330
1E
100
AcDbEntity
  8
0
100
AcDbLine
 10
22.248475
 20
1429.33
 30
0.0
 11
22.7489898579008
 21
1430.20089585275
 31
0.0
  0
LINE
  5
12F
330
1E
100
AcDbEntity
  8
0
100
AcDbLine
 10
22.248475
 20
1429.33
 30
0.0
 11
22.6760233193155
 21
1430.073934075609
 31
0.0
  0
LINE
  5
130
330
1E
100
AcDbEntity
  8
0
100
AcDbLine
 10
24.39691980884949
 20
1429.24730951931
 30
0.0
 11
25.36160130351269
 21
1428.69041390433
 31
0.0
  0
LINE
  5
131
330
1E
100
AcDbEntity
  8
0
100
AcDbLine
 10
25.085475
 20
1428.849999999999
 30
0.0
 11
30.756375
 21
1425.58
 31
0.0
  0
LINE
  5
132
330
1E
100
AcDbEntity
  8
0
100
AcDbLine
 10
25.96797956306989
 20
1428.340361171239
 30
0.0
 11
26.1285376527095
 21
1428.24854081815
 31
0.0
  0
LINE
  5
133
330
1E
100
AcDbEntity
  8
0
100
AcDbLine
 10
26.176475
 20
1428.22
 30
0.0
 11
31.628375
 21
1425.07
 31
0.0
  0
LINE
  5
134
330
1E
100
AcDbEntity
  8
0
100
AcDbLine
 10
25.222375
 20
1429.93
 30
0.0
 11
30.965375
 21
1426.61
 31
0.0
  0
LINE
  5
135
330
1E
100
AcDbEntity
  8
0
100
AcDbLine
 10
30.965375
 20
1426.61
 30
0.0
 11
37.14437499999999
 21
1423.04
 31
0.0
  0
LINE
  5
136
330
1E
100
AcDbEntity
  8
0
100
AcDbLine
 10
38.413375
 20
1419.42
 30
0.0
 11
39.866375
 21
1418.58
 31
0.0
  0
LINE
  5
137
330
1E
100
AcDbEntity
  8
0
100
AcDbLine
 10
38.413375
 20
1419.42
 30
0.0
 11
38.6640054554651
 21
1419.85609699251
 31
0.0
  0
LINE
  5
138
330
1E
100
AcDbEntity
  8
0
100
AcDbLine
 10
38.501475
 20
1419.95
 30
0.0
 11
39.95537499999999
 21
1419.109999999999
 31
0.0
  0
LINE
  5
139
330
1E
100
AcDbEntity
  8
0
100
AcDbLine
 10
38.501475
 20
1419.95
 30
0.0
 11
39.0010437622481
 21
1420.81425395869
 31
0.0
  0
LINE
  5
13A
330
1E
100
AcDbEntity
  8
0
100
AcDbLine
 10
37.46137499999999
 20
1419.4
 30
0.0
 11
38.3255484949642
 21
1418.89704188124
 31
0.0
  0
LINE
  5
13B
330
1E
100
AcDbEntity
  8
0
100
AcDbLine
 10
37.46137499999999
 20
1419.4
 30
0.0
 11
38.3272769408755
 21
1418.900049377119
 31
0.0
  0
LINE
  5
13C
330
1E
100
AcDbEntity
  8
0
100
AcDbLine
 10
37.153475
 20
1421.88
 30
0.0
 11
43.186375
 21
1418.4
 31
0.0
  0
LINE
  5
13D
330
1E
100
AcDbEntity
  8
0
100
AcDbLine
 10
37.14437499999999
 20
1423.04
 30
0.0
 11
43.614375
 21
1419.31
 31
0.0
  0
LINE
  5
13E
330
1E
100
AcDbEntity
  8
0
100
AcDbLine
 10
43.614375
 20
1419.31
 30
0.0
 11
50.011375
 21
1415.61
 31
0.0
  0
LINE
  5
13F
330
1E
100
AcDbEntity
  8
0
100
AcDbLine
 10
54.5199155405389
 20
1408.34567567568
 30
0.0
 11
54.57937499999999
 21
1408.31
 31
0.0
  0
LINE
  5
140
330
1E
100
AcDbEntity
  8
0
100
AcDbLine
 10
54.675475
 20
1408.26
 30
0.0
 11
55.6183061578465
 21
1408.91272926312
 31
0.0
  0
LINE
  5
141
330
1E
100
AcDbEntity
  8
0
100
AcDbLine
 10
54.600375
 20
1408.3
 30
0.0
 11
54.668475
 21
1408.26
 31
0.0
  0
LINE
  5
142
330
1E
100
AcDbEntity
  8
0
100
AcDbLine
 10
54.668475
 20
1408.26
 30
0.0
 11
55.6639694323797
 21
1408.949440995679
 31
0.0
  0
LINE
  5
143
330
1E
100
AcDbEntity
  8
0
100
AcDbLine
 10
54.571475
 20
1408.319999999999
 30
0.0
 11
54.668475
 21
1408.26
 31
0.0
  0
LINE
  5
144
330
1E
100
AcDbEntity
  8
0
100
AcDbLine
 10
54.371375
 20
1408.43
 30
0.0
 11
54.571475
 21
1408.319999999999
 31
0.0
  0
LINE
  5
145
330
1E
100
AcDbEntity
  8
0
100
AcDbLine
 10
54.371375
 20
1408.43
 30
0.0
 11
54.600375
 21
1408.3
 31
0.0
  0
LINE
  5
146
330
1E
100
AcDbEntity
  8
0
100
AcDbLine
 10
58.132475
 20
1407.46
 30
0.0
 11
58.3813791790366
 21
1407.89060422973
 31
0.0
  0
LINE
  5
147
330
1E
100
AcDbEntity
  8
0
100
AcDbLine
 10
58.448375
 20
1406.7
 30
0.0
 11
58.6986543296089
 21
1407.13298324022
 31
0.0
  0
LINE
  5
148
330
1E
100
AcDbEntity
  8
0
100
AcDbLine
 10
58.448375
 20
1406.7
 30
0.0
 11
58.9261915142195
 21
1407.5266225696
 31
0.0
  0
LINE
  5
149
330
1E
100
AcDbEntity
  8
0
100
AcDbLine
 10
58.448375
 20
1406.7
 30
0.0
 11
58.88723185949579
 21
1407.459222366929
 31
0.0
  0
LINE
  5
14A
330
1E
100
AcDbEntity
  8
0
100
AcDbLine
 10
57.655475
 20
1408.31
 30
0.0
 11
57.9740648818847
 21
1408.86434639448
 31
0.0
  0
LINE
  5
14B
330
1E
100
AcDbEntity
  8
0
100
AcDbLine
 10
57.655475
 20
1408.31
 30
0.0
 11
59.109375
 21
1407.469999999999
 31
0.0
  0
LINE
  5
14C
330
1E
100
AcDbEntity
  8
0
100
AcDbLine
 10
58.067375
 20
1408.65
 30
0.0
 11
58.5674542130512
 21
1409.52013783071
 31
0.0
  0
LINE
  5
14D
330
1E
100
AcDbEntity
  8
0
100
AcDbLine
 10
58.067375
 20
1408.65
 30
0.0
 11
59.521475
 21
1407.81
 31
0.0
  0
LINE
  5
14E
330
1E
100
AcDbEntity
  8
0
100
AcDbLine
 10
56.678375
 20
1408.3
 30
0.0
 11
57.1462679035804
 21
1409.10945472319
 31
0.0
  0
LINE
  5
14F
330
1E
100
AcDbEntity
  8
0
100
AcDbLine
 10
56.678375
 20
1408.3
 30
0.0
 11
58.132475
 21
1407.46
 31
0.0
  0
LINE
  5
150
330
1E
100
AcDbEntity
  8
0
100
AcDbLine
 10
56.994475
 20
1407.54
 30
0.0
 11
57.2446817443817
 21
1407.97285766778
 31
0.0
  0
LINE
  5
151
330
1E
100
AcDbEntity
  8
0
100
AcDbLine
 10
56.994475
 20
1407.54
 30
0.0
 11
58.448375
 21
1406.7
 31
0.0
  0
LINE
  5
152
330
1E
100
AcDbEntity
  8
0
100
AcDbLine
 10
58.6985910129615
 20
1407.13287370242
 30
0.0
 11
60.797375
 21
1405.92
 31
0.0
  0
LINE
  5
153
330
1E
100
AcDbEntity
  8
0
100
AcDbLine
 10
55.6183061578465
 20
1408.91272926312
 30
0.0
 11
56.217475
 21
1408.57
 31
0.0
  0
LINE
  5
154
330
1E
100
AcDbEntity
  8
0
100
AcDbLine
 10
55.6139379364685
 20
1408.91479111393
 30
0.0
 11
57.24441318561811
 21
1407.97239306112
 31
0.0
  0
LINE
  5
155
330
1E
100
AcDbEntity
  8
0
100
AcDbLine
 10
55.6558802168061
 20
1408.89123660758
 30
0.0
 11
56.6785238285221
 21
1408.30025747334
 31
0.0
  0
LINE
  5
156
330
1E
100
AcDbEntity
  8
0
100
AcDbLine
 10
55.8480799500976
 20
1408.78129685716
 30
0.0
 11
56.67906950452429
 21
1408.30120149283
 31
0.0
  0
LINE
  5
157
330
1E
100
AcDbEntity
  8
0
100
AcDbLine
 10
60.2717015877501
 20
1406.23088016642
 30
0.0
 11
61.087375
 21
1405.76
 31
0.0
  0
LINE
  5
158
330
1E
100
AcDbEntity
  8
0
100
AcDbLine
 10
58.7008778925539
 20
1407.13683000412
 30
0.0
 11
59.561375
 21
1406.64
 31
0.0
  0
LINE
  5
159
330
1E
100
AcDbEntity
  8
0
100
AcDbLine
 10
59.109375
 20
1407.469999999999
 30
0.0
 11
59.35878882152749
 21
1407.903980049459
 31
0.0
  0
LINE
  5
15A
330
1E
100
AcDbEntity
  8
0
100
AcDbLine
 10
59.521475
 20
1407.81
 30
0.0
 11
60.0210534121272
 21
1408.679266437099
 31
0.0
  0
LINE
  5
15B
330
1E
100
AcDbEntity
  8
0
100
AcDbLine
 10
58.7227887127586
 20
1407.12505219826
 30
0.0
 11
61.087375
 21
1405.76
 31
0.0
  0
LINE
  5
15C
330
1E
100
AcDbEntity
  8
0
100
AcDbLine
 10
58.9243999110414
 20
1407.003985765119
 30
0.0
 11
61.233375
 21
1405.67
 31
0.0
  0
LINE
  5
15D
330
1E
100
AcDbEntity
  8
0
100
AcDbLine
 10
58.6986543296089
 20
1407.13298324022
 30
0.0
 11
59.561375
 21
1406.64
 31
0.0
  0
LINE
  5
15E
330
1E
100
AcDbEntity
  8
0
100
AcDbLine
 10
60.797375
 20
1405.92
 30
0.0
 11
61.087375
 21
1405.76
 31
0.0
  0
LINE
  5
15F
330
1E
100
AcDbEntity
  8
0
100
AcDbLine
 10
61.233375
 20
1405.67
 30
0.0
 11
63.62886117407
 21
1404.42022108114
 31
0.0
  0
LINE
  5
160
330
1E
100
AcDbEntity
  8
0
100
AcDbLine
 10
55.54844520072349
 20
1408.95264524675
 30
0.0
 11
57.24441318561811
 21
1407.97239306112
 31
0.0
  0
LINE
  5
161
330
1E
100
AcDbEntity
  8
0
100
AcDbLine
 10
55.2661476174955
 20
1409.11935789208
 30
0.0
 11
56.217475
 21
1408.57
 31
0.0
  0
LINE
  5
162
330
1E
100
AcDbEntity
  8
0
100
AcDbLine
 10
54.836375
 20
1409.359999999999
 30
0.0
 11
56.217475
 21
1408.57
 31
0.0
  0
LINE
  5
163
330
1E
100
AcDbEntity
  8
0
100
AcDbLine
 10
61.869475
 20
1407.61
 30
0.0
 11
68.26647499999999
 21
1403.92
 31
0.0
  0
LINE
  5
164
330
1E
100
AcDbEntity
  8
0
100
AcDbLine
 10
55.69047499999999
 20
1411.18
 30
0.0
 11
59.8537965420224
 21
1408.776020423719
 31
0.0
  0
LINE
  5
165
330
1E
100
AcDbEntity
  8
0
100
AcDbLine
 10
55.836375
 20
1411.1
 30
0.0
 11
61.869475
 21
1407.61
 31
0.0
  0
LINE
  5
166
330
1E
100
AcDbEntity
  8
0
100
AcDbLine
 10
65.65247499999999
 20
1403.119999999999
 30
0.0
 11
66.0452139911287
 21
1403.79943845465
 31
0.0
  0
LINE
  5
167
330
1E
100
AcDbEntity
  8
0
100
AcDbLine
 10
65.65247499999999
 20
1403.119999999999
 30
0.0
 11
67.106375
 21
1402.28
 31
0.0
  0
LINE
  5
168
330
1E
100
AcDbEntity
  8
0
100
AcDbLine
 10
65.323375
 20
1402.73
 30
0.0
 11
66.582475
 21
1402.009999999999
 31
0.0
  0
LINE
  5
169
330
1E
100
AcDbEntity
  8
0
100
AcDbLine
 10
65.323375
 20
1402.73
 30
0.0
 11
65.71690246675071
 21
1403.41080251748
 31
0.0
  0
LINE
  5
16A
330
1E
100
AcDbEntity
  8
0
100
AcDbLine
 10
65.323375
 20
1402.73
 30
0.0
 11
66.050375
 21
1402.309999999999
 31
0.0
  0
LINE
  5
16B
330
1E
100
AcDbEntity
  8
0
100
AcDbLine
 10
65.308475
 20
1402.74
 30
0.0
 11
65.7743393204609
 21
1403.5459452744
 31
0.0
  0
LINE
  5
16C
330
1E
100
AcDbEntity
  8
0
100
AcDbLine
 10
65.308475
 20
1402.74
 30
0.0
 11
65.67989420741101
 21
1403.382555228819
 31
0.0
  0
LINE
  5
16D
330
1E
100
AcDbEntity
  8
0
100
AcDbLine
 10
63.322375
 20
1403.89
 30
0.0
 11
64.58147499999999
 21
1403.16
 31
0.0
  0
LINE
  5
16E
330
1E
100
AcDbEntity
  8
0
100
AcDbLine
 10
63.322375
 20
1403.89
 30
0.0
 11
63.7469552576038
 21
1404.62452384565
 31
0.0
  0
LINE
  5
16F
330
1E
100
AcDbEntity
  8
0
100
AcDbLine
 10
63.322375
 20
1403.89
 30
0.0
 11
63.6414209921233
 21
1404.441949566369
 31
0.0
  0
LINE
  5
170
330
1E
100
AcDbEntity
  8
0
100
AcDbLine
 10
64.58147499999999
 20
1403.16
 30
0.0
 11
65.0441173261326
 21
1403.96037122421
 31
0.0
  0
LINE
  5
171
330
1E
100
AcDbEntity
  8
0
100
AcDbLine
 10
64.58147499999999
 20
1403.16
 30
0.0
 11
65.308475
 21
1402.74
 31
0.0
  0
LINE
  5
172
330
1E
100
AcDbEntity
  8
0
100
AcDbLine
 10
66.65247499999999
 20
1404.849999999999
 30
0.0
 11
68.0266451803176
 21
1404.05606441195
 31
0.0
  0
LINE
  5
173
330
1E
100
AcDbEntity
  8
0
100
AcDbLine
 10
66.050375
 20
1402.309999999999
 30
0.0
 11
67.309375
 21
1401.59
 31
0.0
  0
LINE
  5
174
330
1E
100
AcDbEntity
  8
0
100
AcDbLine
 10
66.582475
 20
1402.009999999999
 30
0.0
 11
66.83063228916529
 21
1402.43931211026
 31
0.0
  0
LINE
  5
175
330
1E
100
AcDbEntity
  8
0
100
AcDbLine
 10
66.582475
 20
1402.009999999999
 30
0.0
 11
67.309375
 21
1401.59
 31
0.0
  0
LINE
  5
176
330
1E
100
AcDbEntity
  8
0
100
AcDbLine
 10
65.6655033886976
 20
1403.35765911245
 30
0.0
 11
65.76103914172669
 21
1403.30781596519
 31
0.0
  0
LINE
  5
177
330
1E
100
AcDbEntity
  8
0
100
AcDbLine
 10
65.6655033886976
 20
1403.35765911245
 30
0.0
 11
65.76103914172669
 21
1403.30781596519
 31
0.0
  0
LINE
  5
178
330
1E
100
AcDbEntity
  8
0
100
AcDbLine
 10
63.93643753055489
 20
1406.41770802912
 30
0.0
 11
67.394375
 21
1404.42
 31
0.0
  0
LINE
  5
179
330
1E
100
AcDbEntity
  8
0
100
AcDbLine
 10
62.878375
 20
1408.19
 30
0.0
 11
69.057475
 21
1404.619999999999
 31
0.0
  0
LINE
  5
17A
330
1E
100
AcDbEntity
  8
0
100
AcDbLine
 10
56.40837499999999
 20
1411.92
 30
0.0
 11
62.878375
 21
1408.19
 31
0.0
  0
LINE
  5
17B
330
1E
100
AcDbEntity
  8
0
100
AcDbLine
 10
67.106375
 20
1402.28
 30
0.0
 11
67.3572048196824
 21
1402.71393558805
 31
0.0
  0
LINE
  5
17C
330
1E
100
AcDbEntity
  8
0
100
AcDbLine
 10
67.309375
 20
1401.59
 30
0.0
 11
67.7524809919757
 21
1402.35657336612
 31
0.0
  0
LINE
  5
17D
330
1E
100
AcDbEntity
  8
0
100
AcDbLine
 10
67.27747499999999
 20
1402.759999999999
 30
0.0
 11
67.6737655771672
 21
1403.445582698499
 31
0.0
  0
LINE
  5
17E
330
1E
100
AcDbEntity
  8
0
100
AcDbLine
 10
67.27747499999999
 20
1402.759999999999
 30
0.0
 11
68.731375
 21
1401.92
 31
0.0
  0
LINE
  5
17F
330
1E
100
AcDbEntity
  8
0
100
AcDbLine
 10
67.26141708247469
 20
1402.52503510802
 30
0.0
 11
71.3700874471915
 21
1400.38144953364
 31
0.0
  0
LINE
  5
180
330
1E
100
AcDbEntity
  8
0
100
AcDbLine
 10
66.908375
 20
1430.109999999999
 30
0.0
 11
73.378375
 21
1426.37
 31
0.0
  0
LINE
  5
181
330
1E
100
AcDbEntity
  8
0
100
AcDbLine
 10
60.511375
 20
1433.799999999999
 30
0.0
 11
66.908375
 21
1430.109999999999
 31
0.0
  0
LINE
  5
182
330
1E
100
AcDbEntity
  8
0
100
AcDbLine
 10
73.624475
 20
1398.52
 30
0.0
 11
73.68665465433441
 21
1398.483943802
 31
0.0
  0
LINE
  5
183
330
1E
100
AcDbEntity
  8
0
100
AcDbLine
 10
73.624475
 20
1398.52
 30
0.0
 11
73.9506328751278
 21
1399.08425312397
 31
0.0
  0
LINE
  5
184
330
1E
100
AcDbEntity
  8
0
100
AcDbLine
 10
73.684375
 20
1398.48
 30
0.0
 11
74.94447499999999
 21
1397.76
 31
0.0
  0
LINE
  5
185
330
1E
100
AcDbEntity
  8
0
100
AcDbLine
 10
73.684375
 20
1398.48
 30
0.0
 11
73.935199518945
 21
1398.913926417769
 31
0.0
  0
LINE
  5
186
330
1E
100
AcDbEntity
  8
0
100
AcDbLine
 10
73.684375
 20
1398.48
 30
0.0
 11
74.411375
 21
1398.06
 31
0.0
  0
LINE
  5
187
330
1E
100
AcDbEntity
  8
0
100
AcDbLine
 10
73.907375
 20
1398.93
 30
0.0
 11
74.3526233583935
 21
1399.700279660019
 31
0.0
  0
LINE
  5
188
330
1E
100
AcDbEntity
  8
0
100
AcDbLine
 10
73.907375
 20
1398.93
 30
0.0
 11
75.361475
 21
1398.09
 31
0.0
  0
LINE
  5
189
330
1E
100
AcDbEntity
  8
0
100
AcDbLine
 10
73.907375
 20
1398.93
 30
0.0
 11
74.25113669124399
 21
1399.52470772585
 31
0.0
  0
LINE
  5
18A
330
1E
100
AcDbEntity
  8
0
100
AcDbLine
 10
73.113475
 20
1398.81
 30
0.0
 11
73.5647927443291
 21
1399.59077969769
 31
0.0
  0
LINE
  5
18B
330
1E
100
AcDbEntity
  8
0
100
AcDbLine
 10
72.386475
 20
1399.23
 30
0.0
 11
72.81959287406221
 21
1399.97929392213
 31
0.0
  0
LINE
  5
18C
330
1E
100
AcDbEntity
  8
0
100
AcDbLine
 10
72.386475
 20
1399.23
 30
0.0
 11
73.113475
 21
1398.81
 31
0.0
  0
LINE
  5
18D
330
1E
100
AcDbEntity
  8
0
100
AcDbLine
 10
68.731375
 20
1401.92
 30
0.0
 11
68.98184737007589
 21
1402.35331720023
 31
0.0
  0
LINE
  5
18E
330
1E
100
AcDbEntity
  8
0
100
AcDbLine
 10
69.14337500000001
 20
1402.26
 30
0.0
 11
69.64382623880251
 21
1403.12578064313
 31
0.0
  0
LINE
  5
18F
330
1E
100
AcDbEntity
  8
0
100
AcDbLine
 10
67.68937499999999
 20
1403.1
 30
0.0
 11
68.189146901922
 21
1403.96460539033
 31
0.0
  0
LINE
  5
190
330
1E
100
AcDbEntity
  8
0
100
AcDbLine
 10
67.68937499999999
 20
1403.1
 30
0.0
 11
69.14337500000001
 21
1402.26
 31
0.0
  0
LINE
  5
191
330
1E
100
AcDbEntity
  8
0
100
AcDbLine
 10
71.126475
 20
1399.96
 30
0.0
 11
72.386475
 21
1399.23
 31
0.0
  0
LINE
  5
192
330
1E
100
AcDbEntity
  8
0
100
AcDbLine
 10
71.126475
 20
1399.96
 30
0.0
 11
71.5217363376569
 21
1400.64380211415
 31
0.0
  0
LINE
  5
193
330
1E
100
AcDbEntity
  8
0
100
AcDbLine
 10
71.126475
 20
1399.96
 30
0.0
 11
71.37742935061019
 21
1400.39415102656
 31
0.0
  0
LINE
  5
194
330
1E
100
AcDbEntity
  8
0
100
AcDbLine
 10
73.40742113247491
 20
1399.31852680918
 30
0.0
 11
73.96408254483531
 21
1399.02810405256
 31
0.0
  0
LINE
  5
195
330
1E
100
AcDbEntity
  8
0
100
AcDbLine
 10
74.411375
 20
1398.06
 30
0.0
 11
75.671375
 21
1397.34
 31
0.0
  0
LINE
  5
196
330
1E
100
AcDbEntity
  8
0
100
AcDbLine
 10
73.937375
 20
1400.65
 30
0.0
 11
79.316475
 21
1397.54
 31
0.0
  0
LINE
  5
197
330
1E
100
AcDbEntity
  8
0
100
AcDbLine
 10
67.394375
 20
1404.42
 30
0.0
 11
71.48627121918841
 21
1402.0633751897
 31
0.0
  0
LINE
  5
198
330
1E
100
AcDbEntity
  8
0
100
AcDbLine
 10
68.26647499999999
 20
1403.92
 30
0.0
 11
73.937375
 21
1400.65
 31
0.0
  0
LINE
  5
199
330
1E
100
AcDbEntity
  8
0
100
AcDbLine
 10
75.671375
 20
1397.34
 30
0.0
 11
76.07858428551828
 21
1398.04447206395
 31
0.0
  0
LINE
  5
19A
330
1E
100
AcDbEntity
  8
0
100
AcDbLine
 10
78.93147500000001
 20
1396.03
 30
0.0
 11
80.19037500000001
 21
1395.299999999999
 31
0.0
  0
LINE
  5
19B
330
1E
100
AcDbEntity
  8
0
100
AcDbLine
 10
78.93147500000001
 20
1396.03
 30
0.0
 11
79.3197331667374
 21
1396.70168662846
 31
0.0
  0
LINE
  5
19C
330
1E
100
AcDbEntity
  8
0
100
AcDbLine
 10
75.361475
 20
1398.09
 30
0.0
 11
75.7800179419378
 21
1398.81407928955
 31
0.0
  0
LINE
  5
19D
330
1E
100
AcDbEntity
  8
0
100
AcDbLine
 10
75.77447499999999
 20
1398.43
 30
0.0
 11
76.2761099675169
 21
1399.2978284938
 31
0.0
  0
LINE
  5
19E
330
1E
100
AcDbEntity
  8
0
100
AcDbLine
 10
75.77447499999999
 20
1398.43
 30
0.0
 11
77.228375
 21
1397.59
 31
0.0
  0
LINE
  5
19F
330
1E
100
AcDbEntity
  8
0
100
AcDbLine
 10
74.883375
 20
1397.79
 30
0.0
 11
75.61047499999999
 21
1397.37
 31
0.0
  0
LINE
  5
1A0
330
1E
100
AcDbEntity
  8
0
100
AcDbLine
 10
74.94447499999999
 20
1397.76
 30
0.0
 11
75.19186286855251
 21
1398.1879810126
 31
0.0
  0
LINE
  5
1A1
330
1E
100
AcDbEntity
  8
0
100
AcDbLine
 10
74.94447499999999
 20
1397.76
 30
0.0
 11
75.671375
 21
1397.34
 31
0.0
  0
LINE
  5
1A2
330
1E
100
AcDbEntity
  8
0
100
AcDbLine
 10
77.228375
 20
1397.59
 30
0.0
 11
77.72975344043292
 21
1398.45738470195
 31
0.0
  0
LINE
  5
1A3
330
1E
100
AcDbEntity
  8
0
100
AcDbLine
 10
76.02549113329691
 20
1397.9526209106
 30
0.0
 11
79.1120051909687
 21
1396.342317230379
 31
0.0
  0
LINE
  5
1A4
330
1E
100
AcDbEntity
  8
0
100
AcDbLine
 10
79.316475
 20
1397.54
 30
0.0
 11
84.187375
 21
1394.73
 31
0.0
  0
LINE
  5
1A5
330
1E
100
AcDbEntity
  8
0
100
AcDbLine
 10
74.800375
 20
1401.299999999999
 30
0.0
 11
80.252475
 21
1398.15
 31
0.0
  0
LINE
  5
1A6
330
1E
100
AcDbEntity
  8
0
100
AcDbLine
 10
69.057475
 20
1404.619999999999
 30
0.0
 11
74.800375
 21
1401.299999999999
 31
0.0
  0
LINE
  5
1A7
330
1E
100
AcDbEntity
  8
0
100
AcDbLine
 10
79.557475
 20
1422.8
 30
0.0
 11
85.300375
 21
1419.49
 31
0.0
  0
LINE
  5
1A8
330
1E
100
AcDbEntity
  8
0
100
AcDbLine
 10
73.378375
 20
1426.37
 30
0.0
 11
79.557475
 21
1422.8
 31
0.0
  0
LINE
  5
1A9
330
1E
100
AcDbEntity
  8
0
100
AcDbLine
 10
80.917475
 20
1394.88
 30
0.0
 11
81.37426995150851
 21
1395.674823215619
 31
0.0
  0
LINE
  5
1AA
330
1E
100
AcDbEntity
  8
0
100
AcDbLine
 10
80.19037500000001
 20
1395.299999999999
 30
0.0
 11
80.6219028521018
 21
1396.05085846266
 31
0.0
  0
LINE
  5
1AB
330
1E
100
AcDbEntity
  8
0
100
AcDbLine
 10
80.19037500000001
 20
1395.299999999999
 30
0.0
 11
80.917475
 21
1394.88
 31
0.0
  0
LINE
  5
1AC
330
1E
100
AcDbEntity
  8
0
100
AcDbLine
 10
85.36247499999999
 20
1392.319999999999
 30
0.0
 11
85.77401110220209
 21
1393.03195745681
 31
0.0
  0
LINE
  5
1AD
330
1E
100
AcDbEntity
  8
0
100
AcDbLine
 10
84.635475
 20
1392.74
 30
0.0
 11
85.0218990279947
 21
1393.40851356843
 31
0.0
  0
LINE
  5
1AE
330
1E
100
AcDbEntity
  8
0
100
AcDbLine
 10
84.635475
 20
1392.74
 30
0.0
 11
85.36247499999999
 21
1392.319999999999
 31
0.0
  0
LINE
  5
1AF
330
1E
100
AcDbEntity
  8
0
100
AcDbLine
 10
86.73647499999999
 20
1392.1
 30
0.0
 11
87.99537499999999
 21
1391.37
 31
0.0
  0
LINE
  5
1B0
330
1E
100
AcDbEntity
  8
0
100
AcDbLine
 10
86.73647499999999
 20
1392.1
 30
0.0
 11
87.2366406589637
 21
1392.96528659001
 31
0.0
  0
LINE
  5
1B1
330
1E
100
AcDbEntity
  8
0
100
AcDbLine
 10
87.99537499999999
 20
1391.37
 30
0.0
 11
88.49404085953549
 21
1392.23767859559
 31
0.0
  0
LINE
  5
1B2
330
1E
100
AcDbEntity
  8
0
100
AcDbLine
 10
87.99537499999999
 20
1391.37
 30
0.0
 11
88.722475
 21
1390.95
 31
0.0
  0
LINE
  5
1B3
330
1E
100
AcDbEntity
  8
0
100
AcDbLine
 10
89.4799809097074
 20
1391.17650847739
 30
0.0
 11
92.809375
 21
1385.22
 31
0.0
  0
LINE
  5
1B4
330
1E
100
AcDbEntity
  8
0
100
AcDbLine
 10
89.4364998660724
 20
1391.25450220323
 30
0.0
 11
92.777475
 21
1385.28
 31
0.0
  0
LINE
  5
1B5
330
1E
100
AcDbEntity
  8
0
100
AcDbLine
 10
90.438375
 20
1389.96
 30
0.0
 11
91.697375
 21
1389.24
 31
0.0
  0
LINE
  5
1B6
330
1E
100
AcDbEntity
  8
0
100
AcDbLine
 10
90.438375
 20
1389.96
 30
0.0
 11
90.87824034132109
 21
1390.7253656939
 31
0.0
  0
LINE
  5
1B7
330
1E
100
AcDbEntity
  8
0
100
AcDbLine
 10
90.438375
 20
1389.96
 30
0.0
 11
91.166475
 21
1389.54
 31
0.0
  0
LINE
  5
1B8
330
1E
100
AcDbEntity
  8
0
100
AcDbLine
 10
88.722475
 20
1390.95
 30
0.0
 11
89.22111593342359
 21
1391.81763522416
 31
0.0
  0
LINE
  5
1B9
330
1E
100
AcDbEntity
  8
0
100
AcDbLine
 10
88.9655915423955
 20
1391.373022783769
 30
0.0
 11
89.5258697574969
 21
1391.09468640341
 31
0.0
  0
LINE
  5
1BA
330
1E
100
AcDbEntity
  8
0
100
AcDbLine
 10
88.403475
 20
1392.29
 30
0.0
 11
92.038475
 21
1390.19
 31
0.0
  0
LINE
  5
1BB
330
1E
100
AcDbEntity
  8
0
100
AcDbLine
 10
84.10237499999999
 20
1393.04
 30
0.0
 11
84.36077246945371
 21
1392.89235602095
 31
0.0
  0
LINE
  5
1BC
330
1E
100
AcDbEntity
  8
0
100
AcDbLine
 10
84.39957971836941
 20
1392.87018220996
 30
0.0
 11
85.36247499999999
 21
1392.319999999999
 31
0.0
  0
LINE
  5
1BD
330
1E
100
AcDbEntity
  8
0
100
AcDbLine
 10
84.4016222793113
 20
1392.873736266
 30
0.0
 11
84.635475
 21
1392.74
 31
0.0
  0
LINE
  5
1BE
330
1E
100
AcDbEntity
  8
0
100
AcDbLine
 10
84.399475
 20
1392.87
 30
0.0
 11
84.84973670195158
 21
1393.6534553614
 31
0.0
  0
LINE
  5
1BF
330
1E
100
AcDbEntity
  8
0
100
AcDbLine
 10
82.07337499999999
 20
1394.22
 30
0.0
 11
82.41469463673601
 21
1394.02210997155
 31
0.0
  0
LINE
  5
1C0
330
1E
100
AcDbEntity
  8
0
100
AcDbLine
 10
82.07337499999999
 20
1394.22
 30
0.0
 11
82.34160285164369
 21
1394.68403418334
 31
0.0
  0
LINE
  5
1C1
330
1E
100
AcDbEntity
  8
0
100
AcDbLine
 10
83.93937499999999
 20
1393.72
 30
0.0
 11
84.43901075574849
 21
1394.58436985744
 31
0.0
  0
LINE
  5
1C2
330
1E
100
AcDbEntity
  8
0
100
AcDbLine
 10
82.48547499999999
 20
1394.56
 30
0.0
 11
82.9847686956249
 21
1395.42377809343
 31
0.0
  0
LINE
  5
1C3
330
1E
100
AcDbEntity
  8
0
100
AcDbLine
 10
82.48547499999999
 20
1394.56
 30
0.0
 11
83.93937499999999
 21
1393.72
 31
0.0
  0
LINE
  5
1C4
330
1E
100
AcDbEntity
  8
0
100
AcDbLine
 10
83.376475
 20
1393.46
 30
0.0
 11
83.57474115068109
 21
1393.346615068709
 31
0.0
  0
LINE
  5
1C5
330
1E
100
AcDbEntity
  8
0
100
AcDbLine
 10
83.376475
 20
1393.46
 30
0.0
 11
84.10237499999999
 21
1393.04
 31
0.0
  0
LINE
  5
1C6
330
1E
100
AcDbEntity
  8
0
100
AcDbLine
 10
82.41347500000001
 20
1394.02
 30
0.0
 11
83.67237499999999
 21
1393.29
 31
0.0
  0
LINE
  5
1C7
330
1E
100
AcDbEntity
  8
0
100
AcDbLine
 10
82.41347500000001
 20
1394.02
 30
0.0
 11
82.66549400187971
 21
1394.45599287325
 31
0.0
  0
LINE
  5
1C8
330
1E
100
AcDbEntity
  8
0
100
AcDbLine
 10
83.67237499999999
 20
1393.29
 30
0.0
 11
83.9244553991708
 21
1393.728619894559
 31
0.0
  0
LINE
  5
1C9
330
1E
100
AcDbEntity
  8
0
100
AcDbLine
 10
83.67237499999999
 20
1393.29
 30
0.0
 11
84.399475
 21
1392.87
 31
0.0
  0
LINE
  5
1CA
330
1E
100
AcDbEntity
  8
0
100
AcDbLine
 10
84.74434059764028
 20
1393.47006613989
 30
0.0
 11
86.90730836824078
 21
1392.39554172706
 31
0.0
  0
LINE
  5
1CB
330
1E
100
AcDbEntity
  8
0
100
AcDbLine
 10
81.14754880746628
 20
1395.280328424989
 30
0.0
 11
82.08737499999999
 21
1394.79
 31
0.0
  0
LINE
  5
1CC
330
1E
100
AcDbEntity
  8
0
100
AcDbLine
 10
82.08737499999999
 20
1394.79
 30
0.0
 11
82.49994920677041
 21
1394.58504037771
 31
0.0
  0
LINE
  5
1CD
330
1E
100
AcDbEntity
  8
0
100
AcDbLine
 10
81.6663419606478
 20
1396.18302851153
 30
0.0
 11
82.587375
 21
1395.65
 31
0.0
  0
LINE
  5
1CE
330
1E
100
AcDbEntity
  8
0
100
AcDbLine
 10
81.6669220272386
 20
1396.184037827399
 30
0.0
 11
82.8231085728944
 21
1395.51703908111
 31
0.0
  0
LINE
  5
1CF
330
1E
100
AcDbEntity
  8
0
100
AcDbLine
 10
81.6669220272386
 20
1396.184037827399
 30
0.0
 11
82.8231085728944
 21
1395.51703908111
 31
0.0
  0
LINE
  5
1D0
330
1E
100
AcDbEntity
  8
0
100
AcDbLine
 10
82.587375
 20
1395.65
 30
0.0
 11
86.62360204196959
 21
1393.32007282028
 31
0.0
  0
LINE
  5
1D1
330
1E
100
AcDbEntity
  8
0
100
AcDbLine
 10
84.187375
 20
1394.73
 30
0.0
 11
88.403475
 21
1392.29
 31
0.0
  0
LINE
  5
1D2
330
1E
100
AcDbEntity
  8
0
100
AcDbLine
 10
86.11177304261479
 20
1393.616285613719
 30
0.0
 11
86.62360204196959
 21
1393.32007282028
 31
0.0
  0
LINE
  5
1D3
330
1E
100
AcDbEntity
  8
0
100
AcDbLine
 10
85.19647500000001
 20
1395.299999999999
 30
0.0
 11
89.484475
 21
1392.82
 31
0.0
  0
LINE
  5
1D4
330
1E
100
AcDbEntity
  8
0
100
AcDbLine
 10
89.484475
 20
1392.82
 30
0.0
 11
93.119375
 21
1390.73
 31
0.0
  0
LINE
  5
1D5
330
1E
100
AcDbEntity
  8
0
100
AcDbLine
 10
80.93335890999941
 20
1396.60722704488
 30
0.0
 11
82.587375
 21
1395.65
 31
0.0
  0
LINE
  5
1D6
330
1E
100
AcDbEntity
  8
0
100
AcDbLine
 10
80.252475
 20
1398.15
 30
0.0
 11
85.19647500000001
 21
1395.299999999999
 31
0.0
  0
LINE
  5
1D7
330
1E
100
AcDbEntity
  8
0
100
AcDbLine
 10
90.75247500000001
 20
1416.339999999999
 30
0.0
 11
95.696475
 21
1413.49
 31
0.0
  0
LINE
  5
1D8
330
1E
100
AcDbEntity
  8
0
100
AcDbLine
 10
85.300375
 20
1419.49
 30
0.0
 11
90.75247500000001
 21
1416.339999999999
 31
0.0
  0
LINE
  5
1D9
330
1E
100
AcDbEntity
  8
0
100
AcDbLine
 10
91.166475
 20
1389.54
 30
0.0
 11
92.42437499999999
 21
1388.819999999999
 31
0.0
  0
LINE
  5
1DA
330
1E
100
AcDbEntity
  8
0
100
AcDbLine
 10
93.10747499999999
 20
1388.42
 30
0.0
 11
94.36637500000001
 21
1387.7
 31
0.0
  0
LINE
  5
1DB
330
1E
100
AcDbEntity
  8
0
100
AcDbLine
 10
93.64047499999999
 20
1388.12
 30
0.0
 11
94.11595123979999
 21
1388.942573894849
 31
0.0
  0
LINE
  5
1DC
330
1E
100
AcDbEntity
  8
0
100
AcDbLine
 10
93.64047499999999
 20
1388.12
 30
0.0
 11
94.36637500000001
 21
1387.7
 31
0.0
  0
LINE
  5
1DD
330
1E
100
AcDbEntity
  8
0
100
AcDbLine
 10
92.381375
 20
1388.84
 30
0.0
 11
93.64047499999999
 21
1388.12
 31
0.0
  0
LINE
  5
1DE
330
1E
100
AcDbEntity
  8
0
100
AcDbLine
 10
92.381375
 20
1388.84
 30
0.0
 11
93.10747499999999
 21
1388.42
 31
0.0
  0
LINE
  5
1DF
330
1E
100
AcDbEntity
  8
0
100
AcDbLine
 10
92.42437499999999
 20
1388.819999999999
 30
0.0
 11
92.92199804572858
 21
1389.68088786911
 31
0.0
  0
LINE
  5
1E0
330
1E
100
AcDbEntity
  8
0
100
AcDbLine
 10
91.697375
 20
1389.24
 30
0.0
 11
92.19452928013771
 21
1390.10007690464
 31
0.0
  0
LINE
  5
1E1
330
1E
100
AcDbEntity
  8
0
100
AcDbLine
 10
91.697375
 20
1389.24
 30
0.0
 11
92.42437499999999
 21
1388.819999999999
 31
0.0
  0
LINE
  5
1E2
330
1E
100
AcDbEntity
  8
0
100
AcDbLine
 10
92.038475
 20
1390.19
 30
0.0
 11
94.728375
 21
1388.64
 31
0.0
  0
LINE
  5
1E3
330
1E
100
AcDbEntity
  8
0
100
AcDbLine
 10
94.728375
 20
1388.64
 30
0.0
 11
96.83637500000001
 21
1387.42
 31
0.0
  0
LINE
  5
1E4
330
1E
100
AcDbEntity
  8
0
100
AcDbLine
 10
93.119375
 20
1390.73
 30
0.0
 11
95.954475
 21
1389.09
 31
0.0
  0
LINE
  5
1E5
330
1E
100
AcDbEntity
  8
0
100
AcDbLine
 10
95.954475
 20
1389.09
 30
0.0
 11
97.990375
 21
1387.91
 31
0.0
  0
LINE
  5
1E6
330
1E
100
AcDbEntity
  8
0
100
AcDbLine
 10
108.490575
 20
1406.1
 30
0.0
 11
109.798575
 21
1405.339999999999
 31
0.0
  0
LINE
  5
1E7
330
1E
100
AcDbEntity
  8
0
100
AcDbLine
 10
109.931932069559
 20
1404.39924334241
 30
0.0
 11
110.307575
 21
1405.05
 31
0.0
  0
LINE
  5
1E8
330
1E
100
AcDbEntity
  8
0
100
AcDbLine
 10
109.798575
 20
1405.339999999999
 30
0.0
 11
110.307575
 21
1405.05
 31
0.0
  0
LINE
  5
1E9
330
1E
100
AcDbEntity
  8
0
100
AcDbLine
 10
106.454575
 20
1407.28
 30
0.0
 11
108.490575
 21
1406.1
 31
0.0
  0
LINE
  5
1EA
330
1E
100
AcDbEntity
  8
0
100
AcDbLine
 10
99.984575
 20
1411.01
 30
0.0
 11
103.619575
 21
1408.91
 31
0.0
  0
LINE
  5
1EB
330
1E
100
AcDbEntity
  8
0
100
AcDbLine
 10
95.696475
 20
1413.49
 30
0.0
 11
99.984575
 21
1411.01
 31
0.0
  0
LINE
  5
1EC
330
1E
100
AcDbEntity
  8
0
100
AcDbLine
 10
95.68737500000001
 20
1414.65
 30
0.0
 11
99.90357500000001
 21
1412.21
 31
0.0
  0
LINE
  5
1ED
330
1E
100
AcDbEntity
  8
0
100
AcDbLine
 10
99.90357500000001
 20
1412.21
 30
0.0
 11
103.5385749999999
 21
1410.109999999999
 31
0.0
  0
LINE
  5
1EE
330
1E
100
AcDbEntity
  8
0
100
AcDbLine
 10
103.619575
 20
1408.91
 30
0.0
 11
106.454575
 21
1407.28
 31
0.0
  0
LINE
  5
1EF
330
1E
100
AcDbEntity
  8
0
100
AcDbLine
 10
103.5385749999999
 20
1410.109999999999
 30
0.0
 11
106.228575
 21
1408.56
 31
0.0
  0
LINE
  5
1F0
330
1E
100
AcDbEntity
  8
0
100
AcDbLine
 10
106.228575
 20
1408.56
 30
0.0
 11
108.336575
 21
1407.34
 31
0.0
  0
LINE
  5
1F1
330
1E
100
AcDbEntity
  8
0
100
AcDbLine
 10
108.336575
 20
1407.34
 30
0.0
 11
109.5725749999999
 21
1406.63
 31
0.0
  0
LINE
  5
1F2
330
1E
100
AcDbEntity
  8
0
100
AcDbLine
 10
109.5725749999999
 20
1406.63
 30
0.0
 11
110.0815749999999
 21
1406.34
 31
0.0
  0
LINE
  5
1F3
330
1E
100
AcDbEntity
  8
0
100
AcDbLine
 10
90.816475
 20
1417.46
 30
0.0
 11
95.68737500000001
 21
1414.65
 31
0.0
  0
LINE
  5
1F4
330
1E
100
AcDbEntity
  8
0
100
AcDbLine
 10
85.437375
 20
1420.56
 30
0.0
 11
90.816475
 21
1417.46
 31
0.0
  0
LINE
  5
1F5
330
1E
100
AcDbEntity
  8
0
100
AcDbLine
 10
79.766475
 20
1423.84
 30
0.0
 11
85.437375
 21
1420.56
 31
0.0
  0
LINE
  5
1F6
330
1E
100
AcDbEntity
  8
0
100
AcDbLine
 10
73.36937500000001
 20
1427.529999999999
 30
0.0
 11
79.766475
 21
1423.84
 31
0.0
  0
LINE
  5
1F7
330
1E
100
AcDbEntity
  8
0
100
AcDbLine
 10
67.336375
 20
1431.02
 30
0.0
 11
73.36937500000001
 21
1427.529999999999
 31
0.0
  0
LINE
  5
1F8
330
1E
100
AcDbEntity
  8
0
100
AcDbLine
 10
62.011375
 20
1436.4
 30
0.0
 11
110.0815749999999
 21
1406.34
 31
0.0
  0
LINE
  5
1F9
330
1E
100
AcDbEntity
  8
0
100
AcDbLine
 10
61.011375
 20
1434.67
 30
0.0
 11
67.336375
 21
1431.02
 31
0.0
  0
LINE
  5
1FA
330
1E
100
AcDbEntity
  8
0
100
AcDbLine
 10
54.114375
 20
1437.49
 30
0.0
 11
60.511375
 21
1433.799999999999
 31
0.0
  0
LINE
  5
1FB
330
1E
100
AcDbEntity
  8
0
100
AcDbLine
 10
41.46547499999999
 20
1444.8
 30
0.0
 11
47.64437499999999
 21
1441.23
 31
0.0
  0
LINE
  5
1FC
330
1E
100
AcDbEntity
  8
0
100
AcDbLine
 10
47.64437499999999
 20
1441.23
 30
0.0
 11
54.114375
 21
1437.49
 31
0.0
  0
LINE
  5
1FD
330
1E
100
AcDbEntity
  8
0
100
AcDbLine
 10
30.269475
 20
1451.26
 30
0.0
 11
35.722475
 21
1448.109999999999
 31
0.0
  0
LINE
  5
1FE
330
1E
100
AcDbEntity
  8
0
100
AcDbLine
 10
35.722475
 20
1448.109999999999
 30
0.0
 11
41.46547499999999
 21
1444.8
 31
0.0
  0
LINE
  5
1FF
330
1E
100
AcDbEntity
  8
0
100
AcDbLine
 10
25.32637499999999
 20
1454.11
 30
0.0
 11
30.269475
 21
1451.26
 31
0.0
  0
LINE
  5
200
330
1E
100
AcDbEntity
  8
0
100
AcDbLine
 10
26.335475
 20
1454.69
 30
0.0
 11
31.206475
 21
1451.869999999999
 31
0.0
  0
LINE
  5
201
330
1E
100
AcDbEntity
  8
0
100
AcDbLine
 10
31.206475
 20
1451.869999999999
 30
0.0
 11
36.585475
 21
1448.77
 31
0.0
  0
LINE
  5
202
330
1E
100
AcDbEntity
  8
0
100
AcDbLine
 10
36.585475
 20
1448.77
 30
0.0
 11
42.256475
 21
1445.5
 31
0.0
  0
LINE
  5
203
330
1E
100
AcDbEntity
  8
0
100
AcDbLine
 10
42.256475
 20
1445.5
 30
0.0
 11
48.653475
 21
1441.799999999999
 31
0.0
  0
LINE
  5
204
330
1E
100
AcDbEntity
  8
0
100
AcDbLine
 10
48.653475
 20
1441.799999999999
 30
0.0
 11
54.68637499999999
 21
1438.32
 31
0.0
  0
LINE
  5
205
330
1E
100
AcDbEntity
  8
0
100
AcDbLine
 10
54.68637499999999
 20
1438.32
 30
0.0
 11
61.011375
 21
1434.67
 31
0.0
  0
LINE
  5
206
330
1E
100
AcDbEntity
  8
0
100
AcDbLine
 10
21.037475
 20
1456.59
 30
0.0
 11
25.32637499999999
 21
1454.11
 31
0.0
  0
LINE
  5
207
330
1E
100
AcDbEntity
  8
0
100
AcDbLine
 10
22.119475
 20
1457.119999999999
 30
0.0
 11
26.335475
 21
1454.69
 31
0.0
  0
LINE
  5
208
330
1E
100
AcDbEntity
  8
0
100
AcDbLine
 10
18.48447499999999
 20
1459.22
 30
0.0
 11
22.119475
 21
1457.119999999999
 31
0.0
  0
LINE
  5
209
330
1E
100
AcDbEntity
  8
0
100
AcDbLine
 10
15.794475
 20
1460.77
 30
0.0
 11
18.48447499999999
 21
1459.22
 31
0.0
  0
LINE
  5
20A
330
1E
100
AcDbEntity
  8
0
100
AcDbLine
 10
13.686475
 20
1461.99
 30
0.0
 11
15.794475
 21
1460.77
 31
0.0
  0
LINE
  5
20B
330
1E
100
AcDbEntity
  8
0
100
AcDbLine
 10
12.450475
 20
1462.7
 30
0.0
 11
13.686475
 21
1461.99
 31
0.0
  0
LINE
  5
20C
330
1E
100
AcDbEntity
  8
0
100
AcDbLine
 10
11.941475
 20
1463.0
 30
0.0
 11
62.011375
 21
1436.4
 31
0.0
  0
LINE
  5
20D
330
1E
100
AcDbEntity
  8
0
100
AcDbLine
 10
11.941475
 20
1463.0
 30
0.0
 11
12.450475
 21
1462.7
 31
0.0
  0
LINE
  5
20E
330
1E
100
AcDbEntity
  8
0
100
AcDbLine
 10
100.3889555266589
 20
1387.9353590364
 30
0.0
 11
112.1142946146129
 21
1371.01040472261
 31
0.0
  0
LINE
  5
20F
330
1E
100
AcDbEntity
  8
0
100
AcDbLine
 10
110.282575
 20
1367.72
 30
0.0
 11
110.516575
 21
1368.14
 31
0.0
  0
LINE
  5
210
330
1E
100
AcDbEntity
  8
0
100
AcDbLine
 10
110.282575
 20
1367.72
 30
0.0
 11
160.9525749999999
 21
1295.36
 31
0.0
  0
LINE
  5
211
330
1E
100
AcDbEntity
  8
0
100
AcDbLine
 10
110.516575
 20
1368.14
 30
0.0
 11
111.174575
 21
1369.32
 31
0.0
  0
LINE
  5
212
330
1E
100
AcDbEntity
  8
0
100
AcDbLine
 10
111.174575
 20
1369.32
 30
0.0
 11
112.2085749999999
 21
1371.18
 31
0.0
  0
LINE
  5
213
330
1E
100
AcDbEntity
  8
0
100
AcDbLine
 10
111.174575
 20
1369.32
 30
0.0
 11
112.1142946146129
 21
1371.01040472261
 31
0.0
  0
LINE
  5
214
330
1E
100
AcDbEntity
  8
0
100
AcDbLine
 10
112.2085749999999
 20
1371.18
 30
0.0
 11
113.570575
 21
1373.63
 31
0.0
  0
LINE
  5
215
330
1E
100
AcDbEntity
  8
0
100
AcDbLine
 10
112.2085749999999
 20
1371.18
 30
0.0
 11
112.731583000011
 21
1372.12080000002
 31
0.0
  0
LINE
  5
216
330
1E
100
AcDbEntity
  8
0
100
AcDbLine
 10
112.2085749999909
 20
1371.17999999998
 30
0.0
 11
112.302575
 21
1371.35
 31
0.0
  0
LINE
  5
217
330
1E
100
AcDbEntity
  8
0
100
AcDbLine
 10
112.302575
 20
1371.35
 30
0.0
 11
112.725575
 21
1372.11
 31
0.0
  0
LINE
  5
218
330
1E
100
AcDbEntity
  8
0
100
AcDbLine
 10
113.570575
 20
1373.63
 30
0.0
 11
115.121575
 21
1376.42
 31
0.0
  0
LINE
  5
219
330
1E
100
AcDbEntity
  8
0
100
AcDbLine
 10
160.9525749999999
 20
1295.36
 30
0.0
 11
161.358575
 21
1295.68
 31
0.0
  0
LINE
  5
21A
330
1E
100
AcDbEntity
  8
0
100
AcDbLine
 10
160.9525749999999
 20
1295.36
 30
0.0
 11
161.8792128725149
 21
1295.19440574132
 31
0.0
  0
LINE
  5
21B
330
1E
100
AcDbEntity
  8
0
100
AcDbLine
 10
161.534686532644
 20
1295.63648209232
 30
0.0
 11
166.8308179861019
 21
1288.84079132389
 31
0.0
  0
LINE
  5
21C
330
1E
100
AcDbEntity
  8
0
100
AcDbLine
 10
161.358575
 20
1295.68
 30
0.0
 11
162.300575
 21
1296.359999999999
 31
0.0
  0
LINE
  5
21D
330
1E
100
AcDbEntity
  8
0
100
AcDbLine
 10
162.300575
 20
1296.359999999999
 30
0.0
 11
163.828575
 21
1297.47
 31
0.0
  0
LINE
  5
222
330
1E
100
AcDbEntity
  8
0
100
AcDbLine
 10
166.9395749999999
 20
1289.66
 30
0.0
 11
167.341575
 21
1292.67
 31
0.0
  0
LINE
  5
223
330
1E
100
AcDbEntity
  8
0
100
AcDbLine
 10
166.785575
 20
1288.499999999999
 30
0.0
 11
167.3335749999999
 21
1282.74
 31
0.0
  0
LINE
  5
225
330
1E
100
AcDbEntity
  8
0
100
AcDbLine
 10
166.785575
 20
1288.499999999999
 30
0.0
 11
166.9505749999999
 21
1289.74
 31
0.0
  0
LINE
  5
22A
330
1E
100
AcDbEntity
  8
0
100
AcDbLine
 10
167.341575
 20
1292.67
 30
0.0
 11
168.527575
 21
1296.23
 31
0.0
  0
LINE
  5
22C
330
1E
100
AcDbEntity
  8
0
100
AcDbLine
 10
167.3335749999999
 20
1282.74
 30
0.0
 11
167.8855749999999
 21
1279.8
 31
0.0
  0
LINE
  5
230
330
1E
100
AcDbEntity
  8
0
100
AcDbLine
 10
167.8855749999999
 20
1279.8
 30
0.0
 11
168.7855749999999
 21
1278.0
 31
0.0
  0
LINE
  5
232
330
1E
100
AcDbEntity
  8
0
100
AcDbLine
 10
163.828575
 20
1297.47
 30
0.0
 11
165.8455749999999
 21
1298.85
 31
0.0
  0
LINE
  5
233
330
1E
100
AcDbEntity
  8
0
100
AcDbLine
 10
165.8455749999999
 20
1298.85
 30
0.0
 11
168.268575
 21
1300.559999999999
 31
0.0
  0
LINE
  5
234
330
1E
100
AcDbEntity
  8
0
100
AcDbLine
 10
169.7855749999999
 20
545.6
 30
0.0
 11
169.7855749999999
 21
546.4999999999999
 31
0.0
  0
LINE
  5
235
330
1E
100
AcDbEntity
  8
0
100
AcDbLine
 10
169.7855749999999
 20
545.6
 30
0.0
 11
170.2855749999999
 21
545.0
 31
0.0
  0
LINE
  5
236
330
1E
100
AcDbEntity
  8
0
100
AcDbLine
 10
169.7855749999999
 20
548.8999999999999
 30
0.0
 11
169.7855749999999
 21
552.7999999999999
 31
0.0
  0
LINE
  5
237
330
1E
100
AcDbEntity
  8
0
100
AcDbLine
 10
169.7855749999999
 20
548.8999999999999
 30
0.0
 11
169.7855749999999
 21
546.4999999999999
 31
0.0
  0
LINE
  5
238
330
1E
100
AcDbEntity
  8
0
100
AcDbLine
 10
169.7855749999999
 20
546.4999999999999
 30
0.0
 11
169.7855749999999
 21
548.8999999999999
 31
0.0
  0
LINE
  5
239
330
1E
100
AcDbEntity
  8
0
100
AcDbLine
 10
169.7855749999999
 20
546.4999999999999
 30
0.0
 11
169.7855749999999
 21
545.6
 31
0.0
  0
LINE
  5
23A
330
1E
100
AcDbEntity
  8
0
100
AcDbLine
 10
169.7855749999999
 20
557.8999999999999
 30
0.0
 11
169.7855749999999
 21
563.7
 31
0.0
  0
LINE
  5
23B
330
1E
100
AcDbEntity
  8
0
100
AcDbLine
 10
169.7855749999999
 20
557.8999999999999
 30
0.0
 11
169.7855749999999
 21
552.7999999999999
 31
0.0
  0
LINE
  5
23C
330
1E
100
AcDbEntity
  8
0
100
AcDbLine
 10
169.7855749999999
 20
552.7999999999999
 30
0.0
 11
169.7855749999999
 21
557.8999999999999
 31
0.0
  0
LINE
  5
23D
330
1E
100
AcDbEntity
  8
0
100
AcDbLine
 10
169.7855749999999
 20
552.7999999999999
 30
0.0
 11
169.7855749999999
 21
548.8999999999999
 31
0.0
  0
LINE
  5
23E
330
1E
100
AcDbEntity
  8
0
100
AcDbLine
 10
169.7855749999999
 20
576.2999999999999
 30
0.0
 11
169.7855749999999
 21
582.1
 31
0.0
  0
LINE
  5
23F
330
1E
100
AcDbEntity
  8
0
100
AcDbLine
 10
169.7855749999999
 20
576.2999999999999
 30
0.0
 11
169.7855749999999
 21
570.0
 31
0.0
  0
LINE
  5
240
330
1E
100
AcDbEntity
  8
0
100
AcDbLine
 10
169.7855749999999
 20
582.1
 30
0.0
 11
169.7855749999999
 21
587.2
 31
0.0
  0
LINE
  5
241
330
1E
100
AcDbEntity
  8
0
100
AcDbLine
 10
169.7855749999999
 20
582.1
 30
0.0
 11
169.7855749999999
 21
576.2999999999999
 31
0.0
  0
LINE
  5
242
330
1E
100
AcDbEntity
  8
0
100
AcDbLine
 10
169.7855749999999
 20
587.2
 30
0.0
 11
169.7855749999999
 21
591.1
 31
0.0
  0
LINE
  5
243
330
1E
100
AcDbEntity
  8
0
100
AcDbLine
 10
169.7855749999999
 20
587.2
 30
0.0
 11
169.7855749999999
 21
582.1
 31
0.0
  0
LINE
  5
244
330
1E
100
AcDbEntity
  8
0
100
AcDbLine
 10
169.7855749999999
 20
591.1
 30
0.0
 11
169.7855749999999
 21
593.5
 31
0.0
  0
LINE
  5
245
330
1E
100
AcDbEntity
  8
0
100
AcDbLine
 10
169.7855749999999
 20
591.1
 30
0.0
 11
169.7855749999999
 21
587.2
 31
0.0
  0
LINE
  5
246
330
1E
100
AcDbEntity
  8
0
100
AcDbLine
 10
169.7855749999999
 20
593.5
 30
0.0
 11
169.7855749999999
 21
594.3999999999999
 31
0.0
  0
LINE
  5
247
330
1E
100
AcDbEntity
  8
0
100
AcDbLine
 10
169.7855749999999
 20
593.5
 30
0.0
 11
169.7855749999999
 21
591.1
 31
0.0
  0
LINE
  5
248
330
1E
100
AcDbEntity
  8
0
100
AcDbLine
 10
169.7855749999999
 20
594.3999999999999
 30
0.0
 11
170.2855749999999
 21
595.0
 31
0.0
  0
LINE
  5
249
330
1E
100
AcDbEntity
  8
0
100
AcDbLine
 10
169.7855749999999
 20
594.3999999999999
 30
0.0
 11
169.7855749999999
 21
593.5
 31
0.0
  0
LINE
  5
24A
330
1E
100
AcDbEntity
  8
0
100
AcDbLine
 10
170.2855749999999
 20
576.4
 30
0.0
 11
170.2855749999999
 21
582.3999999999999
 31
0.0
  0
LINE
  5
24B
330
1E
100
AcDbEntity
  8
0
100
AcDbLine
 10
170.2855749999999
 20
576.4
 30
0.0
 11
170.2855749999999
 21
570.0
 31
0.0
  0
LINE
  5
24C
330
1E
100
AcDbEntity
  8
0
100
AcDbLine
 10
170.2855749999999
 20
582.3999999999999
 30
0.0
 11
170.2855749999999
 21
587.7
 31
0.0
  0
LINE
  5
24D
330
1E
100
AcDbEntity
  8
0
100
AcDbLine
 10
170.2855749999999
 20
582.3999999999999
 30
0.0
 11
170.2855749999999
 21
576.4
 31
0.0
  0
LINE
  5
24E
330
1E
100
AcDbEntity
  8
0
100
AcDbLine
 10
170.2855749999999
 20
587.7
 30
0.0
 11
170.2855749999999
 21
591.7
 31
0.0
  0
LINE
  5
24F
330
1E
100
AcDbEntity
  8
0
100
AcDbLine
 10
170.2855749999999
 20
587.7
 30
0.0
 11
170.2855749999999
 21
582.3999999999999
 31
0.0
  0
LINE
  5
250
330
1E
100
AcDbEntity
  8
0
100
AcDbLine
 10
170.2855749999999
 20
591.7
 30
0.0
 11
170.2855749999999
 21
594.1
 31
0.0
  0
LINE
  5
251
330
1E
100
AcDbEntity
  8
0
100
AcDbLine
 10
170.2855749999999
 20
591.7
 30
0.0
 11
170.2855749999999
 21
587.7
 31
0.0
  0
LINE
  5
252
330
1E
100
AcDbEntity
  8
0
100
AcDbLine
 10
170.2855749999999
 20
595.0
 30
0.0
 11
219.7855749999999
 21
595.0
 31
0.0
  0
LINE
  5
253
330
1E
100
AcDbEntity
  8
0
100
AcDbLine
 10
170.2855749999999
 20
595.0
 30
0.0
 11
170.2855749999999
 21
594.1
 31
0.0
  0
LINE
  5
254
330
1E
100
AcDbEntity
  8
0
100
AcDbLine
 10
170.2855749999999
 20
594.1
 30
0.0
 11
170.2855749999999
 21
595.0
 31
0.0
  0
LINE
  5
255
330
1E
100
AcDbEntity
  8
0
100
AcDbLine
 10
170.2855749999999
 20
594.1
 30
0.0
 11
170.2855749999999
 21
591.7
 31
0.0
  0
LINE
  5
256
330
1E
100
AcDbEntity
  8
0
100
AcDbLine
 10
169.7855749999999
 20
570.0
 30
0.0
 11
169.7855749999999
 21
563.7
 31
0.0
  0
LINE
  5
257
330
1E
100
AcDbEntity
  8
0
100
AcDbLine
 10
169.7855749999999
 20
570.0
 30
0.0
 11
169.7855749999999
 21
576.2999999999999
 31
0.0
  0
LINE
  5
258
330
1E
100
AcDbEntity
  8
0
100
AcDbLine
 10
169.7855749999999
 20
563.7
 30
0.0
 11
169.7855749999999
 21
570.0
 31
0.0
  0
LINE
  5
259
330
1E
100
AcDbEntity
  8
0
100
AcDbLine
 10
169.7855749999999
 20
563.7
 30
0.0
 11
169.7855749999999
 21
557.8999999999999
 31
0.0
  0
LINE
  5
25A
330
1E
100
AcDbEntity
  8
0
100
AcDbLine
 10
170.2855749999999
 20
570.0
 30
0.0
 11
170.2855749999999
 21
563.6
 31
0.0
  0
LINE
  5
25B
330
1E
100
AcDbEntity
  8
0
100
AcDbLine
 10
170.2855749999999
 20
570.0
 30
0.0
 11
170.2855749999999
 21
576.4
 31
0.0
  0
LINE
  5
25C
330
1E
100
AcDbEntity
  8
0
100
AcDbLine
 10
170.2855749999999
 20
563.6
 30
0.0
 11
170.2855749999999
 21
570.0
 31
0.0
  0
LINE
  5
25D
330
1E
100
AcDbEntity
  8
0
100
AcDbLine
 10
170.2855749999999
 20
563.6
 30
0.0
 11
170.2855749999999
 21
557.6
 31
0.0
  0
LINE
  5
25E
330
1E
100
AcDbEntity
  8
0
100
AcDbLine
 10
170.2855749999999
 20
557.6
 30
0.0
 11
170.2855749999999
 21
563.6
 31
0.0
  0
LINE
  5
25F
330
1E
100
AcDbEntity
  8
0
100
AcDbLine
 10
170.2855749999999
 20
557.6
 30
0.0
 11
170.2855749999999
 21
552.2999999999999
 31
0.0
  0
LINE
  5
260
330
1E
100
AcDbEntity
  8
0
100
AcDbLine
 10
170.2855749999999
 20
552.2999999999999
 30
0.0
 11
170.2855749999999
 21
557.6
 31
0.0
  0
LINE
  5
261
330
1E
100
AcDbEntity
  8
0
100
AcDbLine
 10
170.2855749999999
 20
552.2999999999999
 30
0.0
 11
170.2855749999999
 21
548.2999999999999
 31
0.0
  0
LINE
  5
262
330
1E
100
AcDbEntity
  8
0
100
AcDbLine
 10
170.2855749999999
 20
548.2999999999999
 30
0.0
 11
170.2855749999999
 21
552.2999999999999
 31
0.0
  0
LINE
  5
263
330
1E
100
AcDbEntity
  8
0
100
AcDbLine
 10
170.2855749999999
 20
548.2999999999999
 30
0.0
 11
170.2855749999999
 21
545.8999999999999
 31
0.0
  0
LINE
  5
264
330
1E
100
AcDbEntity
  8
0
100
AcDbLine
 10
170.2855749999999
 20
545.8999999999999
 30
0.0
 11
170.2855749999999
 21
548.2999999999999
 31
0.0
  0
LINE
  5
265
330
1E
100
AcDbEntity
  8
0
100
AcDbLine
 10
170.2855749999999
 20
545.8999999999999
 30
0.0
 11
170.2855749999999
 21
545.0
 31
0.0
  0
LINE
  5
266
330
1E
100
AcDbEntity
  8
0
100
AcDbLine
 10
170.2855749999999
 20
545.0
 30
0.0
 11
170.2855749999999
 21
545.8999999999999
 31
0.0
  0
LINE
  5
267
330
1E
100
AcDbEntity
  8
0
100
AcDbLine
 10
170.2855749999999
 20
545.0
 30
0.0
 11
179.785575
 21
545.0
 31
0.0
  0
LINE
  5
268
330
1E
100
AcDbEntity
  8
0
100
AcDbLine
 10
174.785575
 20
663.9
 30
0.0
 11
174.785575
 21
661.5
 31
0.0
  0
LINE
  5
269
330
1E
100
AcDbEntity
  8
0
100
AcDbLine
 10
174.785575
 20
663.9
 30
0.0
 11
174.785575
 21
667.7999999999999
 31
0.0
  0
LINE
  5
26A
330
1E
100
AcDbEntity
  8
0
100
AcDbLine
 10
174.785575
 20
661.5
 30
0.0
 11
174.785575
 21
660.6
 31
0.0
  0
LINE
  5
26B
330
1E
100
AcDbEntity
  8
0
100
AcDbLine
 10
174.785575
 20
661.5
 30
0.0
 11
174.785575
 21
663.9
 31
0.0
  0
LINE
  5
26C
330
1E
100
AcDbEntity
  8
0
100
AcDbLine
 10
174.785575
 20
660.6
 30
0.0
 11
175.2855749999999
 21
660.0
 31
0.0
  0
LINE
  5
26D
330
1E
100
AcDbEntity
  8
0
100
AcDbLine
 10
174.785575
 20
660.6
 30
0.0
 11
174.785575
 21
661.5
 31
0.0
  0
LINE
  5
26E
330
1E
100
AcDbEntity
  8
0
100
AcDbLine
 10
174.785575
 20
672.9
 30
0.0
 11
174.785575
 21
667.7999999999999
 31
0.0
  0
LINE
  5
26F
330
1E
100
AcDbEntity
  8
0
100
AcDbLine
 10
174.785575
 20
672.9
 30
0.0
 11
174.785575
 21
678.7
 31
0.0
  0
LINE
  5
270
330
1E
100
AcDbEntity
  8
0
100
AcDbLine
 10
174.785575
 20
667.7999999999999
 30
0.0
 11
174.785575
 21
663.9
 31
0.0
  0
LINE
  5
271
330
1E
100
AcDbEntity
  8
0
100
AcDbLine
 10
174.785575
 20
667.7999999999999
 30
0.0
 11
174.785575
 21
672.9
 31
0.0
  0
LINE
  5
272
330
1E
100
AcDbEntity
  8
0
100
AcDbLine
 10
174.785575
 20
691.2999999999999
 30
0.0
 11
174.785575
 21
685.0
 31
0.0
  0
LINE
  5
273
330
1E
100
AcDbEntity
  8
0
100
AcDbLine
 10
174.785575
 20
691.2999999999999
 30
0.0
 11
174.785575
 21
697.1
 31
0.0
  0
LINE
  5
274
330
1E
100
AcDbEntity
  8
0
100
AcDbLine
 10
174.785575
 20
697.1
 30
0.0
 11
174.785575
 21
691.2999999999999
 31
0.0
  0
LINE
  5
275
330
1E
100
AcDbEntity
  8
0
100
AcDbLine
 10
174.785575
 20
697.1
 30
0.0
 11
174.785575
 21
702.2
 31
0.0
  0
LINE
  5
276
330
1E
100
AcDbEntity
  8
0
100
AcDbLine
 10
174.785575
 20
702.2
 30
0.0
 11
174.785575
 21
697.1
 31
0.0
  0
LINE
  5
277
330
1E
100
AcDbEntity
  8
0
100
AcDbLine
 10
174.785575
 20
702.2
 30
0.0
 11
174.785575
 21
706.0999999999999
 31
0.0
  0
LINE
  5
278
330
1E
100
AcDbEntity
  8
0
100
AcDbLine
 10
174.785575
 20
706.0999999999999
 30
0.0
 11
174.785575
 21
702.2
 31
0.0
  0
LINE
  5
279
330
1E
100
AcDbEntity
  8
0
100
AcDbLine
 10
174.785575
 20
706.0999999999999
 30
0.0
 11
174.785575
 21
708.4999999999999
 31
0.0
  0
LINE
  5
27A
330
1E
100
AcDbEntity
  8
0
100
AcDbLine
 10
174.785575
 20
708.4999999999999
 30
0.0
 11
174.785575
 21
706.0999999999999
 31
0.0
  0
LINE
  5
27B
330
1E
100
AcDbEntity
  8
0
100
AcDbLine
 10
174.785575
 20
708.4999999999999
 30
0.0
 11
174.785575
 21
709.4
 31
0.0
  0
LINE
  5
27C
330
1E
100
AcDbEntity
  8
0
100
AcDbLine
 10
171.5005749999999
 20
1275.29
 30
0.0
 11
171.8855749999999
 21
1274.99
 31
0.0
  0
LINE
  5
27D
330
1E
100
AcDbEntity
  8
0
100
AcDbLine
 10
171.8855749999999
 20
1274.99
 30
0.0
 11
175.7810200500999
 21
1273.348241549769
 31
0.0
  0
LINE
  5
27E
330
1E
100
AcDbEntity
  8
0
100
AcDbLine
 10
174.785575
 20
709.4
 30
0.0
 11
174.785575
 21
708.4999999999999
 31
0.0
  0
LINE
  5
27F
330
1E
100
AcDbEntity
  8
0
100
AcDbLine
 10
174.785575
 20
709.4
 30
0.0
 11
175.2855749999999
 21
710.0
 31
0.0
  0
LINE
  5
280
330
1E
100
AcDbEntity
  8
0
100
AcDbLine
 10
175.2855749999999
 20
691.3999999999999
 30
0.0
 11
175.2855749999999
 21
685.0
 31
0.0
  0
LINE
  5
281
330
1E
100
AcDbEntity
  8
0
100
AcDbLine
 10
175.2855749999999
 20
691.3999999999999
 30
0.0
 11
175.2855749999999
 21
697.4
 31
0.0
  0
LINE
  5
282
330
1E
100
AcDbEntity
  8
0
100
AcDbLine
 10
175.2855749999999
 20
697.4
 30
0.0
 11
175.2855749999999
 21
691.3999999999999
 31
0.0
  0
LINE
  5
283
330
1E
100
AcDbEntity
  8
0
100
AcDbLine
 10
175.2855749999999
 20
697.4
 30
0.0
 11
175.2855749999999
 21
702.7000000000001
 31
0.0
  0
LINE
  5
284
330
1E
100
AcDbEntity
  8
0
100
AcDbLine
 10
175.2855749999999
 20
702.7000000000001
 30
0.0
 11
175.2855749999999
 21
697.4
 31
0.0
  0
LINE
  5
285
330
1E
100
AcDbEntity
  8
0
100
AcDbLine
 10
175.2855749999999
 20
702.7000000000001
 30
0.0
 11
175.2855749999999
 21
706.7
 31
0.0
  0
LINE
  5
286
330
1E
100
AcDbEntity
  8
0
100
AcDbLine
 10
175.2855749999999
 20
706.7
 30
0.0
 11
175.2855749999999
 21
702.7000000000001
 31
0.0
  0
LINE
  5
287
330
1E
100
AcDbEntity
  8
0
100
AcDbLine
 10
175.2855749999999
 20
706.7
 30
0.0
 11
175.2855749999999
 21
709.1
 31
0.0
  0
LINE
  5
288
330
1E
100
AcDbEntity
  8
0
100
AcDbLine
 10
175.2855749999999
 20
709.1
 30
0.0
 11
175.2855749999999
 21
706.7
 31
0.0
  0
LINE
  5
289
330
1E
100
AcDbEntity
  8
0
100
AcDbLine
 10
175.2855749999999
 20
709.1
 30
0.0
 11
175.2855749999999
 21
710.0
 31
0.0
  0
LINE
  5
28A
330
1E
100
AcDbEntity
  8
0
100
AcDbLine
 10
175.2855749999999
 20
710.0
 30
0.0
 11
175.2855749999999
 21
709.1
 31
0.0
  0
LINE
  5
28B
330
1E
100
AcDbEntity
  8
0
100
AcDbLine
 10
175.2855749999999
 20
710.0
 30
0.0
 11
192.7855749999999
 21
710.0
 31
0.0
  0
LINE
  5
28C
330
1E
100
AcDbEntity
  8
0
100
AcDbLine
 10
174.785575
 20
685.0
 30
0.0
 11
174.785575
 21
678.7
 31
0.0
  0
LINE
  5
28D
330
1E
100
AcDbEntity
  8
0
100
AcDbLine
 10
174.785575
 20
685.0
 30
0.0
 11
174.785575
 21
691.2999999999999
 31
0.0
  0
LINE
  5
28E
330
1E
100
AcDbEntity
  8
0
100
AcDbLine
 10
174.785575
 20
678.7
 30
0.0
 11
174.785575
 21
672.9
 31
0.0
  0
LINE
  5
28F
330
1E
100
AcDbEntity
  8
0
100
AcDbLine
 10
174.785575
 20
678.7
 30
0.0
 11
174.785575
 21
685.0
 31
0.0
  0
LINE
  5
290
330
1E
100
AcDbEntity
  8
0
100
AcDbLine
 10
175.2855749999999
 20
685.0
 30
0.0
 11
175.2855749999999
 21
678.6
 31
0.0
  0
LINE
  5
291
330
1E
100
AcDbEntity
  8
0
100
AcDbLine
 10
175.2855749999999
 20
685.0
 30
0.0
 11
175.2855749999999
 21
691.3999999999999
 31
0.0
  0
LINE
  5
292
330
1E
100
AcDbEntity
  8
0
100
AcDbLine
 10
175.2855749999999
 20
678.6
 30
0.0
 11
175.2855749999999
 21
672.5999999999999
 31
0.0
  0
LINE
  5
293
330
1E
100
AcDbEntity
  8
0
100
AcDbLine
 10
175.2855749999999
 20
678.6
 30
0.0
 11
175.2855749999999
 21
685.0
 31
0.0
  0
LINE
  5
294
330
1E
100
AcDbEntity
  8
0
100
AcDbLine
 10
175.2855749999999
 20
672.5999999999999
 30
0.0
 11
175.2855749999999
 21
667.3
 31
0.0
  0
LINE
  5
295
330
1E
100
AcDbEntity
  8
0
100
AcDbLine
 10
175.2855749999999
 20
672.5999999999999
 30
0.0
 11
175.2855749999999
 21
678.6
 31
0.0
  0
LINE
  5
296
330
1E
100
AcDbEntity
  8
0
100
AcDbLine
 10
175.2855749999999
 20
667.3
 30
0.0
 11
175.2855749999999
 21
663.3
 31
0.0
  0
LINE
  5
297
330
1E
100
AcDbEntity
  8
0
100
AcDbLine
 10
175.2855749999999
 20
667.3
 30
0.0
 11
175.2855749999999
 21
672.5999999999999
 31
0.0
  0
LINE
  5
298
330
1E
100
AcDbEntity
  8
0
100
AcDbLine
 10
175.2855749999999
 20
663.3
 30
0.0
 11
175.2855749999999
 21
660.8999999999999
 31
0.0
  0
LINE
  5
299
330
1E
100
AcDbEntity
  8
0
100
AcDbLine
 10
175.2855749999999
 20
663.3
 30
0.0
 11
175.2855749999999
 21
667.3
 31
0.0
  0
LINE
  5
29A
330
1E
100
AcDbEntity
  8
0
100
AcDbLine
 10
175.2855749999999
 20
660.0
 30
0.0
 11
224.7855749999999
 21
660.0
 31
0.0
  0
LINE
  5
29B
330
1E
100
AcDbEntity
  8
0
100
AcDbLine
 10
175.2855749999999
 20
660.0
 30
0.0
 11
175.2855749999999
 21
660.8999999999999
 31
0.0
  0
LINE
  5
29C
330
1E
100
AcDbEntity
  8
0
100
AcDbLine
 10
175.2855749999999
 20
660.8999999999999
 30
0.0
 11
175.2855749999999
 21
660.0
 31
0.0
  0
LINE
  5
29D
330
1E
100
AcDbEntity
  8
0
100
AcDbLine
 10
175.2855749999999
 20
660.8999999999999
 30
0.0
 11
175.2855749999999
 21
663.3
 31
0.0
  0
LINE
  5
2A0
330
1E
100
AcDbEntity
  8
0
100
AcDbLine
 10
168.7855749999999
 20
1278.0
 30
0.0
 11
171.5005749999999
 21
1275.29
 31
0.0
  0
LINE
  5
2A1
330
1E
100
AcDbEntity
  8
0
100
AcDbLine
 10
168.527575
 20
1296.23
 30
0.0
 11
170.145575
 21
1301.08
 31
0.0
  0
LINE
  5
2A5
330
1E
100
AcDbEntity
  8
0
100
AcDbLine
 10
168.7855749999999
 20
1289.0
 30
0.0
 11
171.801575
 21
1277.4
 31
0.0
  0
LINE
  5
2A6
330
1E
100
AcDbEntity
  8
0
100
AcDbLine
 10
168.7855749999999
 20
1289.0
 30
0.0
 11
171.801575
 21
1300.6
 31
0.0
  0
LINE
  5
2A8
330
1E
100
AcDbEntity
  8
0
100
AcDbLine
 10
171.801575
 20
1277.4
 30
0.0
 11
179.0105749999999
 21
1270.059999999999
 31
0.0
  0
LINE
  5
2A9
330
1E
100
AcDbEntity
  8
0
100
AcDbLine
 10
168.268575
 20
1300.559999999999
 30
0.0
 11
170.738575
 21
1302.34
 31
0.0
  0
LINE
  5
2AA
330
1E
100
AcDbEntity
  8
0
100
AcDbLine
 10
170.145575
 20
1301.08
 30
0.0
 11
171.818575
 21
1303.32
 31
0.0
  0
LINE
  5
2AC
330
1E
100
AcDbEntity
  8
0
100
AcDbLine
 10
171.818575
 20
1303.32
 30
0.0
 11
172.5635749999999
 21
1304.18
 31
0.0
  0
LINE
  5
2B0
330
1E
100
AcDbEntity
  8
0
100
AcDbLine
 10
172.5635749999999
 20
1304.18
 30
0.0
 11
174.846575
 21
1306.44
 31
0.0
  0
LINE
  5
2B5
330
1E
100
AcDbEntity
  8
0
100
AcDbLine
 10
171.801575
 20
1300.6
 30
0.0
 11
177.3290194434809
 21
1306.88129943434
 31
0.0
  0
LINE
  5
2B6
330
1E
100
AcDbEntity
  8
0
100
AcDbLine
 10
170.738575
 20
1302.34
 30
0.0
 11
171.533424016854
 21
1302.88130617978
 31
0.0
  0
LINE
  5
2B7
330
1E
100
AcDbEntity
  8
0
100
AcDbLine
 10
179.0105749999999
 20
1270.059999999999
 30
0.0
 11
184.556622452551
 21
1265.79063877352
 31
0.0
  0
LINE
  5
2B9
330
1E
100
AcDbEntity
  8
0
100
AcDbLine
 10
177.3290194434809
 20
1306.88129943434
 30
0.0
 11
177.734575
 21
1307.17
 31
0.0
  0
LINE
  5
2BC
330
1E
100
AcDbEntity
  8
0
100
AcDbLine
 10
177.734575
 20
1307.17
 30
0.0
 11
179.2615749999999
 21
1308.28
 31
0.0
  0
LINE
  5
2BD
330
1E
100
AcDbEntity
  8
0
100
AcDbLine
 10
179.8815749999999
 20
477.0
 30
0.0
 11
180.0255749999999
 21
477.0
 31
0.0
  0
LINE
  5
2BE
330
1E
100
AcDbEntity
  8
0
100
AcDbLine
 10
180.0255749999999
 20
477.0
 30
0.0
 11
180.4095749999999
 21
477.0
 31
0.0
  0
LINE
  5
2BF
330
1E
100
AcDbEntity
  8
0
100
AcDbLine
 10
180.4095749999999
 20
477.0
 30
0.0
 11
181.033575
 21
477.0
 31
0.0
  0
LINE
  5
2C0
330
1E
100
AcDbEntity
  8
0
100
AcDbLine
 10
181.033575
 20
477.0
 30
0.0
 11
181.8495749999999
 21
477.0
 31
0.0
  0
LINE
  5
2C1
330
1E
100
AcDbEntity
  8
0
100
AcDbLine
 10
181.8495749999999
 20
477.0
 30
0.0
 11
182.777575
 21
477.0
 31
0.0
  0
LINE
  5
2C2
330
1E
100
AcDbEntity
  8
0
100
AcDbLine
 10
187.6895749999999
 20
477.0
 30
0.0
 11
187.7855749999999
 21
477.2
 31
0.0
  0
LINE
  5
2C3
330
1E
100
AcDbEntity
  8
0
100
AcDbLine
 10
187.545575
 20
477.0
 30
0.0
 11
187.6895749999999
 21
477.0
 31
0.0
  0
LINE
  5
2C4
330
1E
100
AcDbEntity
  8
0
100
AcDbLine
 10
187.161575
 20
477.0
 30
0.0
 11
187.545575
 21
477.0
 31
0.0
  0
LINE
  5
2C5
330
1E
100
AcDbEntity
  8
0
100
AcDbLine
 10
185.7215749999999
 20
477.0
 30
0.0
 11
186.537575
 21
477.0
 31
0.0
  0
LINE
  5
2C6
330
1E
100
AcDbEntity
  8
0
100
AcDbLine
 10
186.537575
 20
477.0
 30
0.0
 11
187.161575
 21
477.0
 31
0.0
  0
LINE
  5
2C7
330
1E
100
AcDbEntity
  8
0
100
AcDbLine
 10
184.7935749999999
 20
477.0
 30
0.0
 11
185.7215749999999
 21
477.0
 31
0.0
  0
LINE
  5
2C8
330
1E
100
AcDbEntity
  8
0
100
AcDbLine
 10
187.7855749999999
 20
477.2
 30
0.0
 11
187.7855749999999
 21
545.0
 31
0.0
  0
LINE
  5
2C9
330
1E
100
AcDbEntity
  8
0
100
AcDbLine
 10
183.7855749999999
 20
477.0
 30
0.0
 11
184.7935749999999
 21
477.0
 31
0.0
  0
LINE
  5
2CA
330
1E
100
AcDbEntity
  8
0
100
AcDbLine
 10
182.777575
 20
477.0
 30
0.0
 11
183.7855749999999
 21
477.0
 31
0.0
  0
LINE
  5
2CB
330
1E
100
AcDbEntity
  8
0
100
AcDbLine
 10
179.785575
 20
477.2
 30
0.0
 11
179.785575
 21
545.0
 31
0.0
  0
LINE
  5
2CC
330
1E
100
AcDbEntity
  8
0
100
AcDbLine
 10
179.785575
 20
477.2
 30
0.0
 11
179.8815749999999
 21
477.0
 31
0.0
  0
LINE
  5
2CD
330
1E
100
AcDbEntity
  8
0
100
AcDbLine
 10
219.7855749999999
 20
537.7919999999999
 30
0.0
 11
220.0355749999999
 21
537.0
 31
0.0
  0
LINE
  5
2CE
330
1E
100
AcDbEntity
  8
0
100
AcDbLine
 10
219.7855749999999
 20
537.7919999999999
 30
0.0
 11
219.7855749999999
 21
538.98
 31
0.0
  0
LINE
  5
2CF
330
1E
100
AcDbEntity
  8
0
100
AcDbLine
 10
220.0355749999999
 20
538.1879999999999
 30
0.0
 11
220.0355749999999
 21
541.356
 31
0.0
  0
LINE
  5
2D0
330
1E
100
AcDbEntity
  8
0
100
AcDbLine
 10
220.0355749999999
 20
538.1879999999999
 30
0.0
 11
220.0355749999999
 21
537.0
 31
0.0
  0
LINE
  5
2D1
330
1E
100
AcDbEntity
  8
0
100
AcDbLine
 10
224.7855749999999
 20
501.0
 30
0.0
 11
225.485575
 21
501.0
 31
0.0
  0
LINE
  5
2D2
330
1E
100
AcDbEntity
  8
0
100
AcDbLine
 10
224.7855749999999
 20
501.0
 30
0.0
 11
225.785575
 21
500.0
 31
0.0
  0
LINE
  5
2D3
330
1E
100
AcDbEntity
  8
0
100
AcDbLine
 10
224.7855749999999
 20
501.0
 30
0.0
 11
224.7855749999999
 21
730.0
 31
0.0
  0
LINE
  5
2D4
330
1E
100
AcDbEntity
  8
0
100
AcDbLine
 10
220.0355749999999
 20
537.0
 30
0.0
 11
220.0355749999999
 21
538.1879999999999
 31
0.0
  0
LINE
  5
2D5
330
1E
100
AcDbEntity
  8
0
100
AcDbLine
 10
220.0355749999999
 20
537.0
 30
0.0
 11
224.7855749999999
 21
537.0
 31
0.0
  0
LINE
  5
2D6
330
1E
100
AcDbEntity
  8
0
100
AcDbLine
 10
179.785575
 20
545.0
 30
0.0
 11
179.785575
 21
477.2
 31
0.0
  0
LINE
  5
2D7
330
1E
100
AcDbEntity
  8
0
100
AcDbLine
 10
187.7855749999999
 20
545.0
 30
0.0
 11
187.7855749999999
 21
477.2
 31
0.0
  0
LINE
  5
2D8
330
1E
100
AcDbEntity
  8
0
100
AcDbLine
 10
179.785575
 20
545.0
 30
0.0
 11
219.7855749999999
 21
545.0
 31
0.0
  0
LINE
  5
2D9
330
1E
100
AcDbEntity
  8
0
100
AcDbLine
 10
219.7855749999999
 20
545.8999999999999
 30
0.0
 11
219.7855749999999
 21
548.2999999999999
 31
0.0
  0
LINE
  5
2DA
330
1E
100
AcDbEntity
  8
0
100
AcDbLine
 10
219.7855749999999
 20
545.8999999999999
 30
0.0
 11
219.7855749999999
 21
545.0
 31
0.0
  0
LINE
  5
2DB
330
1E
100
AcDbEntity
  8
0
100
AcDbLine
 10
219.7855749999999
 20
545.0
 30
0.0
 11
219.7855749999999
 21
542.148
 31
0.0
  0
LINE
  5
2DC
330
1E
100
AcDbEntity
  8
0
100
AcDbLine
 10
219.7855749999999
 20
545.0
 30
0.0
 11
219.7855749999999
 21
545.8999999999999
 31
0.0
  0
LINE
  5
2DD
330
1E
100
AcDbEntity
  8
0
100
AcDbLine
 10
219.7855749999999
 20
542.148
 30
0.0
 11
219.7855749999999
 21
538.98
 31
0.0
  0
LINE
  5
2DE
330
1E
100
AcDbEntity
  8
0
100
AcDbLine
 10
219.7855749999999
 20
542.148
 30
0.0
 11
219.7855749999999
 21
545.0
 31
0.0
  0
LINE
  5
2DF
330
1E
100
AcDbEntity
  8
0
100
AcDbLine
 10
219.7855749999999
 20
538.98
 30
0.0
 11
219.7855749999999
 21
542.148
 31
0.0
  0
LINE
  5
2E0
330
1E
100
AcDbEntity
  8
0
100
AcDbLine
 10
219.7855749999999
 20
538.98
 30
0.0
 11
219.7855749999999
 21
537.7919999999999
 31
0.0
  0
LINE
  5
2E1
330
1E
100
AcDbEntity
  8
0
100
AcDbLine
 10
220.0355749999999
 20
546.6359999999999
 30
0.0
 11
220.0355749999999
 21
553.6319999999999
 31
0.0
  0
LINE
  5
2E2
330
1E
100
AcDbEntity
  8
0
100
AcDbLine
 10
220.0355749999999
 20
546.6359999999999
 30
0.0
 11
220.0355749999999
 21
541.356
 31
0.0
  0
LINE
  5
2E3
330
1E
100
AcDbEntity
  8
0
100
AcDbLine
 10
220.0355749999999
 20
541.356
 30
0.0
 11
220.0355749999999
 21
546.6359999999999
 31
0.0
  0
LINE
  5
2E4
330
1E
100
AcDbEntity
  8
0
100
AcDbLine
 10
220.0355749999999
 20
541.356
 30
0.0
 11
220.0355749999999
 21
538.1879999999999
 31
0.0
  0
LINE
  5
2E5
330
1E
100
AcDbEntity
  8
0
100
AcDbLine
 10
219.7855749999999
 20
557.6
 30
0.0
 11
219.7855749999999
 21
563.6
 31
0.0
  0
LINE
  5
2E6
330
1E
100
AcDbEntity
  8
0
100
AcDbLine
 10
219.7855749999999
 20
557.6
 30
0.0
 11
219.7855749999999
 21
552.2999999999999
 31
0.0
  0
LINE
  5
2E7
330
1E
100
AcDbEntity
  8
0
100
AcDbLine
 10
219.7855749999999
 20
552.2999999999999
 30
0.0
 11
219.7855749999999
 21
557.6
 31
0.0
  0
LINE
  5
2E8
330
1E
100
AcDbEntity
  8
0
100
AcDbLine
 10
219.7855749999999
 20
552.2999999999999
 30
0.0
 11
219.7855749999999
 21
548.2999999999999
 31
0.0
  0
LINE
  5
2E9
330
1E
100
AcDbEntity
  8
0
100
AcDbLine
 10
219.7855749999999
 20
548.2999999999999
 30
0.0
 11
219.7855749999999
 21
552.2999999999999
 31
0.0
  0
LINE
  5
2EA
330
1E
100
AcDbEntity
  8
0
100
AcDbLine
 10
219.7855749999999
 20
548.2999999999999
 30
0.0
 11
219.7855749999999
 21
545.8999999999999
 31
0.0
  0
LINE
  5
2EB
330
1E
100
AcDbEntity
  8
0
100
AcDbLine
 10
220.0355749999999
 20
561.552
 30
0.0
 11
220.0355749999999
 21
570.0
 31
0.0
  0
LINE
  5
2EC
330
1E
100
AcDbEntity
  8
0
100
AcDbLine
 10
220.0355749999999
 20
561.552
 30
0.0
 11
220.0355749999999
 21
553.6319999999999
 31
0.0
  0
LINE
  5
2ED
330
1E
100
AcDbEntity
  8
0
100
AcDbLine
 10
220.0355749999999
 20
553.6319999999999
 30
0.0
 11
220.0355749999999
 21
561.552
 31
0.0
  0
LINE
  5
2EE
330
1E
100
AcDbEntity
  8
0
100
AcDbLine
 10
220.0355749999999
 20
553.6319999999999
 30
0.0
 11
220.0355749999999
 21
546.6359999999999
 31
0.0
  0
LINE
  5
2EF
330
1E
100
AcDbEntity
  8
0
100
AcDbLine
 10
219.7855749999999
 20
570.0
 30
0.0
 11
219.7855749999999
 21
563.6
 31
0.0
  0
LINE
  5
2F0
330
1E
100
AcDbEntity
  8
0
100
AcDbLine
 10
219.7855749999999
 20
570.0
 30
0.0
 11
219.7855749999999
 21
576.4
 31
0.0
  0
LINE
  5
2F1
330
1E
100
AcDbEntity
  8
0
100
AcDbLine
 10
219.7855749999999
 20
563.6
 30
0.0
 11
219.7855749999999
 21
570.0
 31
0.0
  0
LINE
  5
2F2
330
1E
100
AcDbEntity
  8
0
100
AcDbLine
 10
219.7855749999999
 20
563.6
 30
0.0
 11
219.7855749999999
 21
557.6
 31
0.0
  0
LINE
  5
2F3
330
1E
100
AcDbEntity
  8
0
100
AcDbLine
 10
219.7855749999999
 20
576.4
 30
0.0
 11
219.7855749999999
 21
582.3999999999999
 31
0.0
  0
LINE
  5
2F4
330
1E
100
AcDbEntity
  8
0
100
AcDbLine
 10
219.7855749999999
 20
576.4
 30
0.0
 11
219.7855749999999
 21
570.0
 31
0.0
  0
LINE
  5
2F5
330
1E
100
AcDbEntity
  8
0
100
AcDbLine
 10
219.7855749999999
 20
582.3999999999999
 30
0.0
 11
219.7855749999999
 21
587.7
 31
0.0
  0
LINE
  5
2F6
330
1E
100
AcDbEntity
  8
0
100
AcDbLine
 10
219.7855749999999
 20
582.3999999999999
 30
0.0
 11
219.7855749999999
 21
576.4
 31
0.0
  0
LINE
  5
2F7
330
1E
100
AcDbEntity
  8
0
100
AcDbLine
 10
219.7855749999999
 20
587.7
 30
0.0
 11
219.7855749999999
 21
591.7
 31
0.0
  0
LINE
  5
2F8
330
1E
100
AcDbEntity
  8
0
100
AcDbLine
 10
219.7855749999999
 20
587.7
 30
0.0
 11
219.7855749999999
 21
582.3999999999999
 31
0.0
  0
LINE
  5
2F9
330
1E
100
AcDbEntity
  8
0
100
AcDbLine
 10
219.7855749999999
 20
591.7
 30
0.0
 11
219.7855749999999
 21
594.1
 31
0.0
  0
LINE
  5
2FA
330
1E
100
AcDbEntity
  8
0
100
AcDbLine
 10
219.7855749999999
 20
591.7
 30
0.0
 11
219.7855749999999
 21
587.7
 31
0.0
  0
LINE
  5
2FB
330
1E
100
AcDbEntity
  8
0
100
AcDbLine
 10
219.7855749999999
 20
592.704
 30
0.0
 11
219.7855749999999
 21
597.8519999999999
 31
0.0
  0
LINE
  5
2FC
330
1E
100
AcDbEntity
  8
0
100
AcDbLine
 10
220.0355749999999
 20
578.448
 30
0.0
 11
220.0355749999999
 21
586.368
 31
0.0
  0
LINE
  5
2FD
330
1E
100
AcDbEntity
  8
0
100
AcDbLine
 10
220.0355749999999
 20
578.448
 30
0.0
 11
220.0355749999999
 21
570.0
 31
0.0
  0
LINE
  5
2FE
330
1E
100
AcDbEntity
  8
0
100
AcDbLine
 10
220.0355749999999
 20
586.368
 30
0.0
 11
220.0355749999999
 21
593.364
 31
0.0
  0
LINE
  5
2FF
330
1E
100
AcDbEntity
  8
0
100
AcDbLine
 10
220.0355749999999
 20
586.368
 30
0.0
 11
220.0355749999999
 21
578.448
 31
0.0
  0
LINE
  5
300
330
1E
100
AcDbEntity
  8
0
100
AcDbLine
 10
219.7855749999999
 20
595.0
 30
0.0
 11
219.7855749999999
 21
594.1
 31
0.0
  0
LINE
  5
301
330
1E
100
AcDbEntity
  8
0
100
AcDbLine
 10
219.7855749999999
 20
594.1
 30
0.0
 11
219.7855749999999
 21
595.0
 31
0.0
  0
LINE
  5
302
330
1E
100
AcDbEntity
  8
0
100
AcDbLine
 10
219.7855749999999
 20
594.1
 30
0.0
 11
219.7855749999999
 21
591.7
 31
0.0
  0
LINE
  5
303
330
1E
100
AcDbEntity
  8
0
100
AcDbLine
 10
219.7855749999999
 20
601.02
 30
0.0
 11
219.7855749999999
 21
597.8519999999999
 31
0.0
  0
LINE
  5
304
330
1E
100
AcDbEntity
  8
0
100
AcDbLine
 10
219.7855749999999
 20
601.02
 30
0.0
 11
219.7855749999999
 21
602.208
 31
0.0
  0
LINE
  5
305
330
1E
100
AcDbEntity
  8
0
100
AcDbLine
 10
219.7855749999999
 20
597.8519999999999
 30
0.0
 11
219.7855749999999
 21
592.704
 31
0.0
  0
LINE
  5
306
330
1E
100
AcDbEntity
  8
0
100
AcDbLine
 10
219.7855749999999
 20
597.8519999999999
 30
0.0
 11
219.7855749999999
 21
601.02
 31
0.0
  0
LINE
  5
307
330
1E
100
AcDbEntity
  8
0
100
AcDbLine
 10
219.7855749999999
 20
602.208
 30
0.0
 11
220.0355749999999
 21
603.0
 31
0.0
  0
LINE
  5
308
330
1E
100
AcDbEntity
  8
0
100
AcDbLine
 10
219.7855749999999
 20
602.208
 30
0.0
 11
219.7855749999999
 21
601.02
 31
0.0
  0
LINE
  5
309
330
1E
100
AcDbEntity
  8
0
100
AcDbLine
 10
220.0355749999999
 20
593.364
 30
0.0
 11
220.0355749999999
 21
598.6439999999999
 31
0.0
  0
LINE
  5
30A
330
1E
100
AcDbEntity
  8
0
100
AcDbLine
 10
220.0355749999999
 20
593.364
 30
0.0
 11
220.0355749999999
 21
586.368
 31
0.0
  0
LINE
  5
30B
330
1E
100
AcDbEntity
  8
0
100
AcDbLine
 10
220.0355749999999
 20
598.6439999999999
 30
0.0
 11
220.0355749999999
 21
601.812
 31
0.0
  0
LINE
  5
30C
330
1E
100
AcDbEntity
  8
0
100
AcDbLine
 10
220.0355749999999
 20
598.6439999999999
 30
0.0
 11
220.0355749999999
 21
593.364
 31
0.0
  0
LINE
  5
30D
330
1E
100
AcDbEntity
  8
0
100
AcDbLine
 10
220.0355749999999
 20
603.0
 30
0.0
 11
224.7855749999999
 21
603.0
 31
0.0
  0
LINE
  5
30E
330
1E
100
AcDbEntity
  8
0
100
AcDbLine
 10
220.0355749999999
 20
603.0
 30
0.0
 11
220.0355749999999
 21
601.812
 31
0.0
  0
LINE
  5
30F
330
1E
100
AcDbEntity
  8
0
100
AcDbLine
 10
224.7855749999999
 20
578.448
 30
0.0
 11
224.7855749999999
 21
570.0
 31
0.0
  0
LINE
  5
310
330
1E
100
AcDbEntity
  8
0
100
AcDbLine
 10
224.7855749999999
 20
586.368
 30
0.0
 11
224.7855749999999
 21
578.448
 31
0.0
  0
LINE
  5
311
330
1E
100
AcDbEntity
  8
0
100
AcDbLine
 10
224.7855749999999
 20
593.364
 30
0.0
 11
224.7855749999999
 21
586.368
 31
0.0
  0
LINE
  5
312
330
1E
100
AcDbEntity
  8
0
100
AcDbLine
 10
224.7855749999999
 20
598.6439999999999
 30
0.0
 11
224.7855749999999
 21
593.364
 31
0.0
  0
LINE
  5
313
330
1E
100
AcDbEntity
  8
0
100
AcDbLine
 10
224.7855749999999
 20
601.812
 30
0.0
 11
224.7855749999999
 21
598.6439999999999
 31
0.0
  0
LINE
  5
314
330
1E
100
AcDbEntity
  8
0
100
AcDbLine
 10
224.7855749999999
 20
603.0
 30
0.0
 11
224.7855749999999
 21
601.812
 31
0.0
  0
LINE
  5
315
330
1E
100
AcDbEntity
  8
0
100
AcDbLine
 10
220.0355749999999
 20
601.812
 30
0.0
 11
220.0355749999999
 21
603.0
 31
0.0
  0
LINE
  5
316
330
1E
100
AcDbEntity
  8
0
100
AcDbLine
 10
220.0355749999999
 20
601.812
 30
0.0
 11
220.0355749999999
 21
598.6439999999999
 31
0.0
  0
LINE
  5
317
330
1E
100
AcDbEntity
  8
0
100
AcDbLine
 10
220.0355749999999
 20
570.0
 30
0.0
 11
220.0355749999999
 21
561.552
 31
0.0
  0
LINE
  5
318
330
1E
100
AcDbEntity
  8
0
100
AcDbLine
 10
220.0355749999999
 20
570.0
 30
0.0
 11
220.0355749999999
 21
578.448
 31
0.0
  0
LINE
  5
319
330
1E
100
AcDbEntity
  8
0
100
AcDbLine
 10
224.7855749999999
 20
570.0
 30
0.0
 11
224.7855749999999
 21
561.552
 31
0.0
  0
LINE
  5
31A
330
1E
100
AcDbEntity
  8
0
100
AcDbLine
 10
224.7855749999999
 20
561.552
 30
0.0
 11
224.7855749999999
 21
553.6319999999999
 31
0.0
  0
LINE
  5
31B
330
1E
100
AcDbEntity
  8
0
100
AcDbLine
 10
224.7855749999999
 20
553.6319999999999
 30
0.0
 11
224.7855749999999
 21
546.6359999999999
 31
0.0
  0
LINE
  5
31C
330
1E
100
AcDbEntity
  8
0
100
AcDbLine
 10
224.7855749999999
 20
546.6359999999999
 30
0.0
 11
224.7855749999999
 21
541.356
 31
0.0
  0
LINE
  5
31D
330
1E
100
AcDbEntity
  8
0
100
AcDbLine
 10
224.7855749999999
 20
541.356
 30
0.0
 11
224.7855749999999
 21
538.1879999999999
 31
0.0
  0
LINE
  5
31E
330
1E
100
AcDbEntity
  8
0
100
AcDbLine
 10
224.7855749999999
 20
538.1879999999999
 30
0.0
 11
224.7855749999999
 21
537.0
 31
0.0
  0
LINE
  5
31F
330
1E
100
AcDbEntity
  8
0
100
AcDbLine
 10
225.785575
 20
500.0
 30
0.0
 11
226.3855749999999
 21
500.0
 31
0.0
  0
LINE
  5
320
330
1E
100
AcDbEntity
  8
0
100
AcDbLine
 10
226.3855749999999
 20
500.0
 30
0.0
 11
227.8855749999999
 21
500.0
 31
0.0
  0
LINE
  5
321
330
1E
100
AcDbEntity
  8
0
100
AcDbLine
 10
227.8855749999999
 20
500.0
 30
0.0
 11
229.785575
 21
500.0
 31
0.0
  0
LINE
  5
322
330
1E
100
AcDbEntity
  8
0
100
AcDbLine
 10
225.485575
 20
501.0
 30
0.0
 11
227.385575
 21
501.0
 31
0.0
  0
LINE
  5
323
330
1E
100
AcDbEntity
  8
0
100
AcDbLine
 10
227.385575
 20
501.0
 30
0.0
 11
229.785575
 21
501.0
 31
0.0
  0
LINE
  5
324
330
1E
100
AcDbEntity
  8
0
100
AcDbLine
 10
229.785575
 20
501.0
 30
0.0
 11
234.5035851158729
 21
501.0
 31
0.0
  0
LINE
  5
325
330
1E
100
AcDbEntity
  8
0
100
AcDbLine
 10
229.785575
 20
500.0
 30
0.0
 11
234.5142527634719
 21
500.0
 31
0.0
  0
LINE
  5
326
330
1E
100
AcDbEntity
  8
0
100
AcDbLine
 10
233.6065749999999
 20
585.093
 30
0.0
 11
234.2485749999999
 21
524.9049999999999
 31
0.0
  0
LINE
  5
327
330
1E
100
AcDbEntity
  8
0
100
AcDbLine
 10
233.785575
 20
498.0
 30
0.0
 11
234.667266027027
 21
485.656325621622
 31
0.0
  0
LINE
  5
328
330
1E
100
AcDbEntity
  8
0
100
AcDbLine
 10
233.785575
 20
498.0
 30
0.0
 11
234.519920578966
 21
499.4686911579329
 31
0.0
  0
LINE
  5
329
330
1E
100
AcDbEntity
  8
0
100
AcDbLine
 10
224.7855749999999
 20
660.0
 30
0.0
 11
224.7855749999999
 21
660.8999999999999
 31
0.0
  0
LINE
  5
32A
330
1E
100
AcDbEntity
  8
0
100
AcDbLine
 10
224.7855749999999
 20
691.3999999999999
 30
0.0
 11
224.7855749999999
 21
685.0
 31
0.0
  0
LINE
  5
32B
330
1E
100
AcDbEntity
  8
0
100
AcDbLine
 10
224.7855749999999
 20
691.3999999999999
 30
0.0
 11
224.7855749999999
 21
697.4
 31
0.0
  0
LINE
  5
32C
330
1E
100
AcDbEntity
  8
0
100
AcDbLine
 10
224.7855749999999
 20
697.4
 30
0.0
 11
224.7855749999999
 21
691.3999999999999
 31
0.0
  0
LINE
  5
32D
330
1E
100
AcDbEntity
  8
0
100
AcDbLine
 10
224.7855749999999
 20
697.4
 30
0.0
 11
224.7855749999999
 21
702.7000000000001
 31
0.0
  0
LINE
  5
32E
330
1E
100
AcDbEntity
  8
0
100
AcDbLine
 10
224.7855749999999
 20
702.7000000000001
 30
0.0
 11
224.7855749999999
 21
697.4
 31
0.0
  0
LINE
  5
32F
330
1E
100
AcDbEntity
  8
0
100
AcDbLine
 10
224.7855749999999
 20
702.7000000000001
 30
0.0
 11
224.7855749999999
 21
706.7
 31
0.0
  0
LINE
  5
330
330
1E
100
AcDbEntity
  8
0
100
AcDbLine
 10
184.7855749999999
 20
710.0
 30
0.0
 11
184.7855749999999
 21
714.656
 31
0.0
  0
LINE
  5
331
330
1E
100
AcDbEntity
  8
0
100
AcDbLine
 10
192.7855749999999
 20
710.0
 30
0.0
 11
192.7855749999999
 21
714.656
 31
0.0
  0
LINE
  5
332
330
1E
100
AcDbEntity
  8
0
100
AcDbLine
 10
192.7401726470589
 20
710.0
 30
0.0
 11
224.7855749999999
 21
710.0
 31
0.0
  0
LINE
  5
333
330
1E
100
AcDbEntity
  8
0
100
AcDbLine
 10
224.7855749999999
 20
706.7
 30
0.0
 11
224.7855749999999
 21
702.7000000000001
 31
0.0
  0
LINE
  5
334
330
1E
100
AcDbEntity
  8
0
100
AcDbLine
 10
224.7855749999999
 20
706.7
 30
0.0
 11
224.7855749999999
 21
709.1
 31
0.0
  0
LINE
  5
335
330
1E
100
AcDbEntity
  8
0
100
AcDbLine
 10
224.7855749999999
 20
709.1
 30
0.0
 11
224.7855749999999
 21
706.7
 31
0.0
  0
LINE
  5
336
330
1E
100
AcDbEntity
  8
0
100
AcDbLine
 10
224.7855749999999
 20
709.1
 30
0.0
 11
224.7855749999999
 21
710.0
 31
0.0
  0
LINE
  5
337
330
1E
100
AcDbEntity
  8
0
100
AcDbLine
 10
184.7855749999999
 20
714.656
 30
0.0
 11
184.8815749999999
 21
714.8560000000001
 31
0.0
  0
LINE
  5
338
330
1E
100
AcDbEntity
  8
0
100
AcDbLine
 10
184.7855749999999
 20
714.656
 30
0.0
 11
184.7855749999999
 21
710.0
 31
0.0
  0
LINE
  5
339
330
1E
100
AcDbEntity
  8
0
100
AcDbLine
 10
184.8815749999999
 20
714.8560000000001
 30
0.0
 11
185.025575
 21
714.8560000000001
 31
0.0
  0
LINE
  5
33A
330
1E
100
AcDbEntity
  8
0
100
AcDbLine
 10
185.025575
 20
714.8560000000001
 30
0.0
 11
185.4095749999999
 21
714.8560000000001
 31
0.0
  0
LINE
  5
33B
330
1E
100
AcDbEntity
  8
0
100
AcDbLine
 10
185.4095749999999
 20
714.8560000000001
 30
0.0
 11
186.033575
 21
714.8560000000001
 31
0.0
  0
LINE
  5
33C
330
1E
100
AcDbEntity
  8
0
100
AcDbLine
 10
186.033575
 20
714.8560000000001
 30
0.0
 11
186.8495749999999
 21
714.8560000000001
 31
0.0
  0
LINE
  5
33D
330
1E
100
AcDbEntity
  8
0
100
AcDbLine
 10
192.545575
 20
714.8560000000001
 30
0.0
 11
192.6895749999999
 21
714.8560000000001
 31
0.0
  0
LINE
  5
33E
330
1E
100
AcDbEntity
  8
0
100
AcDbLine
 10
192.6895749999999
 20
714.8560000000001
 30
0.0
 11
192.7855749999999
 21
714.656
 31
0.0
  0
LINE
  5
33F
330
1E
100
AcDbEntity
  8
0
100
AcDbLine
 10
192.1615749999999
 20
714.8560000000001
 30
0.0
 11
192.545575
 21
714.8560000000001
 31
0.0
  0
LINE
  5
340
330
1E
100
AcDbEntity
  8
0
100
AcDbLine
 10
191.537575
 20
714.8560000000001
 30
0.0
 11
192.1615749999999
 21
714.8560000000001
 31
0.0
  0
LINE
  5
341
330
1E
100
AcDbEntity
  8
0
100
AcDbLine
 10
190.7215749999999
 20
714.8560000000001
 30
0.0
 11
191.537575
 21
714.8560000000001
 31
0.0
  0
LINE
  5
342
330
1E
100
AcDbEntity
  8
0
100
AcDbLine
 10
189.793575
 20
714.8560000000001
 30
0.0
 11
190.7215749999999
 21
714.8560000000001
 31
0.0
  0
LINE
  5
343
330
1E
100
AcDbEntity
  8
0
100
AcDbLine
 10
188.7855749999999
 20
714.8560000000001
 30
0.0
 11
189.793575
 21
714.8560000000001
 31
0.0
  0
LINE
  5
344
330
1E
100
AcDbEntity
  8
0
100
AcDbLine
 10
192.7855749999999
 20
714.656
 30
0.0
 11
192.7855749999999
 21
710.0
 31
0.0
  0
LINE
  5
345
330
1E
100
AcDbEntity
  8
0
100
AcDbLine
 10
186.8495749999999
 20
714.8560000000001
 30
0.0
 11
187.7775749999999
 21
714.8560000000001
 31
0.0
  0
LINE
  5
346
330
1E
100
AcDbEntity
  8
0
100
AcDbLine
 10
187.7775749999999
 20
714.8560000000001
 30
0.0
 11
188.7855749999999
 21
714.8560000000001
 31
0.0
  0
LINE
  5
347
330
1E
100
AcDbEntity
  8
0
100
AcDbLine
 10
224.7855749999999
 20
754.0
 30
0.0
 11
225.785575
 21
755.0
 31
0.0
  0
LINE
  5
348
330
1E
100
AcDbEntity
  8
0
100
AcDbLine
 10
224.7855749999999
 20
754.0
 30
0.0
 11
224.7855749999999
 21
730.0
 31
0.0
  0
LINE
  5
349
330
1E
100
AcDbEntity
  8
0
100
AcDbLine
 10
224.7855749999999
 20
754.0
 30
0.0
 11
225.485575
 21
754.0
 31
0.0
  0
LINE
  5
34A
330
1E
100
AcDbEntity
  8
0
100
AcDbLine
 10
224.7855749999999
 20
730.0
 30
0.0
 11
224.7855749999999
 21
501.0
 31
0.0
  0
LINE
  5
34B
330
1E
100
AcDbEntity
  8
0
100
AcDbLine
 10
224.7855749999999
 20
730.0
 30
0.0
 11
225.485575
 21
730.0
 31
0.0
  0
LINE
  5
34C
330
1E
100
AcDbEntity
  8
0
100
AcDbLine
 10
224.7855749999999
 20
730.0
 30
0.0
 11
224.7855749999999
 21
754.0
 31
0.0
  0
LINE
  5
34D
330
1E
100
AcDbEntity
  8
0
100
AcDbLine
 10
220.7675749999999
 20
1162.83
 30
0.0
 11
225.1745749999999
 21
1131.849999999999
 31
0.0
  0
LINE
  5
34E
330
1E
100
AcDbEntity
  8
0
100
AcDbLine
 10
216.084575
 20
1183.96
 30
0.0
 11
220.7675749999999
 21
1162.83
 31
0.0
  0
LINE
  5
34F
330
1E
100
AcDbEntity
  8
0
100
AcDbLine
 10
223.395575
 20
1215.22
 30
0.0
 11
230.577575
 21
1190.63
 31
0.0
  0
LINE
  5
350
330
1E
100
AcDbEntity
  8
0
100
AcDbLine
 10
209.4995749999999
 20
1207.42
 30
0.0
 11
216.084575
 21
1183.96
 31
0.0
  0
LINE
  5
351
330
1E
100
AcDbEntity
  8
0
100
AcDbLine
 10
214.493575
 20
1239.98
 30
0.0
 11
223.395575
 21
1215.22
 31
0.0
  0
LINE
  5
352
330
1E
100
AcDbEntity
  8
0
100
AcDbLine
 10
201.3035749999999
 20
1230.94
 30
0.0
 11
209.4995749999999
 21
1207.42
 31
0.0
  0
LINE
  5
353
330
1E
100
AcDbEntity
  8
0
100
AcDbLine
 10
224.7855749999999
 20
710.0
 30
0.0
 11
224.7855749999999
 21
709.1
 31
0.0
  0
LINE
  5
354
330
1E
100
AcDbEntity
  8
0
100
AcDbLine
 10
224.7855749999999
 20
685.0
 30
0.0
 11
224.7855749999999
 21
678.6
 31
0.0
  0
LINE
  5
355
330
1E
100
AcDbEntity
  8
0
100
AcDbLine
 10
224.7855749999999
 20
685.0
 30
0.0
 11
224.7855749999999
 21
691.3999999999999
 31
0.0
  0
LINE
  5
356
330
1E
100
AcDbEntity
  8
0
100
AcDbLine
 10
224.7855749999999
 20
678.6
 30
0.0
 11
224.7855749999999
 21
672.5999999999999
 31
0.0
  0
LINE
  5
357
330
1E
100
AcDbEntity
  8
0
100
AcDbLine
 10
224.7855749999999
 20
678.6
 30
0.0
 11
224.7855749999999
 21
685.0
 31
0.0
  0
LINE
  5
358
330
1E
100
AcDbEntity
  8
0
100
AcDbLine
 10
224.7855749999999
 20
672.5999999999999
 30
0.0
 11
224.7855749999999
 21
667.3
 31
0.0
  0
LINE
  5
359
330
1E
100
AcDbEntity
  8
0
100
AcDbLine
 10
224.7855749999999
 20
672.5999999999999
 30
0.0
 11
224.7855749999999
 21
678.6
 31
0.0
  0
LINE
  5
35A
330
1E
100
AcDbEntity
  8
0
100
AcDbLine
 10
224.7855749999999
 20
667.3
 30
0.0
 11
224.7855749999999
 21
663.3
 31
0.0
  0
LINE
  5
35B
330
1E
100
AcDbEntity
  8
0
100
AcDbLine
 10
224.7855749999999
 20
667.3
 30
0.0
 11
224.7855749999999
 21
672.5999999999999
 31
0.0
  0
LINE
  5
35C
330
1E
100
AcDbEntity
  8
0
100
AcDbLine
 10
225.485575
 20
730.0
 30
0.0
 11
227.385575
 21
730.0
 31
0.0
  0
LINE
  5
35D
330
1E
100
AcDbEntity
  8
0
100
AcDbLine
 10
227.385575
 20
730.0
 30
0.0
 11
229.785575
 21
730.0
 31
0.0
  0
LINE
  5
35E
330
1E
100
AcDbEntity
  8
0
100
AcDbLine
 10
229.785575
 20
730.0
 30
0.0
 11
232.061608344695
 21
730.0
 31
0.0
  0
LINE
  5
35F
330
1E
100
AcDbEntity
  8
0
100
AcDbLine
 10
225.485575
 20
754.0
 30
0.0
 11
227.385575
 21
754.0
 31
0.0
  0
LINE
  5
360
330
1E
100
AcDbEntity
  8
0
100
AcDbLine
 10
227.385575
 20
754.0
 30
0.0
 11
229.785575
 21
754.0
 31
0.0
  0
LINE
  5
361
330
1E
100
AcDbEntity
  8
0
100
AcDbLine
 10
229.785575
 20
754.0
 30
0.0
 11
231.805765936857
 21
754.0
 31
0.0
  0
LINE
  5
362
330
1E
100
AcDbEntity
  8
0
100
AcDbLine
 10
226.3855749999999
 20
755.0
 30
0.0
 11
227.8855749999999
 21
755.0
 31
0.0
  0
LINE
  5
363
330
1E
100
AcDbEntity
  8
0
100
AcDbLine
 10
229.785575
 20
755.0
 30
0.0
 11
231.795107926097
 21
755.0
 31
0.0
  0
LINE
  5
364
330
1E
100
AcDbEntity
  8
0
100
AcDbLine
 10
227.8855749999999
 20
755.0
 30
0.0
 11
229.785575
 21
755.0
 31
0.0
  0
LINE
  5
365
330
1E
100
AcDbEntity
  8
0
100
AcDbLine
 10
225.785575
 20
755.0
 30
0.0
 11
226.3855749999999
 21
755.0
 31
0.0
  0
LINE
  5
366
330
1E
100
AcDbEntity
  8
0
100
AcDbLine
 10
228.7055749999999
 20
1044.79
 30
0.0
 11
229.859575
 21
936.5709999999999
 31
0.0
  0
LINE
  5
367
330
1E
100
AcDbEntity
  8
0
100
AcDbLine
 10
229.859575
 20
936.5709999999999
 30
0.0
 11
231.006575
 21
828.9849999999999
 31
0.0
  0
LINE
  5
368
330
1E
100
AcDbEntity
  8
0
100
AcDbLine
 10
231.006575
 20
828.9849999999999
 30
0.0
 11
231.840575
 21
750.7339999999999
 31
0.0
  0
LINE
  5
369
330
1E
100
AcDbEntity
  8
0
100
AcDbLine
 10
231.840575
 20
750.7339999999999
 30
0.0
 11
232.747575
 21
665.653
 31
0.0
  0
LINE
  5
36A
330
1E
100
AcDbEntity
  8
0
100
AcDbLine
 10
232.747575
 20
665.653
 30
0.0
 11
233.6065749999999
 21
585.093
 31
0.0
  0
LINE
  5
36B
330
1E
100
AcDbEntity
  8
0
100
AcDbLine
 10
230.577575
 20
1190.63
 30
0.0
 11
236.282575
 21
1166.9
 31
0.0
  0
LINE
  5
36C
330
1E
100
AcDbEntity
  8
0
100
AcDbLine
 10
224.7855749999999
 20
663.3
 30
0.0
 11
224.7855749999999
 21
660.8999999999999
 31
0.0
  0
LINE
  5
36D
330
1E
100
AcDbEntity
  8
0
100
AcDbLine
 10
224.7855749999999
 20
663.3
 30
0.0
 11
224.7855749999999
 21
667.3
 31
0.0
  0
LINE
  5
36E
330
1E
100
AcDbEntity
  8
0
100
AcDbLine
 10
224.7855749999999
 20
660.8999999999999
 30
0.0
 11
224.7855749999999
 21
660.0
 31
0.0
  0
LINE
  5
36F
330
1E
100
AcDbEntity
  8
0
100
AcDbLine
 10
224.7855749999999
 20
660.8999999999999
 30
0.0
 11
224.7855749999999
 21
663.3
 31
0.0
  0
LINE
  5
370
330
1E
100
AcDbEntity
  8
0
100
AcDbLine
 10
236.7455749999999
 20
290.663
 30
0.0
 11
236.775575
 21
287.8559999999999
 31
0.0
  0
LINE
  5
371
330
1E
100
AcDbEntity
  8
0
100
AcDbLine
 10
240.124575
 20
46.7240000000001
 30
0.0
 11
240.2765749999999
 21
43.7080000000001
 31
0.0
  0
LINE
  5
372
330
1E
100
AcDbEntity
  8
0
100
AcDbLine
 10
240.0675749999999
 20
50.0000000000001
 30
0.0
 11
240.124575
 21
53.2760000000001
 31
0.0
  0
LINE
  5
373
330
1E
100
AcDbEntity
  8
0
100
AcDbLine
 10
240.0675749999999
 20
50.0000000000001
 30
0.0
 11
240.124575
 21
46.7240000000001
 31
0.0
  0
LINE
  5
374
330
1E
100
AcDbEntity
  8
0
100
AcDbLine
 10
240.2765749999999
 20
43.7080000000001
 30
0.0
 11
240.523575
 21
41.056
 31
0.0
  0
LINE
  5
375
330
1E
100
AcDbEntity
  8
0
100
AcDbLine
 10
240.2765749999999
 20
56.29200000000011
 30
0.0
 11
240.523575
 21
58.944
 31
0.0
  0
LINE
  5
376
330
1E
100
AcDbEntity
  8
0
100
AcDbLine
 10
240.124575
 20
53.2760000000001
 30
0.0
 11
240.2765749999999
 21
56.29200000000011
 31
0.0
  0
LINE
  5
377
330
1E
100
AcDbEntity
  8
0
100
AcDbLine
 10
237.841575
 20
283.032
 30
0.0
 11
239.121575
 21
281.336
 31
0.0
  0
LINE
  5
378
330
1E
100
AcDbEntity
  8
0
100
AcDbLine
 10
236.7855749999999
 20
287.0
 30
0.0
 11
237.073575
 21
284.952
 31
0.0
  0
LINE
  5
379
330
1E
100
AcDbEntity
  8
0
100
AcDbLine
 10
237.073575
 20
284.952
 30
0.0
 11
237.841575
 21
283.032
 31
0.0
  0
LINE
  5
37C
330
1E
100
AcDbEntity
  8
0
100
AcDbLine
 10
239.121575
 20
281.336
 30
0.0
 11
240.817575
 21
280.0559999999999
 31
0.0
  0
LINE
  5
37F
330
1E
100
AcDbEntity
  8
0
100
AcDbLine
 10
236.775575
 20
287.8559999999999
 30
0.0
 11
236.7855749999999
 21
286.915
 31
0.0
  0
LINE
  5
380
330
1E
100
AcDbEntity
  8
0
100
AcDbLine
 10
236.6965749999999
 20
295.287
 30
0.0
 11
236.7455749999999
 21
290.663
 31
0.0
  0
LINE
  5
381
330
1E
100
AcDbEntity
  8
0
100
AcDbLine
 10
236.628575
 20
301.651
 30
0.0
 11
236.6965749999999
 21
295.287
 31
0.0
  0
LINE
  5
382
330
1E
100
AcDbEntity
  8
0
100
AcDbLine
 10
236.543575
 20
309.6449999999999
 30
0.0
 11
236.628575
 21
301.651
 31
0.0
  0
LINE
  5
383
330
1E
100
AcDbEntity
  8
0
100
AcDbLine
 10
236.442575
 20
319.1309999999999
 30
0.0
 11
236.543575
 21
309.6449999999999
 31
0.0
  0
LINE
  5
384
330
1E
100
AcDbEntity
  8
0
100
AcDbLine
 10
236.061575
 20
354.8159999999999
 30
0.0
 11
236.199575
 21
341.9119999999999
 31
0.0
  0
LINE
  5
385
330
1E
100
AcDbEntity
  8
0
100
AcDbLine
 10
235.9165749999999
 20
368.44
 30
0.0
 11
236.061575
 21
354.8159999999999
 31
0.0
  0
LINE
  5
386
330
1E
100
AcDbEntity
  8
0
100
AcDbLine
 10
235.7665749999999
 20
382.5509999999999
 30
0.0
 11
235.9165749999999
 21
368.44
 31
0.0
  0
LINE
  5
387
330
1E
100
AcDbEntity
  8
0
100
AcDbLine
 10
234.2485749999999
 20
524.9049999999999
 30
0.0
 11
234.8865749999999
 21
465.098
 31
0.0
  0
LINE
  5
388
330
1E
100
AcDbEntity
  8
0
100
AcDbLine
 10
234.8865749999999
 20
465.098
 30
0.0
 11
235.6135749999999
 21
396.908
 31
0.0
  0
LINE
  5
389
330
1E
100
AcDbEntity
  8
0
100
AcDbLine
 10
235.6135749999999
 20
396.908
 30
0.0
 11
235.7665749999999
 21
382.5509999999999
 31
0.0
  0
LINE
  5
38A
330
1E
100
AcDbEntity
  8
0
100
AcDbLine
 10
236.199575
 20
341.9119999999999
 30
0.0
 11
236.327575
 21
329.949
 31
0.0
  0
LINE
  5
38B
330
1E
100
AcDbEntity
  8
0
100
AcDbLine
 10
236.327575
 20
329.949
 30
0.0
 11
236.442575
 21
319.1309999999999
 31
0.0
  0
LINE
  5
38C
330
1E
100
AcDbEntity
  8
0
100
AcDbLine
 10
240.523575
 20
41.056
 30
0.0
 11
240.8465749999999
 21
39.02800000000009
 31
0.0
  0
LINE
  5
38D
330
1E
100
AcDbEntity
  8
0
100
AcDbLine
 10
240.8465749999999
 20
39.02800000000009
 30
0.0
 11
241.214575
 21
37.7800000000001
 31
0.0
  0
LINE
  5
38E
330
1E
100
AcDbEntity
  8
0
100
AcDbLine
 10
240.523575
 20
58.944
 30
0.0
 11
240.8465749999999
 21
60.972
 31
0.0
  0
LINE
  5
38F
330
1E
100
AcDbEntity
  8
0
100
AcDbLine
 10
241.613575
 20
37.31199999999999
 30
0.0
 11
242.0125749999999
 21
37.7800000000001
 31
0.0
  0
LINE
  5
390
330
1E
100
AcDbEntity
  8
0
100
AcDbLine
 10
241.613575
 20
37.31199999999999
 30
0.0
 11
241.911575
 21
37.00000000000009
 31
0.0
  0
LINE
  5
391
330
1E
100
AcDbEntity
  8
0
100
AcDbLine
 10
241.214575
 20
62.22
 30
0.0
 11
241.613575
 21
62.6880000000001
 31
0.0
  0
LINE
  5
392
330
1E
100
AcDbEntity
  8
0
100
AcDbLine
 10
241.613575
 20
62.6880000000001
 30
0.0
 11
241.911575
 21
63.0
 31
0.0
  0
LINE
  5
393
330
1E
100
AcDbEntity
  8
0
100
AcDbLine
 10
241.613575
 20
62.6880000000001
 30
0.0
 11
242.0125749999999
 21
62.22
 31
0.0
  0
LINE
  5
394
330
1E
100
AcDbEntity
  8
0
100
AcDbLine
 10
241.214575
 20
37.7800000000001
 30
0.0
 11
241.613575
 21
37.31199999999999
 31
0.0
  0
LINE
  5
395
330
1E
100
AcDbEntity
  8
0
100
AcDbLine
 10
240.8465749999999
 20
60.972
 30
0.0
 11
241.214575
 21
62.22
 31
0.0
  0
LINE
  5
396
330
1E
100
AcDbEntity
  8
0
100
AcDbLine
 10
241.7816256683909
 20
37.13605433376459
 30
0.0
 11
242.145575
 21
35.89999999999999
 31
0.0
  0
LINE
  5
397
330
1E
100
AcDbEntity
  8
0
100
AcDbLine
 10
242.0125749999999
 20
62.22
 30
0.0
 11
242.380575
 21
60.972
 31
0.0
  0
LINE
  5
398
330
1E
100
AcDbEntity
  8
0
100
AcDbLine
 10
241.911575
 20
63.0
 30
0.0
 11
242.3165749999999
 21
62.53199999999999
 31
0.0
  0
LINE
  5
399
330
1E
100
AcDbEntity
  8
0
100
AcDbLine
 10
241.911575
 20
63.0
 30
0.0
 11
242.6065749999999
 21
63.0
 31
0.0
  0
LINE
  5
39A
330
1E
100
AcDbEntity
  8
0
100
AcDbLine
 10
242.0125749999999
 20
37.7800000000001
 30
0.0
 11
242.380575
 21
39.02800000000009
 31
0.0
  0
LINE
  5
39B
330
1E
100
AcDbEntity
  8
0
100
AcDbLine
 10
241.911575
 20
37.00000000000009
 30
0.0
 11
242.3165749999999
 21
37.4680000000001
 31
0.0
  0
LINE
  5
39C
330
1E
100
AcDbEntity
  8
0
100
AcDbLine
 10
241.911575
 20
37.00000000000009
 30
0.0
 11
242.6065749999999
 21
37.00000000000009
 31
0.0
  0
LINE
  5
39D
330
1E
100
AcDbEntity
  8
0
100
AcDbLine
 10
242.380575
 20
60.972
 30
0.0
 11
242.7035749999999
 21
58.944
 31
0.0
  0
LINE
  5
39E
330
1E
100
AcDbEntity
  8
0
100
AcDbLine
 10
242.3165749999999
 20
62.53199999999999
 30
0.0
 11
242.6975749999999
 21
61.284
 31
0.0
  0
LINE
  5
39F
330
1E
100
AcDbEntity
  8
0
100
AcDbLine
 10
242.380575
 20
39.02800000000009
 30
0.0
 11
242.7035749999999
 21
41.056
 31
0.0
  0
LINE
  5
3A0
330
1E
100
AcDbEntity
  8
0
100
AcDbLine
 10
242.3165749999999
 20
37.4680000000001
 30
0.0
 11
242.6975749999999
 21
38.7160000000001
 31
0.0
  0
LINE
  5
3A1
330
1E
100
AcDbEntity
  8
0
100
AcDbLine
 10
242.145575
 20
35.89999999999999
 30
0.0
 11
242.6065749999999
 21
35.36
 31
0.0
  0
LINE
  5
3A2
330
1E
100
AcDbEntity
  8
0
100
AcDbLine
 10
242.145575
 20
35.89999999999999
 30
0.0
 11
242.435575
 21
35.54
 31
0.0
  0
LINE
  5
3A3
330
1E
100
AcDbEntity
  8
0
100
AcDbLine
 10
242.6975749999999
 20
61.284
 30
0.0
 11
243.032575
 21
59.20400000000011
 31
0.0
  0
LINE
  5
3A4
330
1E
100
AcDbEntity
  8
0
100
AcDbLine
 10
242.6065749999999
 20
63.0
 30
0.0
 11
243.011575
 21
62.53199999999999
 31
0.0
  0
LINE
  5
3A5
330
1E
100
AcDbEntity
  8
0
100
AcDbLine
 10
242.7035749999999
 20
58.944
 30
0.0
 11
242.950575
 21
56.29200000000011
 31
0.0
  0
LINE
  5
3A6
330
1E
100
AcDbEntity
  8
0
100
AcDbLine
 10
242.7035749999999
 20
41.056
 30
0.0
 11
242.950575
 21
43.7080000000001
 31
0.0
  0
LINE
  5
3A7
330
1E
100
AcDbEntity
  8
0
100
AcDbLine
 10
242.6975749999999
 20
38.7160000000001
 30
0.0
 11
243.032575
 21
40.79600000000009
 31
0.0
  0
LINE
  5
3A8
330
1E
100
AcDbEntity
  8
0
100
AcDbLine
 10
242.6065749999999
 20
37.00000000000009
 30
0.0
 11
243.011575
 21
37.4680000000001
 31
0.0
  0
LINE
  5
3A9
330
1E
100
AcDbEntity
  8
0
100
AcDbLine
 10
242.435575
 20
35.54
 30
0.0
 11
242.903575
 21
35.0000000000001
 31
0.0
  0
LINE
  5
3AA
330
1E
100
AcDbEntity
  8
0
100
AcDbLine
 10
242.6065749999999
 20
35.36
 30
0.0
 11
243.066575
 21
35.89999999999999
 31
0.0
  0
LINE
  5
3AB
330
1E
100
AcDbEntity
  8
0
100
AcDbLine
 10
241.7816256683909
 20
62.8639456662355
 30
0.0
 11
242.145575
 21
64.1
 31
0.0
  0
LINE
  5
3AC
330
1E
100
AcDbEntity
  8
0
100
AcDbLine
 10
242.435575
 20
64.46000000000011
 30
0.0
 11
242.903575
 21
65.0
 31
0.0
  0
LINE
  5
3AD
330
1E
100
AcDbEntity
  8
0
100
AcDbLine
 10
242.6065749999999
 20
64.64
 30
0.0
 11
243.066575
 21
64.1
 31
0.0
  0
LINE
  5
3AE
330
1E
100
AcDbEntity
  8
0
100
AcDbLine
 10
242.903575
 20
65.0
 30
0.0
 11
243.371575
 21
64.46000000000011
 31
0.0
  0
LINE
  5
3AF
330
1E
100
AcDbEntity
  8
0
100
AcDbLine
 10
242.903575
 20
65.0
 30
0.0
 11
259.7855749999999
 21
65.0
 31
0.0
  0
LINE
  5
3B0
330
1E
100
AcDbEntity
  8
0
100
AcDbLine
 10
242.145575
 20
64.1
 30
0.0
 11
242.435575
 21
64.46000000000011
 31
0.0
  0
LINE
  5
3B1
330
1E
100
AcDbEntity
  8
0
100
AcDbLine
 10
242.145575
 20
64.1
 30
0.0
 11
242.6065749999999
 21
64.64
 31
0.0
  0
LINE
  5
3B2
330
1E
100
AcDbEntity
  8
0
100
AcDbLine
 10
242.950575
 20
56.29200000000011
 30
0.0
 11
243.1025749999999
 21
53.2760000000001
 31
0.0
  0
LINE
  5
3B3
330
1E
100
AcDbEntity
  8
0
100
AcDbLine
 10
243.032575
 20
59.20400000000011
 30
0.0
 11
243.2865749999999
 21
56.448
 31
0.0
  0
LINE
  5
3B4
330
1E
100
AcDbEntity
  8
0
100
AcDbLine
 10
243.011575
 20
62.53199999999999
 30
0.0
 11
243.391575
 21
61.284
 31
0.0
  0
LINE
  5
3B5
330
1E
100
AcDbEntity
  8
0
100
AcDbLine
 10
242.950575
 20
43.7080000000001
 30
0.0
 11
243.1025749999999
 21
46.7240000000001
 31
0.0
  0
LINE
  5
3B6
330
1E
100
AcDbEntity
  8
0
100
AcDbLine
 10
243.032575
 20
40.79600000000009
 30
0.0
 11
243.2865749999999
 21
43.55199999999999
 31
0.0
  0
LINE
  5
3B7
330
1E
100
AcDbEntity
  8
0
100
AcDbLine
 10
243.011575
 20
37.4680000000001
 30
0.0
 11
243.391575
 21
38.7160000000001
 31
0.0
  0
LINE
  5
3B8
330
1E
100
AcDbEntity
  8
0
100
AcDbLine
 10
243.1025749999999
 20
53.2760000000001
 30
0.0
 11
243.159575
 21
50.0000000000001
 31
0.0
  0
LINE
  5
3B9
330
1E
100
AcDbEntity
  8
0
100
AcDbLine
 10
243.2865749999999
 20
56.448
 30
0.0
 11
243.438575
 21
53.3280000000001
 31
0.0
  0
LINE
  5
3BA
330
1E
100
AcDbEntity
  8
0
100
AcDbLine
 10
243.391575
 20
61.284
 30
0.0
 11
243.7275749999999
 21
59.20400000000011
 31
0.0
  0
LINE
  5
3BB
330
1E
100
AcDbEntity
  8
0
100
AcDbLine
 10
243.1025749999999
 20
46.7240000000001
 30
0.0
 11
243.159575
 21
50.0000000000001
 31
0.0
  0
LINE
  5
3BC
330
1E
100
AcDbEntity
  8
0
100
AcDbLine
 10
243.2865749999999
 20
43.55199999999999
 30
0.0
 11
243.438575
 21
46.6720000000001
 31
0.0
  0
LINE
  5
3BD
330
1E
100
AcDbEntity
  8
0
100
AcDbLine
 10
243.438575
 20
53.3280000000001
 30
0.0
 11
243.4955749999999
 21
50.0000000000001
 31
0.0
  0
LINE
  5
3BE
330
1E
100
AcDbEntity
  8
0
100
AcDbLine
 10
243.438575
 20
46.6720000000001
 30
0.0
 11
243.4955749999999
 21
50.0000000000001
 31
0.0
  0
LINE
  5
3BF
330
1E
100
AcDbEntity
  8
0
100
AcDbLine
 10
243.391575
 20
38.7160000000001
 30
0.0
 11
243.7275749999999
 21
40.79600000000009
 31
0.0
  0
LINE
  5
3C0
330
1E
100
AcDbEntity
  8
0
100
AcDbLine
 10
243.4905749999999
 20
62.6600000000001
 30
0.0
 11
243.8635749999999
 21
60.32
 31
0.0
  0
LINE
  5
3C1
330
1E
100
AcDbEntity
  8
0
100
AcDbLine
 10
243.066575
 20
64.1
 30
0.0
 11
243.4905749999999
 21
62.6600000000001
 31
0.0
  0
LINE
  5
3C2
330
1E
100
AcDbEntity
  8
0
100
AcDbLine
 10
243.371575
 20
64.46000000000011
 30
0.0
 11
243.810575
 21
63.02
 31
0.0
  0
LINE
  5
3C3
330
1E
100
AcDbEntity
  8
0
100
AcDbLine
 10
243.7275749999999
 20
59.20400000000011
 30
0.0
 11
243.981575
 21
56.448
 31
0.0
  0
LINE
  5
3C4
330
1E
100
AcDbEntity
  8
0
100
AcDbLine
 10
243.7275749999999
 20
40.79600000000009
 30
0.0
 11
243.981575
 21
43.55199999999999
 31
0.0
  0
LINE
  5
3C5
330
1E
100
AcDbEntity
  8
0
100
AcDbLine
 10
243.810575
 20
63.02
 30
0.0
 11
244.198575
 21
60.6200000000001
 31
0.0
  0
LINE
  5
3C6
330
1E
100
AcDbEntity
  8
0
100
AcDbLine
 10
243.4905749999999
 20
37.34
 30
0.0
 11
243.8635749999999
 21
39.67999999999999
 31
0.0
  0
LINE
  5
3C7
330
1E
100
AcDbEntity
  8
0
100
AcDbLine
 10
243.066575
 20
35.89999999999999
 30
0.0
 11
243.4905749999999
 21
37.34
 31
0.0
  0
LINE
  5
3C8
330
1E
100
AcDbEntity
  8
0
100
AcDbLine
 10
244.1335749999999
 20
53.3280000000001
 30
0.0
 11
244.190575
 21
50.0000000000001
 31
0.0
  0
LINE
  5
3C9
330
1E
100
AcDbEntity
  8
0
100
AcDbLine
 10
243.981575
 20
56.448
 30
0.0
 11
244.1335749999999
 21
53.3280000000001
 31
0.0
  0
LINE
  5
3CA
330
1E
100
AcDbEntity
  8
0
100
AcDbLine
 10
244.1335749999999
 20
46.6720000000001
 30
0.0
 11
244.190575
 21
50.0000000000001
 31
0.0
  0
LINE
  5
3CB
330
1E
100
AcDbEntity
  8
0
100
AcDbLine
 10
243.981575
 20
43.55199999999999
 30
0.0
 11
244.1335749999999
 21
46.6720000000001
 31
0.0
  0
LINE
  5
3CC
330
1E
100
AcDbEntity
  8
0
100
AcDbLine
 10
244.148575
 20
57.25999999999999
 30
0.0
 11
244.3245749999999
 21
53.7800000000001
 31
0.0
  0
LINE
  5
3CD
330
1E
100
AcDbEntity
  8
0
100
AcDbLine
 10
243.8635749999999
 20
60.32
 30
0.0
 11
244.148575
 21
57.25999999999999
 31
0.0
  0
LINE
  5
3CE
330
1E
100
AcDbEntity
  8
0
100
AcDbLine
 10
244.3245749999999
 20
53.7800000000001
 30
0.0
 11
244.390575
 21
50.0000000000001
 31
0.0
  0
LINE
  5
3CF
330
1E
100
AcDbEntity
  8
0
100
AcDbLine
 10
244.490575
 20
57.43999999999999
 30
0.0
 11
244.666575
 21
53.84
 31
0.0
  0
LINE
  5
3D0
330
1E
100
AcDbEntity
  8
0
100
AcDbLine
 10
244.198575
 20
60.6200000000001
 30
0.0
 11
244.490575
 21
57.43999999999999
 31
0.0
  0
LINE
  5
3D1
330
1E
100
AcDbEntity
  8
0
100
AcDbLine
 10
244.3245749999999
 20
46.2200000000001
 30
0.0
 11
244.390575
 21
50.0000000000001
 31
0.0
  0
LINE
  5
3D2
330
1E
100
AcDbEntity
  8
0
100
AcDbLine
 10
244.148575
 20
42.7400000000001
 30
0.0
 11
244.3245749999999
 21
46.2200000000001
 31
0.0
  0
LINE
  5
3D3
330
1E
100
AcDbEntity
  8
0
100
AcDbLine
 10
243.8635749999999
 20
39.67999999999999
 30
0.0
 11
244.148575
 21
42.7400000000001
 31
0.0
  0
LINE
  5
3D4
330
1E
100
AcDbEntity
  8
0
100
AcDbLine
 10
244.666575
 20
53.84
 30
0.0
 11
244.731575
 21
50.0000000000001
 31
0.0
  0
LINE
  5
3D5
330
1E
100
AcDbEntity
  8
0
100
AcDbLine
 10
244.666575
 20
46.1600000000001
 30
0.0
 11
244.731575
 21
50.0000000000001
 31
0.0
  0
LINE
  5
3D6
330
1E
100
AcDbEntity
  8
0
100
AcDbLine
 10
244.490575
 20
42.56000000000009
 30
0.0
 11
244.666575
 21
46.1600000000001
 31
0.0
  0
LINE
  5
3D7
330
1E
100
AcDbEntity
  8
0
100
AcDbLine
 10
244.198575
 20
39.38
 30
0.0
 11
244.490575
 21
42.56000000000009
 31
0.0
  0
LINE
  5
3D8
330
1E
100
AcDbEntity
  8
0
100
AcDbLine
 10
243.810575
 20
36.97999999999999
 30
0.0
 11
244.198575
 21
39.38
 31
0.0
  0
LINE
  5
3D9
330
1E
100
AcDbEntity
  8
0
100
AcDbLine
 10
243.371575
 20
35.54
 30
0.0
 11
243.810575
 21
36.97999999999999
 31
0.0
  0
LINE
  5
3DA
330
1E
100
AcDbEntity
  8
0
100
AcDbLine
 10
242.903575
 20
35.0000000000001
 30
0.0
 11
259.7855749999999
 21
35.0000000000001
 31
0.0
  0
LINE
  5
3DB
330
1E
100
AcDbEntity
  8
0
100
AcDbLine
 10
242.903575
 20
35.0000000000001
 30
0.0
 11
243.371575
 21
35.54
 31
0.0
  0
LINE
  5
3DC
330
1E
100
AcDbEntity
  8
0
100
AcDbLine
 10
244.7855749999999
 20
279.0
 30
0.0
 11
246.833575
 21
279.288
 31
0.0
  0
LINE
  5
3DE
330
1E
100
AcDbEntity
  8
0
100
AcDbLine
 10
240.817575
 20
280.0559999999999
 30
0.0
 11
242.7375749999999
 21
279.288
 31
0.0
  0
LINE
  5
3DF
330
1E
100
AcDbEntity
  8
0
100
AcDbLine
 10
246.037056451875
 20
920.0
 30
0.0
 11
259.7855749999999
 21
920.0
 31
0.0
  0
LINE
  5
3E0
330
1E
100
AcDbEntity
  8
0
100
AcDbLine
 10
245.717186833412
 20
950.0
 30
0.0
 11
259.7855749999999
 21
950.0
 31
0.0
  0
LINE
  5
3E1
330
1E
100
AcDbEntity
  8
0
100
AcDbLine
 10
245.797803361009
 20
942.44
 30
0.0
 11
247.0055749999999
 21
829.156
 31
0.0
  0
LINE
  5
3E2
330
1E
100
AcDbEntity
  8
0
100
AcDbLine
 10
244.704575
 20
1044.96
 30
0.0
 11
245.797803361009
 21
942.44
 31
0.0
  0
LINE
  5
3E3
330
1E
100
AcDbEntity
  8
0
100
AcDbLine
 10
242.7375749999999
 20
279.288
 30
0.0
 11
244.7855749999999
 21
279.0
 31
0.0
  0
LINE
  5
3E6
330
1E
100
AcDbEntity
  8
0
100
AcDbLine
 10
240.4945749999999
 20
1133.61
 30
0.0
 11
241.119575
 21
1133.19
 31
0.0
  0
LINE
  5
3E7
330
1E
100
AcDbEntity
  8
0
100
AcDbLine
 10
241.119575
 20
1133.19
 30
0.0
 11
244.704575
 21
1044.96
 31
0.0
  0
LINE
  5
3E8
330
1E
100
AcDbEntity
  8
0
100
AcDbLine
 10
236.282575
 20
1166.9
 30
0.0
 11
241.119575
 21
1133.19
 31
0.0
  0
LINE
  5
3E9
330
1E
100
AcDbEntity
  8
0
100
AcDbLine
 10
234.1605749999999
 20
1251.0
 30
0.0
 11
246.476575
 21
1250.0
 31
0.0
  0
LINE
  5
3EA
330
1E
100
AcDbEntity
  8
0
100
AcDbLine
 10
191.545575
 20
1252.74
 30
0.0
 11
201.3035749999999
 21
1230.94
 31
0.0
  0
LINE
  5
3EB
330
1E
100
AcDbEntity
  8
0
100
AcDbLine
 10
212.426575
 20
1254.35
 30
0.0
 11
222.5695749999999
 21
1252.23
 31
0.0
  0
LINE
  5
3ED
330
1E
100
AcDbEntity
  8
0
100
AcDbLine
 10
222.5695749999999
 20
1252.23
 30
0.0
 11
234.1605749999999
 21
1251.0
 31
0.0
  0
LINE
  5
3F0
330
1E
100
AcDbEntity
  8
0
100
AcDbLine
 10
246.833575
 20
279.288
 30
0.0
 11
248.753575
 21
280.0559999999999
 31
0.0
  0
LINE
  5
3F1
330
1E
100
AcDbEntity
  8
0
100
AcDbLine
 10
248.0624312781349
 20
730.0
 30
0.0
 11
294.785575
 21
730.0
 31
0.0
  0
LINE
  5
3F2
330
1E
100
AcDbEntity
  8
0
100
AcDbLine
 10
247.8065884566969
 20
754.0
 30
0.0
 11
294.785575
 21
754.0
 31
0.0
  0
LINE
  5
3F3
330
1E
100
AcDbEntity
  8
0
100
AcDbLine
 10
247.795930445937
 20
755.0
 30
0.0
 11
294.785575
 21
755.0
 31
0.0
  0
LINE
  5
3F4
330
1E
100
AcDbEntity
  8
0
100
AcDbLine
 10
247.839575
 20
750.905
 30
0.0
 11
248.746575
 21
665.8239999999999
 31
0.0
  0
LINE
  5
3F5
330
1E
100
AcDbEntity
  8
0
100
AcDbLine
 10
247.0055749999999
 20
829.156
 30
0.0
 11
247.839575
 21
750.905
 31
0.0
  0
LINE
  5
3F7
330
1E
100
AcDbEntity
  8
0
100
AcDbLine
 10
246.476575
 20
1250.0
 30
0.0
 11
263.6825749999999
 21
1250.0
 31
0.0
  0
LINE
  5
3F8
330
1E
100
AcDbEntity
  8
0
100
AcDbLine
 10
207.1939633626179
 20
1255.86472509143
 30
0.0
 11
214.493575
 21
1239.98
 31
0.0
  0
LINE
  5
3FB
330
1E
100
AcDbEntity
  8
0
100
AcDbLine
 10
207.195587937918
 20
1255.86118984417
 30
0.0
 11
212.426575
 21
1254.35
 31
0.0
  0
LINE
  5
3FC
330
1E
100
AcDbEntity
  8
0
100
AcDbLine
 10
190.8264099456049
 20
1278.757322522739
 30
0.0
 11
191.025575
 21
1278.869999999999
 31
0.0
  0
LINE
  5
3FD
330
1E
100
AcDbEntity
  8
0
100
AcDbLine
 10
190.826335081258
 20
1278.75747247114
 30
0.0
 11
191.025575
 21
1278.869999999999
 31
0.0
  0
LINE
  5
3FE
330
1E
100
AcDbEntity
  8
0
100
AcDbLine
 10
191.025575
 20
1278.869999999999
 30
0.0
 11
193.079575
 21
1280.04
 31
0.0
  0
LINE
  5
402
330
1E
100
AcDbEntity
  8
0
100
AcDbLine
 10
189.474575
 20
1281.619999999999
 30
0.0
 11
191.447575
 21
1282.84
 31
0.0
  0
LINE
  5
403
330
1E
100
AcDbEntity
  8
0
100
AcDbLine
 10
189.429572357621
 20
1281.59050388608
 30
0.0
 11
189.474575
 21
1281.619999999999
 31
0.0
  0
LINE
  5
405
330
1E
100
AcDbEntity
  8
0
100
AcDbLine
 10
193.079575
 20
1280.04
 30
0.0
 11
194.387575
 21
1280.78
 31
0.0
  0
LINE
  5
406
330
1E
100
AcDbEntity
  8
0
100
AcDbLine
 10
194.387575
 20
1280.78
 30
0.0
 11
194.8455749999999
 21
1281.039999999999
 31
0.0
  0
LINE
  5
407
330
1E
100
AcDbEntity
  8
0
100
AcDbLine
 10
193.869417337091
 20
1280.483695095329
 30
0.0
 11
194.8455749999999
 21
1281.039999999999
 31
0.0
  0
LINE
  5
408
330
1E
100
AcDbEntity
  8
0
100
AcDbLine
 10
193.8680547968879
 20
1280.48608184228
 30
0.0
 11
201.652965573641
 21
1266.84933779584
 31
0.0
  0
LINE
  5
409
330
1E
100
AcDbEntity
  8
0
100
AcDbLine
 10
193.808772189908
 20
1282.80949390485
 30
0.0
 11
194.8455749999999
 21
1281.039999999999
 31
0.0
  0
LINE
  5
40A
330
1E
100
AcDbEntity
  8
0
100
AcDbLine
 10
194.4875749999999
 20
1284.359999999999
 30
0.0
 11
195.226575
 21
1284.5
 31
0.0
  0
LINE
  5
40B
330
1E
100
AcDbEntity
  8
0
100
AcDbLine
 10
193.172575
 20
1283.78
 30
0.0
 11
194.4875749999999
 21
1284.359999999999
 31
0.0
  0
LINE
  5
40C
330
1E
100
AcDbEntity
  8
0
100
AcDbLine
 10
191.447575
 20
1282.84
 30
0.0
 11
193.172575
 21
1283.78
 31
0.0
  0
LINE
  5
40D
330
1E
100
AcDbEntity
  8
0
100
AcDbLine
 10
195.226575
 20
1284.5
 30
0.0
 11
195.555575
 21
1284.329999999999
 31
0.0
  0
LINE
  5
40E
330
1E
100
AcDbEntity
  8
0
100
AcDbLine
 10
195.226575
 20
1283.71
 30
0.0
 11
195.555575
 21
1284.329999999999
 31
0.0
  0
LINE
  5
40F
330
1E
100
AcDbEntity
  8
0
100
AcDbLine
 10
194.4875749999999
 20
1282.84
 30
0.0
 11
195.226575
 21
1283.71
 31
0.0
  0
LINE
  5
410
330
1E
100
AcDbEntity
  8
0
100
AcDbLine
 10
194.036242836071
 20
1282.42127358175
 30
0.0
 11
194.4875749999999
 21
1282.84
 31
0.0
  0
LINE
  5
411
330
1E
100
AcDbEntity
  8
0
100
AcDbLine
 10
191.164575
 20
1278.08
 30
0.0
 11
196.545575
 21
1270.28
 31
0.0
  0
LINE
  5
412
330
1E
100
AcDbEntity
  8
0
100
AcDbLine
 10
188.428575
 20
1262.809999999999
 30
0.0
 11
199.7485749999999
 21
1258.02
 31
0.0
  0
LINE
  5
413
330
1E
100
AcDbEntity
  8
0
100
AcDbLine
 10
204.7485749999999
 20
1264.77
 30
0.0
 11
215.1825749999999
 21
1261.07
 31
0.0
  0
LINE
  5
414
330
1E
100
AcDbEntity
  8
0
100
AcDbLine
 10
196.545575
 20
1270.28
 30
0.0
 11
204.7485749999999
 21
1264.77
 31
0.0
  0
LINE
  5
415
330
1E
100
AcDbEntity
  8
0
100
AcDbLine
 10
185.7125749999999
 20
1289.0
 30
0.0
 11
191.164575
 21
1278.08
 31
0.0
  0
LINE
  5
416
330
1E
100
AcDbEntity
  8
0
100
AcDbLine
 10
185.7125749999999
 20
1289.0
 30
0.0
 11
188.985575
 21
1291.0
 31
0.0
  0
LINE
  5
417
330
1E
100
AcDbEntity
  8
0
100
AcDbLine
 10
215.1825749999999
 20
1261.07
 30
0.0
 11
226.199575
 21
1258.56
 31
0.0
  0
LINE
  5
418
330
1E
100
AcDbEntity
  8
0
100
AcDbLine
 10
226.199575
 20
1258.56
 30
0.0
 11
239.025575
 21
1256.43
 31
0.0
  0
LINE
  5
419
330
1E
100
AcDbEntity
  8
0
100
AcDbLine
 10
239.025575
 20
1256.43
 30
0.0
 11
246.476575
 21
1255.57
 31
0.0
  0
LINE
  5
41A
330
1E
100
AcDbEntity
  8
0
100
AcDbLine
 10
246.476575
 20
1255.57
 30
0.0
 11
248.287575
 21
1255.57
 31
0.0
  0
LINE
  5
41B
330
1E
100
AcDbEntity
  8
0
100
AcDbLine
 10
248.753575
 20
280.0559999999999
 30
0.0
 11
250.449575
 21
281.336
 31
0.0
  0
LINE
  5
41C
330
1E
100
AcDbEntity
  8
0
100
AcDbLine
 10
250.449575
 20
281.336
 30
0.0
 11
251.729575
 21
283.032
 31
0.0
  0
LINE
  5
41F
330
1E
100
AcDbEntity
  8
0
100
AcDbLine
 10
250.8884429131839
 20
465.0
 30
0.0
 11
259.7855749999999
 21
465.0
 31
0.0
  0
LINE
  5
420
330
1E
100
AcDbEntity
  8
0
100
AcDbLine
 10
250.8855749999999
 20
465.2689999999999
 30
0.0
 11
251.612575
 21
397.079
 31
0.0
  0
LINE
  5
421
330
1E
100
AcDbEntity
  8
0
100
AcDbLine
 10
251.729575
 20
283.032
 30
0.0
 11
252.497575
 21
284.952
 31
0.0
  0
LINE
  5
422
330
1E
100
AcDbEntity
  8
0
100
AcDbLine
 10
252.497575
 20
284.952
 30
0.0
 11
252.785575
 21
287.0
 31
0.0
  0
LINE
  5
423
330
1E
100
AcDbEntity
  8
0
100
AcDbLine
 10
252.777885023225
 20
287.054684279286
 30
0.0
 11
252.785575
 21
287.0
 31
0.0
  0
LINE
  5
424
330
1E
100
AcDbEntity
  8
0
100
AcDbLine
 10
252.785575
 20
287.0
 30
0.0
 11
252.785575
 21
287.9409999999999
 31
0.0
  0
LINE
  5
427
330
1E
100
AcDbEntity
  8
0
100
AcDbLine
 10
252.745575
 20
290.8329999999999
 30
0.0
 11
252.775575
 21
288.026
 31
0.0
  0
LINE
  5
428
330
1E
100
AcDbEntity
  8
0
100
AcDbLine
 10
252.775575
 20
288.026
 30
0.0
 11
252.785575
 21
287.0849999999999
 31
0.0
  0
LINE
  5
429
330
1E
100
AcDbEntity
  8
0
100
AcDbLine
 10
252.6955749999999
 20
295.4579999999999
 30
0.0
 11
252.745575
 21
290.8329999999999
 31
0.0
  0
LINE
  5
42A
330
1E
100
AcDbEntity
  8
0
100
AcDbLine
 10
252.6275749999999
 20
301.8219999999999
 30
0.0
 11
252.6955749999999
 21
295.4579999999999
 31
0.0
  0
LINE
  5
42B
330
1E
100
AcDbEntity
  8
0
100
AcDbLine
 10
252.441575
 20
319.302
 30
0.0
 11
252.542575
 21
309.8149999999999
 31
0.0
  0
LINE
  5
42C
330
1E
100
AcDbEntity
  8
0
100
AcDbLine
 10
252.542575
 20
309.8149999999999
 30
0.0
 11
252.6275749999999
 21
301.8219999999999
 31
0.0
  0
LINE
  5
42D
330
1E
100
AcDbEntity
  8
0
100
AcDbLine
 10
252.785575
 20
309.731
 30
0.0
 11
252.785575
 21
301.737
 31
0.0
  0
LINE
  5
42E
330
1E
100
AcDbEntity
  8
0
100
AcDbLine
 10
252.785575
 20
309.731
 30
0.0
 11
252.785575
 21
319.218
 31
0.0
  0
LINE
  5
42F
330
1E
100
AcDbEntity
  8
0
100
AcDbLine
 10
252.785575
 20
301.737
 30
0.0
 11
252.785575
 21
295.3729999999999
 31
0.0
  0
LINE
  5
430
330
1E
100
AcDbEntity
  8
0
100
AcDbLine
 10
252.785575
 20
301.737
 30
0.0
 11
252.785575
 21
309.731
 31
0.0
  0
LINE
  5
431
330
1E
100
AcDbEntity
  8
0
100
AcDbLine
 10
252.785575
 20
295.3729999999999
 30
0.0
 11
252.785575
 21
301.737
 31
0.0
  0
LINE
  5
432
330
1E
100
AcDbEntity
  8
0
100
AcDbLine
 10
252.785575
 20
295.3729999999999
 30
0.0
 11
252.785575
 21
290.7479999999999
 31
0.0
  0
LINE
  5
433
330
1E
100
AcDbEntity
  8
0
100
AcDbLine
 10
252.785575
 20
290.7479999999999
 30
0.0
 11
252.785575
 21
287.9409999999999
 31
0.0
  0
LINE
  5
434
330
1E
100
AcDbEntity
  8
0
100
AcDbLine
 10
252.785575
 20
290.7479999999999
 30
0.0
 11
252.785575
 21
295.3729999999999
 31
0.0
  0
LINE
  5
435
330
1E
100
AcDbEntity
  8
0
100
AcDbLine
 10
252.785575
 20
287.9409999999999
 30
0.0
 11
252.785575
 21
290.7479999999999
 31
0.0
  0
LINE
  5
436
330
1E
100
AcDbEntity
  8
0
100
AcDbLine
 10
252.785575
 20
287.9409999999999
 30
0.0
 11
252.785575
 21
287.0
 31
0.0
  0
LINE
  5
437
330
1E
100
AcDbEntity
  8
0
100
AcDbLine
 10
252.785575
 20
319.218
 30
0.0
 11
252.785575
 21
330.0359999999999
 31
0.0
  0
LINE
  5
438
330
1E
100
AcDbEntity
  8
0
100
AcDbLine
 10
252.785575
 20
319.218
 30
0.0
 11
252.785575
 21
309.731
 31
0.0
  0
LINE
  5
439
330
1E
100
AcDbEntity
  8
0
100
AcDbLine
 10
252.198575
 20
342.0819999999999
 30
0.0
 11
252.3265749999999
 21
330.119
 31
0.0
  0
LINE
  5
43A
330
1E
100
AcDbEntity
  8
0
100
AcDbLine
 10
252.3265749999999
 20
330.119
 30
0.0
 11
252.441575
 21
319.302
 31
0.0
  0
LINE
  5
43B
330
1E
100
AcDbEntity
  8
0
100
AcDbLine
 10
252.061575
 20
354.9859999999999
 30
0.0
 11
252.198575
 21
342.0819999999999
 31
0.0
  0
LINE
  5
43C
330
1E
100
AcDbEntity
  8
0
100
AcDbLine
 10
251.9155749999999
 20
368.6109999999999
 30
0.0
 11
252.061575
 21
354.9859999999999
 31
0.0
  0
LINE
  5
43D
330
1E
100
AcDbEntity
  8
0
100
AcDbLine
 10
251.208284532189
 20
435.0
 30
0.0
 11
259.7855749999999
 21
435.0
 31
0.0
  0
LINE
  5
43E
330
1E
100
AcDbEntity
  8
0
100
AcDbLine
 10
251.729575
 20
470.0
 30
0.0
 11
252.497575
 21
470.0
 31
0.0
  0
LINE
  5
43F
330
1E
100
AcDbEntity
  8
0
100
AcDbLine
 10
251.612575
 20
397.079
 30
0.0
 11
251.765575
 21
382.722
 31
0.0
  0
LINE
  5
440
330
1E
100
AcDbEntity
  8
0
100
AcDbLine
 10
252.785575
 20
435.0
 30
0.0
 11
252.785575
 21
397.0
 31
0.0
  0
LINE
  5
441
330
1E
100
AcDbEntity
  8
0
100
AcDbLine
 10
252.785575
 20
435.0
 30
0.0
 11
259.7855749999999
 21
435.0
 31
0.0
  0
LINE
  5
442
330
1E
100
AcDbEntity
  8
0
100
AcDbLine
 10
252.497575
 20
470.0
 30
0.0
 11
252.785575
 21
470.0
 31
0.0
  0
LINE
  5
443
330
1E
100
AcDbEntity
  8
0
100
AcDbLine
 10
252.785575
 20
465.0
 30
0.0
 11
252.785575
 21
470.0
 31
0.0
  0
LINE
  5
444
330
1E
100
AcDbEntity
  8
0
100
AcDbLine
 10
252.785575
 20
397.0
 30
0.0
 11
252.785575
 21
435.0
 31
0.0
  0
LINE
  5
445
330
1E
100
AcDbEntity
  8
0
100
AcDbLine
 10
252.785575
 20
397.0
 30
0.0
 11
252.785575
 21
382.642
 31
0.0
  0
LINE
  5
446
330
1E
100
AcDbEntity
  8
0
100
AcDbLine
 10
251.765575
 20
382.722
 30
0.0
 11
251.9155749999999
 21
368.6109999999999
 31
0.0
  0
LINE
  5
447
330
1E
100
AcDbEntity
  8
0
100
AcDbLine
 10
252.785575
 20
382.642
 30
0.0
 11
252.785575
 21
368.5299999999999
 31
0.0
  0
LINE
  5
448
330
1E
100
AcDbEntity
  8
0
100
AcDbLine
 10
252.785575
 20
382.642
 30
0.0
 11
252.785575
 21
397.0
 31
0.0
  0
LINE
  5
449
330
1E
100
AcDbEntity
  8
0
100
AcDbLine
 10
252.785575
 20
368.5299999999999
 30
0.0
 11
252.785575
 21
354.9049999999999
 31
0.0
  0
LINE
  5
44A
330
1E
100
AcDbEntity
  8
0
100
AcDbLine
 10
252.785575
 20
368.5299999999999
 30
0.0
 11
252.785575
 21
382.642
 31
0.0
  0
LINE
  5
44B
330
1E
100
AcDbEntity
  8
0
100
AcDbLine
 10
252.785575
 20
354.9049999999999
 30
0.0
 11
252.785575
 21
342.0
 31
0.0
  0
LINE
  5
44C
330
1E
100
AcDbEntity
  8
0
100
AcDbLine
 10
252.785575
 20
354.9049999999999
 30
0.0
 11
252.785575
 21
368.5299999999999
 31
0.0
  0
LINE
  5
44D
330
1E
100
AcDbEntity
  8
0
100
AcDbLine
 10
252.785575
 20
342.0
 30
0.0
 11
252.785575
 21
330.0359999999999
 31
0.0
  0
LINE
  5
44E
330
1E
100
AcDbEntity
  8
0
100
AcDbLine
 10
252.785575
 20
342.0
 30
0.0
 11
252.785575
 21
354.9049999999999
 31
0.0
  0
LINE
  5
44F
330
1E
100
AcDbEntity
  8
0
100
AcDbLine
 10
252.785575
 20
330.0359999999999
 30
0.0
 11
252.785575
 21
342.0
 31
0.0
  0
LINE
  5
450
330
1E
100
AcDbEntity
  8
0
100
AcDbLine
 10
252.785575
 20
330.0359999999999
 30
0.0
 11
252.785575
 21
319.218
 31
0.0
  0
LINE
  5
451
330
1E
100
AcDbEntity
  8
0
100
AcDbLine
 10
251.185575
 20
470.0
 30
0.0
 11
252.585575
 21
470.0
 31
0.0
  0
LINE
  5
452
330
1E
100
AcDbEntity
  8
0
100
AcDbLine
 10
252.585575
 20
470.0
 30
0.0
 11
253.485575
 21
470.0
 31
0.0
  0
LINE
  5
453
330
1E
100
AcDbEntity
  8
0
100
AcDbLine
 10
250.835106359205
 20
470.0
 30
0.0
 11
251.185575
 21
470.0
 31
0.0
  0
LINE
  5
454
330
1E
100
AcDbEntity
  8
0
100
AcDbLine
 10
250.835106359205
 20
470.0
 30
0.0
 11
251.729575
 21
470.0
 31
0.0
  0
LINE
  5
455
330
1E
100
AcDbEntity
  8
0
100
AcDbLine
 10
250.5044092836119
 20
501.0
 30
0.0
 11
294.785575
 21
501.0
 31
0.0
  0
LINE
  5
456
330
1E
100
AcDbEntity
  8
0
100
AcDbLine
 10
250.247575
 20
525.076
 30
0.0
 11
250.8855749999999
 21
465.2689999999999
 31
0.0
  0
LINE
  5
457
330
1E
100
AcDbEntity
  8
0
100
AcDbLine
 10
249.605575
 20
585.263
 30
0.0
 11
250.247575
 21
525.076
 31
0.0
  0
LINE
  5
458
330
1E
100
AcDbEntity
  8
0
100
AcDbLine
 10
248.746575
 20
665.8239999999999
 30
0.0
 11
249.605575
 21
585.263
 31
0.0
  0
LINE
  5
459
330
1E
100
AcDbEntity
  8
0
100
AcDbLine
 10
251.8855749999999
 20
500.0
 30
0.0
 11
253.485575
 21
500.0
 31
0.0
  0
LINE
  5
45A
330
1E
100
AcDbEntity
  8
0
100
AcDbLine
 10
253.485575
 20
500.0
 30
0.0
 11
254.385575
 21
500.0
 31
0.0
  0
LINE
  5
45B
330
1E
100
AcDbEntity
  8
0
100
AcDbLine
 10
250.515076931212
 20
500.0
 30
0.0
 11
251.8855749999999
 21
500.0
 31
0.0
  0
LINE
  5
45C
330
1E
100
AcDbEntity
  8
0
100
AcDbLine
 10
250.515076931212
 20
500.0
 30
0.0
 11
294.785575
 21
500.0
 31
0.0
  0
LINE
  5
45D
330
1E
100
AcDbEntity
  8
0
100
AcDbLine
 10
252.785575
 20
470.0
 30
0.0
 11
253.485575
 21
470.0
 31
0.0
  0
LINE
  5
45E
330
1E
100
AcDbEntity
  8
0
100
AcDbLine
 10
252.785575
 20
470.0
 30
0.0
 11
252.785575
 21
465.0
 31
0.0
  0
LINE
  5
45F
330
1E
100
AcDbEntity
  8
0
100
AcDbLine
 10
260.085575
 20
30.72
 30
0.0
 11
260.085575
 21
30.0000000000001
 31
0.0
  0
LINE
  5
460
330
1E
100
AcDbEntity
  8
0
100
AcDbLine
 10
260.085575
 20
30.72
 30
0.0
 11
260.085575
 21
32.6400000000001
 31
0.0
  0
LINE
  5
461
330
1E
100
AcDbEntity
  8
0
100
AcDbLine
 10
259.7855749999999
 20
30.48
 30
0.0
 11
259.7855749999999
 21
31.2
 31
0.0
  0
LINE
  5
462
330
1E
100
AcDbEntity
  8
0
100
AcDbLine
 10
259.7855749999999
 20
30.48
 30
0.0
 11
260.085575
 21
30.0000000000001
 31
0.0
  0
LINE
  5
463
330
1E
100
AcDbEntity
  8
0
100
AcDbLine
 10
259.7855749999999
 20
40.32000000000009
 30
0.0
 11
259.7855749999999
 21
50.0000000000001
 31
0.0
  0
LINE
  5
464
330
1E
100
AcDbEntity
  8
0
100
AcDbLine
 10
259.7855749999999
 20
50.0000000000001
 30
0.0
 11
259.7855749999999
 21
59.67999999999999
 31
0.0
  0
LINE
  5
465
330
1E
100
AcDbEntity
  8
0
100
AcDbLine
 10
259.7855749999999
 20
59.67999999999999
 30
0.0
 11
259.7855749999999
 21
50.0000000000001
 31
0.0
  0
LINE
  5
466
330
1E
100
AcDbEntity
  8
0
100
AcDbLine
 10
259.7855749999999
 20
59.67999999999999
 30
0.0
 11
259.7855749999999
 21
65.0
 31
0.0
  0
LINE
  5
467
330
1E
100
AcDbEntity
  8
0
100
AcDbLine
 10
259.7855749999999
 20
65.0
 30
0.0
 11
259.7855749999999
 21
59.67999999999999
 31
0.0
  0
LINE
  5
468
330
1E
100
AcDbEntity
  8
0
100
AcDbLine
 10
259.7855749999999
 20
50.0000000000001
 30
0.0
 11
259.7855749999999
 21
40.32000000000009
 31
0.0
  0
LINE
  5
469
330
1E
100
AcDbEntity
  8
0
100
AcDbLine
 10
259.7855749999999
 20
40.32000000000009
 30
0.0
 11
259.7855749999999
 21
36.2400000000001
 31
0.0
  0
LINE
  5
46A
330
1E
100
AcDbEntity
  8
0
100
AcDbLine
 10
259.7855749999999
 20
36.2400000000001
 30
0.0
 11
259.7855749999999
 21
33.1200000000001
 31
0.0
  0
LINE
  5
46B
330
1E
100
AcDbEntity
  8
0
100
AcDbLine
 10
259.7855749999999
 20
36.2400000000001
 30
0.0
 11
259.7855749999999
 21
40.32000000000009
 31
0.0
  0
LINE
  5
46C
330
1E
100
AcDbEntity
  8
0
100
AcDbLine
 10
259.7855749999999
 20
65.0
 30
0.0
 11
259.7855749999999
 21
66.87999999999999
 31
0.0
  0
LINE
  5
46D
330
1E
100
AcDbEntity
  8
0
100
AcDbLine
 10
259.7855749999999
 20
69.52000000000011
 30
0.0
 11
259.7855749999999
 21
68.79999999999999
 31
0.0
  0
LINE
  5
46E
330
1E
100
AcDbEntity
  8
0
100
AcDbLine
 10
259.7855749999999
 20
69.52000000000011
 30
0.0
 11
260.085575
 21
70.0
 31
0.0
  0
LINE
  5
46F
330
1E
100
AcDbEntity
  8
0
100
AcDbLine
 10
259.7855749999999
 20
66.87999999999999
 30
0.0
 11
259.7855749999999
 21
68.79999999999999
 31
0.0
  0
LINE
  5
470
330
1E
100
AcDbEntity
  8
0
100
AcDbLine
 10
259.7855749999999
 20
66.87999999999999
 30
0.0
 11
259.7855749999999
 21
65.0
 31
0.0
  0
LINE
  5
471
330
1E
100
AcDbEntity
  8
0
100
AcDbLine
 10
259.7855749999999
 20
68.79999999999999
 30
0.0
 11
259.7855749999999
 21
66.87999999999999
 31
0.0
  0
LINE
  5
472
330
1E
100
AcDbEntity
  8
0
100
AcDbLine
 10
259.7855749999999
 20
68.79999999999999
 30
0.0
 11
259.7855749999999
 21
69.52000000000011
 31
0.0
  0
LINE
  5
473
330
1E
100
AcDbEntity
  8
0
100
AcDbLine
 10
259.7855749999999
 20
33.1200000000001
 30
0.0
 11
259.7855749999999
 21
35.0000000000001
 31
0.0
  0
LINE
  5
474
330
1E
100
AcDbEntity
  8
0
100
AcDbLine
 10
259.7855749999999
 20
33.1200000000001
 30
0.0
 11
259.7855749999999
 21
31.2
 31
0.0
  0
LINE
  5
475
330
1E
100
AcDbEntity
  8
0
100
AcDbLine
 10
259.7855749999999
 20
33.1200000000001
 30
0.0
 11
259.7855749999999
 21
36.2400000000001
 31
0.0
  0
LINE
  5
476
330
1E
100
AcDbEntity
  8
0
100
AcDbLine
 10
260.085575
 20
55.12000000000011
 30
0.0
 11
260.085575
 21
50.0000000000001
 31
0.0
  0
LINE
  5
477
330
1E
100
AcDbEntity
  8
0
100
AcDbLine
 10
260.085575
 20
55.12000000000011
 30
0.0
 11
260.085575
 21
59.92000000000011
 31
0.0
  0
LINE
  5
478
330
1E
100
AcDbEntity
  8
0
100
AcDbLine
 10
260.085575
 20
59.92000000000011
 30
0.0
 11
260.085575
 21
55.12000000000011
 31
0.0
  0
LINE
  5
479
330
1E
100
AcDbEntity
  8
0
100
AcDbLine
 10
260.085575
 20
59.92000000000011
 30
0.0
 11
260.085575
 21
64.16
 31
0.0
  0
LINE
  5
47A
330
1E
100
AcDbEntity
  8
0
100
AcDbLine
 10
260.085575
 20
64.16
 30
0.0
 11
260.085575
 21
59.92000000000011
 31
0.0
  0
LINE
  5
47B
330
1E
100
AcDbEntity
  8
0
100
AcDbLine
 10
260.085575
 20
64.16
 30
0.0
 11
260.085575
 21
67.36
 31
0.0
  0
LINE
  5
47C
330
1E
100
AcDbEntity
  8
0
100
AcDbLine
 10
260.085575
 20
67.36
 30
0.0
 11
260.085575
 21
64.16
 31
0.0
  0
LINE
  5
47D
330
1E
100
AcDbEntity
  8
0
100
AcDbLine
 10
260.085575
 20
67.36
 30
0.0
 11
260.085575
 21
69.28
 31
0.0
  0
LINE
  5
47E
330
1E
100
AcDbEntity
  8
0
100
AcDbLine
 10
260.085575
 20
69.28
 30
0.0
 11
260.085575
 21
67.36
 31
0.0
  0
LINE
  5
47F
330
1E
100
AcDbEntity
  8
0
100
AcDbLine
 10
260.085575
 20
69.28
 30
0.0
 11
260.085575
 21
70.0
 31
0.0
  0
LINE
  5
480
330
1E
100
AcDbEntity
  8
0
100
AcDbLine
 10
260.085575
 20
70.0
 30
0.0
 11
260.085575
 21
69.28
 31
0.0
  0
LINE
  5
481
330
1E
100
AcDbEntity
  8
0
100
AcDbLine
 10
260.085575
 20
70.0
 30
0.0
 11
264.785575
 21
70.0
 31
0.0
  0
LINE
  5
482
330
1E
100
AcDbEntity
  8
0
100
AcDbLine
 10
260.085575
 20
50.0000000000001
 30
0.0
 11
260.085575
 21
44.88
 31
0.0
  0
LINE
  5
483
330
1E
100
AcDbEntity
  8
0
100
AcDbLine
 10
260.085575
 20
50.0000000000001
 30
0.0
 11
260.085575
 21
55.12000000000011
 31
0.0
  0
LINE
  5
484
330
1E
100
AcDbEntity
  8
0
100
AcDbLine
 10
260.085575
 20
44.88
 30
0.0
 11
260.085575
 21
40.08
 31
0.0
  0
LINE
  5
485
330
1E
100
AcDbEntity
  8
0
100
AcDbLine
 10
260.085575
 20
44.88
 30
0.0
 11
260.085575
 21
50.0000000000001
 31
0.0
  0
LINE
  5
486
330
1E
100
AcDbEntity
  8
0
100
AcDbLine
 10
260.085575
 20
40.08
 30
0.0
 11
260.085575
 21
35.84
 31
0.0
  0
LINE
  5
487
330
1E
100
AcDbEntity
  8
0
100
AcDbLine
 10
260.085575
 20
40.08
 30
0.0
 11
260.085575
 21
44.88
 31
0.0
  0
LINE
  5
488
330
1E
100
AcDbEntity
  8
0
100
AcDbLine
 10
260.085575
 20
35.84
 30
0.0
 11
260.085575
 21
32.6400000000001
 31
0.0
  0
LINE
  5
489
330
1E
100
AcDbEntity
  8
0
100
AcDbLine
 10
260.085575
 20
35.84
 30
0.0
 11
260.085575
 21
40.08
 31
0.0
  0
LINE
  5
48A
330
1E
100
AcDbEntity
  8
0
100
AcDbLine
 10
260.085575
 20
32.6400000000001
 30
0.0
 11
260.085575
 21
30.72
 31
0.0
  0
LINE
  5
48B
330
1E
100
AcDbEntity
  8
0
100
AcDbLine
 10
260.085575
 20
32.6400000000001
 30
0.0
 11
260.085575
 21
35.84
 31
0.0
  0
LINE
  5
48C
330
1E
100
AcDbEntity
  8
0
100
AcDbLine
 10
259.7855749999999
 20
433.1199999999999
 30
0.0
 11
259.7855749999999
 21
435.0
 31
0.0
  0
LINE
  5
48D
330
1E
100
AcDbEntity
  8
0
100
AcDbLine
 10
259.7855749999999
 20
433.1199999999999
 30
0.0
 11
259.7855749999999
 21
431.2
 31
0.0
  0
LINE
  5
48E
330
1E
100
AcDbEntity
  8
0
100
AcDbLine
 10
259.7855749999999
 20
433.1199999999999
 30
0.0
 11
259.7855749999999
 21
436.24
 31
0.0
  0
LINE
  5
48F
330
1E
100
AcDbEntity
  8
0
100
AcDbLine
 10
259.7855749999999
 20
440.32
 30
0.0
 11
259.7855749999999
 21
444.96
 31
0.0
  0
LINE
  5
490
330
1E
100
AcDbEntity
  8
0
100
AcDbLine
 10
259.7855749999999
 20
455.04
 30
0.0
 11
259.7855749999999
 21
450.0
 31
0.0
  0
LINE
  5
491
330
1E
100
AcDbEntity
  8
0
100
AcDbLine
 10
259.7855749999999
 20
455.04
 30
0.0
 11
259.7855749999999
 21
459.6799999999999
 31
0.0
  0
LINE
  5
492
330
1E
100
AcDbEntity
  8
0
100
AcDbLine
 10
259.7855749999999
 20
459.6799999999999
 30
0.0
 11
259.7855749999999
 21
455.04
 31
0.0
  0
LINE
  5
493
330
1E
100
AcDbEntity
  8
0
100
AcDbLine
 10
259.7855749999999
 20
459.6799999999999
 30
0.0
 11
259.7855749999999
 21
463.7599999999999
 31
0.0
  0
LINE
  5
494
330
1E
100
AcDbEntity
  8
0
100
AcDbLine
 10
259.7855749999999
 20
463.7599999999999
 30
0.0
 11
259.7855749999999
 21
459.6799999999999
 31
0.0
  0
LINE
  5
495
330
1E
100
AcDbEntity
  8
0
100
AcDbLine
 10
259.7855749999999
 20
463.7599999999999
 30
0.0
 11
259.7855749999999
 21
466.88
 31
0.0
  0
LINE
  5
496
330
1E
100
AcDbEntity
  8
0
100
AcDbLine
 10
259.7855749999999
 20
450.0
 30
0.0
 11
259.7855749999999
 21
444.96
 31
0.0
  0
LINE
  5
497
330
1E
100
AcDbEntity
  8
0
100
AcDbLine
 10
259.7855749999999
 20
450.0
 30
0.0
 11
259.7855749999999
 21
455.04
 31
0.0
  0
LINE
  5
498
330
1E
100
AcDbEntity
  8
0
100
AcDbLine
 10
259.7855749999999
 20
444.96
 30
0.0
 11
259.7855749999999
 21
440.32
 31
0.0
  0
LINE
  5
499
330
1E
100
AcDbEntity
  8
0
100
AcDbLine
 10
259.7855749999999
 20
444.96
 30
0.0
 11
259.7855749999999
 21
450.0
 31
0.0
  0
LINE
  5
49A
330
1E
100
AcDbEntity
  8
0
100
AcDbLine
 10
259.7855749999999
 20
436.24
 30
0.0
 11
259.7855749999999
 21
433.1199999999999
 31
0.0
  0
LINE
  5
49B
330
1E
100
AcDbEntity
  8
0
100
AcDbLine
 10
259.7855749999999
 20
465.0
 30
0.0
 11
259.7855749999999
 21
466.88
 31
0.0
  0
LINE
  5
49C
330
1E
100
AcDbEntity
  8
0
100
AcDbLine
 10
259.7855749999999
 20
466.88
 30
0.0
 11
259.7855749999999
 21
465.0
 31
0.0
  0
LINE
  5
49D
330
1E
100
AcDbEntity
  8
0
100
AcDbLine
 10
259.7855749999999
 20
466.88
 30
0.0
 11
259.7855749999999
 21
468.8
 31
0.0
  0
LINE
  5
49E
330
1E
100
AcDbEntity
  8
0
100
AcDbLine
 10
259.7855749999999
 20
466.88
 30
0.0
 11
259.7855749999999
 21
463.7599999999999
 31
0.0
  0
LINE
  5
49F
330
1E
100
AcDbEntity
  8
0
100
AcDbLine
 10
259.7855749999999
 20
468.8
 30
0.0
 11
259.7855749999999
 21
466.88
 31
0.0
  0
LINE
  5
4A0
330
1E
100
AcDbEntity
  8
0
100
AcDbLine
 10
259.7855749999999
 20
468.8
 30
0.0
 11
259.7855749999999
 21
469.5199999999999
 31
0.0
  0
LINE
  5
4A1
330
1E
100
AcDbEntity
  8
0
100
AcDbLine
 10
259.7855749999999
 20
469.5199999999999
 30
0.0
 11
260.085575
 21
470.0
 31
0.0
  0
LINE
  5
4A2
330
1E
100
AcDbEntity
  8
0
100
AcDbLine
 10
259.7855749999999
 20
469.5199999999999
 30
0.0
 11
259.7855749999999
 21
468.8
 31
0.0
  0
LINE
  5
4A3
330
1E
100
AcDbEntity
  8
0
100
AcDbLine
 10
259.7855749999999
 20
435.0
 30
0.0
 11
259.7855749999999
 21
433.1199999999999
 31
0.0
  0
LINE
  5
4A4
330
1E
100
AcDbEntity
  8
0
100
AcDbLine
 10
259.7855749999999
 20
431.2
 30
0.0
 11
259.7855749999999
 21
430.48
 31
0.0
  0
LINE
  5
4A5
330
1E
100
AcDbEntity
  8
0
100
AcDbLine
 10
259.7855749999999
 20
431.2
 30
0.0
 11
259.7855749999999
 21
433.1199999999999
 31
0.0
  0
LINE
  5
4A6
330
1E
100
AcDbEntity
  8
0
100
AcDbLine
 10
259.7855749999999
 20
430.48
 30
0.0
 11
260.085575
 21
430.0
 31
0.0
  0
LINE
  5
4A7
330
1E
100
AcDbEntity
  8
0
100
AcDbLine
 10
259.7855749999999
 20
430.48
 30
0.0
 11
259.7855749999999
 21
431.2
 31
0.0
  0
LINE
  5
4A8
330
1E
100
AcDbEntity
  8
0
100
AcDbLine
 10
259.7855749999999
 20
35.0000000000001
 30
0.0
 11
259.7855749999999
 21
33.1200000000001
 31
0.0
  0
LINE
  5
4A9
330
1E
100
AcDbEntity
  8
0
100
AcDbLine
 10
259.7855749999999
 20
31.2
 30
0.0
 11
259.7855749999999
 21
30.48
 31
0.0
  0
LINE
  5
4AA
330
1E
100
AcDbEntity
  8
0
100
AcDbLine
 10
259.7855749999999
 20
31.2
 30
0.0
 11
259.7855749999999
 21
33.1200000000001
 31
0.0
  0
LINE
  5
4AB
330
1E
100
AcDbEntity
  8
0
100
AcDbLine
 10
264.785575
 20
0.4000000000000511
 30
0.0
 11
264.785575
 21
0.0000000000000511
 31
0.0
  0
LINE
  5
4AC
330
1E
100
AcDbEntity
  8
0
100
AcDbLine
 10
264.785575
 20
0.4000000000000511
 30
0.0
 11
264.785575
 21
1.000000000000049
 31
0.0
  0
LINE
  5
4AD
330
1E
100
AcDbEntity
  8
0
100
AcDbLine
 10
264.785575
 20
0.0000000000000511
 30
0.0
 11
294.785575
 21
0.0000000000000492
 31
0.0
  0
LINE
  5
4AE
330
1E
100
AcDbEntity
  8
0
100
AcDbLine
 10
264.785575
 20
0.0000000000000511
 30
0.0
 11
264.785575
 21
0.4000000000000511
 31
0.0
  0
LINE
  5
4AF
330
1E
100
AcDbEntity
  8
0
100
AcDbLine
 10
264.785575
 20
1.000000000000049
 30
0.0
 11
264.785575
 21
0.4000000000000511
 31
0.0
  0
LINE
  5
4B0
330
1E
100
AcDbEntity
  8
0
100
AcDbLine
 10
264.785575
 20
1.000000000000049
 30
0.0
 11
264.785575
 21
2.200000000000049
 31
0.0
  0
LINE
  5
4B1
330
1E
100
AcDbEntity
  8
0
100
AcDbLine
 10
264.785575
 20
2.200000000000049
 30
0.0
 11
264.785575
 21
1.000000000000049
 31
0.0
  0
LINE
  5
4B2
330
1E
100
AcDbEntity
  8
0
100
AcDbLine
 10
264.785575
 20
2.200000000000049
 30
0.0
 11
264.785575
 21
4.000000000000049
 31
0.0
  0
LINE
  5
4B3
330
1E
100
AcDbEntity
  8
0
100
AcDbLine
 10
264.785575
 20
4.000000000000049
 30
0.0
 11
264.785575
 21
2.200000000000049
 31
0.0
  0
LINE
  5
4B4
330
1E
100
AcDbEntity
  8
0
100
AcDbLine
 10
264.785575
 20
4.000000000000049
 30
0.0
 11
264.785575
 21
6.30000000000005
 31
0.0
  0
LINE
  5
4B5
330
1E
100
AcDbEntity
  8
0
100
AcDbLine
 10
264.785575
 20
6.30000000000005
 30
0.0
 11
264.785575
 21
4.000000000000049
 31
0.0
  0
LINE
  5
4B6
330
1E
100
AcDbEntity
  8
0
100
AcDbLine
 10
264.785575
 20
6.30000000000005
 30
0.0
 11
264.785575
 21
9.500000000000051
 31
0.0
  0
LINE
  5
4B7
330
1E
100
AcDbEntity
  8
0
100
AcDbLine
 10
264.785575
 20
9.500000000000051
 30
0.0
 11
264.785575
 21
6.30000000000005
 31
0.0
  0
LINE
  5
4B8
330
1E
100
AcDbEntity
  8
0
100
AcDbLine
 10
264.785575
 20
9.500000000000051
 30
0.0
 11
264.785575
 21
13.5000000000001
 31
0.0
  0
LINE
  5
4B9
330
1E
100
AcDbEntity
  8
0
100
AcDbLine
 10
264.785575
 20
13.5000000000001
 30
0.0
 11
264.785575
 21
9.500000000000051
 31
0.0
  0
LINE
  5
4BA
330
1E
100
AcDbEntity
  8
0
100
AcDbLine
 10
264.785575
 20
13.5000000000001
 30
0.0
 11
264.785575
 21
18.8000000000001
 31
0.0
  0
LINE
  5
4BB
330
1E
100
AcDbEntity
  8
0
100
AcDbLine
 10
264.785575
 20
18.8000000000001
 30
0.0
 11
264.785575
 21
13.5000000000001
 31
0.0
  0
LINE
  5
4BC
330
1E
100
AcDbEntity
  8
0
100
AcDbLine
 10
264.785575
 20
18.8000000000001
 30
0.0
 11
265.385575
 21
19.69999999999999
 31
0.0
  0
LINE
  5
4BD
330
1E
100
AcDbEntity
  8
0
100
AcDbLine
 10
264.785575
 20
30.0000000000001
 30
0.0
 11
264.785575
 21
30.72
 31
0.0
  0
LINE
  5
4BE
330
1E
100
AcDbEntity
  8
0
100
AcDbLine
 10
264.785575
 20
55.12000000000011
 30
0.0
 11
264.785575
 21
50.0
 31
0.0
  0
LINE
  5
4BF
330
1E
100
AcDbEntity
  8
0
100
AcDbLine
 10
264.785575
 20
55.12000000000011
 30
0.0
 11
264.785575
 21
59.92000000000011
 31
0.0
  0
LINE
  5
4C0
330
1E
100
AcDbEntity
  8
0
100
AcDbLine
 10
264.785575
 20
59.92000000000011
 30
0.0
 11
264.785575
 21
55.12000000000011
 31
0.0
  0
LINE
  5
4C1
330
1E
100
AcDbEntity
  8
0
100
AcDbLine
 10
264.785575
 20
59.92000000000011
 30
0.0
 11
264.785575
 21
64.16
 31
0.0
  0
LINE
  5
4C2
330
1E
100
AcDbEntity
  8
0
100
AcDbLine
 10
264.785575
 20
64.16
 30
0.0
 11
264.785575
 21
59.92000000000011
 31
0.0
  0
LINE
  5
4C3
330
1E
100
AcDbEntity
  8
0
100
AcDbLine
 10
264.785575
 20
64.16
 30
0.0
 11
264.785575
 21
67.36
 31
0.0
  0
LINE
  5
4C4
330
1E
100
AcDbEntity
  8
0
100
AcDbLine
 10
264.785575
 20
67.36
 30
0.0
 11
264.785575
 21
64.16
 31
0.0
  0
LINE
  5
4C5
330
1E
100
AcDbEntity
  8
0
100
AcDbLine
 10
264.785575
 20
67.36
 30
0.0
 11
264.785575
 21
69.28
 31
0.0
  0
LINE
  5
4C6
330
1E
100
AcDbEntity
  8
0
100
AcDbLine
 10
264.785575
 20
69.28
 30
0.0
 11
264.785575
 21
67.36
 31
0.0
  0
LINE
  5
4C7
330
1E
100
AcDbEntity
  8
0
100
AcDbLine
 10
264.785575
 20
69.28
 30
0.0
 11
264.785575
 21
70.0
 31
0.0
  0
LINE
  5
4C8
330
1E
100
AcDbEntity
  8
0
100
AcDbLine
 10
264.785575
 20
70.0
 30
0.0
 11
264.785575
 21
69.28
 31
0.0
  0
LINE
  5
4C9
330
1E
100
AcDbEntity
  8
0
100
AcDbLine
 10
264.785575
 20
50.0
 30
0.0
 11
264.785575
 21
44.88
 31
0.0
  0
LINE
  5
4CA
330
1E
100
AcDbEntity
  8
0
100
AcDbLine
 10
264.785575
 20
50.0
 30
0.0
 11
264.785575
 21
55.12000000000011
 31
0.0
  0
LINE
  5
4CB
330
1E
100
AcDbEntity
  8
0
100
AcDbLine
 10
264.785575
 20
44.88
 30
0.0
 11
264.785575
 21
40.08
 31
0.0
  0
LINE
  5
4CC
330
1E
100
AcDbEntity
  8
0
100
AcDbLine
 10
264.785575
 20
44.88
 30
0.0
 11
264.785575
 21
50.0
 31
0.0
  0
LINE
  5
4CD
330
1E
100
AcDbEntity
  8
0
100
AcDbLine
 10
264.785575
 20
40.08
 30
0.0
 11
264.785575
 21
35.84
 31
0.0
  0
LINE
  5
4CE
330
1E
100
AcDbEntity
  8
0
100
AcDbLine
 10
264.785575
 20
40.08
 30
0.0
 11
264.785575
 21
44.88
 31
0.0
  0
LINE
  5
4CF
330
1E
100
AcDbEntity
  8
0
100
AcDbLine
 10
264.785575
 20
35.84
 30
0.0
 11
264.785575
 21
32.6400000000001
 31
0.0
  0
LINE
  5
4D0
330
1E
100
AcDbEntity
  8
0
100
AcDbLine
 10
264.785575
 20
35.84
 30
0.0
 11
264.785575
 21
40.08
 31
0.0
  0
LINE
  5
4D1
330
1E
100
AcDbEntity
  8
0
100
AcDbLine
 10
264.785575
 20
32.6400000000001
 30
0.0
 11
264.785575
 21
30.72
 31
0.0
  0
LINE
  5
4D2
330
1E
100
AcDbEntity
  8
0
100
AcDbLine
 10
264.785575
 20
32.6400000000001
 30
0.0
 11
264.785575
 21
35.84
 31
0.0
  0
LINE
  5
4D3
330
1E
100
AcDbEntity
  8
0
100
AcDbLine
 10
265.385575
 20
19.69999999999999
 30
0.0
 11
265.385575
 21
500.0
 31
0.0
  0
LINE
  5
4D4
330
1E
100
AcDbEntity
  8
0
100
AcDbLine
 10
265.385575
 20
19.69999999999999
 30
0.0
 11
266.785575
 21
20.0000000000001
 31
0.0
  0
LINE
  5
4D5
330
1E
100
AcDbEntity
  8
0
100
AcDbLine
 10
265.385575
 20
19.69999999999999
 30
0.0
 11
265.385575
 21
500.0
 31
0.0
  0
LINE
  5
4D6
330
1E
100
AcDbEntity
  8
0
100
AcDbLine
 10
294.785575
 20
20.0000000000001
 30
0.0
 11
294.785575
 21
500.0
 31
0.0
  0
LINE
  5
4D7
330
1E
100
AcDbEntity
  8
0
100
AcDbLine
 10
266.785575
 20
20.0000000000001
 30
0.0
 11
294.785575
 21
20.0
 31
0.0
  0
LINE
  5
4D8
330
1E
100
AcDbEntity
  8
0
100
AcDbLine
 10
294.785575
 20
20.0
 30
0.0
 11
294.785575
 21
500.0
 31
0.0
  0
LINE
  5
4D9
330
1E
100
AcDbEntity
  8
0
100
AcDbLine
 10
294.785575
 20
20.0
 30
0.0
 11
294.785575
 21
19.69999999999999
 31
0.0
  0
LINE
  5
4DA
330
1E
100
AcDbEntity
  8
0
100
AcDbLine
 10
294.785575
 20
19.69999999999999
 30
0.0
 11
294.785575
 21
20.0
 31
0.0
  0
LINE
  5
4DB
330
1E
100
AcDbEntity
  8
0
100
AcDbLine
 10
294.785575
 20
19.69999999999999
 30
0.0
 11
294.785575
 21
18.8
 31
0.0
  0
LINE
  5
4DC
330
1E
100
AcDbEntity
  8
0
100
AcDbLine
 10
294.785575
 20
18.8
 30
0.0
 11
294.785575
 21
19.69999999999999
 31
0.0
  0
LINE
  5
4DD
330
1E
100
AcDbEntity
  8
0
100
AcDbLine
 10
294.785575
 20
18.8
 30
0.0
 11
294.785575
 21
13.5000000000001
 31
0.0
  0
LINE
  5
4DE
330
1E
100
AcDbEntity
  8
0
100
AcDbLine
 10
294.785575
 20
13.5000000000001
 30
0.0
 11
294.785575
 21
18.8
 31
0.0
  0
LINE
  5
4DF
330
1E
100
AcDbEntity
  8
0
100
AcDbLine
 10
294.785575
 20
13.5000000000001
 30
0.0
 11
294.785575
 21
9.500000000000051
 31
0.0
  0
LINE
  5
4E0
330
1E
100
AcDbEntity
  8
0
100
AcDbLine
 10
294.785575
 20
9.500000000000051
 30
0.0
 11
294.785575
 21
13.5000000000001
 31
0.0
  0
LINE
  5
4E1
330
1E
100
AcDbEntity
  8
0
100
AcDbLine
 10
294.785575
 20
9.500000000000051
 30
0.0
 11
294.785575
 21
6.30000000000005
 31
0.0
  0
LINE
  5
4E2
330
1E
100
AcDbEntity
  8
0
100
AcDbLine
 10
294.785575
 20
6.30000000000005
 30
0.0
 11
294.785575
 21
9.500000000000051
 31
0.0
  0
LINE
  5
4E3
330
1E
100
AcDbEntity
  8
0
100
AcDbLine
 10
294.785575
 20
6.30000000000005
 30
0.0
 11
294.785575
 21
4.000000000000049
 31
0.0
  0
LINE
  5
4E4
330
1E
100
AcDbEntity
  8
0
100
AcDbLine
 10
294.785575
 20
4.000000000000049
 30
0.0
 11
294.785575
 21
6.30000000000005
 31
0.0
  0
LINE
  5
4E5
330
1E
100
AcDbEntity
  8
0
100
AcDbLine
 10
294.785575
 20
4.000000000000049
 30
0.0
 11
294.785575
 21
2.200000000000049
 31
0.0
  0
LINE
  5
4E6
330
1E
100
AcDbEntity
  8
0
100
AcDbLine
 10
294.785575
 20
2.200000000000049
 30
0.0
 11
294.785575
 21
4.000000000000049
 31
0.0
  0
LINE
  5
4E7
330
1E
100
AcDbEntity
  8
0
100
AcDbLine
 10
294.785575
 20
2.200000000000049
 30
0.0
 11
294.785575
 21
1.000000000000049
 31
0.0
  0
LINE
  5
4E8
330
1E
100
AcDbEntity
  8
0
100
AcDbLine
 10
294.785575
 20
1.000000000000049
 30
0.0
 11
294.785575
 21
2.200000000000049
 31
0.0
  0
LINE
  5
4E9
330
1E
100
AcDbEntity
  8
0
100
AcDbLine
 10
294.785575
 20
1.000000000000049
 30
0.0
 11
294.785575
 21
0.4000000000000491
 31
0.0
  0
LINE
  5
4EA
330
1E
100
AcDbEntity
  8
0
100
AcDbLine
 10
294.785575
 20
0.4000000000000491
 30
0.0
 11
294.785575
 21
1.000000000000049
 31
0.0
  0
LINE
  5
4EB
330
1E
100
AcDbEntity
  8
0
100
AcDbLine
 10
294.785575
 20
0.4000000000000491
 30
0.0
 11
294.785575
 21
0.0000000000000492
 31
0.0
  0
LINE
  5
4EC
330
1E
100
AcDbEntity
  8
0
100
AcDbLine
 10
294.785575
 20
0.0000000000000492
 30
0.0
 11
294.785575
 21
0.4000000000000491
 31
0.0
  0
LINE
  5
4ED
330
1E
100
AcDbEntity
  8
0
100
AcDbLine
 10
264.785575
 20
30.72
 30
0.0
 11
264.785575
 21
30.0000000000001
 31
0.0
  0
LINE
  5
4EE
330
1E
100
AcDbEntity
  8
0
100
AcDbLine
 10
264.785575
 20
30.72
 30
0.0
 11
264.785575
 21
32.6400000000001
 31
0.0
  0
LINE
  5
4EF
330
1E
100
AcDbEntity
  8
0
100
AcDbLine
 10
260.085575
 20
455.12
 30
0.0
 11
260.085575
 21
450.0
 31
0.0
  0
LINE
  5
4F0
330
1E
100
AcDbEntity
  8
0
100
AcDbLine
 10
260.085575
 20
455.12
 30
0.0
 11
260.085575
 21
459.92
 31
0.0
  0
LINE
  5
4F1
330
1E
100
AcDbEntity
  8
0
100
AcDbLine
 10
260.085575
 20
459.92
 30
0.0
 11
260.085575
 21
455.12
 31
0.0
  0
LINE
  5
4F2
330
1E
100
AcDbEntity
  8
0
100
AcDbLine
 10
260.085575
 20
459.92
 30
0.0
 11
260.085575
 21
464.16
 31
0.0
  0
LINE
  5
4F3
330
1E
100
AcDbEntity
  8
0
100
AcDbLine
 10
260.085575
 20
464.16
 30
0.0
 11
260.085575
 21
459.92
 31
0.0
  0
LINE
  5
4F4
330
1E
100
AcDbEntity
  8
0
100
AcDbLine
 10
260.085575
 20
464.16
 30
0.0
 11
260.085575
 21
467.36
 31
0.0
  0
LINE
  5
4F5
330
1E
100
AcDbEntity
  8
0
100
AcDbLine
 10
260.085575
 20
467.36
 30
0.0
 11
260.085575
 21
464.16
 31
0.0
  0
LINE
  5
4F6
330
1E
100
AcDbEntity
  8
0
100
AcDbLine
 10
260.085575
 20
467.36
 30
0.0
 11
260.085575
 21
469.28
 31
0.0
  0
LINE
  5
4F7
330
1E
100
AcDbEntity
  8
0
100
AcDbLine
 10
260.085575
 20
469.28
 30
0.0
 11
260.085575
 21
467.36
 31
0.0
  0
LINE
  5
4F8
330
1E
100
AcDbEntity
  8
0
100
AcDbLine
 10
260.085575
 20
469.28
 30
0.0
 11
260.085575
 21
470.0
 31
0.0
  0
LINE
  5
4F9
330
1E
100
AcDbEntity
  8
0
100
AcDbLine
 10
260.085575
 20
470.0
 30
0.0
 11
260.085575
 21
469.28
 31
0.0
  0
LINE
  5
4FA
330
1E
100
AcDbEntity
  8
0
100
AcDbLine
 10
260.085575
 20
470.0
 30
0.0
 11
264.785575
 21
470.0
 31
0.0
  0
LINE
  5
4FB
330
1E
100
AcDbEntity
  8
0
100
AcDbLine
 10
260.085575
 20
450.0
 30
0.0
 11
260.085575
 21
444.88
 31
0.0
  0
LINE
  5
4FC
330
1E
100
AcDbEntity
  8
0
100
AcDbLine
 10
260.085575
 20
450.0
 30
0.0
 11
260.085575
 21
455.12
 31
0.0
  0
LINE
  5
4FD
330
1E
100
AcDbEntity
  8
0
100
AcDbLine
 10
260.085575
 20
444.88
 30
0.0
 11
260.085575
 21
440.08
 31
0.0
  0
LINE
  5
4FE
330
1E
100
AcDbEntity
  8
0
100
AcDbLine
 10
260.085575
 20
444.88
 30
0.0
 11
260.085575
 21
450.0
 31
0.0
  0
LINE
  5
4FF
330
1E
100
AcDbEntity
  8
0
100
AcDbLine
 10
260.085575
 20
440.08
 30
0.0
 11
260.085575
 21
435.8399999999999
 31
0.0
  0
LINE
  5
500
330
1E
100
AcDbEntity
  8
0
100
AcDbLine
 10
260.085575
 20
440.08
 30
0.0
 11
260.085575
 21
444.88
 31
0.0
  0
LINE
  5
501
330
1E
100
AcDbEntity
  8
0
100
AcDbLine
 10
260.085575
 20
435.8399999999999
 30
0.0
 11
260.085575
 21
432.6399999999999
 31
0.0
  0
LINE
  5
502
330
1E
100
AcDbEntity
  8
0
100
AcDbLine
 10
260.085575
 20
435.8399999999999
 30
0.0
 11
260.085575
 21
440.08
 31
0.0
  0
LINE
  5
503
330
1E
100
AcDbEntity
  8
0
100
AcDbLine
 10
260.085575
 20
432.6399999999999
 30
0.0
 11
260.085575
 21
430.72
 31
0.0
  0
LINE
  5
504
330
1E
100
AcDbEntity
  8
0
100
AcDbLine
 10
260.085575
 20
432.6399999999999
 30
0.0
 11
260.085575
 21
435.8399999999999
 31
0.0
  0
LINE
  5
505
330
1E
100
AcDbEntity
  8
0
100
AcDbLine
 10
260.085575
 20
430.72
 30
0.0
 11
260.085575
 21
430.0
 31
0.0
  0
LINE
  5
506
330
1E
100
AcDbEntity
  8
0
100
AcDbLine
 10
260.085575
 20
430.72
 30
0.0
 11
260.085575
 21
432.6399999999999
 31
0.0
  0
LINE
  5
507
330
1E
100
AcDbEntity
  8
0
100
AcDbLine
 10
260.085575
 20
430.0
 30
0.0
 11
264.785575
 21
430.0
 31
0.0
  0
LINE
  5
508
330
1E
100
AcDbEntity
  8
0
100
AcDbLine
 10
260.085575
 20
430.0
 30
0.0
 11
260.085575
 21
430.72
 31
0.0
  0
LINE
  5
509
330
1E
100
AcDbEntity
  8
0
100
AcDbLine
 10
260.085575
 20
30.0000000000001
 30
0.0
 11
264.785575
 21
30.0000000000001
 31
0.0
  0
LINE
  5
50A
330
1E
100
AcDbEntity
  8
0
100
AcDbLine
 10
260.085575
 20
30.0000000000001
 30
0.0
 11
260.085575
 21
30.72
 31
0.0
  0
LINE
  5
50B
330
1E
100
AcDbEntity
  8
0
100
AcDbLine
 10
254.385575
 20
500.0
 30
0.0
 11
254.785575
 21
500.0
 31
0.0
  0
LINE
  5
50C
330
1E
100
AcDbEntity
  8
0
100
AcDbLine
 10
264.785575
 20
755.0
 30
0.0
 11
264.785575
 21
920.0
 31
0.0
  0
LINE
  5
50D
330
1E
100
AcDbEntity
  8
0
100
AcDbLine
 10
264.785575
 20
500.0
 30
0.0
 11
265.385575
 21
500.0
 31
0.0
  0
LINE
  5
50E
330
1E
100
AcDbEntity
  8
0
100
AcDbLine
 10
265.385575
 20
500.0
 30
0.0
 11
266.785575
 21
500.0
 31
0.0
  0
LINE
  5
50F
330
1E
100
AcDbEntity
  8
0
100
AcDbLine
 10
294.785575
 20
500.0
 30
0.0
 11
294.785575
 21
501.0
 31
0.0
  0
LINE
  5
510
330
1E
100
AcDbEntity
  8
0
100
AcDbLine
 10
294.785575
 20
754.0
 30
0.0
 11
294.785575
 21
755.0
 31
0.0
  0
LINE
  5
511
330
1E
100
AcDbEntity
  8
0
100
AcDbLine
 10
294.785575
 20
754.0
 30
0.0
 11
294.785575
 21
730.0
 31
0.0
  0
LINE
  5
512
330
1E
100
AcDbEntity
  8
0
100
AcDbLine
 10
294.785575
 20
501.0
 30
0.0
 11
294.785575
 21
500.0
 31
0.0
  0
LINE
  5
513
330
1E
100
AcDbEntity
  8
0
100
AcDbLine
 10
294.785575
 20
501.0
 30
0.0
 11
294.785575
 21
730.0
 31
0.0
  0
LINE
  5
514
330
1E
100
AcDbEntity
  8
0
100
AcDbLine
 10
294.785575
 20
730.0
 30
0.0
 11
294.785575
 21
501.0
 31
0.0
  0
LINE
  5
515
330
1E
100
AcDbEntity
  8
0
100
AcDbLine
 10
294.785575
 20
730.0
 30
0.0
 11
294.785575
 21
754.0
 31
0.0
  0
LINE
  5
516
330
1E
100
AcDbEntity
  8
0
100
AcDbLine
 10
266.785575
 20
500.0
 30
0.0
 11
294.785575
 21
500.0
 31
0.0
  0
LINE
  5
518
330
1E
100
AcDbEntity
  8
0
100
AcDbLine
 10
294.785575
 20
755.0
 30
0.0
 11
294.785575
 21
920.0
 31
0.0
  0
LINE
  5
519
330
1E
100
AcDbEntity
  8
0
100
AcDbLine
 10
294.785575
 20
755.0
 30
0.0
 11
294.785575
 21
754.0
 31
0.0
  0
LINE
  5
51A
330
1E
100
AcDbEntity
  8
0
100
AcDbLine
 10
264.785575
 20
915.0
 30
0.0
 11
264.785575
 21
915.7200000000001
 31
0.0
  0
LINE
  5
51B
330
1E
100
AcDbEntity
  8
0
100
AcDbLine
 10
259.7855749999999
 20
925.3200000000001
 30
0.0
 11
259.7855749999999
 21
921.24
 31
0.0
  0
LINE
  5
51C
330
1E
100
AcDbEntity
  8
0
100
AcDbLine
 10
259.7855749999999
 20
925.3200000000001
 30
0.0
 11
259.7855749999999
 21
929.9599999999999
 31
0.0
  0
LINE
  5
51D
330
1E
100
AcDbEntity
  8
0
100
AcDbLine
 10
259.7855749999999
 20
921.24
 30
0.0
 11
259.7855749999999
 21
918.12
 31
0.0
  0
LINE
  5
51E
330
1E
100
AcDbEntity
  8
0
100
AcDbLine
 10
259.7855749999999
 20
921.24
 30
0.0
 11
259.7855749999999
 21
925.3200000000001
 31
0.0
  0
LINE
  5
51F
330
1E
100
AcDbEntity
  8
0
100
AcDbLine
 10
259.7855749999999
 20
918.12
 30
0.0
 11
259.7855749999999
 21
920.0
 31
0.0
  0
LINE
  5
520
330
1E
100
AcDbEntity
  8
0
100
AcDbLine
 10
259.7855749999999
 20
918.12
 30
0.0
 11
259.7855749999999
 21
916.2
 31
0.0
  0
LINE
  5
521
330
1E
100
AcDbEntity
  8
0
100
AcDbLine
 10
259.7855749999999
 20
918.12
 30
0.0
 11
259.7855749999999
 21
921.24
 31
0.0
  0
LINE
  5
522
330
1E
100
AcDbEntity
  8
0
100
AcDbLine
 10
259.7855749999999
 20
920.0
 30
0.0
 11
259.7855749999999
 21
918.12
 31
0.0
  0
LINE
  5
523
330
1E
100
AcDbEntity
  8
0
100
AcDbLine
 10
259.7855749999999
 20
916.2
 30
0.0
 11
259.7855749999999
 21
915.4799999999999
 31
0.0
  0
LINE
  5
524
330
1E
100
AcDbEntity
  8
0
100
AcDbLine
 10
259.7855749999999
 20
916.2
 30
0.0
 11
259.7855749999999
 21
918.12
 31
0.0
  0
LINE
  5
525
330
1E
100
AcDbEntity
  8
0
100
AcDbLine
 10
259.7855749999999
 20
929.9599999999999
 30
0.0
 11
259.7855749999999
 21
935.0
 31
0.0
  0
LINE
  5
526
330
1E
100
AcDbEntity
  8
0
100
AcDbLine
 10
259.7855749999999
 20
940.0399999999999
 30
0.0
 11
259.7855749999999
 21
935.0
 31
0.0
  0
LINE
  5
527
330
1E
100
AcDbEntity
  8
0
100
AcDbLine
 10
259.7855749999999
 20
940.0399999999999
 30
0.0
 11
259.7855749999999
 21
944.6799999999999
 31
0.0
  0
LINE
  5
528
330
1E
100
AcDbEntity
  8
0
100
AcDbLine
 10
259.7855749999999
 20
944.6799999999999
 30
0.0
 11
259.7855749999999
 21
940.0399999999999
 31
0.0
  0
LINE
  5
529
330
1E
100
AcDbEntity
  8
0
100
AcDbLine
 10
259.7855749999999
 20
944.6799999999999
 30
0.0
 11
259.7855749999999
 21
948.76
 31
0.0
  0
LINE
  5
52A
330
1E
100
AcDbEntity
  8
0
100
AcDbLine
 10
259.7855749999999
 20
948.76
 30
0.0
 11
259.7855749999999
 21
944.6799999999999
 31
0.0
  0
LINE
  5
52B
330
1E
100
AcDbEntity
  8
0
100
AcDbLine
 10
259.7855749999999
 20
948.76
 30
0.0
 11
259.7855749999999
 21
951.88
 31
0.0
  0
LINE
  5
52C
330
1E
100
AcDbEntity
  8
0
100
AcDbLine
 10
259.7855749999999
 20
935.0
 30
0.0
 11
259.7855749999999
 21
929.9599999999999
 31
0.0
  0
LINE
  5
52D
330
1E
100
AcDbEntity
  8
0
100
AcDbLine
 10
259.7855749999999
 20
935.0
 30
0.0
 11
259.7855749999999
 21
940.0399999999999
 31
0.0
  0
LINE
  5
52E
330
1E
100
AcDbEntity
  8
0
100
AcDbLine
 10
259.7855749999999
 20
950.0
 30
0.0
 11
259.7855749999999
 21
951.88
 31
0.0
  0
LINE
  5
52F
330
1E
100
AcDbEntity
  8
0
100
AcDbLine
 10
259.7855749999999
 20
951.88
 30
0.0
 11
259.7855749999999
 21
950.0
 31
0.0
  0
LINE
  5
530
330
1E
100
AcDbEntity
  8
0
100
AcDbLine
 10
259.7855749999999
 20
951.88
 30
0.0
 11
259.7855749999999
 21
953.8
 31
0.0
  0
LINE
  5
531
330
1E
100
AcDbEntity
  8
0
100
AcDbLine
 10
259.7855749999999
 20
951.88
 30
0.0
 11
259.7855749999999
 21
948.76
 31
0.0
  0
LINE
  5
532
330
1E
100
AcDbEntity
  8
0
100
AcDbLine
 10
260.085575
 20
915.7200000000001
 30
0.0
 11
260.085575
 21
915.0
 31
0.0
  0
LINE
  5
533
330
1E
100
AcDbEntity
  8
0
100
AcDbLine
 10
260.085575
 20
915.7200000000001
 30
0.0
 11
260.085575
 21
917.6399999999999
 31
0.0
  0
LINE
  5
534
330
1E
100
AcDbEntity
  8
0
100
AcDbLine
 10
260.085575
 20
920.8400000000001
 30
0.0
 11
260.085575
 21
917.6399999999999
 31
0.0
  0
LINE
  5
535
330
1E
100
AcDbEntity
  8
0
100
AcDbLine
 10
260.085575
 20
920.8400000000001
 30
0.0
 11
260.085575
 21
925.0799999999999
 31
0.0
  0
LINE
  5
536
330
1E
100
AcDbEntity
  8
0
100
AcDbLine
 10
264.785575
 20
920.0
 30
0.0
 11
264.785575
 21
1607.0
 31
0.0
  0
LINE
  5
537
330
1E
100
AcDbEntity
  8
0
100
AcDbLine
 10
264.785575
 20
920.0
 30
0.0
 11
264.785575
 21
755.0
 31
0.0
  0
LINE
  5
538
330
1E
100
AcDbEntity
  8
0
100
AcDbLine
 10
260.085575
 20
917.6399999999999
 30
0.0
 11
260.085575
 21
915.7200000000001
 31
0.0
  0
LINE
  5
539
330
1E
100
AcDbEntity
  8
0
100
AcDbLine
 10
260.085575
 20
917.6399999999999
 30
0.0
 11
260.085575
 21
920.8400000000001
 31
0.0
  0
LINE
  5
53A
330
1E
100
AcDbEntity
  8
0
100
AcDbLine
 10
260.085575
 20
929.8799999999999
 30
0.0
 11
260.085575
 21
925.0799999999999
 31
0.0
  0
LINE
  5
53B
330
1E
100
AcDbEntity
  8
0
100
AcDbLine
 10
260.085575
 20
929.8799999999999
 30
0.0
 11
260.085575
 21
935.0
 31
0.0
  0
LINE
  5
53C
330
1E
100
AcDbEntity
  8
0
100
AcDbLine
 10
260.085575
 20
925.0799999999999
 30
0.0
 11
260.085575
 21
920.8400000000001
 31
0.0
  0
LINE
  5
53D
330
1E
100
AcDbEntity
  8
0
100
AcDbLine
 10
260.085575
 20
925.0799999999999
 30
0.0
 11
260.085575
 21
929.8799999999999
 31
0.0
  0
LINE
  5
53E
330
1E
100
AcDbEntity
  8
0
100
AcDbLine
 10
260.085575
 20
940.1200000000001
 30
0.0
 11
260.085575
 21
935.0
 31
0.0
  0
LINE
  5
53F
330
1E
100
AcDbEntity
  8
0
100
AcDbLine
 10
260.085575
 20
940.1200000000001
 30
0.0
 11
260.085575
 21
944.9199999999999
 31
0.0
  0
LINE
  5
540
330
1E
100
AcDbEntity
  8
0
100
AcDbLine
 10
260.085575
 20
944.9199999999999
 30
0.0
 11
260.085575
 21
940.1200000000001
 31
0.0
  0
LINE
  5
541
330
1E
100
AcDbEntity
  8
0
100
AcDbLine
 10
260.085575
 20
944.9199999999999
 30
0.0
 11
260.085575
 21
949.16
 31
0.0
  0
LINE
  5
542
330
1E
100
AcDbEntity
  8
0
100
AcDbLine
 10
264.785575
 20
940.1200000000001
 30
0.0
 11
264.785575
 21
935.0
 31
0.0
  0
LINE
  5
543
330
1E
100
AcDbEntity
  8
0
100
AcDbLine
 10
264.785575
 20
940.1200000000001
 30
0.0
 11
264.785575
 21
944.9199999999999
 31
0.0
  0
LINE
  5
544
330
1E
100
AcDbEntity
  8
0
100
AcDbLine
 10
260.085575
 20
949.16
 30
0.0
 11
260.085575
 21
944.9199999999999
 31
0.0
  0
LINE
  5
545
330
1E
100
AcDbEntity
  8
0
100
AcDbLine
 10
260.085575
 20
949.16
 30
0.0
 11
260.085575
 21
952.36
 31
0.0
  0
LINE
  5
546
330
1E
100
AcDbEntity
  8
0
100
AcDbLine
 10
260.085575
 20
952.36
 30
0.0
 11
260.085575
 21
949.16
 31
0.0
  0
LINE
  5
547
330
1E
100
AcDbEntity
  8
0
100
AcDbLine
 10
260.085575
 20
952.36
 30
0.0
 11
260.085575
 21
954.2799999999999
 31
0.0
  0
LINE
  5
548
330
1E
100
AcDbEntity
  8
0
100
AcDbLine
 10
264.785575
 20
944.9199999999999
 30
0.0
 11
264.785575
 21
940.1200000000001
 31
0.0
  0
LINE
  5
549
330
1E
100
AcDbEntity
  8
0
100
AcDbLine
 10
264.785575
 20
944.9199999999999
 30
0.0
 11
264.785575
 21
949.16
 31
0.0
  0
LINE
  5
54A
330
1E
100
AcDbEntity
  8
0
100
AcDbLine
 10
264.785575
 20
949.16
 30
0.0
 11
264.785575
 21
944.9199999999999
 31
0.0
  0
LINE
  5
54B
330
1E
100
AcDbEntity
  8
0
100
AcDbLine
 10
264.785575
 20
949.16
 30
0.0
 11
264.785575
 21
952.36
 31
0.0
  0
LINE
  5
54C
330
1E
100
AcDbEntity
  8
0
100
AcDbLine
 10
260.085575
 20
954.2799999999999
 30
0.0
 11
260.085575
 21
952.36
 31
0.0
  0
LINE
  5
54D
330
1E
100
AcDbEntity
  8
0
100
AcDbLine
 10
260.085575
 20
954.2799999999999
 30
0.0
 11
260.085575
 21
955.0
 31
0.0
  0
LINE
  5
54E
330
1E
100
AcDbEntity
  8
0
100
AcDbLine
 10
264.785575
 20
952.36
 30
0.0
 11
264.785575
 21
949.16
 31
0.0
  0
LINE
  5
54F
330
1E
100
AcDbEntity
  8
0
100
AcDbLine
 10
264.785575
 20
952.36
 30
0.0
 11
264.785575
 21
954.2799999999999
 31
0.0
  0
LINE
  5
550
330
1E
100
AcDbEntity
  8
0
100
AcDbLine
 10
264.785575
 20
954.2799999999999
 30
0.0
 11
264.785575
 21
952.36
 31
0.0
  0
LINE
  5
551
330
1E
100
AcDbEntity
  8
0
100
AcDbLine
 10
264.785575
 20
954.2799999999999
 30
0.0
 11
264.785575
 21
955.0
 31
0.0
  0
LINE
  5
552
330
1E
100
AcDbEntity
  8
0
100
AcDbLine
 10
260.085575
 20
935.0
 30
0.0
 11
260.085575
 21
929.8799999999999
 31
0.0
  0
LINE
  5
553
330
1E
100
AcDbEntity
  8
0
100
AcDbLine
 10
260.085575
 20
935.0
 30
0.0
 11
260.085575
 21
940.1200000000001
 31
0.0
  0
LINE
  5
554
330
1E
100
AcDbEntity
  8
0
100
AcDbLine
 10
264.785575
 20
935.0
 30
0.0
 11
264.785575
 21
929.8799999999999
 31
0.0
  0
LINE
  5
555
330
1E
100
AcDbEntity
  8
0
100
AcDbLine
 10
264.785575
 20
935.0
 30
0.0
 11
264.785575
 21
940.1200000000001
 31
0.0
  0
LINE
  5
556
330
1E
100
AcDbEntity
  8
0
100
AcDbLine
 10
264.785575
 20
929.8799999999999
 30
0.0
 11
264.785575
 21
925.0799999999999
 31
0.0
  0
LINE
  5
557
330
1E
100
AcDbEntity
  8
0
100
AcDbLine
 10
264.785575
 20
929.8799999999999
 30
0.0
 11
264.785575
 21
935.0
 31
0.0
  0
LINE
  5
558
330
1E
100
AcDbEntity
  8
0
100
AcDbLine
 10
264.785575
 20
925.0799999999999
 30
0.0
 11
264.785575
 21
920.8400000000001
 31
0.0
  0
LINE
  5
559
330
1E
100
AcDbEntity
  8
0
100
AcDbLine
 10
264.785575
 20
925.0799999999999
 30
0.0
 11
264.785575
 21
929.8799999999999
 31
0.0
  0
LINE
  5
55A
330
1E
100
AcDbEntity
  8
0
100
AcDbLine
 10
264.785575
 20
920.8400000000001
 30
0.0
 11
264.785575
 21
917.6399999999999
 31
0.0
  0
LINE
  5
55B
330
1E
100
AcDbEntity
  8
0
100
AcDbLine
 10
264.785575
 20
920.8400000000001
 30
0.0
 11
264.785575
 21
925.0799999999999
 31
0.0
  0
LINE
  5
55E
330
1E
100
AcDbEntity
  8
0
100
AcDbLine
 10
294.785575
 20
920.0
 30
0.0
 11
294.785575
 21
1607.0
 31
0.0
  0
LINE
  5
55F
330
1E
100
AcDbEntity
  8
0
100
AcDbLine
 10
294.785575
 20
920.0
 30
0.0
 11
294.785575
 21
755.0
 31
0.0
  0
LINE
  5
560
330
1E
100
AcDbEntity
  8
0
100
AcDbLine
 10
264.785575
 20
917.6399999999999
 30
0.0
 11
264.785575
 21
915.7200000000001
 31
0.0
  0
LINE
  5
561
330
1E
100
AcDbEntity
  8
0
100
AcDbLine
 10
264.785575
 20
917.6399999999999
 30
0.0
 11
264.785575
 21
920.8400000000001
 31
0.0
  0
LINE
  5
562
330
1E
100
AcDbEntity
  8
0
100
AcDbLine
 10
264.785575
 20
915.7200000000001
 30
0.0
 11
264.785575
 21
915.0
 31
0.0
  0
LINE
  5
563
330
1E
100
AcDbEntity
  8
0
100
AcDbLine
 10
264.785575
 20
915.7200000000001
 30
0.0
 11
264.785575
 21
917.6399999999999
 31
0.0
  0
LINE
  5
564
330
1E
100
AcDbEntity
  8
0
100
AcDbLine
 10
259.7855749999999
 20
953.8
 30
0.0
 11
259.7855749999999
 21
951.88
 31
0.0
  0
LINE
  5
565
330
1E
100
AcDbEntity
  8
0
100
AcDbLine
 10
259.7855749999999
 20
953.8
 30
0.0
 11
259.7855749999999
 21
954.5199999999999
 31
0.0
  0
LINE
  5
566
330
1E
100
AcDbEntity
  8
0
100
AcDbLine
 10
260.085575
 20
955.0
 30
0.0
 11
260.085575
 21
954.2799999999999
 31
0.0
  0
LINE
  5
567
330
1E
100
AcDbEntity
  8
0
100
AcDbLine
 10
260.085575
 20
955.0
 30
0.0
 11
264.785575
 21
955.0
 31
0.0
  0
LINE
  5
568
330
1E
100
AcDbEntity
  8
0
100
AcDbLine
 10
264.785575
 20
955.0
 30
0.0
 11
264.785575
 21
954.2799999999999
 31
0.0
  0
LINE
  5
569
330
1E
100
AcDbEntity
  8
0
100
AcDbLine
 10
259.7855749999999
 20
954.5199999999999
 30
0.0
 11
259.7855749999999
 21
953.8
 31
0.0
  0
LINE
  5
56A
330
1E
100
AcDbEntity
  8
0
100
AcDbLine
 10
259.7855749999999
 20
954.5199999999999
 30
0.0
 11
260.085575
 21
955.0
 31
0.0
  0
LINE
  5
56B
330
1E
100
AcDbEntity
  8
0
100
AcDbLine
 10
259.7855749999999
 20
915.4799999999999
 30
0.0
 11
260.085575
 21
915.0
 31
0.0
  0
LINE
  5
56C
330
1E
100
AcDbEntity
  8
0
100
AcDbLine
 10
259.7855749999999
 20
915.4799999999999
 30
0.0
 11
259.7855749999999
 21
916.2
 31
0.0
  0
LINE
  5
56D
330
1E
100
AcDbEntity
  8
0
100
AcDbLine
 10
260.085575
 20
915.0
 30
0.0
 11
264.785575
 21
915.0
 31
0.0
  0
LINE
  5
56E
330
1E
100
AcDbEntity
  8
0
100
AcDbLine
 10
260.085575
 20
915.0
 30
0.0
 11
260.085575
 21
915.7200000000001
 31
0.0
  0
LINE
  5
56F
330
1E
100
AcDbEntity
  8
0
100
AcDbLine
 10
254.785575
 20
500.0
 30
0.0
 11
255.7855749999999
 21
498.0
 31
0.0
  0
LINE
  5
570
330
1E
100
AcDbEntity
  8
0
100
AcDbLine
 10
254.785575
 20
500.0
 30
0.0
 11
264.785575
 21
500.0
 31
0.0
  0
LINE
  5
571
330
1E
100
AcDbEntity
  8
0
100
AcDbLine
 10
253.7855749999999
 20
470.0
 30
0.0
 11
255.7855749999999
 21
498.0
 31
0.0
  0
LINE
  5
572
330
1E
100
AcDbEntity
  8
0
100
AcDbLine
 10
253.485575
 20
470.0
 30
0.0
 11
253.7855749999999
 21
470.0
 31
0.0
  0
LINE
  5
577
330
1E
100
AcDbEntity
  8
0
100
AcDbLine
 10
263.6825749999999
 20
1250.0
 30
0.0
 11
264.785575
 21
1250.0
 31
0.0
  0
LINE
  5
578
330
1E
100
AcDbEntity
  8
0
100
AcDbLine
 10
248.287575
 20
1255.57
 30
0.0
 11
248.287575
 21
1289.0
 31
0.0
  0
LINE
  5
57A
330
1E
100
AcDbEntity
  8
0
100
AcDbLine
 10
188.985575
 20
1291.0
 30
0.0
 11
192.485575
 21
1293.989999999999
 31
0.0
  0
LINE
  5
57B
330
1E
100
AcDbEntity
  8
0
100
AcDbLine
 10
190.528741512811
 20
1292.31830510666
 30
0.0
 11
192.485575
 21
1293.989999999999
 31
0.0
  0
LINE
  5
57C
330
1E
100
AcDbEntity
  8
0
100
AcDbLine
 10
190.528741512811
 20
1292.31830510666
 30
0.0
 11
195.555575
 21
1284.329999999999
 31
0.0
  0
LINE
  5
57D
330
1E
100
AcDbEntity
  8
0
100
AcDbLine
 10
192.485575
 20
1293.989999999999
 30
0.0
 11
195.044575
 21
1296.94
 31
0.0
  0
LINE
  5
57E
330
1E
100
AcDbEntity
  8
0
100
AcDbLine
 10
195.044575
 20
1296.94
 30
0.0
 11
196.607575
 21
1298.81
 31
0.0
  0
LINE
  5
57F
330
1E
100
AcDbEntity
  8
0
100
AcDbLine
 10
197.484575
 20
1299.599999999999
 30
0.0
 11
201.378575
 21
1303.6
 31
0.0
  0
LINE
  5
580
330
1E
100
AcDbEntity
  8
0
100
AcDbLine
 10
196.607575
 20
1298.81
 30
0.0
 11
197.484575
 21
1299.599999999999
 31
0.0
  0
LINE
  5
581
330
1E
100
AcDbEntity
  8
0
100
AcDbLine
 10
201.378575
 20
1303.6
 30
0.0
 11
206.812575
 21
1309.06
 31
0.0
  0
LINE
  5
582
330
1E
100
AcDbEntity
  8
0
100
AcDbLine
 10
248.287575
 20
1289.0
 30
0.0
 11
248.287575
 21
1322.43
 31
0.0
  0
LINE
  5
583
330
1E
100
AcDbEntity
  8
0
100
AcDbLine
 10
248.287575
 20
1289.0
 30
0.0
 11
248.287575
 21
1255.57
 31
0.0
  0
LINE
  5
584
330
1E
100
AcDbEntity
  8
0
100
AcDbLine
 10
179.2615749999999
 20
1308.28
 30
0.0
 11
180.2045749999999
 21
1308.95
 31
0.0
  0
LINE
  5
585
330
1E
100
AcDbEntity
  8
0
100
AcDbLine
 10
188.428575
 20
1315.19
 30
0.0
 11
199.7485749999999
 21
1319.98
 31
0.0
  0
LINE
  5
586
330
1E
100
AcDbEntity
  8
0
100
AcDbLine
 10
206.812575
 20
1309.06
 30
0.0
 11
215.0525749999999
 21
1314.74
 31
0.0
  0
LINE
  5
587
330
1E
100
AcDbEntity
  8
0
100
AcDbLine
 10
215.0525749999999
 20
1314.74
 30
0.0
 11
223.1125749999999
 21
1318.529999999999
 31
0.0
  0
LINE
  5
588
330
1E
100
AcDbEntity
  8
0
100
AcDbLine
 10
199.7485749999999
 20
1319.98
 30
0.0
 11
212.426575
 21
1323.65
 31
0.0
  0
LINE
  5
589
330
1E
100
AcDbEntity
  8
0
100
AcDbLine
 10
223.1125749999999
 20
1318.529999999999
 30
0.0
 11
234.1605749999999
 21
1321.2
 31
0.0
  0
LINE
  5
58A
330
1E
100
AcDbEntity
  8
0
100
AcDbLine
 10
248.287575
 20
1322.43
 30
0.0
 11
248.287575
 21
1289.0
 31
0.0
  0
LINE
  5
58C
330
1E
100
AcDbEntity
  8
0
100
AcDbLine
 10
234.1605749999999
 20
1321.2
 30
0.0
 11
246.476575
 21
1322.43
 31
0.0
  0
LINE
  5
58D
330
1E
100
AcDbEntity
  8
0
100
AcDbLine
 10
212.426575
 20
1323.65
 30
0.0
 11
222.5695749999999
 21
1325.77
 31
0.0
  0
LINE
  5
58E
330
1E
100
AcDbEntity
  8
0
100
AcDbLine
 10
222.5695749999999
 20
1325.77
 30
0.0
 11
234.1605749999999
 21
1327.0
 31
0.0
  0
LINE
  5
592
330
1E
100
AcDbEntity
  8
0
100
AcDbLine
 10
263.6825749999999
 20
1328.0
 30
0.0
 11
264.785575
 21
1328.0
 31
0.0
  0
LINE
  5
594
330
1E
100
AcDbEntity
  8
0
100
AcDbLine
 10
246.476575
 20
1328.0
 30
0.0
 11
263.6825749999999
 21
1328.0
 31
0.0
  0
LINE
  5
595
330
1E
100
AcDbEntity
  8
0
100
AcDbLine
 10
234.1605749999999
 20
1327.0
 30
0.0
 11
246.476575
 21
1328.0
 31
0.0
  0
LINE
  5
596
330
1E
100
AcDbEntity
  8
0
100
AcDbLine
 10
246.476575
 20
1322.43
 30
0.0
 11
248.287575
 21
1322.43
 31
0.0
  0
LINE
  5
597
330
1E
100
AcDbEntity
  8
0
100
AcDbLine
 10
180.5608783858449
 20
1309.17761930211
 30
0.0
 11
188.428575
 21
1315.19
 31
0.0
  0
LINE
  5
598
330
1E
100
AcDbEntity
  8
0
100
AcDbLine
 10
180.2045749999999
 20
1308.95
 30
0.0
 11
180.562575
 21
1309.19
 31
0.0
  0
LINE
  5
599
330
1E
100
AcDbEntity
  8
0
100
AcDbLine
 10
113.673974999973
 20
1373.815999999949
 30
0.0
 11
114.463575
 21
1375.24
 31
0.0
  0
LINE
  5
59A
330
1E
100
AcDbEntity
  8
0
100
AcDbLine
 10
115.121575
 20
1376.42
 30
0.0
 11
116.7655749999999
 21
1379.38
 31
0.0
  0
LINE
  5
59B
330
1E
100
AcDbEntity
  8
0
100
AcDbLine
 10
116.7655749999999
 20
1379.38
 30
0.0
 11
118.4565749999999
 21
1382.42
 31
0.0
  0
LINE
  5
59C
330
1E
100
AcDbEntity
  8
0
100
AcDbLine
 10
118.4565749999999
 20
1382.42
 30
0.0
 11
120.007575
 21
1385.21
 31
0.0
  0
LINE
  5
59D
330
1E
100
AcDbEntity
  8
0
100
AcDbLine
 10
120.007575
 20
1385.21
 30
0.0
 11
121.369575
 21
1387.66
 31
0.0
  0
LINE
  5
59E
330
1E
100
AcDbEntity
  8
0
100
AcDbLine
 10
110.0815749999999
 20
1406.34
 30
0.0
 11
110.307575
 21
1405.05
 31
0.0
  0
LINE
  5
59F
330
1E
100
AcDbEntity
  8
0
100
AcDbLine
 10
121.369575
 20
1387.66
 30
0.0
 11
122.403575
 21
1389.51
 31
0.0
  0
LINE
  5
5A0
330
1E
100
AcDbEntity
  8
0
100
AcDbLine
 10
122.403575
 20
1389.51
 30
0.0
 11
123.013575
 21
1390.609999999999
 31
0.0
  0
LINE
  5
5A1
330
1E
100
AcDbEntity
  8
0
100
AcDbLine
 10
122.3576602575489
 20
1389.42785079929
 30
0.0
 11
122.488297222223
 21
1389.66277777778
 31
0.0
  0
LINE
  5
5A2
330
1E
100
AcDbEntity
  8
0
100
AcDbLine
 10
263.7855749999999
 20
1607.0
 30
0.0
 11
264.405575
 21
1607.0
 31
0.0
  0
LINE
  5
5A3
330
1E
100
AcDbEntity
  8
0
100
AcDbLine
 10
263.7855749999999
 20
1607.0
 30
0.0
 11
263.7855749999999
 21
1614.47
 31
0.0
  0
LINE
  5
5A4
330
1E
100
AcDbEntity
  8
0
100
AcDbLine
 10
265.8525749999999
 20
1607.0
 30
0.0
 11
294.785575
 21
1607.0
 31
0.0
  0
LINE
  5
5A5
330
1E
100
AcDbEntity
  8
0
100
AcDbLine
 10
264.405575
 20
1607.0
 30
0.0
 11
264.785575
 21
1607.0
 31
0.0
  0
LINE
  5
5A7
330
1E
100
AcDbEntity
  8
0
100
AcDbLine
 10
264.405575
 20
1607.0
 30
0.0
 11
265.8525749999999
 21
1607.0
 31
0.0
  0
LINE
  5
5A8
330
1E
100
AcDbEntity
  8
0
100
AcDbLine
 10
265.385575
 20
1607.0
 30
0.0
 11
266.785575
 21
1607.0
 31
0.0
  0
LINE
  5
5A9
330
1E
100
AcDbEntity
  8
0
100
AcDbLine
 10
294.785575
 20
1607.0
 30
0.0
 11
294.785575
 21
1613.67
 31
0.0
  0
LINE
  5
5AA
330
1E
100
AcDbEntity
  8
0
100
AcDbLine
 10
266.785575
 20
1607.0
 30
0.0
 11
294.785575
 21
1607.0
 31
0.0
  0
LINE
  5
5AB
330
1E
100
AcDbEntity
  8
0
100
AcDbLine
 10
263.7855749999999
 20
1614.47
 30
0.0
 11
263.7855749999999
 21
1607.0
 31
0.0
  0
LINE
  5
5AC
330
1E
100
AcDbEntity
  8
0
100
AcDbLine
 10
263.7855749999999
 20
1614.47
 30
0.0
 11
263.7855749999999
 21
1618.0
 31
0.0
  0
LINE
  5
5AD
330
1E
100
AcDbEntity
  8
0
100
AcDbLine
 10
263.7855749999999
 20
1614.47
 30
0.0
 11
264.405575
 21
1613.87
 31
0.0
  0
LINE
  5
5AE
330
1E
100
AcDbEntity
  8
0
100
AcDbLine
 10
263.7855749999999
 20
1627.0
 30
0.0
 11
263.7855749999999
 21
1626.73
 31
0.0
  0
LINE
  5
5AF
330
1E
100
AcDbEntity
  8
0
100
AcDbLine
 10
263.7855749999999
 20
1627.0
 30
0.0
 11
294.785575
 21
1627.0
 31
0.0
  0
LINE
  5
5B0
330
1E
100
AcDbEntity
  8
0
100
AcDbLine
 10
263.7855749999999
 20
1626.73
 30
0.0
 11
263.7855749999999
 21
1626.33
 31
0.0
  0
LINE
  5
5B1
330
1E
100
AcDbEntity
  8
0
100
AcDbLine
 10
263.7855749999999
 20
1626.73
 30
0.0
 11
263.7855749999999
 21
1627.0
 31
0.0
  0
LINE
  5
5B2
330
1E
100
AcDbEntity
  8
0
100
AcDbLine
 10
263.7855749999999
 20
1626.33
 30
0.0
 11
263.7855749999999
 21
1625.529999999999
 31
0.0
  0
LINE
  5
5B3
330
1E
100
AcDbEntity
  8
0
100
AcDbLine
 10
263.7855749999999
 20
1626.33
 30
0.0
 11
263.7855749999999
 21
1626.73
 31
0.0
  0
LINE
  5
5B4
330
1E
100
AcDbEntity
  8
0
100
AcDbLine
 10
263.7855749999999
 20
1625.529999999999
 30
0.0
 11
263.7855749999999
 21
1624.329999999999
 31
0.0
  0
LINE
  5
5B5
330
1E
100
AcDbEntity
  8
0
100
AcDbLine
 10
263.7855749999999
 20
1625.529999999999
 30
0.0
 11
263.7855749999999
 21
1626.33
 31
0.0
  0
LINE
  5
5B6
330
1E
100
AcDbEntity
  8
0
100
AcDbLine
 10
263.7855749999999
 20
1624.329999999999
 30
0.0
 11
263.7855749999999
 21
1622.8
 31
0.0
  0
LINE
  5
5B7
330
1E
100
AcDbEntity
  8
0
100
AcDbLine
 10
263.7855749999999
 20
1624.329999999999
 30
0.0
 11
263.7855749999999
 21
1625.529999999999
 31
0.0
  0
LINE
  5
5B8
330
1E
100
AcDbEntity
  8
0
100
AcDbLine
 10
263.7855749999999
 20
1622.8
 30
0.0
 11
263.7855749999999
 21
1620.67
 31
0.0
  0
LINE
  5
5B9
330
1E
100
AcDbEntity
  8
0
100
AcDbLine
 10
263.7855749999999
 20
1622.8
 30
0.0
 11
263.7855749999999
 21
1624.329999999999
 31
0.0
  0
LINE
  5
5BA
330
1E
100
AcDbEntity
  8
0
100
AcDbLine
 10
263.7855749999999
 20
1620.67
 30
0.0
 11
263.7855749999999
 21
1618.0
 31
0.0
  0
LINE
  5
5BB
330
1E
100
AcDbEntity
  8
0
100
AcDbLine
 10
263.7855749999999
 20
1620.67
 30
0.0
 11
263.7855749999999
 21
1622.8
 31
0.0
  0
LINE
  5
5BC
330
1E
100
AcDbEntity
  8
0
100
AcDbLine
 10
294.785575
 20
1613.67
 30
0.0
 11
294.785575
 21
1607.0
 31
0.0
  0
LINE
  5
5BD
330
1E
100
AcDbEntity
  8
0
100
AcDbLine
 10
294.785575
 20
1613.67
 30
0.0
 11
294.785575
 21
1613.87
 31
0.0
  0
LINE
  5
5BE
330
1E
100
AcDbEntity
  8
0
100
AcDbLine
 10
294.785575
 20
1613.87
 30
0.0
 11
294.785575
 21
1613.67
 31
0.0
  0
LINE
  5
5BF
330
1E
100
AcDbEntity
  8
0
100
AcDbLine
 10
294.785575
 20
1613.87
 30
0.0
 11
294.785575
 21
1614.47
 31
0.0
  0
LINE
  5
5C0
330
1E
100
AcDbEntity
  8
0
100
AcDbLine
 10
265.8525749999999
 20
1613.67
 30
0.0
 11
294.785575
 21
1613.67
 31
0.0
  0
LINE
  5
5C1
330
1E
100
AcDbEntity
  8
0
100
AcDbLine
 10
294.785575
 20
1627.0
 30
0.0
 11
294.785575
 21
1626.73
 31
0.0
  0
LINE
  5
5C2
330
1E
100
AcDbEntity
  8
0
100
AcDbLine
 10
294.785575
 20
1626.73
 30
0.0
 11
294.785575
 21
1626.33
 31
0.0
  0
LINE
  5
5C3
330
1E
100
AcDbEntity
  8
0
100
AcDbLine
 10
294.785575
 20
1626.73
 30
0.0
 11
294.785575
 21
1627.0
 31
0.0
  0
LINE
  5
5C4
330
1E
100
AcDbEntity
  8
0
100
AcDbLine
 10
294.785575
 20
1626.33
 30
0.0
 11
294.785575
 21
1625.529999999999
 31
0.0
  0
LINE
  5
5C5
330
1E
100
AcDbEntity
  8
0
100
AcDbLine
 10
294.785575
 20
1626.33
 30
0.0
 11
294.785575
 21
1626.73
 31
0.0
  0
LINE
  5
5C6
330
1E
100
AcDbEntity
  8
0
100
AcDbLine
 10
294.785575
 20
1625.529999999999
 30
0.0
 11
294.785575
 21
1624.329999999999
 31
0.0
  0
LINE
  5
5C7
330
1E
100
AcDbEntity
  8
0
100
AcDbLine
 10
294.785575
 20
1625.529999999999
 30
0.0
 11
294.785575
 21
1626.33
 31
0.0
  0
LINE
  5
5C8
330
1E
100
AcDbEntity
  8
0
100
AcDbLine
 10
294.785575
 20
1624.329999999999
 30
0.0
 11
294.785575
 21
1622.8
 31
0.0
  0
LINE
  5
5C9
330
1E
100
AcDbEntity
  8
0
100
AcDbLine
 10
294.785575
 20
1624.329999999999
 30
0.0
 11
294.785575
 21
1625.529999999999
 31
0.0
  0
LINE
  5
5CA
330
1E
100
AcDbEntity
  8
0
100
AcDbLine
 10
294.785575
 20
1622.8
 30
0.0
 11
294.785575
 21
1620.67
 31
0.0
  0
LINE
  5
5CB
330
1E
100
AcDbEntity
  8
0
100
AcDbLine
 10
294.785575
 20
1622.8
 30
0.0
 11
294.785575
 21
1624.329999999999
 31
0.0
  0
LINE
  5
5CC
330
1E
100
AcDbEntity
  8
0
100
AcDbLine
 10
294.785575
 20
1620.67
 30
0.0
 11
294.785575
 21
1618.0
 31
0.0
  0
LINE
  5
5CD
330
1E
100
AcDbEntity
  8
0
100
AcDbLine
 10
294.785575
 20
1620.67
 30
0.0
 11
294.785575
 21
1622.8
 31
0.0
  0
LINE
  5
5CE
330
1E
100
AcDbEntity
  8
0
100
AcDbLine
 10
294.785575
 20
1618.0
 30
0.0
 11
294.785575
 21
1614.47
 31
0.0
  0
LINE
  5
5CF
330
1E
100
AcDbEntity
  8
0
100
AcDbLine
 10
294.785575
 20
1618.0
 30
0.0
 11
294.785575
 21
1620.67
 31
0.0
  0
LINE
  5
5D0
330
1E
100
AcDbEntity
  8
0
100
AcDbLine
 10
294.785575
 20
1614.47
 30
0.0
 11
294.785575
 21
1613.87
 31
0.0
  0
LINE
  5
5D1
330
1E
100
AcDbEntity
  8
0
100
AcDbLine
 10
294.785575
 20
1614.47
 30
0.0
 11
294.785575
 21
1618.0
 31
0.0
  0
LINE
  5
5D2
330
1E
100
AcDbEntity
  8
0
100
AcDbLine
 10
264.405575
 20
1613.87
 30
0.0
 11
265.8525749999999
 21
1613.67
 31
0.0
  0
LINE
  5
5D4
330
1E
100
AcDbEntity
  8
0
100
AcDbLine
 10
263.7855749999999
 20
1618.0
 30
0.0
 11
263.7855749999999
 21
1614.47
 31
0.0
  0
LINE
  5
5D5
330
1E
100
AcDbEntity
  8
0
100
AcDbLine
 10
263.7855749999999
 20
1618.0
 30
0.0
 11
263.7855749999999
 21
1620.67
 31
0.0
  0
LINE
  5
5D6
330
1E
100
AcDbEntity
  8
0
100
AcDbLine
 10
264.785575
 20
1607.0
 30
0.0
 11
265.385575
 21
1607.0
 31
0.0
  0
LINE
  5
5D7
330
1E
100
AcDbEntity
  8
0
100
AcDbLine
 10
123.248575
 20
1391.029999999999
 30
0.0
 11
180.562575
 21
1309.19
 31
0.0
  0
LINE
  5
5D8
330
1E
100
AcDbEntity
  8
0
100
AcDbLine
 10
123.013575
 20
1390.609999999999
 30
0.0
 11
123.248575
 21
1391.029999999999
 31
0.0
  0
LINE
  5
5D9
330
1E
100
AcDbEntity
  8
0
100
AcDbLine
 10
121.578677040802
 20
1388.03411873838
 30
0.0
 11
123.013575
 21
1390.609999999999
 31
0.0
  0
LINE
  5
5DA
330
1E
100
AcDbEntity
  8
0
100
AcDbLine
 10
114.463575
 20
1375.24
 30
0.0
 11
115.025580305027
 21
1376.24732095489
 31
0.0
  0
LINE
  5
5DB
330
1E
100
AcDbEntity
  8
0
100
AcDbLine
 10
109.9400846672019
 20
1404.41336674728
 30
0.0
 11
121.461041245648
 21
1387.823648505269
 31
0.0
  0
LINE
  5
5E0
330
1E
100
AcDbEntity
  8
0
100
AcDbLine
 10
225.1745749999999
 20
1131.849999999999
 30
0.0
 11
228.7055749999999
 21
1044.79
 31
0.0
  0
LINE
  5
5E1
330
1E
100
AcDbEntity
  8
0
100
AcDbLine
 10
184.556622452551
 20
1265.79063877352
 30
0.0
 11
191.545575
 21
1252.74
 31
0.0
  0
LINE
  5
5E2
330
1E
100
AcDbEntity
  8
0
100
AcDbLine
 10
184.556622452551
 20
1265.79063877352
 30
0.0
 11
188.428575
 21
1262.809999999999
 31
0.0
  0
LINE
  5
5E3
330
1E
100
AcDbEntity
  8
0
100
AcDbLine
 10
174.846575
 20
1306.44
 30
0.0
 11
179.5358686297222
 21
1310.619436030175
 31
0.0
  0
LINE
  5
5E4
330
1E
100
AcDbEntity
  8
0
100
AcDbLine
 10
207.1955879379186
 20
1255.861189844169
 30
0.0
 11
199.7485749999999
 21
1258.02
 31
0.0
  0
ENDSEC
  0
SECTION
  2
OBJECTS
  0
DICTIONARY
  5
C
330
0
100
AcDbDictionary
281
     1
  3
ACAD_GROUP
350
D
  3
ACAD_LAYOUT
350
19
  3
ACAD_MLINESTYLE
350
16
  3
ACAD_PLOTSETTINGS
350
18
  3
ACAD_PLOTSTYLENAME
350
E
  3
AcDbVariableDictionary
350
5E5
  0
DICTIONARY
  5
D
102
{ACAD_REACTORS
330
C
102
}
330
C
100
AcDbDictionary
281
     1
  0
DICTIONARY
  5
19
102
{ACAD_REACTORS
330
C
102
}
330
C
100
AcDbDictionary
281
     1
  3
Layout1
350
1D
  3
Model
350
21
  0
DICTIONARY
  5
16
102
{ACAD_REACTORS
330
C
102
}
330
C
100
AcDbDictionary
281
     1
  3
Standard
350
17
  0
DICTIONARY
  5
18
102
{ACAD_REACTORS
330
C
102
}
330
C
100
AcDbDictionary
281
     1
  0
ACDBDICTIONARYWDFLT
  5
E
102
{ACAD_REACTORS
330
C
102
}
330
C
100
AcDbDictionary
281
     1
  3
Normal
350
F
100
AcDbDictionaryWithDefault
340
F
  0
DICTIONARY
  5
5E5
102
{ACAD_REACTORS
330
C
102
}
330
C
100
AcDbDictionary
281
     1
  3
DIMASSOC
350
5E6
  0
LAYOUT
  5
1D
102
{ACAD_REACTORS
330
19
102
}
330
19
100
AcDbPlotSettings
  1

  2
hp deskjet 980c series
  4

  6

 40
0.0
 41
0.0
 42
0.0
 43
0.0
 44
0.0
 45
0.0
 46
0.0
 47
0.0
 48
0.0
 49
0.0
140
0.0
141
0.0
142
1.0
143
1.0
 70
   688
 72
     0
 73
     0
 74
     5
  7

 75
    16
147
1.0
148
0.0
149
0.0
100
AcDbLayout
  1
Layout1
 70
     1
 71
     1
 10
0.0
 20
0.0
 11
12.0
 21
9.0
 12
0.0
 22
0.0
 32
0.0
 14
1.000000000000000E+20
 24
1.000000000000000E+20
 34
1.000000000000000E+20
 15
-1.000000000000000E+20
 25
-1.000000000000000E+20
 35
-1.000000000000000E+20
146
0.0
 13
0.0
 23
0.0
 33
0.0
 16
1.0
 26
0.0
 36
0.0
 17
0.0
 27
1.0
 37
0.0
 76
     0
330
1A
  0
LAYOUT
  5
21
102
{ACAD_REACTORS
330
19
102
}
330
19
100
AcDbPlotSettings
  1

  2
hp deskjet 980c series
  4

  6

 40
0.0
 41
0.0
 42
0.0
 43
0.0
 44
0.0
 45
0.0
 46
0.0
 47
0.0
 48
0.0
 49
0.0
140
0.0
141
0.0
142
1.0
143
1.0
 70
  1712
 72
     0
 73
     0
 74
     0
  7

 75
     0
147
1.0
148
0.0
149
0.0
100
AcDbLayout
  1
Model
 70
     1
 71
     0
 10
0.0
 20
0.0
 11
12.0
 21
9.0
 12
0.0
 22
0.0
 32
0.0
 14
0.0
 24
0.0
 34
0.0
 15
0.0
 25
0.0
 35
0.0
146
0.0
 13
0.0
 23
0.0
 33
0.0
 16
1.0
 26
0.0
 36
0.0
 17
0.0
 27
1.0
 37
0.0
 76
     0
330
1E
  0
MLINESTYLE
  5
17
102
{ACAD_REACTORS
330
16
102
}
330
16
100
AcDbMlineStyle
  2
STANDARD
 70
     0
  3

 62
   256
 51
90.0
 52
90.0
 71
     2
 49
0.5
 62
   256
  6
BYLAYER
 49
-0.5
 62
   256
  6
BYLAYER
  0
ACDBPLACEHOLDER
  5
F
102
{ACAD_REACTORS
330
E
102
}
330
E
  0
DICTIONARYVAR
  5
5E6
102
{ACAD_REACTORS
330
5E5
102
}
330
5E5
100
DictionaryVariables
280
     0
  1
1
  0
ENDSEC
  0
EOF
