  0
SECTION
  2
HEADER
  9
$ACADVER
  1
AC1015
  9
$ACADMAINTVER
 70
    13
  9
$DWGCODEPAGE
  3
ANSI_1252
  9
$INSBASE
 10
0.0
 20
0.0
 30
0.0
  9
$EXTMIN
 10
-0.0000000000000061
 20
-0.0192500000000002
 30
0.0
  9
$EXTMAX
 10
218.0
 20
207.01925
 30
0.0
  9
$LIMMIN
 10
0.0
 20
0.0
  9
$LIMMAX
 10
12.0
 20
9.0
  9
$ORTHOMODE
 70
     0
  9
$REGENMODE
 70
     1
  9
$FILLMODE
 70
     1
  9
$QTEXTMODE
 70
     0
  9
$MIRRTEXT
 70
     1
  9
$LTSCALE
 40
1.0
  9
$ATTMODE
 70
     1
  9
$TEXTSIZE
 40
0.2
  9
$TRACEWID
 40
0.05
  9
$TEXTSTYLE
  7
Standard
  9
$CLAYER
  8
0
  9
$CELTYPE
  6
Continuous
  9
$CECOLOR
 62
   256
  9
$CELTSCALE
 40
1.0
  9
$DISPSILH
 70
     0
  9
$DIMSCALE
 40
1.0
  9
$DIMASZ
 40
0.18
  9
$DIMEXO
 40
0.0625
  9
$DIMDLI
 40
0.38
  9
$DIMRND
 40
0.0
  9
$DIMDLE
 40
0.0
  9
$DIMEXE
 40
0.18
  9
$DIMTP
 40
0.0
  9
$DIMTM
 40
0.0
  9
$DIMTXT
 40
0.18
  9
$DIMCEN
 40
0.09
  9
$DIMTSZ
 40
0.0
  9
$DIMTOL
 70
     0
  9
$DIMLIM
 70
     0
  9
$DIMTIH
 70
     1
  9
$DIMTOH
 70
     1
  9
$DIMSE1
 70
     0
  9
$DIMSE2
 70
     0
  9
$DIMTAD
 70
     0
  9
$DIMZIN
 70
     0
  9
$DIMBLK
  1

  9
$DIMASO
 70
     1
  9
$DIMSHO
 70
     1
  9
$DIMPOST
  1

  9
$DIMAPOST
  1

  9
$DIMALT
 70
     0
  9
$DIMALTD
 70
     2
  9
$DIMALTF
 40
25.4
  9
$DIMLFAC
 40
1.0
  9
$DIMTOFL
 70
     0
  9
$DIMTVP
 40
0.0
  9
$DIMTIX
 70
     0
  9
$DIMSOXD
 70
     0
  9
$DIMSAH
 70
     0
  9
$DIMBLK1
  1

  9
$DIMBLK2
  1

  9
$DIMSTYLE
  2
Standard
  9
$DIMCLRD
 70
     0
  9
$DIMCLRE
 70
     0
  9
$DIMCLRT
 70
     0
  9
$DIMTFAC
 40
1.0
  9
$DIMGAP
 40
0.09
  9
$DIMJUST
 70
     0
  9
$DIMSD1
 70
     0
  9
$DIMSD2
 70
     0
  9
$DIMTOLJ
 70
     1
  9
$DIMTZIN
 70
     0
  9
$DIMALTZ
 70
     0
  9
$DIMALTTZ
 70
     0
  9
$DIMUPT
 70
     0
  9
$DIMDEC
 70
     4
  9
$DIMTDEC
 70
     4
  9
$DIMALTU
 70
     2
  9
$DIMALTTD
 70
     2
  9
$DIMTXSTY
  7
Standard
  9
$DIMAUNIT
 70
     0
  9
$DIMADEC
 70
     0
  9
$DIMALTRND
 40
0.0
  9
$DIMAZIN
 70
     0
  9
$DIMDSEP
 70
    46
  9
$DIMATFIT
 70
     3
  9
$DIMFRAC
 70
     0
  9
$DIMLDRBLK
  1

  9
$DIMLUNIT
 70
     2
  9
$DIMLWD
 70
    -2
  9
$DIMLWE
 70
    -2
  9
$DIMTMOVE
 70
     0
  9
$LUNITS
 70
     2
  9
$LUPREC
 70
     4
  9
$SKETCHINC
 40
0.1
  9
$FILLETRAD
 40
0.0
  9
$AUNITS
 70
     0
  9
$AUPREC
 70
     0
  9
$MENU
  1
.
  9
$ELEVATION
 40
0.0
  9
$PELEVATION
 40
0.0
  9
$THICKNESS
 40
0.0
  9
$LIMCHECK
 70
     0
  9
$CHAMFERA
 40
0.0
  9
$CHAMFERB
 40
0.0
  9
$CHAMFERC
 40
0.0
  9
$CHAMFERD
 40
0.0
  9
$SKPOLY
 70
     0
  9
$TDCREATE
 40
2454736.667598912
  9
$TDUCREATE
 40
2454736.584265578
  9
$TDUPDATE
 40
2454736.669830185
  9
$TDUUPDATE
 40
2454736.586496852
  9
$TDINDWG
 40
0.0022314468
  9
$TDUSRTIMER
 40
0.0022314468
  9
$USRTIMER
 70
     1
  9
$ANGBASE
 50
0.0
  9
$ANGDIR
 70
     0
  9
$PDMODE
 70
     0
  9
$PDSIZE
 40
0.0
  9
$PLINEWID
 40
0.0
  9
$SPLFRAME
 70
     0
  9
$SPLINETYPE
 70
     6
  9
$SPLINESEGS
 70
     8
  9
$HANDSEED
  5
285
  9
$SURFTAB1
 70
     6
  9
$SURFTAB2
 70
     6
  9
$SURFTYPE
 70
     6
  9
$SURFU
 70
     6
  9
$SURFV
 70
     6
  9
$UCSBASE
  2

  9
$UCSNAME
  2

  9
$UCSORG
 10
0.0
 20
0.0
 30
0.0
  9
$UCSXDIR
 10
1.0
 20
0.0
 30
0.0
  9
$UCSYDIR
 10
0.0
 20
1.0
 30
0.0
  9
$UCSORTHOREF
  2

  9
$UCSORTHOVIEW
 70
     1
  9
$UCSORGTOP
 10
0.0
 20
0.0
 30
0.0
  9
$UCSORGBOTTOM
 10
0.0
 20
0.0
 30
0.0
  9
$UCSORGLEFT
 10
0.0
 20
0.0
 30
0.0
  9
$UCSORGRIGHT
 10
0.0
 20
0.0
 30
0.0
  9
$UCSORGFRONT
 10
0.0
 20
0.0
 30
0.0
  9
$UCSORGBACK
 10
0.0
 20
0.0
 30
0.0
  9
$PUCSBASE
  2

  9
$PUCSNAME
  2

  9
$PUCSORG
 10
0.0
 20
0.0
 30
0.0
  9
$PUCSXDIR
 10
1.0
 20
0.0
 30
0.0
  9
$PUCSYDIR
 10
0.0
 20
1.0
 30
0.0
  9
$PUCSORTHOREF
  2

  9
$PUCSORTHOVIEW
 70
     0
  9
$PUCSORGTOP
 10
0.0
 20
0.0
 30
0.0
  9
$PUCSORGBOTTOM
 10
0.0
 20
0.0
 30
0.0
  9
$PUCSORGLEFT
 10
0.0
 20
0.0
 30
0.0
  9
$PUCSORGRIGHT
 10
0.0
 20
0.0
 30
0.0
  9
$PUCSORGFRONT
 10
0.0
 20
0.0
 30
0.0
  9
$PUCSORGBACK
 10
0.0
 20
0.0
 30
0.0
  9
$USERI1
 70
     0
  9
$USERI2
 70
     0
  9
$USERI3
 70
     0
  9
$USERI4
 70
     0
  9
$USERI5
 70
     0
  9
$USERR1
 40
0.0
  9
$USERR2
 40
0.0
  9
$USERR3
 40
0.0
  9
$USERR4
 40
0.0
  9
$USERR5
 40
0.0
  9
$WORLDVIEW
 70
     1
  9
$SHADEDGE
 70
     3
  9
$SHADEDIF
 70
    70
  9
$TILEMODE
 70
     1
  9
$MAXACTVP
 70
    64
  9
$PINSBASE
 10
0.0
 20
0.0
 30
0.0
  9
$PLIMCHECK
 70
     0
  9
$PEXTMIN
 10
1.000000000000000E+20
 20
1.000000000000000E+20
 30
1.000000000000000E+20
  9
$PEXTMAX
 10
-1.000000000000000E+20
 20
-1.000000000000000E+20
 30
-1.000000000000000E+20
  9
$PLIMMIN
 10
0.0
 20
0.0
  9
$PLIMMAX
 10
12.0
 20
9.0
  9
$UNITMODE
 70
     0
  9
$VISRETAIN
 70
     1
  9
$PLINEGEN
 70
     0
  9
$PSLTSCALE
 70
     1
  9
$TREEDEPTH
 70
  3020
  9
$CMLSTYLE
  2
Standard
  9
$CMLJUST
 70
     0
  9
$CMLSCALE
 40
1.0
  9
$PROXYGRAPHICS
 70
     1
  9
$MEASUREMENT
 70
     0
  9
$CELWEIGHT
370
    -1
  9
$ENDCAPS
280
     0
  9
$JOINSTYLE
280
     0
  9
$LWDISPLAY
290
     0
  9
$INSUNITS
 70
     0
  9
$HYPERLINKBASE
  1

  9
$STYLESHEET
  1

  9
$XEDIT
290
     1
  9
$CEPSNTYPE
380
     0
  9
$PSTYLEMODE
290
     1
  9
$FINGERPRINTGUID
  2
{D4CA7267-94E6-4446-86B1-5107FBA19A02}
  9
$VERSIONGUID
  2
{6F172351-D008-41D6-B18C-8CAD79046E97}
  9
$EXTNAMES
290
     1
  9
$PSVPSCALE
 40
0.0
  9
$OLESTARTUP
290
     0
  0
ENDSEC
  0
SECTION
  2
CLASSES
  0
CLASS
  1
ACDBDICTIONARYWDFLT
  2
AcDbDictionaryWithDefault
  3
AutoCAD 2000
 90
        0
280
     0
281
     0
  0
CLASS
  1
ACDBPLACEHOLDER
  2
AcDbPlaceHolder
  3
AutoCAD 2000
 90
        0
280
     0
281
     0
  0
CLASS
  1
LAYOUT
  2
AcDbLayout
  3
AutoCAD 2000
 90
        0
280
     0
281
     0
  0
CLASS
  1
DICTIONARYVAR
  2
AcDbDictionaryVar
  3
AutoCAD 2000
 90
        0
280
     0
281
     0
  0
ENDSEC
  0
SECTION
  2
TABLES
  0
TABLE
  2
VPORT
  5
8
330
0
100
AcDbSymbolTable
 70
     2
  0
VPORT
  5
284
330
8
100
AcDbSymbolTableRecord
100
AcDbViewportTableRecord
  2
*Active
 70
     0
 10
0.0
 20
0.0
 11
1.0
 21
1.0
 12
109.0
 22
103.4999999999999
 13
0.0
 23
0.0
 14
1.0
 24
1.0
 15
0.0
 25
0.0
 16
0.0
 26
0.0
 36
1.0
 17
0.0
 27
0.0
 37
0.0
 40
208.627030690537
 41
2.078104993597951
 42
50.0
 43
0.0
 44
0.0
 50
0.0
 51
0.0
 71
     0
 72
   100
 73
     1
 74
     3
 75
     0
 76
     0
 77
     0
 78
     0
281
     0
 65
     1
110
0.0
120
0.0
130
0.0
111
1.0
121
0.0
131
0.0
112
0.0
122
1.0
132
0.0
 79
     1
146
0.0
  0
ENDTAB
  0
TABLE
  2
LTYPE
  5
5
330
0
100
AcDbSymbolTable
 70
     1
  0
LTYPE
  5
13
330
5
100
AcDbSymbolTableRecord
100
AcDbLinetypeTableRecord
  2
ByBlock
 70
     0
  3

 72
    65
 73
     0
 40
0.0
  0
LTYPE
  5
14
330
5
100
AcDbSymbolTableRecord
100
AcDbLinetypeTableRecord
  2
ByLayer
 70
     0
  3

 72
    65
 73
     0
 40
0.0
  0
LTYPE
  5
15
330
5
100
AcDbSymbolTableRecord
100
AcDbLinetypeTableRecord
  2
Continuous
 70
     0
  3
Solid line
 72
    65
 73
     0
 40
0.0
  0
ENDTAB
  0
TABLE
  2
LAYER
  5
2
330
0
100
AcDbSymbolTable
 70
     1
  0
LAYER
  5
10
330
2
100
AcDbSymbolTableRecord
100
AcDbLayerTableRecord
  2
0
 70
     0
 62
     7
  6
Continuous
370
    -3
390
F
  0
ENDTAB
  0
TABLE
  2
STYLE
  5
3
330
0
100
AcDbSymbolTable
 70
     1
  0
STYLE
  5
11
330
3
100
AcDbSymbolTableRecord
100
AcDbTextStyleTableRecord
  2
Standard
 70
     0
 40
0.0
 41
1.0
 50
0.0
 71
     0
 42
0.2
  3
txt
  4

  0
ENDTAB
  0
TABLE
  2
VIEW
  5
6
330
0
100
AcDbSymbolTable
 70
     0
  0
ENDTAB
  0
TABLE
  2
UCS
  5
7
330
0
100
AcDbSymbolTable
 70
     0
  0
ENDTAB
  0
TABLE
  2
APPID
  5
9
330
0
100
AcDbSymbolTable
 70
     1
  0
APPID
  5
12
330
9
100
AcDbSymbolTableRecord
100
AcDbRegAppTableRecord
  2
ACAD
 70
     0
  0
ENDTAB
  0
TABLE
  2
DIMSTYLE
  5
A
330
0
100
AcDbSymbolTable
 70
     1
100
AcDbDimStyleTable
 71
     0
  0
DIMSTYLE
105
268
330
A
100
AcDbSymbolTableRecord
100
AcDbDimStyleTableRecord
  2
Standard
 70
     0
340
11
  0
ENDTAB
  0
TABLE
  2
BLOCK_RECORD
  5
1
330
0
100
AcDbSymbolTable
 70
     0
  0
BLOCK_RECORD
  5
1E
330
1
100
AcDbSymbolTableRecord
100
AcDbBlockTableRecord
  2
*Model_Space
340
21
  0
BLOCK_RECORD
  5
1A
330
1
100
AcDbSymbolTableRecord
100
AcDbBlockTableRecord
  2
*Paper_Space
340
1D
  0
ENDTAB
  0
ENDSEC
  0
SECTION
  2
BLOCKS
  0
BLOCK
  5
1F
330
1E
100
AcDbEntity
  8
0
100
AcDbBlockBegin
  2
*Model_Space
 70
     0
 10
0.0
 20
0.0
 30
0.0
  3
*Model_Space
  1

  0
ENDBLK
  5
20
330
1E
100
AcDbEntity
  8
0
100
AcDbBlockEnd
  0
BLOCK
  5
1B
330
1A
100
AcDbEntity
 67
     1
  8
0
100
AcDbBlockBegin
  2
*Paper_Space
 70
     0
 10
0.0
 20
0.0
 30
0.0
  3
*Paper_Space
  1

  0
ENDBLK
  5
1C
330
1A
100
AcDbEntity
 67
     1
  8
0
100
AcDbBlockEnd
  0
ENDSEC
  0
SECTION
  2
ENTITIES
  0
LINE
  5
22
330
1E
100
AcDbEntity
  8
0
100
AcDbLine
 10
5.30399999999999
 20
104.5632499999999
 30
0.0
 11
10.60799999999999
 21
97.62725000000001
 31
0.0
  0
LINE
  5
23
330
1E
100
AcDbEntity
  8
0
100
AcDbLine
 10
4.488
 20
104.1552499999999
 30
0.0
 11
9.92799999999999
 21
96.94725
 31
0.0
  0
LINE
  5
24
330
1E
100
AcDbEntity
  8
0
100
AcDbLine
 10
10.60799999999999
 20
97.62725000000001
 30
0.0
 11
17.544
 21
92.32325000000001
 31
0.0
  0
LINE
  5
25
330
1E
100
AcDbEntity
  8
0
100
AcDbLine
 10
9.92799999999999
 20
96.94725
 30
0.0
 11
17.136
 21
91.50724999999999
 31
0.0
  0
LINE
  5
26
330
1E
100
AcDbEntity
  8
0
100
AcDbLine
 10
1.223999999999989
 20
112.3152499999999
 30
0.0
 11
4.488
 21
104.1552499999999
 31
0.0
  0
LINE
  5
27
330
1E
100
AcDbEntity
  8
0
100
AcDbLine
 10
2.039999999999989
 20
112.45125
 30
0.0
 11
5.30399999999999
 21
104.5632499999999
 31
0.0
  0
LINE
  5
28
330
1E
100
AcDbEntity
  8
0
100
AcDbLine
 10
1.223999999999989
 20
112.3152499999999
 30
0.0
 11
4.488
 21
104.1552499999999
 31
0.0
  0
LINE
  5
29
330
1E
100
AcDbEntity
  8
0
100
AcDbLine
 10
12.056
 20
108.43525
 30
0.0
 11
16.112
 21
103.1312499999999
 31
0.0
  0
LINE
  5
2A
330
1E
100
AcDbEntity
  8
0
100
AcDbLine
 10
17.544
 20
92.32325000000001
 30
0.0
 11
25.432
 21
89.05925000000001
 31
0.0
  0
LINE
  5
2B
330
1E
100
AcDbEntity
  8
0
100
AcDbLine
 10
17.136
 20
91.50724999999999
 30
0.0
 11
25.296
 21
88.24324999999999
 31
0.0
  0
LINE
  5
2C
330
1E
100
AcDbEntity
  8
0
100
AcDbLine
 10
16.112
 20
103.1312499999999
 30
0.0
 11
21.41599999999999
 21
99.07524999999999
 31
0.0
  0
LINE
  5
2D
330
1E
100
AcDbEntity
  8
0
100
AcDbLine
 10
0.8159999999999939
 20
121.01925
 30
0.0
 11
2.039999999999989
 21
129.58725
 31
0.0
  0
LINE
  5
2E
330
1E
100
AcDbEntity
  8
0
100
AcDbLine
 10
0.8159999999999939
 20
121.01925
 30
0.0
 11
2.039999999999989
 21
112.45125
 31
0.0
  0
LINE
  5
2F
330
1E
100
AcDbEntity
  8
0
100
AcDbLine
 10
-0.0000000000000061
 20
121.01925
 30
0.0
 11
1.223999999999989
 21
129.72325
 31
0.0
  0
LINE
  5
30
330
1E
100
AcDbEntity
  8
0
100
AcDbLine
 10
-0.0000000000000061
 20
121.01925
 30
0.0
 11
1.223999999999989
 21
112.3152499999999
 31
0.0
  0
LINE
  5
31
330
1E
100
AcDbEntity
  8
0
100
AcDbLine
 10
1.223999999999989
 20
129.72325
 30
0.0
 11
4.488
 21
137.88325
 31
0.0
  0
LINE
  5
32
330
1E
100
AcDbEntity
  8
0
100
AcDbLine
 10
2.039999999999989
 20
129.58725
 30
0.0
 11
5.30399999999999
 21
137.4752499999999
 31
0.0
  0
LINE
  5
33
330
1E
100
AcDbEntity
  8
0
100
AcDbLine
 10
5.30399999999999
 20
137.4752499999999
 30
0.0
 11
10.60799999999999
 21
144.4112499999999
 31
0.0
  0
LINE
  5
34
330
1E
100
AcDbEntity
  8
0
100
AcDbLine
 10
1.223999999999989
 20
129.72325
 30
0.0
 11
4.488
 21
137.88325
 31
0.0
  0
LINE
  5
35
330
1E
100
AcDbEntity
  8
0
100
AcDbLine
 10
4.488
 20
137.88325
 30
0.0
 11
9.92799999999999
 21
145.09125
 31
0.0
  0
LINE
  5
36
330
1E
100
AcDbEntity
  8
0
100
AcDbLine
 10
9.56
 20
127.57125
 30
0.0
 11
12.056
 21
133.6032499999999
 31
0.0
  0
LINE
  5
37
330
1E
100
AcDbEntity
  8
0
100
AcDbLine
 10
12.056
 20
133.6032499999999
 30
0.0
 11
16.112
 21
138.90725
 31
0.0
  0
LINE
  5
38
330
1E
100
AcDbEntity
  8
0
100
AcDbLine
 10
8.935999999999991
 20
127.67525
 30
0.0
 11
11.43199999999999
 21
133.9152499999999
 31
0.0
  0
LINE
  5
39
330
1E
100
AcDbEntity
  8
0
100
AcDbLine
 10
11.43199999999999
 20
133.9152499999999
 30
0.0
 11
15.592
 21
139.4272499999999
 31
0.0
  0
LINE
  5
3A
330
1E
100
AcDbEntity
  8
0
100
AcDbLine
 10
16.112
 20
138.90725
 30
0.0
 11
21.41599999999999
 21
142.9632499999999
 31
0.0
  0
LINE
  5
3B
330
1E
100
AcDbEntity
  8
0
100
AcDbLine
 10
15.592
 20
139.4272499999999
 30
0.0
 11
21.10399999999999
 21
143.58725
 31
0.0
  0
LINE
  5
3C
330
1E
100
AcDbEntity
  8
0
100
AcDbLine
 10
10.60799999999999
 20
144.4112499999999
 30
0.0
 11
17.544
 21
149.71525
 31
0.0
  0
LINE
  5
3D
330
1E
100
AcDbEntity
  8
0
100
AcDbLine
 10
17.544
 20
149.71525
 30
0.0
 11
25.432
 21
152.97925
 31
0.0
  0
LINE
  5
3E
330
1E
100
AcDbEntity
  8
0
100
AcDbLine
 10
17.136
 20
150.53125
 30
0.0
 11
25.296
 21
153.79525
 31
0.0
  0
LINE
  5
3F
330
1E
100
AcDbEntity
  8
0
100
AcDbLine
 10
9.92799999999999
 20
145.09125
 30
0.0
 11
17.136
 21
150.53125
 31
0.0
  0
LINE
  5
40
330
1E
100
AcDbEntity
  8
0
100
AcDbLine
 10
21.10399999999999
 20
143.58725
 30
0.0
 11
27.344
 21
146.0832499999999
 31
0.0
  0
LINE
  5
41
330
1E
100
AcDbEntity
  8
0
100
AcDbLine
 10
8.623999999999989
 20
121.01925
 30
0.0
 11
9.56
 21
114.46725
 31
0.0
  0
LINE
  5
42
330
1E
100
AcDbEntity
  8
0
100
AcDbLine
 10
8.623999999999989
 20
121.01925
 30
0.0
 11
9.56
 21
127.57125
 31
0.0
  0
LINE
  5
43
330
1E
100
AcDbEntity
  8
0
100
AcDbLine
 10
9.56
 20
114.46725
 30
0.0
 11
12.056
 21
108.43525
 31
0.0
  0
LINE
  5
44
330
1E
100
AcDbEntity
  8
0
100
AcDbLine
 10
7.99999999999999
 20
121.01925
 30
0.0
 11
8.935999999999991
 21
114.36325
 31
0.0
  0
LINE
  5
45
330
1E
100
AcDbEntity
  8
0
100
AcDbLine
 10
7.99999999999999
 20
121.01925
 30
0.0
 11
8.935999999999991
 21
127.67525
 31
0.0
  0
LINE
  5
46
330
1E
100
AcDbEntity
  8
0
100
AcDbLine
 10
34.0
 20
95.01924999999999
 30
0.0
 11
98.0
 21
95.01924999999999
 31
0.0
  0
LINE
  5
47
330
1E
100
AcDbEntity
  8
0
100
AcDbLine
 10
34.0
 20
95.64325
 30
0.0
 11
109.0
 21
95.64325
 31
0.0
  0
LINE
  5
48
330
1E
100
AcDbEntity
  8
0
100
AcDbLine
 10
34.0
 20
95.64325
 30
0.0
 11
109.0
 21
95.64325
 31
0.0
  0
LINE
  5
49
330
1E
100
AcDbEntity
  8
0
100
AcDbLine
 10
25.432
 20
89.05925000000001
 30
0.0
 11
34.0
 21
87.83525
 31
0.0
  0
LINE
  5
4A
330
1E
100
AcDbEntity
  8
0
100
AcDbLine
 10
25.296
 20
88.24324999999999
 30
0.0
 11
34.0
 21
87.01925000000001
 31
0.0
  0
LINE
  5
4B
330
1E
100
AcDbEntity
  8
0
100
AcDbLine
 10
34.0
 20
87.83525
 30
0.0
 11
42.56800000000001
 21
89.05925000000001
 31
0.0
  0
LINE
  5
4C
330
1E
100
AcDbEntity
  8
0
100
AcDbLine
 10
34.0
 20
87.01925000000001
 30
0.0
 11
42.70399999999999
 21
88.24324999999999
 31
0.0
  0
LINE
  5
4D
330
1E
100
AcDbEntity
  8
0
100
AcDbLine
 10
42.56800000000001
 20
89.05925000000001
 30
0.0
 11
50.456
 21
92.32325000000001
 31
0.0
  0
LINE
  5
4E
330
1E
100
AcDbEntity
  8
0
100
AcDbLine
 10
101.5
 20
-0.0192500000000002
 30
0.0
 11
101.8629999999999
 21
0.006949999999999
 31
0.0
  0
LINE
  5
4F
330
1E
100
AcDbEntity
  8
0
100
AcDbLine
 10
101.5
 20
59.98075
 30
0.0
 11
101.5
 21
-0.0192499999999992
 31
0.0
  0
LINE
  5
50
330
1E
100
AcDbEntity
  8
0
100
AcDbLine
 10
101.5
 20
59.98075
 30
0.0
 11
101.8
 21
59.98075
 31
0.0
  0
LINE
  5
51
330
1E
100
AcDbEntity
  8
0
100
AcDbLine
 10
101.5
 20
-0.0192500000000002
 30
0.0
 11
101.8629999999999
 21
0.0069499999999993
 31
0.0
  0
LINE
  5
52
330
1E
100
AcDbEntity
  8
0
100
AcDbLine
 10
101.5
 20
-0.0192500000000002
 30
0.0
 11
101.5
 21
59.98075
 31
0.0
  0
LINE
  5
53
330
1E
100
AcDbEntity
  8
0
100
AcDbLine
 10
101.8629999999999
 20
0.006949999999999
 30
0.0
 11
102.5379999999999
 21
0.08195
 31
0.0
  0
LINE
  5
54
330
1E
100
AcDbEntity
  8
0
100
AcDbLine
 10
102.5379999999999
 20
0.08195
 30
0.0
 11
103.776
 21
0.456749999999999
 31
0.0
  0
LINE
  5
55
330
1E
100
AcDbEntity
  8
0
100
AcDbLine
 10
103.776
 20
0.456749999999999
 30
0.0
 11
105.2769999999999
 21
1.13145
 31
0.0
  0
LINE
  5
56
330
1E
100
AcDbEntity
  8
0
100
AcDbLine
 10
105.2769999999999
 20
1.13145
 30
0.0
 11
107.077
 21
2.255949999999999
 31
0.0
  0
LINE
  5
57
330
1E
100
AcDbEntity
  8
0
100
AcDbLine
 10
105.2999999999999
 20
59.98075
 30
0.0
 11
107.0999999999999
 21
59.98075
 31
0.0
  0
LINE
  5
58
330
1E
100
AcDbEntity
  8
0
100
AcDbLine
 10
105.2769999999999
 20
1.13145
 30
0.0
 11
107.077
 21
2.255949999999999
 31
0.0
  0
LINE
  5
59
330
1E
100
AcDbEntity
  8
0
100
AcDbLine
 10
103.776
 20
0.456749999999999
 30
0.0
 11
105.2769999999999
 21
1.13145
 31
0.0
  0
LINE
  5
5A
330
1E
100
AcDbEntity
  8
0
100
AcDbLine
 10
103.7
 20
59.98075
 30
0.0
 11
105.2999999999999
 21
59.98075
 31
0.0
  0
LINE
  5
5B
330
1E
100
AcDbEntity
  8
0
100
AcDbLine
 10
102.4999999999999
 20
59.98075
 30
0.0
 11
103.7
 21
59.98075
 31
0.0
  0
LINE
  5
5C
330
1E
100
AcDbEntity
  8
0
100
AcDbLine
 10
102.5379999999999
 20
0.0819500000000004
 30
0.0
 11
103.776
 21
0.456749999999999
 31
0.0
  0
LINE
  5
5D
330
1E
100
AcDbEntity
  8
0
100
AcDbLine
 10
101.8
 20
59.98075
 30
0.0
 11
102.4999999999999
 21
59.98075
 31
0.0
  0
LINE
  5
5E
330
1E
100
AcDbEntity
  8
0
100
AcDbLine
 10
101.8629999999999
 20
0.0069499999999993
 30
0.0
 11
102.5379999999999
 21
0.0819500000000004
 31
0.0
  0
LINE
  5
5F
330
1E
100
AcDbEntity
  8
0
100
AcDbLine
 10
107.077
 20
2.255949999999999
 30
0.0
 11
109.0279999999999
 21
4.242449999999999
 31
0.0
  0
LINE
  5
60
330
1E
100
AcDbEntity
  8
0
100
AcDbLine
 10
110.7909999999999
 20
5.591849999999999
 30
0.0
 11
112.629
 21
6.791249999999999
 31
0.0
  0
LINE
  5
61
330
1E
100
AcDbEntity
  8
0
100
AcDbLine
 10
109.0279999999999
 20
4.242449999999999
 30
0.0
 11
110.7909999999999
 21
5.591849999999999
 31
0.0
  0
LINE
  5
62
330
1E
100
AcDbEntity
  8
0
100
AcDbLine
 10
110.7909999999999
 20
5.591849999999999
 30
0.0
 11
112.629
 21
6.791249999999999
 31
0.0
  0
LINE
  5
63
330
1E
100
AcDbEntity
  8
0
100
AcDbLine
 10
112.629
 20
6.791249999999999
 30
0.0
 11
114.43
 21
7.99075
 31
0.0
  0
LINE
  5
64
330
1E
100
AcDbEntity
  8
0
100
AcDbLine
 10
114.43
 20
7.99075
 30
0.0
 11
115.5179999999999
 21
9.04025
 31
0.0
  0
LINE
  5
65
330
1E
100
AcDbEntity
  8
0
100
AcDbLine
 10
115.5179999999999
 20
9.04025
 30
0.0
 11
116.231
 21
9.752449999999999
 31
0.0
  0
LINE
  5
66
330
1E
100
AcDbEntity
  8
0
100
AcDbLine
 10
109.0
 20
59.98075
 30
0.0
 11
110.8999999999999
 21
59.98075
 31
0.0
  0
LINE
  5
67
330
1E
100
AcDbEntity
  8
0
100
AcDbLine
 10
109.0
 20
59.98075
 30
0.0
 11
111.6999999999999
 21
59.98075
 31
0.0
  0
LINE
  5
68
330
1E
100
AcDbEntity
  8
0
100
AcDbLine
 10
111.6999999999999
 20
59.98075
 30
0.0
 11
114.2
 21
59.98075
 31
0.0
  0
LINE
  5
69
330
1E
100
AcDbEntity
  8
0
100
AcDbLine
 10
114.2
 20
59.98075
 30
0.0
 11
116.4
 21
59.98075
 31
0.0
  0
LINE
  5
6A
330
1E
100
AcDbEntity
  8
0
100
AcDbLine
 10
110.8999999999999
 20
59.98075
 30
0.0
 11
112.7
 21
59.98075
 31
0.0
  0
LINE
  5
6B
330
1E
100
AcDbEntity
  8
0
100
AcDbLine
 10
112.7
 20
59.98075
 30
0.0
 11
114.3
 21
59.98075
 31
0.0
  0
LINE
  5
6C
330
1E
100
AcDbEntity
  8
0
100
AcDbLine
 10
114.3
 20
59.98075
 30
0.0
 11
115.5
 21
59.98075
 31
0.0
  0
LINE
  5
6D
330
1E
100
AcDbEntity
  8
0
100
AcDbLine
 10
115.5
 20
59.98075
 30
0.0
 11
116.2
 21
59.98075
 31
0.0
  0
LINE
  5
6E
330
1E
100
AcDbEntity
  8
0
100
AcDbLine
 10
116.5
 20
59.98075
 30
0.0
 11
118.1
 21
59.98075
 31
0.0
  0
LINE
  5
6F
330
1E
100
AcDbEntity
  8
0
100
AcDbLine
 10
116.5
 20
59.98075
 30
0.0
 11
116.5
 21
9.98075
 31
0.0
  0
LINE
  5
70
330
1E
100
AcDbEntity
  8
0
100
AcDbLine
 10
116.4
 20
59.98075
 30
0.0
 11
118.1
 21
59.98075
 31
0.0
  0
LINE
  5
71
330
1E
100
AcDbEntity
  8
0
100
AcDbLine
 10
118.1
 20
59.98075
 30
0.0
 11
119.1
 21
59.98075
 31
0.0
  0
LINE
  5
72
330
1E
100
AcDbEntity
  8
0
100
AcDbLine
 10
119.5
 20
59.98075
 30
0.0
 11
120.5
 21
89.98025
 31
0.0
  0
LINE
  5
73
330
1E
100
AcDbEntity
  8
0
100
AcDbLine
 10
119.1
 20
59.98075
 30
0.0
 11
119.5
 21
59.98075
 31
0.0
  0
LINE
  5
74
330
1E
100
AcDbEntity
  8
0
100
AcDbLine
 10
116.5
 20
9.98075
 30
0.0
 11
116.5
 21
59.98075
 31
0.0
  0
LINE
  5
75
330
1E
100
AcDbEntity
  8
0
100
AcDbLine
 10
116.2
 20
59.98075
 30
0.0
 11
116.5
 21
59.98075
 31
0.0
  0
LINE
  5
76
330
1E
100
AcDbEntity
  8
0
100
AcDbLine
 10
116.231
 20
9.752449999999999
 30
0.0
 11
116.5
 21
9.98075
 31
0.0
  0
LINE
  5
77
330
1E
100
AcDbEntity
  8
0
100
AcDbLine
 10
107.0999999999999
 20
59.98075
 30
0.0
 11
109.0
 21
59.98075
 31
0.0
  0
LINE
  5
78
330
1E
100
AcDbEntity
  8
0
100
AcDbLine
 10
107.077
 20
2.255949999999999
 30
0.0
 11
109.0279999999999
 21
4.242449999999999
 31
0.0
  0
LINE
  5
79
330
1E
100
AcDbEntity
  8
0
100
AcDbLine
 10
106.2999999999999
 20
59.98075
 30
0.0
 11
109.0
 21
59.98075
 31
0.0
  0
LINE
  5
7A
330
1E
100
AcDbEntity
  8
0
100
AcDbLine
 10
103.8
 20
59.98075
 30
0.0
 11
106.2999999999999
 21
59.98075
 31
0.0
  0
LINE
  5
7B
330
1E
100
AcDbEntity
  8
0
100
AcDbLine
 10
101.6
 20
59.98075
 30
0.0
 11
103.8
 21
59.98075
 31
0.0
  0
LINE
  5
7C
330
1E
100
AcDbEntity
  8
0
100
AcDbLine
 10
99.90000000000001
 20
59.98075
 30
0.0
 11
101.6
 21
59.98075
 31
0.0
  0
LINE
  5
7D
330
1E
100
AcDbEntity
  8
0
100
AcDbLine
 10
99.90000000000001
 20
59.98075
 30
0.0
 11
101.5
 21
59.98075
 31
0.0
  0
LINE
  5
7E
330
1E
100
AcDbEntity
  8
0
100
AcDbLine
 10
98.9
 20
59.98075
 30
0.0
 11
99.90000000000001
 21
59.98075
 31
0.0
  0
LINE
  5
7F
330
1E
100
AcDbEntity
  8
0
100
AcDbLine
 10
98.50000000000001
 20
59.98075
 30
0.0
 11
98.9
 21
59.98075
 31
0.0
  0
LINE
  5
81
330
1E
100
AcDbEntity
  8
0
100
AcDbLine
 10
184.0
 20
87.83525
 30
0.0
 11
192.5679999999999
 21
89.05925000000001
 31
0.0
  0
LINE
  5
83
330
1E
100
AcDbEntity
  8
0
100
AcDbLine
 10
109.0
 20
89.98025
 30
0.0
 11
112.0
 21
89.98025
 31
0.0
  0
LINE
  5
84
330
1E
100
AcDbEntity
  8
0
100
AcDbLine
 10
112.0
 20
89.98025
 30
0.0
 11
114.7
 21
89.98025
 31
0.0
  0
LINE
  5
85
330
1E
100
AcDbEntity
  8
0
100
AcDbLine
 10
114.7
 20
89.98025
 30
0.0
 11
117.1
 21
89.98025
 31
0.0
  0
LINE
  5
86
330
1E
100
AcDbEntity
  8
0
100
AcDbLine
 10
117.1
 20
89.98025
 30
0.0
 11
119.0
 21
89.98025
 31
0.0
  0
LINE
  5
87
330
1E
100
AcDbEntity
  8
0
100
AcDbLine
 10
119.0
 20
89.98025
 30
0.0
 11
120.1
 21
89.98025
 31
0.0
  0
LINE
  5
88
330
1E
100
AcDbEntity
  8
0
100
AcDbLine
 10
106.0
 20
89.98025
 30
0.0
 11
109.0
 21
89.98025
 31
0.0
  0
LINE
  5
89
330
1E
100
AcDbEntity
  8
0
100
AcDbLine
 10
103.2999999999999
 20
89.98025
 30
0.0
 11
106.0
 21
89.98025
 31
0.0
  0
LINE
  5
8A
330
1E
100
AcDbEntity
  8
0
100
AcDbLine
 10
100.9
 20
89.98025
 30
0.0
 11
103.2999999999999
 21
89.98025
 31
0.0
  0
LINE
  5
8B
330
1E
100
AcDbEntity
  8
0
100
AcDbLine
 10
99.0
 20
89.98025
 30
0.0
 11
100.9
 21
89.98025
 31
0.0
  0
LINE
  5
8C
330
1E
100
AcDbEntity
  8
0
100
AcDbLine
 10
97.9
 20
89.98025
 30
0.0
 11
99.0
 21
89.98025
 31
0.0
  0
LINE
  5
8D
330
1E
100
AcDbEntity
  8
0
100
AcDbLine
 10
97.5
 20
89.98025
 30
0.0
 11
98.50000000000001
 21
59.98075
 31
0.0
  0
LINE
  5
8E
330
1E
100
AcDbEntity
  8
0
100
AcDbLine
 10
97.5
 20
89.98025
 30
0.0
 11
97.9
 21
89.98025
 31
0.0
  0
LINE
  5
8F
330
1E
100
AcDbEntity
  8
0
100
AcDbLine
 10
106.1839999999999
 20
90.34024999999999
 30
0.0
 11
109.0
 21
90.34024999999999
 31
0.0
  0
LINE
  5
90
330
1E
100
AcDbEntity
  8
0
100
AcDbLine
 10
103.5439999999999
 20
90.34024999999999
 30
0.0
 11
106.1839999999999
 21
90.34024999999999
 31
0.0
  0
LINE
  5
91
330
1E
100
AcDbEntity
  8
0
100
AcDbLine
 10
101.212
 20
90.34024999999999
 30
0.0
 11
103.5439999999999
 21
90.34024999999999
 31
0.0
  0
LINE
  5
92
330
1E
100
AcDbEntity
  8
0
100
AcDbLine
 10
99.45200000000001
 20
90.34024999999999
 30
0.0
 11
101.212
 21
90.34024999999999
 31
0.0
  0
LINE
  5
93
330
1E
100
AcDbEntity
  8
0
100
AcDbLine
 10
98.396
 20
90.34024999999999
 30
0.0
 11
99.45200000000001
 21
90.34024999999999
 31
0.0
  0
LINE
  5
94
330
1E
100
AcDbEntity
  8
0
100
AcDbLine
 10
109.0
 20
90.34024999999999
 30
0.0
 11
111.816
 21
90.34024999999999
 31
0.0
  0
LINE
  5
95
330
1E
100
AcDbEntity
  8
0
100
AcDbLine
 10
111.816
 20
90.34024999999999
 30
0.0
 11
114.456
 21
90.34024999999999
 31
0.0
  0
LINE
  5
96
330
1E
100
AcDbEntity
  8
0
100
AcDbLine
 10
114.456
 20
90.34024999999999
 30
0.0
 11
116.788
 21
90.34024999999999
 31
0.0
  0
LINE
  5
97
330
1E
100
AcDbEntity
  8
0
100
AcDbLine
 10
116.788
 20
90.34024999999999
 30
0.0
 11
118.5479999999999
 21
90.34024999999999
 31
0.0
  0
LINE
  5
98
330
1E
100
AcDbEntity
  8
0
100
AcDbLine
 10
118.5479999999999
 20
90.34024999999999
 30
0.0
 11
119.6039999999999
 21
90.34024999999999
 31
0.0
  0
LINE
  5
99
330
1E
100
AcDbEntity
  8
0
100
AcDbLine
 10
119.6039999999999
 20
90.34024999999999
 30
0.0
 11
120.0
 21
90.34024999999999
 31
0.0
  0
LINE
  5
9A
330
1E
100
AcDbEntity
  8
0
100
AcDbLine
 10
119.7359999999999
 20
89.98025
 30
0.0
 11
120.0
 21
90.34024999999999
 31
0.0
  0
LINE
  5
9B
330
1E
100
AcDbEntity
  8
0
100
AcDbLine
 10
120.1
 20
89.98025
 30
0.0
 11
120.5
 21
89.98025
 31
0.0
  0
LINE
  5
9C
330
1E
100
AcDbEntity
  8
0
100
AcDbLine
 10
120.0
 20
90.34024999999999
 30
0.0
 11
120.0
 21
95.01924999999999
 31
0.0
  0
LINE
  5
9D
330
1E
100
AcDbEntity
  8
0
100
AcDbLine
 10
98.0
 20
90.34024999999999
 30
0.0
 11
98.26399999999999
 21
89.98025
 31
0.0
  0
LINE
  5
9E
330
1E
100
AcDbEntity
  8
0
100
AcDbLine
 10
98.0
 20
90.34024999999999
 30
0.0
 11
98.0
 21
95.01924999999999
 31
0.0
  0
LINE
  5
9F
330
1E
100
AcDbEntity
  8
0
100
AcDbLine
 10
98.0
 20
90.34024999999999
 30
0.0
 11
98.396
 21
90.34024999999999
 31
0.0
  0
LINE
  5
A0
330
1E
100
AcDbEntity
  8
0
100
AcDbLine
 10
175.432
 20
89.05925000000001
 30
0.0
 11
184.0
 21
87.83525
 31
0.0
  0
LINE
  5
A2
330
1E
100
AcDbEntity
  8
0
100
AcDbLine
 10
175.2959999999999
 20
88.24324999999999
 30
0.0
 11
184.0
 21
87.01925000000001
 31
0.0
  0
LINE
  5
A5
330
1E
100
AcDbEntity
  8
0
100
AcDbLine
 10
192.5679999999999
 20
89.05925000000001
 30
0.0
 11
200.456
 21
92.32325000000001
 31
0.0
  0
LINE
  5
A6
330
1E
100
AcDbEntity
  8
0
100
AcDbLine
 10
200.864
 20
91.50724999999999
 30
0.0
 11
208.0719999999999
 21
96.94725
 31
0.0
  0
LINE
  5
A7
330
1E
100
AcDbEntity
  8
0
100
AcDbLine
 10
192.704
 20
88.24324999999999
 30
0.0
 11
200.864
 21
91.50724999999999
 31
0.0
  0
LINE
  5
A8
330
1E
100
AcDbEntity
  8
0
100
AcDbLine
 10
184.0
 20
87.01925000000001
 30
0.0
 11
192.704
 21
88.24324999999999
 31
0.0
  0
LINE
  5
AA
330
1E
100
AcDbEntity
  8
0
100
AcDbLine
 10
167.1359999999999
 20
91.50724999999999
 30
0.0
 11
175.2959999999999
 21
88.24324999999999
 31
0.0
  0
LINE
  5
AC
330
1E
100
AcDbEntity
  8
0
100
AcDbLine
 10
42.70399999999999
 20
88.24324999999999
 30
0.0
 11
50.864
 21
91.50724999999999
 31
0.0
  0
LINE
  5
AD
330
1E
100
AcDbEntity
  8
0
100
AcDbLine
 10
120.0
 20
95.01924999999999
 30
0.0
 11
120.0
 21
90.34024999999999
 31
0.0
  0
LINE
  5
AE
330
1E
100
AcDbEntity
  8
0
100
AcDbLine
 10
120.0
 20
95.01924999999999
 30
0.0
 11
184.0
 21
95.01924999999999
 31
0.0
  0
LINE
  5
AF
330
1E
100
AcDbEntity
  8
0
100
AcDbLine
 10
98.0
 20
95.01924999999999
 30
0.0
 11
98.0
 21
90.34024999999999
 31
0.0
  0
LINE
  5
B0
330
1E
100
AcDbEntity
  8
0
100
AcDbLine
 10
164.018461538462
 20
95.01924999999999
 30
0.0
 11
167.544
 21
92.32325000000001
 31
0.0
  0
LINE
  5
B2
330
1E
100
AcDbEntity
  8
0
100
AcDbLine
 10
200.456
 20
92.32325000000001
 30
0.0
 11
207.392
 21
97.62725000000001
 31
0.0
  0
LINE
  5
B4
330
1E
100
AcDbEntity
  8
0
100
AcDbLine
 10
184.0
 20
95.01924999999999
 30
0.0
 11
190.6559999999999
 21
95.95525
 31
0.0
  0
LINE
  5
B5
330
1E
100
AcDbEntity
  8
0
100
AcDbLine
 10
167.544
 20
92.32325000000001
 30
0.0
 11
175.432
 21
89.05925000000001
 31
0.0
  0
LINE
  5
B7
330
1E
100
AcDbEntity
  8
0
100
AcDbLine
 10
109.0
 20
95.64325
 30
0.0
 11
184.0
 21
95.64325
 31
0.0
  0
LINE
  5
B8
330
1E
100
AcDbEntity
  8
0
100
AcDbLine
 10
184.0
 20
95.64325
 30
0.0
 11
190.552
 21
96.57925
 31
0.0
  0
LINE
  5
B9
330
1E
100
AcDbEntity
  8
0
100
AcDbLine
 10
190.6559999999999
 20
95.95525
 30
0.0
 11
196.8959999999999
 21
98.45125000000001
 31
0.0
  0
LINE
  5
BA
330
1E
100
AcDbEntity
  8
0
100
AcDbLine
 10
162.4825999999999
 20
95.01924999999999
 30
0.0
 11
167.1359999999999
 21
91.50724999999999
 31
0.0
  0
LINE
  5
BB
330
1E
100
AcDbEntity
  8
0
100
AcDbLine
 10
50.456
 20
92.32325000000001
 30
0.0
 11
53.98153846153849
 21
95.01924999999999
 31
0.0
  0
LINE
  5
BC
330
1E
100
AcDbEntity
  8
0
100
AcDbLine
 10
50.864
 20
91.50724999999999
 30
0.0
 11
55.5174
 21
95.01924999999999
 31
0.0
  0
LINE
  5
BD
330
1E
100
AcDbEntity
  8
0
100
AcDbLine
 10
34.0
 20
95.01924999999999
 30
0.0
 11
98.0
 21
95.01924999999999
 31
0.0
  0
LINE
  5
BE
330
1E
100
AcDbEntity
  8
0
100
AcDbLine
 10
25.432
 20
152.97925
 30
0.0
 11
34.0
 21
154.2032499999999
 31
0.0
  0
LINE
  5
BF
330
1E
100
AcDbEntity
  8
0
100
AcDbLine
 10
25.296
 20
153.79525
 30
0.0
 11
34.0
 21
155.01925
 31
0.0
  0
LINE
  5
C0
330
1E
100
AcDbEntity
  8
0
100
AcDbLine
 10
21.41599999999999
 20
142.9632499999999
 30
0.0
 11
27.448
 21
145.4592499999999
 31
0.0
  0
LINE
  5
C1
330
1E
100
AcDbEntity
  8
0
100
AcDbLine
 10
27.448
 20
145.4592499999999
 30
0.0
 11
34.0
 21
146.3952499999999
 31
0.0
  0
LINE
  5
C2
330
1E
100
AcDbEntity
  8
0
100
AcDbLine
 10
27.344
 20
146.0832499999999
 30
0.0
 11
34.0
 21
147.01925
 31
0.0
  0
LINE
  5
C3
330
1E
100
AcDbEntity
  8
0
100
AcDbLine
 10
21.41599999999999
 20
99.07524999999999
 30
0.0
 11
27.448
 21
96.57925
 31
0.0
  0
LINE
  5
C4
330
1E
100
AcDbEntity
  8
0
100
AcDbLine
 10
34.0
 20
147.01925
 30
0.0
 11
76.0
 21
147.01925
 31
0.0
  0
LINE
  5
C5
330
1E
100
AcDbEntity
  8
0
100
AcDbLine
 10
34.0
 20
146.3952499999999
 30
0.0
 11
76.0
 21
146.0192499999999
 31
0.0
  0
LINE
  5
C6
330
1E
100
AcDbEntity
  8
0
100
AcDbLine
 10
42.56800000000001
 20
152.97925
 30
0.0
 11
50.456
 21
149.71525
 31
0.0
  0
LINE
  5
C7
330
1E
100
AcDbEntity
  8
0
100
AcDbLine
 10
34.0
 20
154.2032499999999
 30
0.0
 11
42.56800000000001
 21
152.97925
 31
0.0
  0
LINE
  5
CA
330
1E
100
AcDbEntity
  8
0
100
AcDbLine
 10
76.0
 20
146.0192499999999
 30
0.0
 11
80.1411
 21
146.0192499999999
 31
0.0
  0
LINE
  5
CB
330
1E
100
AcDbEntity
  8
0
100
AcDbLine
 10
84.0
 20
146.0192499999999
 30
0.0
 11
87.3137
 21
146.0192499999999
 31
0.0
  0
LINE
  5
CC
330
1E
100
AcDbEntity
  8
0
100
AcDbLine
 10
80.1411
 20
146.0192499999999
 30
0.0
 11
84.0
 21
146.0192499999999
 31
0.0
  0
LINE
  5
CD
330
1E
100
AcDbEntity
  8
0
100
AcDbLine
 10
87.3137
 20
146.0192499999999
 30
0.0
 11
89.8564
 21
146.0192499999999
 31
0.0
  0
LINE
  5
CE
330
1E
100
AcDbEntity
  8
0
100
AcDbLine
 10
91.4548
 20
146.0192499999999
 30
0.0
 11
92.0
 21
146.0192499999999
 31
0.0
  0
LINE
  5
CF
330
1E
100
AcDbEntity
  8
0
100
AcDbLine
 10
89.8564
 20
146.0192499999999
 30
0.0
 11
91.4548
 21
146.0192499999999
 31
0.0
  0
LINE
  5
D0
330
1E
100
AcDbEntity
  8
0
100
AcDbLine
 10
92.0
 20
144.51925
 30
0.0
 11
92.0
 21
146.0192499999999
 31
0.0
  0
LINE
  5
D2
330
1E
100
AcDbEntity
  8
0
100
AcDbLine
 10
92.0
 20
146.0192499999999
 30
0.0
 11
93.0
 21
147.01925
 31
0.0
  0
LINE
  5
D3
330
1E
100
AcDbEntity
  8
0
100
AcDbLine
 10
92.0
 20
146.0192499999999
 30
0.0
 11
92.0
 21
144.51925
 31
0.0
  0
LINE
  5
D4
330
1E
100
AcDbEntity
  8
0
100
AcDbLine
 10
92.0
 20
146.0192499999999
 30
0.0
 11
92.57929999999999
 21
146.0192499999999
 31
0.0
  0
LINE
  5
D5
330
1E
100
AcDbEntity
  8
0
100
AcDbLine
 10
56.0
 20
147.01925
 30
0.0
 11
56.0
 21
149.01925
 31
0.0
  0
LINE
  5
D6
330
1E
100
AcDbEntity
  8
0
100
AcDbLine
 10
74.0
 20
147.01925
 30
0.0
 11
74.0
 21
149.01925
 31
0.0
  0
LINE
  5
D7
330
1E
100
AcDbEntity
  8
0
100
AcDbLine
 10
76.0
 20
147.01925
 30
0.0
 11
80.39990000000001
 21
147.01925
 31
0.0
  0
LINE
  5
D8
330
1E
100
AcDbEntity
  8
0
100
AcDbLine
 10
84.50000000000001
 20
147.01925
 30
0.0
 11
88.0208
 21
147.01925
 31
0.0
  0
LINE
  5
D9
330
1E
100
AcDbEntity
  8
0
100
AcDbLine
 10
80.39990000000001
 20
147.01925
 30
0.0
 11
84.50000000000001
 21
147.01925
 31
0.0
  0
LINE
  5
DA
330
1E
100
AcDbEntity
  8
0
100
AcDbLine
 10
88.0208
 20
147.01925
 30
0.0
 11
90.72239999999998
 21
147.01925
 31
0.0
  0
LINE
  5
DB
330
1E
100
AcDbEntity
  8
0
100
AcDbLine
 10
92.57929999999999
 20
146.0192499999999
 30
0.0
 11
94.27760000000001
 21
146.0192499999999
 31
0.0
  0
LINE
  5
DC
330
1E
100
AcDbEntity
  8
0
100
AcDbLine
 10
97.0
 20
126.01925
 30
0.0
 11
97.0
 21
121.0152499999999
 31
0.0
  0
LINE
  5
DD
330
1E
100
AcDbEntity
  8
0
100
AcDbLine
 10
98.87200000000001
 20
119.63725
 30
0.0
 11
100.744
 21
119.2122499999999
 31
0.0
  0
LINE
  5
DE
330
1E
100
AcDbEntity
  8
0
100
AcDbLine
 10
97.72
 20
120.12125
 30
0.0
 11
98.87200000000001
 21
119.63725
 31
0.0
  0
LINE
  5
DF
330
1E
100
AcDbEntity
  8
0
100
AcDbLine
 10
97.72
 20
121.1712499999999
 30
0.0
 11
98.87200000000001
 21
121.65425
 31
0.0
  0
LINE
  5
E0
330
1E
100
AcDbEntity
  8
0
100
AcDbLine
 10
97.28799999999999
 20
120.6462499999999
 30
0.0
 11
97.72
 21
121.1712499999999
 31
0.0
  0
LINE
  5
E1
330
1E
100
AcDbEntity
  8
0
100
AcDbLine
 10
97.28799999999999
 20
120.6462499999999
 30
0.0
 11
97.72
 21
120.12125
 31
0.0
  0
LINE
  5
E2
330
1E
100
AcDbEntity
  8
0
100
AcDbLine
 10
98.87200000000001
 20
121.65425
 30
0.0
 11
100.744
 21
122.0792499999999
 31
0.0
  0
LINE
  5
E3
330
1E
100
AcDbEntity
  8
0
100
AcDbLine
 10
98.58400000000001
 20
122.0482499999999
 30
0.0
 11
100.5039999999999
 21
122.49025
 31
0.0
  0
LINE
  5
E4
330
1E
100
AcDbEntity
  8
0
100
AcDbLine
 10
97.43200000000001
 20
121.54825
 30
0.0
 11
98.58400000000001
 21
122.0482499999999
 31
0.0
  0
LINE
  5
E5
330
1E
100
AcDbEntity
  8
0
100
AcDbLine
 10
97.0
 20
121.0152499999999
 30
0.0
 11
97.0
 21
126.01925
 31
0.0
  0
LINE
  5
E6
330
1E
100
AcDbEntity
  8
0
100
AcDbLine
 10
97.0
 20
121.0152499999999
 30
0.0
 11
97.43200000000001
 21
121.54825
 31
0.0
  0
LINE
  5
E7
330
1E
100
AcDbEntity
  8
0
100
AcDbLine
 10
97.0
 20
121.0152499999999
 30
0.0
 11
97.28799999999999
 21
120.6462499999999
 31
0.0
  0
LINE
  5
E8
330
1E
100
AcDbEntity
  8
0
100
AcDbLine
 10
96.97920000000001
 20
146.0192499999999
 30
0.0
 11
100.5
 21
146.0192499999999
 31
0.0
  0
LINE
  5
E9
330
1E
100
AcDbEntity
  8
0
100
AcDbLine
 10
100.744
 20
119.2122499999999
 30
0.0
 11
103.192
 21
118.8872499999999
 31
0.0
  0
LINE
  5
EA
330
1E
100
AcDbEntity
  8
0
100
AcDbLine
 10
105.976
 20
118.6872499999999
 30
0.0
 11
109.0
 21
118.6122499999999
 31
0.0
  0
LINE
  5
EB
330
1E
100
AcDbEntity
  8
0
100
AcDbLine
 10
103.192
 20
118.8872499999999
 30
0.0
 11
105.976
 21
118.6872499999999
 31
0.0
  0
LINE
  5
EC
330
1E
100
AcDbEntity
  8
0
100
AcDbLine
 10
109.0
 20
118.6122499999999
 30
0.0
 11
112.024
 21
118.6872499999999
 31
0.0
  0
LINE
  5
ED
330
1E
100
AcDbEntity
  8
0
100
AcDbLine
 10
112.024
 20
118.6872499999999
 30
0.0
 11
114.8079999999999
 21
118.8872499999999
 31
0.0
  0
LINE
  5
EE
330
1E
100
AcDbEntity
  8
0
100
AcDbLine
 10
114.8079999999999
 20
118.8872499999999
 30
0.0
 11
117.256
 21
119.2122499999999
 31
0.0
  0
LINE
  5
EF
330
1E
100
AcDbEntity
  8
0
100
AcDbLine
 10
117.256
 20
119.2122499999999
 30
0.0
 11
119.1279999999999
 21
119.63725
 31
0.0
  0
LINE
  5
F0
330
1E
100
AcDbEntity
  8
0
100
AcDbLine
 10
114.8079999999999
 20
122.40425
 30
0.0
 11
117.256
 21
122.0792499999999
 31
0.0
  0
LINE
  5
F1
330
1E
100
AcDbEntity
  8
0
100
AcDbLine
 10
117.256
 20
122.0792499999999
 30
0.0
 11
119.1279999999999
 21
121.65425
 31
0.0
  0
LINE
  5
F2
330
1E
100
AcDbEntity
  8
0
100
AcDbLine
 10
109.0
 20
122.6792499999999
 30
0.0
 11
112.024
 21
122.6042499999999
 31
0.0
  0
LINE
  5
F3
330
1E
100
AcDbEntity
  8
0
100
AcDbLine
 10
112.024
 20
122.6042499999999
 30
0.0
 11
114.8079999999999
 21
122.40425
 31
0.0
  0
LINE
  5
F4
330
1E
100
AcDbEntity
  8
0
100
AcDbLine
 10
114.952
 20
122.82425
 30
0.0
 11
117.496
 21
122.49025
 31
0.0
  0
LINE
  5
F5
330
1E
100
AcDbEntity
  8
0
100
AcDbLine
 10
117.496
 20
122.49025
 30
0.0
 11
119.4159999999999
 21
122.0482499999999
 31
0.0
  0
LINE
  5
F6
330
1E
100
AcDbEntity
  8
0
100
AcDbLine
 10
105.976
 20
122.6042499999999
 30
0.0
 11
109.0
 21
122.6792499999999
 31
0.0
  0
LINE
  5
F7
330
1E
100
AcDbEntity
  8
0
100
AcDbLine
 10
103.192
 20
122.40425
 30
0.0
 11
105.976
 21
122.6042499999999
 31
0.0
  0
LINE
  5
F8
330
1E
100
AcDbEntity
  8
0
100
AcDbLine
 10
100.744
 20
122.0792499999999
 30
0.0
 11
103.192
 21
122.40425
 31
0.0
  0
LINE
  5
F9
330
1E
100
AcDbEntity
  8
0
100
AcDbLine
 10
109.0
 20
123.0992499999999
 30
0.0
 11
112.072
 21
123.0242499999999
 31
0.0
  0
LINE
  5
FA
330
1E
100
AcDbEntity
  8
0
100
AcDbLine
 10
112.072
 20
123.0242499999999
 30
0.0
 11
114.952
 21
122.82425
 31
0.0
  0
LINE
  5
FB
330
1E
100
AcDbEntity
  8
0
100
AcDbLine
 10
105.9279999999999
 20
123.0242499999999
 30
0.0
 11
109.0
 21
123.0992499999999
 31
0.0
  0
LINE
  5
FC
330
1E
100
AcDbEntity
  8
0
100
AcDbLine
 10
103.0479999999999
 20
122.82425
 30
0.0
 11
105.9279999999999
 21
123.0242499999999
 31
0.0
  0
LINE
  5
FD
330
1E
100
AcDbEntity
  8
0
100
AcDbLine
 10
100.5039999999999
 20
122.49025
 30
0.0
 11
103.0479999999999
 21
122.82425
 31
0.0
  0
LINE
  5
FE
330
1E
100
AcDbEntity
  8
0
100
AcDbLine
 10
109.0
 20
146.0192499999999
 30
0.0
 11
113.4
 21
146.0192499999999
 31
0.0
  0
LINE
  5
FF
330
1E
100
AcDbEntity
  8
0
100
AcDbLine
 10
119.1279999999999
 20
119.63725
 30
0.0
 11
120.28
 21
120.12125
 31
0.0
  0
LINE
  5
100
330
1E
100
AcDbEntity
  8
0
100
AcDbLine
 10
120.28
 20
120.12125
 30
0.0
 11
120.7119999999999
 21
120.6462499999999
 31
0.0
  0
LINE
  5
101
330
1E
100
AcDbEntity
  8
0
100
AcDbLine
 10
121.0
 20
121.0152499999999
 30
0.0
 11
121.0
 21
126.01925
 31
0.0
  0
LINE
  5
102
330
1E
100
AcDbEntity
  8
0
100
AcDbLine
 10
120.7119999999999
 20
120.6462499999999
 30
0.0
 11
121.0
 21
121.0152499999999
 31
0.0
  0
LINE
  5
103
330
1E
100
AcDbEntity
  8
0
100
AcDbLine
 10
120.28
 20
121.1712499999999
 30
0.0
 11
120.7119999999999
 21
120.6462499999999
 31
0.0
  0
LINE
  5
104
330
1E
100
AcDbEntity
  8
0
100
AcDbLine
 10
119.1279999999999
 20
121.65425
 30
0.0
 11
120.28
 21
121.1712499999999
 31
0.0
  0
LINE
  5
105
330
1E
100
AcDbEntity
  8
0
100
AcDbLine
 10
119.4159999999999
 20
122.0482499999999
 30
0.0
 11
120.568
 21
121.54825
 31
0.0
  0
LINE
  5
106
330
1E
100
AcDbEntity
  8
0
100
AcDbLine
 10
121.0
 20
126.01925
 30
0.0
 11
121.0
 21
121.0152499999999
 31
0.0
  0
LINE
  5
107
330
1E
100
AcDbEntity
  8
0
100
AcDbLine
 10
120.568
 20
121.54825
 30
0.0
 11
121.0
 21
121.0152499999999
 31
0.0
  0
LINE
  5
108
330
1E
100
AcDbEntity
  8
0
100
AcDbLine
 10
117.5
 20
146.0192499999999
 30
0.0
 11
121.021
 21
146.0192499999999
 31
0.0
  0
LINE
  5
109
330
1E
100
AcDbEntity
  8
0
100
AcDbLine
 10
113.4
 20
146.0192499999999
 30
0.0
 11
117.5
 21
146.0192499999999
 31
0.0
  0
LINE
  5
10A
330
1E
100
AcDbEntity
  8
0
100
AcDbLine
 10
121.021
 20
146.0192499999999
 30
0.0
 11
123.722
 21
146.0192499999999
 31
0.0
  0
LINE
  5
10B
330
1E
100
AcDbEntity
  8
0
100
AcDbLine
 10
123.722
 20
146.0192499999999
 30
0.0
 11
125.421
 21
146.0192499999999
 31
0.0
  0
LINE
  5
10C
330
1E
100
AcDbEntity
  8
0
100
AcDbLine
 10
125.421
 20
146.0192499999999
 30
0.0
 11
126.0
 21
146.0192499999999
 31
0.0
  0
LINE
  5
10F
330
1E
100
AcDbEntity
  8
0
100
AcDbLine
 10
104.6
 20
146.0192499999999
 30
0.0
 11
109.0
 21
146.0192499999999
 31
0.0
  0
LINE
  5
110
330
1E
100
AcDbEntity
  8
0
100
AcDbLine
 10
100.5
 20
146.0192499999999
 30
0.0
 11
104.6
 21
146.0192499999999
 31
0.0
  0
LINE
  5
111
330
1E
100
AcDbEntity
  8
0
100
AcDbLine
 10
94.27760000000001
 20
146.0192499999999
 30
0.0
 11
96.97920000000001
 21
146.0192499999999
 31
0.0
  0
LINE
  5
112
330
1E
100
AcDbEntity
  8
0
100
AcDbLine
 10
84.0
 20
147.01925
 30
0.0
 11
84.0
 21
155.81925
 31
0.0
  0
LINE
  5
113
330
1E
100
AcDbEntity
  8
0
100
AcDbLine
 10
126.5449999999999
 20
146.0192499999999
 30
0.0
 11
128.144
 21
146.0192499999999
 31
0.0
  0
LINE
  5
114
330
1E
100
AcDbEntity
  8
0
100
AcDbLine
 10
128.144
 20
146.0192499999999
 30
0.0
 11
130.686
 21
146.0192499999999
 31
0.0
  0
LINE
  5
115
330
1E
100
AcDbEntity
  8
0
100
AcDbLine
 10
126.0
 20
144.51925
 30
0.0
 11
126.0
 21
146.0192499999999
 31
0.0
  0
LINE
  5
116
330
1E
100
AcDbEntity
  8
0
100
AcDbLine
 10
126.0
 20
146.0192499999999
 30
0.0
 11
126.0
 21
144.51925
 31
0.0
  0
LINE
  5
117
330
1E
100
AcDbEntity
  8
0
100
AcDbLine
 10
126.0
 20
146.0192499999999
 30
0.0
 11
126.5449999999999
 21
146.0192499999999
 31
0.0
  0
LINE
  5
118
330
1E
100
AcDbEntity
  8
0
100
AcDbLine
 10
137.859
 20
146.0192499999999
 30
0.0
 11
142.0
 21
146.0192499999999
 31
0.0
  0
LINE
  5
119
330
1E
100
AcDbEntity
  8
0
100
AcDbLine
 10
134.0
 20
146.0192499999999
 30
0.0
 11
137.859
 21
146.0192499999999
 31
0.0
  0
LINE
  5
11A
330
1E
100
AcDbEntity
  8
0
100
AcDbLine
 10
130.686
 20
146.0192499999999
 30
0.0
 11
134.0
 21
146.0192499999999
 31
0.0
  0
LINE
  5
11B
330
1E
100
AcDbEntity
  8
0
100
AcDbLine
 10
137.5999999999999
 20
147.01925
 30
0.0
 11
142.0
 21
147.01925
 31
0.0
  0
LINE
  5
11C
330
1E
100
AcDbEntity
  8
0
100
AcDbLine
 10
133.4999999999999
 20
147.01925
 30
0.0
 11
137.5999999999999
 21
147.01925
 31
0.0
  0
LINE
  5
11D
330
1E
100
AcDbEntity
  8
0
100
AcDbLine
 10
129.9789999999999
 20
147.01925
 30
0.0
 11
133.4999999999999
 21
147.01925
 31
0.0
  0
LINE
  5
11E
330
1E
100
AcDbEntity
  8
0
100
AcDbLine
 10
142.0
 20
147.01925
 30
0.0
 11
184.0
 21
147.01925
 31
0.0
  0
LINE
  5
11F
330
1E
100
AcDbEntity
  8
0
100
AcDbLine
 10
142.0
 20
146.0192499999999
 30
0.0
 11
184.0
 21
146.3952499999999
 31
0.0
  0
LINE
  5
121
330
1E
100
AcDbEntity
  8
0
100
AcDbLine
 10
134.0
 20
147.01925
 30
0.0
 11
134.0
 21
155.81925
 31
0.0
  0
LINE
  5
122
330
1E
100
AcDbEntity
  8
0
100
AcDbLine
 10
190.552
 20
96.57925
 30
0.0
 11
196.584
 21
99.07524999999999
 31
0.0
  0
LINE
  5
123
330
1E
100
AcDbEntity
  8
0
100
AcDbLine
 10
196.584
 20
99.07524999999999
 30
0.0
 11
201.888
 21
103.1312499999999
 31
0.0
  0
LINE
  5
126
330
1E
100
AcDbEntity
  8
0
100
AcDbLine
 10
201.888
 20
138.90725
 30
0.0
 11
205.944
 21
133.6032499999999
 31
0.0
  0
LINE
  5
127
330
1E
100
AcDbEntity
  8
0
100
AcDbLine
 10
196.584
 20
142.9632499999999
 30
0.0
 11
201.888
 21
138.90725
 31
0.0
  0
LINE
  5
128
330
1E
100
AcDbEntity
  8
0
100
AcDbLine
 10
201.888
 20
103.1312499999999
 30
0.0
 11
205.944
 21
108.43525
 31
0.0
  0
LINE
  5
129
330
1E
100
AcDbEntity
  8
0
100
AcDbLine
 10
205.944
 20
133.6032499999999
 30
0.0
 11
208.44
 21
127.57125
 31
0.0
  0
LINE
  5
12A
330
1E
100
AcDbEntity
  8
0
100
AcDbLine
 10
202.408
 20
139.4272499999999
 30
0.0
 11
206.5679999999999
 21
133.9152499999999
 31
0.0
  0
LINE
  5
12B
330
1E
100
AcDbEntity
  8
0
100
AcDbLine
 10
201.888
 20
103.1312499999999
 30
0.0
 11
205.944
 21
108.43525
 31
0.0
  0
LINE
  5
12C
330
1E
100
AcDbEntity
  8
0
100
AcDbLine
 10
202.408
 20
102.6112499999999
 30
0.0
 11
206.5679999999999
 21
108.12325
 31
0.0
  0
LINE
  5
12E
330
1E
100
AcDbEntity
  8
0
100
AcDbLine
 10
205.944
 20
108.43525
 30
0.0
 11
208.44
 21
114.46725
 31
0.0
  0
LINE
  5
130
330
1E
100
AcDbEntity
  8
0
100
AcDbLine
 10
206.5679999999999
 20
108.12325
 30
0.0
 11
209.064
 21
114.36325
 31
0.0
  0
LINE
  5
132
330
1E
100
AcDbEntity
  8
0
100
AcDbLine
 10
208.44
 20
127.57125
 30
0.0
 11
209.3759999999999
 21
121.01925
 31
0.0
  0
LINE
  5
133
330
1E
100
AcDbEntity
  8
0
100
AcDbLine
 10
209.064
 20
127.67525
 30
0.0
 11
210.0
 21
121.01925
 31
0.0
  0
LINE
  5
134
330
1E
100
AcDbEntity
  8
0
100
AcDbLine
 10
208.44
 20
114.46725
 30
0.0
 11
209.3759999999999
 21
121.01925
 31
0.0
  0
LINE
  5
137
330
1E
100
AcDbEntity
  8
0
100
AcDbLine
 10
207.392
 20
97.62725000000001
 30
0.0
 11
212.6959999999999
 21
104.5632499999999
 31
0.0
  0
LINE
  5
138
330
1E
100
AcDbEntity
  8
0
100
AcDbLine
 10
208.0719999999999
 20
96.94725
 30
0.0
 11
213.512
 21
104.1552499999999
 31
0.0
  0
LINE
  5
13A
330
1E
100
AcDbEntity
  8
0
100
AcDbLine
 10
212.6959999999999
 20
104.5632499999999
 30
0.0
 11
215.96
 21
112.45125
 31
0.0
  0
LINE
  5
13C
330
1E
100
AcDbEntity
  8
0
100
AcDbLine
 10
206.5679999999999
 20
133.9152499999999
 30
0.0
 11
209.064
 21
127.67525
 31
0.0
  0
LINE
  5
13F
330
1E
100
AcDbEntity
  8
0
100
AcDbLine
 10
196.8959999999999
 20
143.58725
 30
0.0
 11
202.408
 21
139.4272499999999
 31
0.0
  0
LINE
  5
141
330
1E
100
AcDbEntity
  8
0
100
AcDbLine
 10
213.512
 20
104.1552499999999
 30
0.0
 11
216.7759999999999
 21
112.3152499999999
 31
0.0
  0
LINE
  5
143
330
1E
100
AcDbEntity
  8
0
100
AcDbLine
 10
212.6959999999999
 20
137.4752499999999
 30
0.0
 11
215.96
 21
129.58725
 31
0.0
  0
LINE
  5
145
330
1E
100
AcDbEntity
  8
0
100
AcDbLine
 10
207.392
 20
144.4112499999999
 30
0.0
 11
212.6959999999999
 21
137.4752499999999
 31
0.0
  0
LINE
  5
147
330
1E
100
AcDbEntity
  8
0
100
AcDbLine
 10
215.96
 20
112.45125
 30
0.0
 11
217.184
 21
121.01925
 31
0.0
  0
LINE
  5
148
330
1E
100
AcDbEntity
  8
0
100
AcDbLine
 10
216.7759999999999
 20
112.3152499999999
 30
0.0
 11
218.0
 21
121.01925
 31
0.0
  0
LINE
  5
14B
330
1E
100
AcDbEntity
  8
0
100
AcDbLine
 10
215.96
 20
129.58725
 30
0.0
 11
217.184
 21
121.01925
 31
0.0
  0
LINE
  5
14C
330
1E
100
AcDbEntity
  8
0
100
AcDbLine
 10
216.7759999999999
 20
129.72325
 30
0.0
 11
218.0
 21
121.01925
 31
0.0
  0
LINE
  5
14D
330
1E
100
AcDbEntity
  8
0
100
AcDbLine
 10
213.512
 20
137.88325
 30
0.0
 11
216.7759999999999
 21
129.72325
 31
0.0
  0
LINE
  5
14E
330
1E
100
AcDbEntity
  8
0
100
AcDbLine
 10
190.552
 20
145.4592499999999
 30
0.0
 11
196.584
 21
142.9632499999999
 31
0.0
  0
LINE
  5
14F
330
1E
100
AcDbEntity
  8
0
100
AcDbLine
 10
184.0
 20
146.3952499999999
 30
0.0
 11
190.552
 21
145.4592499999999
 31
0.0
  0
LINE
  5
152
330
1E
100
AcDbEntity
  8
0
100
AcDbLine
 10
208.0719999999999
 20
145.09125
 30
0.0
 11
213.512
 21
137.88325
 31
0.0
  0
LINE
  5
153
330
1E
100
AcDbEntity
  8
0
100
AcDbLine
 10
164.018461538462
 20
147.01925
 30
0.0
 11
167.544
 21
149.71525
 31
0.0
  0
LINE
  5
154
330
1E
100
AcDbEntity
  8
0
100
AcDbLine
 10
92.4207
 20
147.01925
 30
0.0
 11
93.0
 21
147.01925
 31
0.0
  0
LINE
  5
155
330
1E
100
AcDbEntity
  8
0
100
AcDbLine
 10
90.72239999999998
 20
147.01925
 30
0.0
 11
92.4207
 21
147.01925
 31
0.0
  0
LINE
  5
156
330
1E
100
AcDbEntity
  8
0
100
AcDbLine
 10
93.0
 20
147.01925
 30
0.0
 11
93.54519999999999
 21
147.01925
 31
0.0
  0
LINE
  5
157
330
1E
100
AcDbEntity
  8
0
100
AcDbLine
 10
93.54519999999999
 20
147.01925
 30
0.0
 11
95.14360000000001
 21
147.01925
 31
0.0
  0
LINE
  5
158
330
1E
100
AcDbEntity
  8
0
100
AcDbLine
 10
97.68630000000001
 20
147.01925
 30
0.0
 11
101.0
 21
147.01925
 31
0.0
  0
LINE
  5
159
330
1E
100
AcDbEntity
  8
0
100
AcDbLine
 10
125.5789999999999
 20
147.01925
 30
0.0
 11
127.278
 21
147.01925
 31
0.0
  0
LINE
  5
15A
330
1E
100
AcDbEntity
  8
0
100
AcDbLine
 10
127.278
 20
147.01925
 30
0.0
 11
129.9789999999999
 21
147.01925
 31
0.0
  0
LINE
  5
15B
330
1E
100
AcDbEntity
  8
0
100
AcDbLine
 10
125.0
 20
147.01925
 30
0.0
 11
126.0
 21
146.0192499999999
 31
0.0
  0
LINE
  5
15C
330
1E
100
AcDbEntity
  8
0
100
AcDbLine
 10
125.0
 20
147.01925
 30
0.0
 11
125.5789999999999
 21
147.01925
 31
0.0
  0
LINE
  5
15D
330
1E
100
AcDbEntity
  8
0
100
AcDbLine
 10
124.455
 20
147.01925
 30
0.0
 11
125.0
 21
147.01925
 31
0.0
  0
LINE
  5
15E
330
1E
100
AcDbEntity
  8
0
100
AcDbLine
 10
120.3139999999999
 20
147.01925
 30
0.0
 11
122.856
 21
147.01925
 31
0.0
  0
LINE
  5
15F
330
1E
100
AcDbEntity
  8
0
100
AcDbLine
 10
117.0
 20
147.01925
 30
0.0
 11
120.3139999999999
 21
147.01925
 31
0.0
  0
LINE
  5
160
330
1E
100
AcDbEntity
  8
0
100
AcDbLine
 10
113.141
 20
147.01925
 30
0.0
 11
117.0
 21
147.01925
 31
0.0
  0
LINE
  5
161
330
1E
100
AcDbEntity
  8
0
100
AcDbLine
 10
109.0
 20
147.01925
 30
0.0
 11
113.141
 21
147.01925
 31
0.0
  0
LINE
  5
162
330
1E
100
AcDbEntity
  8
0
100
AcDbLine
 10
104.8589999999999
 20
147.01925
 30
0.0
 11
109.0
 21
147.01925
 31
0.0
  0
LINE
  5
163
330
1E
100
AcDbEntity
  8
0
100
AcDbLine
 10
101.0
 20
147.01925
 30
0.0
 11
104.8589999999999
 21
147.01925
 31
0.0
  0
LINE
  5
164
330
1E
100
AcDbEntity
  8
0
100
AcDbLine
 10
95.14360000000001
 20
147.01925
 30
0.0
 11
97.68630000000001
 21
147.01925
 31
0.0
  0
LINE
  5
165
330
1E
100
AcDbEntity
  8
0
100
AcDbLine
 10
56.0
 20
149.01925
 30
0.0
 11
56.0
 21
147.01925
 31
0.0
  0
LINE
  5
166
330
1E
100
AcDbEntity
  8
0
100
AcDbLine
 10
65.0
 20
149.01925
 30
0.0
 11
68.072
 21
149.01925
 31
0.0
  0
LINE
  5
167
330
1E
100
AcDbEntity
  8
0
100
AcDbLine
 10
68.072
 20
149.01925
 30
0.0
 11
70.952
 21
149.01925
 31
0.0
  0
LINE
  5
168
330
1E
100
AcDbEntity
  8
0
100
AcDbLine
 10
74.0
 20
149.01925
 30
0.0
 11
75.41599999999999
 21
149.01925
 31
0.0
  0
LINE
  5
169
330
1E
100
AcDbEntity
  8
0
100
AcDbLine
 10
74.0
 20
149.01925
 30
0.0
 11
74.0
 21
147.01925
 31
0.0
  0
LINE
  5
16A
330
1E
100
AcDbEntity
  8
0
100
AcDbLine
 10
70.952
 20
149.01925
 30
0.0
 11
73.49600000000001
 21
149.01925
 31
0.0
  0
LINE
  5
16B
330
1E
100
AcDbEntity
  8
0
100
AcDbLine
 10
73.49600000000001
 20
149.01925
 30
0.0
 11
75.41599999999999
 21
149.01925
 31
0.0
  0
LINE
  5
16C
330
1E
100
AcDbEntity
  8
0
100
AcDbLine
 10
75.41599999999999
 20
149.01925
 30
0.0
 11
76.568
 21
149.01925
 31
0.0
  0
LINE
  5
16D
330
1E
100
AcDbEntity
  8
0
100
AcDbLine
 10
76.568
 20
149.01925
 30
0.0
 11
77.0
 21
149.01925
 31
0.0
  0
LINE
  5
16E
330
1E
100
AcDbEntity
  8
0
100
AcDbLine
 10
77.0
 20
149.01925
 30
0.0
 11
77.0
 21
160.53925
 31
0.0
  0
LINE
  5
16F
330
1E
100
AcDbEntity
  8
0
100
AcDbLine
 10
61.928
 20
149.01925
 30
0.0
 11
65.0
 21
149.01925
 31
0.0
  0
LINE
  5
170
330
1E
100
AcDbEntity
  8
0
100
AcDbLine
 10
59.048
 20
149.01925
 30
0.0
 11
61.928
 21
149.01925
 31
0.0
  0
LINE
  5
171
330
1E
100
AcDbEntity
  8
0
100
AcDbLine
 10
56.504
 20
149.01925
 30
0.0
 11
59.048
 21
149.01925
 31
0.0
  0
LINE
  5
172
330
1E
100
AcDbEntity
  8
0
100
AcDbLine
 10
54.584
 20
149.01925
 30
0.0
 11
56.504
 21
149.01925
 31
0.0
  0
LINE
  5
173
330
1E
100
AcDbEntity
  8
0
100
AcDbLine
 10
54.584
 20
149.01925
 30
0.0
 11
56.0
 21
149.01925
 31
0.0
  0
LINE
  5
174
330
1E
100
AcDbEntity
  8
0
100
AcDbLine
 10
53.43199999999999
 20
149.01925
 30
0.0
 11
54.584
 21
149.01925
 31
0.0
  0
LINE
  5
175
330
1E
100
AcDbEntity
  8
0
100
AcDbLine
 10
53.0
 20
149.01925
 30
0.0
 11
53.43199999999999
 21
149.01925
 31
0.0
  0
LINE
  5
176
330
1E
100
AcDbEntity
  8
0
100
AcDbLine
 10
53.0
 20
149.01925
 30
0.0
 11
53.0
 21
160.53925
 31
0.0
  0
LINE
  5
177
330
1E
100
AcDbEntity
  8
0
100
AcDbLine
 10
122.856
 20
147.01925
 30
0.0
 11
124.455
 21
147.01925
 31
0.0
  0
LINE
  5
179
330
1E
100
AcDbEntity
  8
0
100
AcDbLine
 10
200.456
 20
149.71525
 30
0.0
 11
207.392
 21
144.4112499999999
 31
0.0
  0
LINE
  5
17A
330
1E
100
AcDbEntity
  8
0
100
AcDbLine
 10
200.864
 20
150.53125
 30
0.0
 11
208.0719999999999
 21
145.09125
 31
0.0
  0
LINE
  5
17B
330
1E
100
AcDbEntity
  8
0
100
AcDbLine
 10
167.544
 20
149.71525
 30
0.0
 11
175.432
 21
152.97925
 31
0.0
  0
LINE
  5
17D
330
1E
100
AcDbEntity
  8
0
100
AcDbLine
 10
167.1359999999999
 20
150.53125
 30
0.0
 11
175.2959999999999
 21
153.79525
 31
0.0
  0
LINE
  5
17F
330
1E
100
AcDbEntity
  8
0
100
AcDbLine
 10
162.4825999999999
 20
147.01925
 30
0.0
 11
167.1359999999999
 21
150.53125
 31
0.0
  0
LINE
  5
180
330
1E
100
AcDbEntity
  8
0
100
AcDbLine
 10
50.456
 20
149.71525
 30
0.0
 11
53.98153846153849
 21
147.01925
 31
0.0
  0
LINE
  5
182
330
1E
100
AcDbEntity
  8
0
100
AcDbLine
 10
192.5679999999999
 20
152.97925
 30
0.0
 11
200.456
 21
149.71525
 31
0.0
  0
LINE
  5
183
330
1E
100
AcDbEntity
  8
0
100
AcDbLine
 10
192.704
 20
153.79525
 30
0.0
 11
200.864
 21
150.53125
 31
0.0
  0
LINE
  5
186
330
1E
100
AcDbEntity
  8
0
100
AcDbLine
 10
184.0
 20
154.2032499999999
 30
0.0
 11
192.5679999999999
 21
152.97925
 31
0.0
  0
LINE
  5
187
330
1E
100
AcDbEntity
  8
0
100
AcDbLine
 10
175.432
 20
152.97925
 30
0.0
 11
184.0
 21
154.2032499999999
 31
0.0
  0
LINE
  5
18B
330
1E
100
AcDbEntity
  8
0
100
AcDbLine
 10
184.0
 20
155.01925
 30
0.0
 11
192.704
 21
153.79525
 31
0.0
  0
LINE
  5
18C
330
1E
100
AcDbEntity
  8
0
100
AcDbLine
 10
175.2959999999999
 20
153.79525
 30
0.0
 11
184.0
 21
155.01925
 31
0.0
  0
LINE
  5
18E
330
1E
100
AcDbEntity
  8
0
100
AcDbLine
 10
50.864
 20
150.53125
 30
0.0
 11
55.5174
 21
147.01925
 31
0.0
  0
LINE
  5
18F
330
1E
100
AcDbEntity
  8
0
100
AcDbLine
 10
42.70399999999999
 20
153.79525
 30
0.0
 11
50.864
 21
150.53125
 31
0.0
  0
LINE
  5
190
330
1E
100
AcDbEntity
  8
0
100
AcDbLine
 10
85.0
 20
157.01925
 30
0.0
 11
85.0
 21
167.0192499999999
 31
0.0
  0
LINE
  5
191
330
1E
100
AcDbEntity
  8
0
100
AcDbLine
 10
84.59999999999999
 20
157.01925
 30
0.0
 11
85.5
 21
157.01925
 31
0.0
  0
LINE
  5
192
330
1E
100
AcDbEntity
  8
0
100
AcDbLine
 10
85.5
 20
157.01925
 30
0.0
 11
87.9
 21
157.01925
 31
0.0
  0
LINE
  5
193
330
1E
100
AcDbEntity
  8
0
100
AcDbLine
 10
87.9
 20
157.01925
 30
0.0
 11
91.79999999999999
 21
157.01925
 31
0.0
  0
LINE
  5
194
330
1E
100
AcDbEntity
  8
0
100
AcDbLine
 10
91.79999999999999
 20
157.01925
 30
0.0
 11
96.90000000000001
 21
157.01925
 31
0.0
  0
LINE
  5
195
330
1E
100
AcDbEntity
  8
0
100
AcDbLine
 10
77.0
 20
160.53925
 30
0.0
 11
77.0
 21
149.01925
 31
0.0
  0
LINE
  5
196
330
1E
100
AcDbEntity
  8
0
100
AcDbLine
 10
65.0
 20
161.01925
 30
0.0
 11
68.024
 21
161.01925
 31
0.0
  0
LINE
  5
197
330
1E
100
AcDbEntity
  8
0
100
AcDbLine
 10
68.024
 20
161.01925
 30
0.0
 11
70.808
 21
161.01925
 31
0.0
  0
LINE
  5
198
330
1E
100
AcDbEntity
  8
0
100
AcDbLine
 10
70.808
 20
161.01925
 30
0.0
 11
73.256
 21
161.01925
 31
0.0
  0
LINE
  5
199
330
1E
100
AcDbEntity
  8
0
100
AcDbLine
 10
73.256
 20
161.01925
 30
0.0
 11
75.128
 21
161.01925
 31
0.0
  0
LINE
  5
19A
330
1E
100
AcDbEntity
  8
0
100
AcDbLine
 10
75.128
 20
161.01925
 30
0.0
 11
76.28
 21
161.01925
 31
0.0
  0
LINE
  5
19B
330
1E
100
AcDbEntity
  8
0
100
AcDbLine
 10
76.28
 20
161.01925
 30
0.0
 11
76.712
 21
161.01925
 31
0.0
  0
LINE
  5
19C
330
1E
100
AcDbEntity
  8
0
100
AcDbLine
 10
76.712
 20
161.01925
 30
0.0
 11
77.0
 21
160.53925
 31
0.0
  0
LINE
  5
19D
330
1E
100
AcDbEntity
  8
0
100
AcDbLine
 10
61.97600000000001
 20
161.01925
 30
0.0
 11
65.0
 21
161.01925
 31
0.0
  0
LINE
  5
19E
330
1E
100
AcDbEntity
  8
0
100
AcDbLine
 10
59.192
 20
161.01925
 30
0.0
 11
61.97600000000001
 21
161.01925
 31
0.0
  0
LINE
  5
19F
330
1E
100
AcDbEntity
  8
0
100
AcDbLine
 10
56.744
 20
161.01925
 30
0.0
 11
59.192
 21
161.01925
 31
0.0
  0
LINE
  5
1A0
330
1E
100
AcDbEntity
  8
0
100
AcDbLine
 10
54.872
 20
161.01925
 30
0.0
 11
56.744
 21
161.01925
 31
0.0
  0
LINE
  5
1A1
330
1E
100
AcDbEntity
  8
0
100
AcDbLine
 10
53.71999999999999
 20
161.01925
 30
0.0
 11
54.872
 21
161.01925
 31
0.0
  0
LINE
  5
1A2
330
1E
100
AcDbEntity
  8
0
100
AcDbLine
 10
53.28800000000001
 20
161.01925
 30
0.0
 11
53.71999999999999
 21
161.01925
 31
0.0
  0
LINE
  5
1A3
330
1E
100
AcDbEntity
  8
0
100
AcDbLine
 10
53.0
 20
160.53925
 30
0.0
 11
53.0
 21
149.01925
 31
0.0
  0
LINE
  5
1A4
330
1E
100
AcDbEntity
  8
0
100
AcDbLine
 10
53.0
 20
160.53925
 30
0.0
 11
53.28800000000001
 21
161.01925
 31
0.0
  0
LINE
  5
1A5
330
1E
100
AcDbEntity
  8
0
100
AcDbLine
 10
84.9
 20
167.0192499999999
 30
0.0
 11
87.3
 21
167.0192499999999
 31
0.0
  0
LINE
  5
1A6
330
1E
100
AcDbEntity
  8
0
100
AcDbLine
 10
84.9
 20
206.51925
 30
0.0
 11
87.3
 21
206.51925
 31
0.0
  0
LINE
  5
1A7
330
1E
100
AcDbEntity
  8
0
100
AcDbLine
 10
84.0
 20
206.51925
 30
0.0
 11
84.0
 21
167.0192499999999
 31
0.0
  0
LINE
  5
1A8
330
1E
100
AcDbEntity
  8
0
100
AcDbLine
 10
84.0
 20
206.51925
 30
0.0
 11
84.9
 21
206.51925
 31
0.0
  0
LINE
  5
1A9
330
1E
100
AcDbEntity
  8
0
100
AcDbLine
 10
84.0
 20
206.51925
 30
0.0
 11
84.50000000000001
 21
207.01925
 31
0.0
  0
LINE
  5
1AA
330
1E
100
AcDbEntity
  8
0
100
AcDbLine
 10
84.0
 20
167.0192499999999
 30
0.0
 11
84.9
 21
167.0192499999999
 31
0.0
  0
LINE
  5
1AB
330
1E
100
AcDbEntity
  8
0
100
AcDbLine
 10
84.0
 20
167.0192499999999
 30
0.0
 11
84.0
 21
206.51925
 31
0.0
  0
LINE
  5
1AC
330
1E
100
AcDbEntity
  8
0
100
AcDbLine
 10
87.3
 20
167.0192499999999
 30
0.0
 11
91.3
 21
167.0192499999999
 31
0.0
  0
LINE
  5
1AD
330
1E
100
AcDbEntity
  8
0
100
AcDbLine
 10
91.3
 20
167.0192499999999
 30
0.0
 11
96.6
 21
167.0192499999999
 31
0.0
  0
LINE
  5
1AE
330
1E
100
AcDbEntity
  8
0
100
AcDbLine
 10
96.6
 20
167.0192499999999
 30
0.0
 11
102.6
 21
167.0192499999999
 31
0.0
  0
LINE
  5
1AF
330
1E
100
AcDbEntity
  8
0
100
AcDbLine
 10
87.3
 20
206.51925
 30
0.0
 11
91.3
 21
206.51925
 31
0.0
  0
LINE
  5
1B0
330
1E
100
AcDbEntity
  8
0
100
AcDbLine
 10
91.3
 20
206.51925
 30
0.0
 11
96.6
 21
206.51925
 31
0.0
  0
LINE
  5
1B1
330
1E
100
AcDbEntity
  8
0
100
AcDbLine
 10
96.6
 20
206.51925
 30
0.0
 11
102.6
 21
206.51925
 31
0.0
  0
LINE
  5
1B2
330
1E
100
AcDbEntity
  8
0
100
AcDbLine
 10
102.6
 20
167.0192499999999
 30
0.0
 11
109.0
 21
167.0192499999999
 31
0.0
  0
LINE
  5
1B3
330
1E
100
AcDbEntity
  8
0
100
AcDbLine
 10
85.0
 20
167.0192499999999
 30
0.0
 11
85.0
 21
157.01925
 31
0.0
  0
LINE
  5
1B4
330
1E
100
AcDbEntity
  8
0
100
AcDbLine
 10
87.79999999999999
 20
207.01925
 30
0.0
 11
91.69999999999999
 21
207.01925
 31
0.0
  0
LINE
  5
1B5
330
1E
100
AcDbEntity
  8
0
100
AcDbLine
 10
85.4
 20
207.01925
 30
0.0
 11
87.79999999999999
 21
207.01925
 31
0.0
  0
LINE
  5
1B6
330
1E
100
AcDbEntity
  8
0
100
AcDbLine
 10
84.50000000000001
 20
207.01925
 30
0.0
 11
85.4
 21
207.01925
 31
0.0
  0
LINE
  5
1B7
330
1E
100
AcDbEntity
  8
0
100
AcDbLine
 10
91.69999999999999
 20
207.01925
 30
0.0
 11
96.79999999999999
 21
207.01925
 31
0.0
  0
LINE
  5
1B8
330
1E
100
AcDbEntity
  8
0
100
AcDbLine
 10
96.79999999999999
 20
207.01925
 30
0.0
 11
102.7
 21
207.01925
 31
0.0
  0
LINE
  5
1B9
330
1E
100
AcDbEntity
  8
0
100
AcDbLine
 10
102.6
 20
206.51925
 30
0.0
 11
103.2999999999999
 21
206.51925
 31
0.0
  0
LINE
  5
1BA
330
1E
100
AcDbEntity
  8
0
100
AcDbLine
 10
102.7
 20
207.01925
 30
0.0
 11
103.6
 21
207.01925
 31
0.0
  0
LINE
  5
1BB
330
1E
100
AcDbEntity
  8
0
100
AcDbLine
 10
102.6
 20
190.51925
 30
0.0
 11
103.4529999999999
 21
190.0192499999999
 31
0.0
  0
LINE
  5
1BC
330
1E
100
AcDbEntity
  8
0
100
AcDbLine
 10
96.90000000000001
 20
157.01925
 30
0.0
 11
102.7
 21
157.01925
 31
0.0
  0
LINE
  5
1BD
330
1E
100
AcDbEntity
  8
0
100
AcDbLine
 10
108.232
 20
173.21225
 30
0.0
 11
109.0
 21
173.10425
 31
0.0
  0
LINE
  5
1BF
330
1E
100
AcDbEntity
  8
0
100
AcDbLine
 10
107.512
 20
173.50025
 30
0.0
 11
108.232
 21
173.21225
 31
0.0
  0
LINE
  5
1C1
330
1E
100
AcDbEntity
  8
0
100
AcDbLine
 10
106.876
 20
173.98025
 30
0.0
 11
107.512
 21
173.50025
 31
0.0
  0
LINE
  5
1C3
330
1E
100
AcDbEntity
  8
0
100
AcDbLine
 10
106.396
 20
174.61625
 30
0.0
 11
106.876
 21
173.98025
 31
0.0
  0
LINE
  5
1C5
330
1E
100
AcDbEntity
  8
0
100
AcDbLine
 10
106.108
 20
175.33625
 30
0.0
 11
106.396
 21
174.61625
 31
0.0
  0
LINE
  5
1C7
330
1E
100
AcDbEntity
  8
0
100
AcDbLine
 10
103.4529999999999
 20
190.0192499999999
 30
0.0
 11
104.221
 21
190.0192499999999
 31
0.0
  0
LINE
  5
1C8
330
1E
100
AcDbEntity
  8
0
100
AcDbLine
 10
103.4529999999999
 20
190.0192499999999
 30
0.0
 11
109.0
 21
190.0192499999999
 31
0.0
  0
LINE
  5
1C9
330
1E
100
AcDbEntity
  8
0
100
AcDbLine
 10
104.221
 20
190.0192499999999
 30
0.0
 11
105.0999999999999
 21
190.0192499999999
 31
0.0
  0
LINE
  5
1CA
330
1E
100
AcDbEntity
  8
0
100
AcDbLine
 10
105.0999999999999
 20
190.0192499999999
 30
0.0
 11
105.4999999999999
 21
190.0192499999999
 31
0.0
  0
LINE
  5
1CB
330
1E
100
AcDbEntity
  8
0
100
AcDbLine
 10
105.4999999999999
 20
190.0192499999999
 30
0.0
 11
105.6
 21
190.0192499999999
 31
0.0
  0
LINE
  5
1CC
330
1E
100
AcDbEntity
  8
0
100
AcDbLine
 10
105.6
 20
190.0192499999999
 30
0.0
 11
105.9
 21
190.0192499999999
 31
0.0
  0
LINE
  5
1CD
330
1E
100
AcDbEntity
  8
0
100
AcDbLine
 10
105.9
 20
190.0192499999999
 30
0.0
 11
106.4999999999999
 21
190.0192499999999
 31
0.0
  0
LINE
  5
1CE
330
1E
100
AcDbEntity
  8
0
100
AcDbLine
 10
106.4999999999999
 20
190.0192499999999
 30
0.0
 11
107.2999999999999
 21
190.0192499999999
 31
0.0
  0
LINE
  5
1CF
330
1E
100
AcDbEntity
  8
0
100
AcDbLine
 10
107.2999999999999
 20
190.0192499999999
 30
0.0
 11
108.0999999999999
 21
190.0192499999999
 31
0.0
  0
LINE
  5
1D0
330
1E
100
AcDbEntity
  8
0
100
AcDbLine
 10
108.0999999999999
 20
190.0192499999999
 30
0.0
 11
109.0
 21
190.0192499999999
 31
0.0
  0
LINE
  5
1D1
330
1E
100
AcDbEntity
  8
0
100
AcDbLine
 10
109.0
 20
179.10425
 30
0.0
 11
109.7679999999999
 21
178.99625
 31
0.0
  0
LINE
  5
1D3
330
1E
100
AcDbEntity
  8
0
100
AcDbLine
 10
108.232
 20
178.99625
 30
0.0
 11
109.0
 21
179.10425
 31
0.0
  0
LINE
  5
1D5
330
1E
100
AcDbEntity
  8
0
100
AcDbLine
 10
107.512
 20
178.7082499999999
 30
0.0
 11
108.232
 21
178.99625
 31
0.0
  0
LINE
  5
1D7
330
1E
100
AcDbEntity
  8
0
100
AcDbLine
 10
106.876
 20
178.2282499999999
 30
0.0
 11
107.512
 21
178.7082499999999
 31
0.0
  0
LINE
  5
1D9
330
1E
100
AcDbEntity
  8
0
100
AcDbLine
 10
106.396
 20
177.59225
 30
0.0
 11
106.876
 21
178.2282499999999
 31
0.0
  0
LINE
  5
1DB
330
1E
100
AcDbEntity
  8
0
100
AcDbLine
 10
106.108
 20
176.87225
 30
0.0
 11
106.396
 21
177.59225
 31
0.0
  0
LINE
  5
1DD
330
1E
100
AcDbEntity
  8
0
100
AcDbLine
 10
106.0
 20
176.10425
 30
0.0
 11
106.108
 21
175.33625
 31
0.0
  0
LINE
  5
1DF
330
1E
100
AcDbEntity
  8
0
100
AcDbLine
 10
106.0
 20
176.10425
 30
0.0
 11
106.108
 21
176.87225
 31
0.0
  0
LINE
  5
1ED
330
1E
100
AcDbEntity
  8
0
100
AcDbLine
 10
109.0
 20
173.10425
 30
0.0
 11
109.7679999999999
 21
173.21225
 31
0.0
  0
LINE
  5
1EF
330
1E
100
AcDbEntity
  8
0
100
AcDbLine
 10
109.0
 20
190.0192499999999
 30
0.0
 11
114.547
 21
190.0192499999999
 31
0.0
  0
LINE
  5
1F5
330
1E
100
AcDbEntity
  8
0
100
AcDbLine
 10
103.2999999999999
 20
206.51925
 30
0.0
 11
104.0
 21
206.51925
 31
0.0
  0
LINE
  5
1F6
330
1E
100
AcDbEntity
  8
0
100
AcDbLine
 10
104.0
 20
206.51925
 30
0.0
 11
104.6
 21
206.51925
 31
0.0
  0
LINE
  5
1F7
330
1E
100
AcDbEntity
  8
0
100
AcDbLine
 10
104.6
 20
206.51925
 30
0.0
 11
104.9
 21
206.51925
 31
0.0
  0
LINE
  5
1F8
330
1E
100
AcDbEntity
  8
0
100
AcDbLine
 10
104.9
 20
206.51925
 30
0.0
 11
105.0
 21
206.51925
 31
0.0
  0
LINE
  5
1FA
330
1E
100
AcDbEntity
  8
0
100
AcDbLine
 10
105.0
 20
206.51925
 30
0.0
 11
105.0999999999999
 21
206.51925
 31
0.0
  0
LINE
  5
1FC
330
1E
100
AcDbEntity
  8
0
100
AcDbLine
 10
105.0999999999999
 20
206.51925
 30
0.0
 11
105.4999999999999
 21
206.51925
 31
0.0
  0
LINE
  5
201
330
1E
100
AcDbEntity
  8
0
100
AcDbLine
 10
105.4999999999999
 20
206.51925
 30
0.0
 11
106.2
 21
206.51925
 31
0.0
  0
LINE
  5
202
330
1E
100
AcDbEntity
  8
0
100
AcDbLine
 10
106.2
 20
206.51925
 30
0.0
 11
107.0
 21
206.51925
 31
0.0
  0
LINE
  5
203
330
1E
100
AcDbEntity
  8
0
100
AcDbLine
 10
107.0
 20
206.51925
 30
0.0
 11
108.0
 21
206.51925
 31
0.0
  0
LINE
  5
204
330
1E
100
AcDbEntity
  8
0
100
AcDbLine
 10
108.0
 20
206.51925
 30
0.0
 11
109.0
 21
206.51925
 31
0.0
  0
LINE
  5
206
330
1E
100
AcDbEntity
  8
0
100
AcDbLine
 10
103.6
 20
207.01925
 30
0.0
 11
104.4
 21
207.01925
 31
0.0
  0
LINE
  5
207
330
1E
100
AcDbEntity
  8
0
100
AcDbLine
 10
104.4
 20
207.01925
 30
0.0
 11
105.0999999999999
 21
207.01925
 31
0.0
  0
LINE
  5
208
330
1E
100
AcDbEntity
  8
0
100
AcDbLine
 10
105.0999999999999
 20
207.01925
 30
0.0
 11
105.4999999999999
 21
207.01925
 31
0.0
  0
LINE
  5
209
330
1E
100
AcDbEntity
  8
0
100
AcDbLine
 10
105.4999999999999
 20
207.01925
 30
0.0
 11
105.6
 21
207.01925
 31
0.0
  0
LINE
  5
20A
330
1E
100
AcDbEntity
  8
0
100
AcDbLine
 10
105.6
 20
207.01925
 30
0.0
 11
105.9
 21
207.01925
 31
0.0
  0
LINE
  5
20B
330
1E
100
AcDbEntity
  8
0
100
AcDbLine
 10
105.9
 20
207.01925
 30
0.0
 11
106.4999999999999
 21
207.01925
 31
0.0
  0
LINE
  5
20C
330
1E
100
AcDbEntity
  8
0
100
AcDbLine
 10
106.4999999999999
 20
207.01925
 30
0.0
 11
107.2999999999999
 21
207.01925
 31
0.0
  0
LINE
  5
20D
330
1E
100
AcDbEntity
  8
0
100
AcDbLine
 10
107.2999999999999
 20
207.01925
 30
0.0
 11
108.0999999999999
 21
207.01925
 31
0.0
  0
LINE
  5
20E
330
1E
100
AcDbEntity
  8
0
100
AcDbLine
 10
108.0999999999999
 20
207.01925
 30
0.0
 11
109.0
 21
207.01925
 31
0.0
  0
LINE
  5
20F
330
1E
100
AcDbEntity
  8
0
100
AcDbLine
 10
109.0
 20
207.01925
 30
0.0
 11
109.8999999999999
 21
207.01925
 31
0.0
  0
LINE
  5
210
330
1E
100
AcDbEntity
  8
0
100
AcDbLine
 10
109.0
 20
206.51925
 30
0.0
 11
110.0
 21
206.51925
 31
0.0
  0
LINE
  5
212
330
1E
100
AcDbEntity
  8
0
100
AcDbLine
 10
109.0
 20
190.0192499999999
 30
0.0
 11
109.8999999999999
 21
190.0192499999999
 31
0.0
  0
LINE
  5
213
330
1E
100
AcDbEntity
  8
0
100
AcDbLine
 10
109.0
 20
167.0192499999999
 30
0.0
 11
115.4
 21
167.0192499999999
 31
0.0
  0
LINE
  5
214
330
1E
100
AcDbEntity
  8
0
100
AcDbLine
 10
102.7
 20
157.01925
 30
0.0
 11
109.0
 21
157.01925
 31
0.0
  0
LINE
  5
215
330
1E
100
AcDbEntity
  8
0
100
AcDbLine
 10
84.0
 20
155.81925
 30
0.0
 11
84.59999999999999
 21
157.01925
 31
0.0
  0
LINE
  5
216
330
1E
100
AcDbEntity
  8
0
100
AcDbLine
 10
84.0
 20
155.81925
 30
0.0
 11
84.0
 21
147.01925
 31
0.0
  0
LINE
  5
217
330
1E
100
AcDbEntity
  8
0
100
AcDbLine
 10
133.0
 20
157.01925
 30
0.0
 11
133.0
 21
167.0192499999999
 31
0.0
  0
LINE
  5
218
330
1E
100
AcDbEntity
  8
0
100
AcDbLine
 10
134.0
 20
155.81925
 30
0.0
 11
134.0
 21
147.01925
 31
0.0
  0
LINE
  5
219
330
1E
100
AcDbEntity
  8
0
100
AcDbLine
 10
132.4999999999999
 20
157.01925
 30
0.0
 11
133.4
 21
157.01925
 31
0.0
  0
LINE
  5
21A
330
1E
100
AcDbEntity
  8
0
100
AcDbLine
 10
133.4
 20
157.01925
 30
0.0
 11
134.0
 21
155.81925
 31
0.0
  0
LINE
  5
21B
330
1E
100
AcDbEntity
  8
0
100
AcDbLine
 10
130.0999999999999
 20
157.01925
 30
0.0
 11
132.4999999999999
 21
157.01925
 31
0.0
  0
LINE
  5
21C
330
1E
100
AcDbEntity
  8
0
100
AcDbLine
 10
126.2
 20
157.01925
 30
0.0
 11
130.0999999999999
 21
157.01925
 31
0.0
  0
LINE
  5
21D
330
1E
100
AcDbEntity
  8
0
100
AcDbLine
 10
121.1
 20
157.01925
 30
0.0
 11
126.2
 21
157.01925
 31
0.0
  0
LINE
  5
21E
330
1E
100
AcDbEntity
  8
0
100
AcDbLine
 10
121.4
 20
167.0192499999999
 30
0.0
 11
126.7
 21
167.0192499999999
 31
0.0
  0
LINE
  5
21F
330
1E
100
AcDbEntity
  8
0
100
AcDbLine
 10
115.4
 20
167.0192499999999
 30
0.0
 11
121.4
 21
167.0192499999999
 31
0.0
  0
LINE
  5
220
330
1E
100
AcDbEntity
  8
0
100
AcDbLine
 10
126.7
 20
167.0192499999999
 30
0.0
 11
130.6999999999999
 21
167.0192499999999
 31
0.0
  0
LINE
  5
221
330
1E
100
AcDbEntity
  8
0
100
AcDbLine
 10
133.0
 20
167.0192499999999
 30
0.0
 11
133.0
 21
157.01925
 31
0.0
  0
LINE
  5
222
330
1E
100
AcDbEntity
  8
0
100
AcDbLine
 10
130.6999999999999
 20
167.0192499999999
 30
0.0
 11
133.0999999999999
 21
167.0192499999999
 31
0.0
  0
LINE
  5
223
330
1E
100
AcDbEntity
  8
0
100
AcDbLine
 10
109.7679999999999
 20
178.99625
 30
0.0
 11
110.488
 21
178.7082499999999
 31
0.0
  0
LINE
  5
224
330
1E
100
AcDbEntity
  8
0
100
AcDbLine
 10
109.7679999999999
 20
173.21225
 30
0.0
 11
110.488
 21
173.50025
 31
0.0
  0
LINE
  5
225
330
1E
100
AcDbEntity
  8
0
100
AcDbLine
 10
110.488
 20
173.50025
 30
0.0
 11
111.124
 21
173.98025
 31
0.0
  0
LINE
  5
226
330
1E
100
AcDbEntity
  8
0
100
AcDbLine
 10
110.488
 20
178.7082499999999
 30
0.0
 11
111.124
 21
178.2282499999999
 31
0.0
  0
LINE
  5
227
330
1E
100
AcDbEntity
  8
0
100
AcDbLine
 10
111.124
 20
178.2282499999999
 30
0.0
 11
111.6039999999999
 21
177.59225
 31
0.0
  0
LINE
  5
228
330
1E
100
AcDbEntity
  8
0
100
AcDbLine
 10
111.124
 20
173.98025
 30
0.0
 11
111.6039999999999
 21
174.61625
 31
0.0
  0
LINE
  5
229
330
1E
100
AcDbEntity
  8
0
100
AcDbLine
 10
111.6039999999999
 20
174.61625
 30
0.0
 11
111.892
 21
175.33625
 31
0.0
  0
LINE
  5
22A
330
1E
100
AcDbEntity
  8
0
100
AcDbLine
 10
111.6039999999999
 20
177.59225
 30
0.0
 11
111.892
 21
176.87225
 31
0.0
  0
LINE
  5
22B
330
1E
100
AcDbEntity
  8
0
100
AcDbLine
 10
111.892
 20
176.87225
 30
0.0
 11
112.0
 21
176.10425
 31
0.0
  0
LINE
  5
22C
330
1E
100
AcDbEntity
  8
0
100
AcDbLine
 10
111.892
 20
175.33625
 30
0.0
 11
112.0
 21
176.10425
 31
0.0
  0
LINE
  5
22D
330
1E
100
AcDbEntity
  8
0
100
AcDbLine
 10
114.547
 20
190.0192499999999
 30
0.0
 11
115.4
 21
190.51925
 31
0.0
  0
LINE
  5
22E
330
1E
100
AcDbEntity
  8
0
100
AcDbLine
 10
113.779
 20
190.0192499999999
 30
0.0
 11
114.547
 21
190.0192499999999
 31
0.0
  0
LINE
  5
22F
330
1E
100
AcDbEntity
  8
0
100
AcDbLine
 10
112.9
 20
190.0192499999999
 30
0.0
 11
113.779
 21
190.0192499999999
 31
0.0
  0
LINE
  5
230
330
1E
100
AcDbEntity
  8
0
100
AcDbLine
 10
112.5
 20
190.0192499999999
 30
0.0
 11
112.9
 21
190.0192499999999
 31
0.0
  0
LINE
  5
231
330
1E
100
AcDbEntity
  8
0
100
AcDbLine
 10
112.4
 20
190.0192499999999
 30
0.0
 11
112.5
 21
190.0192499999999
 31
0.0
  0
LINE
  5
232
330
1E
100
AcDbEntity
  8
0
100
AcDbLine
 10
112.0999999999999
 20
190.0192499999999
 30
0.0
 11
112.4
 21
190.0192499999999
 31
0.0
  0
LINE
  5
233
330
1E
100
AcDbEntity
  8
0
100
AcDbLine
 10
111.4999999999999
 20
190.0192499999999
 30
0.0
 11
112.0999999999999
 21
190.0192499999999
 31
0.0
  0
LINE
  5
23C
330
1E
100
AcDbEntity
  8
0
100
AcDbLine
 10
114.7
 20
206.51925
 30
0.0
 11
115.4
 21
206.51925
 31
0.0
  0
LINE
  5
23D
330
1E
100
AcDbEntity
  8
0
100
AcDbLine
 10
114.0
 20
206.51925
 30
0.0
 11
114.7
 21
206.51925
 31
0.0
  0
LINE
  5
23E
330
1E
100
AcDbEntity
  8
0
100
AcDbLine
 10
113.4
 20
206.51925
 30
0.0
 11
114.0
 21
206.51925
 31
0.0
  0
LINE
  5
23F
330
1E
100
AcDbEntity
  8
0
100
AcDbLine
 10
113.1
 20
206.51925
 30
0.0
 11
113.4
 21
206.51925
 31
0.0
  0
LINE
  5
241
330
1E
100
AcDbEntity
  8
0
100
AcDbLine
 10
113.0
 20
206.51925
 30
0.0
 11
113.1
 21
206.51925
 31
0.0
  0
LINE
  5
243
330
1E
100
AcDbEntity
  8
0
100
AcDbLine
 10
110.6999999999999
 20
190.0192499999999
 30
0.0
 11
111.4999999999999
 21
190.0192499999999
 31
0.0
  0
LINE
  5
244
330
1E
100
AcDbEntity
  8
0
100
AcDbLine
 10
109.8999999999999
 20
190.0192499999999
 30
0.0
 11
110.6999999999999
 21
190.0192499999999
 31
0.0
  0
LINE
  5
245
330
1E
100
AcDbEntity
  8
0
100
AcDbLine
 10
121.4
 20
206.51925
 30
0.0
 11
126.7
 21
206.51925
 31
0.0
  0
LINE
  5
246
330
1E
100
AcDbEntity
  8
0
100
AcDbLine
 10
115.4
 20
206.51925
 30
0.0
 11
121.4
 21
206.51925
 31
0.0
  0
LINE
  5
247
330
1E
100
AcDbEntity
  8
0
100
AcDbLine
 10
126.7
 20
206.51925
 30
0.0
 11
130.6999999999999
 21
206.51925
 31
0.0
  0
LINE
  5
248
330
1E
100
AcDbEntity
  8
0
100
AcDbLine
 10
112.9
 20
206.51925
 30
0.0
 11
113.0
 21
206.51925
 31
0.0
  0
LINE
  5
249
330
1E
100
AcDbEntity
  8
0
100
AcDbLine
 10
112.5
 20
206.51925
 30
0.0
 11
112.9
 21
206.51925
 31
0.0
  0
LINE
  5
24A
330
1E
100
AcDbEntity
  8
0
100
AcDbLine
 10
111.8
 20
206.51925
 30
0.0
 11
112.5
 21
206.51925
 31
0.0
  0
LINE
  5
24B
330
1E
100
AcDbEntity
  8
0
100
AcDbLine
 10
111.0
 20
206.51925
 30
0.0
 11
111.8
 21
206.51925
 31
0.0
  0
LINE
  5
24C
330
1E
100
AcDbEntity
  8
0
100
AcDbLine
 10
112.4
 20
207.01925
 30
0.0
 11
112.5
 21
207.01925
 31
0.0
  0
LINE
  5
24D
330
1E
100
AcDbEntity
  8
0
100
AcDbLine
 10
114.4
 20
207.01925
 30
0.0
 11
115.3
 21
207.01925
 31
0.0
  0
LINE
  5
24E
330
1E
100
AcDbEntity
  8
0
100
AcDbLine
 10
113.5999999999999
 20
207.01925
 30
0.0
 11
114.4
 21
207.01925
 31
0.0
  0
LINE
  5
24F
330
1E
100
AcDbEntity
  8
0
100
AcDbLine
 10
112.9
 20
207.01925
 30
0.0
 11
113.5999999999999
 21
207.01925
 31
0.0
  0
LINE
  5
251
330
1E
100
AcDbEntity
  8
0
100
AcDbLine
 10
112.5
 20
207.01925
 30
0.0
 11
112.9
 21
207.01925
 31
0.0
  0
LINE
  5
252
330
1E
100
AcDbEntity
  8
0
100
AcDbLine
 10
112.0999999999999
 20
207.01925
 30
0.0
 11
112.4
 21
207.01925
 31
0.0
  0
LINE
  5
253
330
1E
100
AcDbEntity
  8
0
100
AcDbLine
 10
111.4999999999999
 20
207.01925
 30
0.0
 11
112.0999999999999
 21
207.01925
 31
0.0
  0
LINE
  5
254
330
1E
100
AcDbEntity
  8
0
100
AcDbLine
 10
110.6999999999999
 20
207.01925
 30
0.0
 11
111.4999999999999
 21
207.01925
 31
0.0
  0
LINE
  5
255
330
1E
100
AcDbEntity
  8
0
100
AcDbLine
 10
109.8999999999999
 20
207.01925
 30
0.0
 11
110.6999999999999
 21
207.01925
 31
0.0
  0
LINE
  5
256
330
1E
100
AcDbEntity
  8
0
100
AcDbLine
 10
110.0
 20
206.51925
 30
0.0
 11
111.0
 21
206.51925
 31
0.0
  0
LINE
  5
257
330
1E
100
AcDbEntity
  8
0
100
AcDbLine
 10
121.1999999999999
 20
207.01925
 30
0.0
 11
126.2999999999999
 21
207.01925
 31
0.0
  0
LINE
  5
258
330
1E
100
AcDbEntity
  8
0
100
AcDbLine
 10
115.3
 20
207.01925
 30
0.0
 11
121.1999999999999
 21
207.01925
 31
0.0
  0
LINE
  5
259
330
1E
100
AcDbEntity
  8
0
100
AcDbLine
 10
126.2999999999999
 20
207.01925
 30
0.0
 11
130.1999999999999
 21
207.01925
 31
0.0
  0
LINE
  5
25A
330
1E
100
AcDbEntity
  8
0
100
AcDbLine
 10
130.1999999999999
 20
207.01925
 30
0.0
 11
132.6
 21
207.01925
 31
0.0
  0
LINE
  5
25B
330
1E
100
AcDbEntity
  8
0
100
AcDbLine
 10
132.6
 20
207.01925
 30
0.0
 11
133.4999999999999
 21
207.01925
 31
0.0
  0
LINE
  5
25C
330
1E
100
AcDbEntity
  8
0
100
AcDbLine
 10
130.6999999999999
 20
206.51925
 30
0.0
 11
133.0999999999999
 21
206.51925
 31
0.0
  0
LINE
  5
25D
330
1E
100
AcDbEntity
  8
0
100
AcDbLine
 10
134.0
 20
206.51925
 30
0.0
 11
134.0
 21
167.0192499999999
 31
0.0
  0
LINE
  5
25E
330
1E
100
AcDbEntity
  8
0
100
AcDbLine
 10
133.4999999999999
 20
207.01925
 30
0.0
 11
134.0
 21
206.51925
 31
0.0
  0
LINE
  5
25F
330
1E
100
AcDbEntity
  8
0
100
AcDbLine
 10
133.0999999999999
 20
206.51925
 30
0.0
 11
134.0
 21
206.51925
 31
0.0
  0
LINE
  5
260
330
1E
100
AcDbEntity
  8
0
100
AcDbLine
 10
133.0999999999999
 20
167.0192499999999
 30
0.0
 11
134.0
 21
167.0192499999999
 31
0.0
  0
LINE
  5
261
330
1E
100
AcDbEntity
  8
0
100
AcDbLine
 10
134.0
 20
167.0192499999999
 30
0.0
 11
134.0
 21
206.51925
 31
0.0
  0
LINE
  5
262
330
1E
100
AcDbEntity
  8
0
100
AcDbLine
 10
115.3
 20
157.01925
 30
0.0
 11
121.1
 21
157.01925
 31
0.0
  0
LINE
  5
263
330
1E
100
AcDbEntity
  8
0
100
AcDbLine
 10
109.0
 20
157.01925
 30
0.0
 11
115.3
 21
157.01925
 31
0.0
  0
LINE
  5
264
330
1E
100
AcDbEntity
  8
0
100
AcDbLine
 10
34.0
 20
155.01925
 30
0.0
 11
42.70399999999999
 21
153.79525
 31
0.0
  0
LINE
  5
265
330
1E
100
AcDbEntity
  8
0
100
AcDbLine
 10
27.448
 20
96.57925
 30
0.0
 11
34.0
 21
95.64325
 31
0.0
  0
LINE
  5
266
330
1E
100
AcDbEntity
  8
0
100
AcDbLine
 10
27.344
 20
95.95525
 30
0.0
 11
34.0
 21
95.01924999999999
 31
0.0
  0
LINE
  5
267
330
1E
100
AcDbEntity
  8
0
100
AcDbLine
 10
21.10399999999999
 20
98.45125000000001
 30
0.0
 11
27.344
 21
95.95525
 31
0.0
  0
LINE
  5
26C
330
1E
100
AcDbEntity
  8
0
100
AcDbLine
 10
92.0
 20
144.51925
 30
0.0
 11
92.36788720490949
 21
129.3838501841482
 31
0.0
  0
LINE
  5
26D
330
1E
100
AcDbEntity
  8
0
100
AcDbLine
 10
92.36788720490949
 20
129.3838501841482
 30
0.0
 11
93.21001309672737
 21
127.63058481235
 31
0.0
  0
LINE
  5
26E
330
1E
100
AcDbEntity
  8
0
100
AcDbLine
 10
93.21001309672737
 20
127.63058481235
 30
0.0
 11
94.61355624975727
 21
126.4383647869853
 31
0.0
  0
LINE
  5
26F
330
1E
100
AcDbEntity
  8
0
100
AcDbLine
 10
94.61355624975727
 20
126.4383647869853
 30
0.0
 11
96.08727731751423
 21
126.0175810200341
 31
0.0
  0
LINE
  5
270
330
1E
100
AcDbEntity
  8
0
100
AcDbLine
 10
96.08727731751423
 20
126.0175810200341
 30
0.0
 11
97.0
 21
126.01925
 31
0.0
  0
LINE
  5
271
330
1E
100
AcDbEntity
  8
0
100
AcDbLine
 10
126.0
 20
144.51925
 30
0.0
 11
125.6321127950905
 21
129.3838501841482
 31
0.0
  0
LINE
  5
272
330
1E
100
AcDbEntity
  8
0
100
AcDbLine
 10
126.0
 20
146.0192499999999
 30
0.0
 11
126.0
 21
144.51925
 31
0.0
  0
LINE
  5
273
330
1E
100
AcDbEntity
  8
0
100
AcDbLine
 10
126.0
 20
144.51925
 30
0.0
 11
126.0
 21
146.0192499999999
 31
0.0
  0
LINE
  5
274
330
1E
100
AcDbEntity
  8
0
100
AcDbLine
 10
125.6321127950905
 20
129.3838501841482
 30
0.0
 11
124.7899869032726
 21
127.63058481235
 31
0.0
  0
LINE
  5
275
330
1E
100
AcDbEntity
  8
0
100
AcDbLine
 10
121.9127226824857
 20
126.0175810200341
 30
0.0
 11
121.0
 21
126.01925
 31
0.0
  0
LINE
  5
276
330
1E
100
AcDbEntity
  8
0
100
AcDbLine
 10
124.7899869032726
 20
127.63058481235
 30
0.0
 11
123.3864437502427
 21
126.4383647869853
 31
0.0
  0
LINE
  5
277
330
1E
100
AcDbEntity
  8
0
100
AcDbLine
 10
123.3864437502427
 20
126.4383647869853
 30
0.0
 11
121.9127226824857
 21
126.0175810200341
 31
0.0
  0
LINE
  5
278
330
1E
100
AcDbEntity
  8
0
100
AcDbLine
 10
97.0
 20
126.01925
 30
0.0
 11
121.0
 21
126.01925
 31
0.0
  0
LINE
  5
279
330
1E
100
AcDbEntity
  8
0
100
AcDbLine
 10
8.935999999999991
 20
114.36325
 30
0.0
 11
11.51844351135252
 21
108.1875083822708
 31
0.0
  0
LINE
  5
27A
330
1E
100
AcDbEntity
  8
0
100
AcDbLine
 10
11.51844351135252
 20
108.1875083822708
 30
0.0
 11
15.6230278242466
 21
102.6642106773734
 31
0.0
  0
LINE
  5
27B
330
1E
100
AcDbEntity
  8
0
100
AcDbLine
 10
21.10399999999999
 20
98.45125000000001
 30
0.0
 11
15.6230278242466
 21
102.6642106773734
 31
0.0
  0
LINE
  5
27C
330
1E
100
AcDbEntity
  8
0
100
AcDbLine
 10
184.0
 20
147.01925
 30
0.0
 11
190.71315603382
 21
146.060387586472
 31
0.0
  0
LINE
  5
27D
330
1E
100
AcDbEntity
  8
0
100
AcDbLine
 10
190.71315603382
 20
146.060387586472
 30
0.0
 11
196.927992510766
 21
143.563104708856
 31
0.0
  0
LINE
  5
27E
330
1E
100
AcDbEntity
  8
0
100
AcDbLine
 10
210.0
 20
121.01925
 30
0.0
 11
209.064
 21
114.36325
 31
0.0
  0
LINE
  5
27F
330
1E
100
AcDbEntity
  8
0
100
AcDbLine
 10
196.8959999999999
 20
98.45125000000001
 30
0.0
 11
202.408
 21
102.6112499999999
 31
0.0
  0
LINE
  5
280
330
1E
100
AcDbEntity
  8
0
100
AcDbLine
 10
102.6
 20
190.51925
 30
0.0
 11
102.6
 21
206.51925
 31
0.0
  0
LINE
  5
281
330
1E
100
AcDbEntity
  8
0
100
AcDbLine
 10
115.4
 20
190.51925
 30
0.0
 11
115.4
 21
206.51925
 31
0.0
  0
ENDSEC
  0
SECTION
  2
OBJECTS
  0
DICTIONARY
  5
C
330
0
100
AcDbDictionary
281
     1
  3
ACAD_GROUP
350
D
  3
ACAD_LAYOUT
350
19
  3
ACAD_MLINESTYLE
350
16
  3
ACAD_PLOTSETTINGS
350
18
  3
ACAD_PLOTSTYLENAME
350
E
  3
AcDbVariableDictionary
350
282
  0
DICTIONARY
  5
D
102
{ACAD_REACTORS
330
C
102
}
330
C
100
AcDbDictionary
281
     1
  0
DICTIONARY
  5
19
102
{ACAD_REACTORS
330
C
102
}
330
C
100
AcDbDictionary
281
     1
  3
Layout1
350
1D
  3
Model
350
21
  0
DICTIONARY
  5
16
102
{ACAD_REACTORS
330
C
102
}
330
C
100
AcDbDictionary
281
     1
  3
Standard
350
17
  0
DICTIONARY
  5
18
102
{ACAD_REACTORS
330
C
102
}
330
C
100
AcDbDictionary
281
     1
  0
ACDBDICTIONARYWDFLT
  5
E
102
{ACAD_REACTORS
330
C
102
}
330
C
100
AcDbDictionary
281
     1
  3
Normal
350
F
100
AcDbDictionaryWithDefault
340
F
  0
DICTIONARY
  5
282
102
{ACAD_REACTORS
330
C
102
}
330
C
100
AcDbDictionary
281
     1
  3
DIMASSOC
350
283
  0
LAYOUT
  5
1D
102
{ACAD_REACTORS
330
19
102
}
330
19
100
AcDbPlotSettings
  1

  2
hp deskjet 980c series
  4

  6

 40
0.0
 41
0.0
 42
0.0
 43
0.0
 44
0.0
 45
0.0
 46
0.0
 47
0.0
 48
0.0
 49
0.0
140
0.0
141
0.0
142
1.0
143
1.0
 70
   688
 72
     0
 73
     0
 74
     5
  7

 75
    16
147
1.0
148
0.0
149
0.0
100
AcDbLayout
  1
Layout1
 70
     1
 71
     1
 10
0.0
 20
0.0
 11
12.0
 21
9.0
 12
0.0
 22
0.0
 32
0.0
 14
1.000000000000000E+20
 24
1.000000000000000E+20
 34
1.000000000000000E+20
 15
-1.000000000000000E+20
 25
-1.000000000000000E+20
 35
-1.000000000000000E+20
146
0.0
 13
0.0
 23
0.0
 33
0.0
 16
1.0
 26
0.0
 36
0.0
 17
0.0
 27
1.0
 37
0.0
 76
     0
330
1A
  0
LAYOUT
  5
21
102
{ACAD_REACTORS
330
19
102
}
330
19
100
AcDbPlotSettings
  1

  2
hp deskjet 980c series
  4

  6

 40
0.0
 41
0.0
 42
0.0
 43
0.0
 44
0.0
 45
0.0
 46
0.0
 47
0.0
 48
0.0
 49
0.0
140
0.0
141
0.0
142
1.0
143
1.0
 70
  1712
 72
     0
 73
     0
 74
     0
  7

 75
     0
147
1.0
148
0.0
149
0.0
100
AcDbLayout
  1
Model
 70
     1
 71
     0
 10
0.0
 20
0.0
 11
12.0
 21
9.0
 12
0.0
 22
0.0
 32
0.0
 14
0.0
 24
0.0
 34
0.0
 15
0.0
 25
0.0
 35
0.0
146
0.0
 13
0.0
 23
0.0
 33
0.0
 16
1.0
 26
0.0
 36
0.0
 17
0.0
 27
1.0
 37
0.0
 76
     0
330
1E
  0
MLINESTYLE
  5
17
102
{ACAD_REACTORS
330
16
102
}
330
16
100
AcDbMlineStyle
  2
STANDARD
 70
     0
  3

 62
   256
 51
90.0
 52
90.0
 71
     2
 49
0.5
 62
   256
  6
BYLAYER
 49
-0.5
 62
   256
  6
BYLAYER
  0
ACDBPLACEHOLDER
  5
F
102
{ACAD_REACTORS
330
E
102
}
330
E
  0
DICTIONARYVAR
  5
283
102
{ACAD_REACTORS
330
282
102
}
330
282
100
DictionaryVariables
280
     0
  1
1
  0
ENDSEC
  0
EOF
