  0
SECTION
  2
HEADER
  9
$ACADVER
  1
AC1015
  9
$ACADMAINTVER
 70
    13
  9
$DWGCODEPAGE
  3
ANSI_1252
  9
$INSBASE
 10
0.0
 20
0.0
 30
0.0
  9
$EXTMIN
 10
-0.0000000000000005
 20
-0.0000000000000067
 30
0.0
  9
$EXTMAX
 10
50.0
 20
137.0
 30
0.0
  9
$LIMMIN
 10
0.0
 20
0.0
  9
$LIMMAX
 10
12.0
 20
9.0
  9
$ORTHOMODE
 70
     0
  9
$REGENMODE
 70
     1
  9
$FILLMODE
 70
     1
  9
$QTEXTMODE
 70
     0
  9
$MIRRTEXT
 70
     1
  9
$LTSCALE
 40
1.0
  9
$ATTMODE
 70
     1
  9
$TEXTSIZE
 40
0.2
  9
$TRACEWID
 40
0.05
  9
$TEXTSTYLE
  7
Standard
  9
$CLAYER
  8
0
  9
$CELTYPE
  6
Continuous
  9
$CECOLOR
 62
   256
  9
$CELTSCALE
 40
1.0
  9
$DISPSILH
 70
     0
  9
$DIMSCALE
 40
1.0
  9
$DIMASZ
 40
0.18
  9
$DIMEXO
 40
0.0625
  9
$DIMDLI
 40
0.38
  9
$DIMRND
 40
0.0
  9
$DIMDLE
 40
0.0
  9
$DIMEXE
 40
0.18
  9
$DIMTP
 40
0.0
  9
$DIMTM
 40
0.0
  9
$DIMTXT
 40
0.18
  9
$DIMCEN
 40
0.09
  9
$DIMTSZ
 40
0.0
  9
$DIMTOL
 70
     0
  9
$DIMLIM
 70
     0
  9
$DIMTIH
 70
     1
  9
$DIMTOH
 70
     1
  9
$DIMSE1
 70
     0
  9
$DIMSE2
 70
     0
  9
$DIMTAD
 70
     0
  9
$DIMZIN
 70
     0
  9
$DIMBLK
  1

  9
$DIMASO
 70
     1
  9
$DIMSHO
 70
     1
  9
$DIMPOST
  1

  9
$DIMAPOST
  1

  9
$DIMALT
 70
     0
  9
$DIMALTD
 70
     2
  9
$DIMALTF
 40
25.4
  9
$DIMLFAC
 40
1.0
  9
$DIMTOFL
 70
     0
  9
$DIMTVP
 40
0.0
  9
$DIMTIX
 70
     0
  9
$DIMSOXD
 70
     0
  9
$DIMSAH
 70
     0
  9
$DIMBLK1
  1

  9
$DIMBLK2
  1

  9
$DIMSTYLE
  2
Standard
  9
$DIMCLRD
 70
     0
  9
$DIMCLRE
 70
     0
  9
$DIMCLRT
 70
     0
  9
$DIMTFAC
 40
1.0
  9
$DIMGAP
 40
0.09
  9
$DIMJUST
 70
     0
  9
$DIMSD1
 70
     0
  9
$DIMSD2
 70
     0
  9
$DIMTOLJ
 70
     1
  9
$DIMTZIN
 70
     0
  9
$DIMALTZ
 70
     0
  9
$DIMALTTZ
 70
     0
  9
$DIMUPT
 70
     0
  9
$DIMDEC
 70
     4
  9
$DIMTDEC
 70
     4
  9
$DIMALTU
 70
     2
  9
$DIMALTTD
 70
     2
  9
$DIMTXSTY
  7
Standard
  9
$DIMAUNIT
 70
     0
  9
$DIMADEC
 70
     0
  9
$DIMALTRND
 40
0.0
  9
$DIMAZIN
 70
     0
  9
$DIMDSEP
 70
    46
  9
$DIMATFIT
 70
     3
  9
$DIMFRAC
 70
     0
  9
$DIMLDRBLK
  1

  9
$DIMLUNIT
 70
     2
  9
$DIMLWD
 70
    -2
  9
$DIMLWE
 70
    -2
  9
$DIMTMOVE
 70
     0
  9
$LUNITS
 70
     2
  9
$LUPREC
 70
     4
  9
$SKETCHINC
 40
0.1
  9
$FILLETRAD
 40
0.0
  9
$AUNITS
 70
     0
  9
$AUPREC
 70
     0
  9
$MENU
  1
.
  9
$ELEVATION
 40
0.0
  9
$PELEVATION
 40
0.0
  9
$THICKNESS
 40
0.0
  9
$LIMCHECK
 70
     0
  9
$CHAMFERA
 40
0.0
  9
$CHAMFERB
 40
0.0
  9
$CHAMFERC
 40
0.0
  9
$CHAMFERD
 40
0.0
  9
$SKPOLY
 70
     0
  9
$TDCREATE
 40
2454736.662967303
  9
$TDUCREATE
 40
2454736.579633969
  9
$TDUPDATE
 40
2454736.664842835
  9
$TDUUPDATE
 40
2454736.581509502
  9
$TDINDWG
 40
0.0018755324
  9
$TDUSRTIMER
 40
0.0018755324
  9
$USRTIMER
 70
     1
  9
$ANGBASE
 50
0.0
  9
$ANGDIR
 70
     0
  9
$PDMODE
 70
     0
  9
$PDSIZE
 40
0.0
  9
$PLINEWID
 40
0.0
  9
$SPLFRAME
 70
     0
  9
$SPLINETYPE
 70
     6
  9
$SPLINESEGS
 70
     8
  9
$HANDSEED
  5
19C
  9
$SURFTAB1
 70
     6
  9
$SURFTAB2
 70
     6
  9
$SURFTYPE
 70
     6
  9
$SURFU
 70
     6
  9
$SURFV
 70
     6
  9
$UCSBASE
  2

  9
$UCSNAME
  2

  9
$UCSORG
 10
0.0
 20
0.0
 30
0.0
  9
$UCSXDIR
 10
1.0
 20
0.0
 30
0.0
  9
$UCSYDIR
 10
0.0
 20
1.0
 30
0.0
  9
$UCSORTHOREF
  2

  9
$UCSORTHOVIEW
 70
     1
  9
$UCSORGTOP
 10
0.0
 20
0.0
 30
0.0
  9
$UCSORGBOTTOM
 10
0.0
 20
0.0
 30
0.0
  9
$UCSORGLEFT
 10
0.0
 20
0.0
 30
0.0
  9
$UCSORGRIGHT
 10
0.0
 20
0.0
 30
0.0
  9
$UCSORGFRONT
 10
0.0
 20
0.0
 30
0.0
  9
$UCSORGBACK
 10
0.0
 20
0.0
 30
0.0
  9
$PUCSBASE
  2

  9
$PUCSNAME
  2

  9
$PUCSORG
 10
0.0
 20
0.0
 30
0.0
  9
$PUCSXDIR
 10
1.0
 20
0.0
 30
0.0
  9
$PUCSYDIR
 10
0.0
 20
1.0
 30
0.0
  9
$PUCSORTHOREF
  2

  9
$PUCSORTHOVIEW
 70
     0
  9
$PUCSORGTOP
 10
0.0
 20
0.0
 30
0.0
  9
$PUCSORGBOTTOM
 10
0.0
 20
0.0
 30
0.0
  9
$PUCSORGLEFT
 10
0.0
 20
0.0
 30
0.0
  9
$PUCSORGRIGHT
 10
0.0
 20
0.0
 30
0.0
  9
$PUCSORGFRONT
 10
0.0
 20
0.0
 30
0.0
  9
$PUCSORGBACK
 10
0.0
 20
0.0
 30
0.0
  9
$USERI1
 70
     0
  9
$USERI2
 70
     0
  9
$USERI3
 70
     0
  9
$USERI4
 70
     0
  9
$USERI5
 70
     0
  9
$USERR1
 40
0.0
  9
$USERR2
 40
0.0
  9
$USERR3
 40
0.0
  9
$USERR4
 40
0.0
  9
$USERR5
 40
0.0
  9
$WORLDVIEW
 70
     1
  9
$SHADEDGE
 70
     3
  9
$SHADEDIF
 70
    70
  9
$TILEMODE
 70
     1
  9
$MAXACTVP
 70
    64
  9
$PINSBASE
 10
0.0
 20
0.0
 30
0.0
  9
$PLIMCHECK
 70
     0
  9
$PEXTMIN
 10
1.000000000000000E+20
 20
1.000000000000000E+20
 30
1.000000000000000E+20
  9
$PEXTMAX
 10
-1.000000000000000E+20
 20
-1.000000000000000E+20
 30
-1.000000000000000E+20
  9
$PLIMMIN
 10
0.0
 20
0.0
  9
$PLIMMAX
 10
12.0
 20
9.0
  9
$UNITMODE
 70
     0
  9
$VISRETAIN
 70
     1
  9
$PLINEGEN
 70
     0
  9
$PSLTSCALE
 70
     1
  9
$TREEDEPTH
 70
  3020
  9
$CMLSTYLE
  2
Standard
  9
$CMLJUST
 70
     0
  9
$CMLSCALE
 40
1.0
  9
$PROXYGRAPHICS
 70
     1
  9
$MEASUREMENT
 70
     0
  9
$CELWEIGHT
370
    -1
  9
$ENDCAPS
280
     0
  9
$JOINSTYLE
280
     0
  9
$LWDISPLAY
290
     0
  9
$INSUNITS
 70
     0
  9
$HYPERLINKBASE
  1

  9
$STYLESHEET
  1

  9
$XEDIT
290
     1
  9
$CEPSNTYPE
380
     0
  9
$PSTYLEMODE
290
     1
  9
$FINGERPRINTGUID
  2
{998C126F-4553-4AA9-8DFD-487CE96CFAD8}
  9
$VERSIONGUID
  2
{8C50F706-AC0E-4A45-AA34-BEF29445951A}
  9
$EXTNAMES
290
     1
  9
$PSVPSCALE
 40
0.0
  9
$OLESTARTUP
290
     0
  0
ENDSEC
  0
SECTION
  2
CLASSES
  0
CLASS
  1
ACDBDICTIONARYWDFLT
  2
AcDbDictionaryWithDefault
  3
AutoCAD 2000
 90
        0
280
     0
281
     0
  0
CLASS
  1
ACDBPLACEHOLDER
  2
AcDbPlaceHolder
  3
AutoCAD 2000
 90
        0
280
     0
281
     0
  0
CLASS
  1
LAYOUT
  2
AcDbLayout
  3
AutoCAD 2000
 90
        0
280
     0
281
     0
  0
CLASS
  1
DICTIONARYVAR
  2
AcDbDictionaryVar
  3
AutoCAD 2000
 90
        0
280
     0
281
     0
  0
ENDSEC
  0
SECTION
  2
TABLES
  0
TABLE
  2
VPORT
  5
8
330
0
100
AcDbSymbolTable
 70
     2
  0
VPORT
  5
19B
330
8
100
AcDbSymbolTableRecord
100
AcDbViewportTableRecord
  2
*Active
 70
     0
 10
0.0
 20
0.0
 11
1.0
 21
1.0
 12
25.0
 22
68.5
 13
0.0
 23
0.0
 14
1.0
 24
1.0
 15
0.0
 25
0.0
 16
0.0
 26
0.0
 36
1.0
 17
0.0
 27
0.0
 37
0.0
 40
138.0511508951406
 41
2.078104993597951
 42
50.0
 43
0.0
 44
0.0
 50
0.0
 51
0.0
 71
     0
 72
   100
 73
     1
 74
     3
 75
     0
 76
     0
 77
     0
 78
     0
281
     0
 65
     1
110
0.0
120
0.0
130
0.0
111
1.0
121
0.0
131
0.0
112
0.0
122
1.0
132
0.0
 79
     1
146
0.0
  0
ENDTAB
  0
TABLE
  2
LTYPE
  5
5
330
0
100
AcDbSymbolTable
 70
     1
  0
LTYPE
  5
13
330
5
100
AcDbSymbolTableRecord
100
AcDbLinetypeTableRecord
  2
ByBlock
 70
     0
  3

 72
    65
 73
     0
 40
0.0
  0
LTYPE
  5
14
330
5
100
AcDbSymbolTableRecord
100
AcDbLinetypeTableRecord
  2
ByLayer
 70
     0
  3

 72
    65
 73
     0
 40
0.0
  0
LTYPE
  5
15
330
5
100
AcDbSymbolTableRecord
100
AcDbLinetypeTableRecord
  2
Continuous
 70
     0
  3
Solid line
 72
    65
 73
     0
 40
0.0
  0
ENDTAB
  0
TABLE
  2
LAYER
  5
2
330
0
100
AcDbSymbolTable
 70
     1
  0
LAYER
  5
10
330
2
100
AcDbSymbolTableRecord
100
AcDbLayerTableRecord
  2
0
 70
     0
 62
     7
  6
Continuous
370
    -3
390
F
  0
ENDTAB
  0
TABLE
  2
STYLE
  5
3
330
0
100
AcDbSymbolTable
 70
     1
  0
STYLE
  5
11
330
3
100
AcDbSymbolTableRecord
100
AcDbTextStyleTableRecord
  2
Standard
 70
     0
 40
0.0
 41
1.0
 50
0.0
 71
     0
 42
0.2
  3
txt
  4

  0
ENDTAB
  0
TABLE
  2
VIEW
  5
6
330
0
100
AcDbSymbolTable
 70
     0
  0
ENDTAB
  0
TABLE
  2
UCS
  5
7
330
0
100
AcDbSymbolTable
 70
     0
  0
ENDTAB
  0
TABLE
  2
APPID
  5
9
330
0
100
AcDbSymbolTable
 70
     1
  0
APPID
  5
12
330
9
100
AcDbSymbolTableRecord
100
AcDbRegAppTableRecord
  2
ACAD
 70
     0
  0
ENDTAB
  0
TABLE
  2
DIMSTYLE
  5
A
330
0
100
AcDbSymbolTable
 70
     1
100
AcDbDimStyleTable
 71
     0
  0
DIMSTYLE
105
183
330
A
100
AcDbSymbolTableRecord
100
AcDbDimStyleTableRecord
  2
Standard
 70
     0
340
11
  0
ENDTAB
  0
TABLE
  2
BLOCK_RECORD
  5
1
330
0
100
AcDbSymbolTable
 70
     0
  0
BLOCK_RECORD
  5
1E
330
1
100
AcDbSymbolTableRecord
100
AcDbBlockTableRecord
  2
*Model_Space
340
21
  0
BLOCK_RECORD
  5
1A
330
1
100
AcDbSymbolTableRecord
100
AcDbBlockTableRecord
  2
*Paper_Space
340
1D
  0
ENDTAB
  0
ENDSEC
  0
SECTION
  2
BLOCKS
  0
BLOCK
  5
1F
330
1E
100
AcDbEntity
  8
0
100
AcDbBlockBegin
  2
*Model_Space
 70
     0
 10
0.0
 20
0.0
 30
0.0
  3
*Model_Space
  1

  0
ENDBLK
  5
20
330
1E
100
AcDbEntity
  8
0
100
AcDbBlockEnd
  0
BLOCK
  5
1B
330
1A
100
AcDbEntity
 67
     1
  8
0
100
AcDbBlockBegin
  2
*Paper_Space
 70
     0
 10
0.0
 20
0.0
 30
0.0
  3
*Paper_Space
  1

  0
ENDBLK
  5
1C
330
1A
100
AcDbEntity
 67
     1
  8
0
100
AcDbBlockEnd
  0
ENDSEC
  0
SECTION
  2
ENTITIES
  0
LINE
  5
22
330
1E
100
AcDbEntity
  8
0
100
AcDbLine
 10
-0.0000000000000005
 20
136.4999999999999
 30
0.0
 11
-0.0000000000000005
 21
97.0
 31
0.0
  0
LINE
  5
23
330
1E
100
AcDbEntity
  8
0
100
AcDbLine
 10
-0.0000000000000005
 20
136.4999999999999
 30
0.0
 11
0.9
 21
136.4999999999999
 31
0.0
  0
LINE
  5
24
330
1E
100
AcDbEntity
  8
0
100
AcDbLine
 10
-0.0000000000000005
 20
136.4999999999999
 30
0.0
 11
0.5
 21
137.0
 31
0.0
  0
LINE
  5
25
330
1E
100
AcDbEntity
  8
0
100
AcDbLine
 10
-0.0000000000000005
 20
97.0
 30
0.0
 11
0.9
 21
97.0
 31
0.0
  0
LINE
  5
26
330
1E
100
AcDbEntity
  8
0
100
AcDbLine
 10
-0.0000000000000005
 20
97.0
 30
0.0
 11
-0.0000000000000005
 21
136.4999999999999
 31
0.0
  0
LINE
  5
27
330
1E
100
AcDbEntity
  8
0
100
AcDbLine
 10
-0.0000000000000005
 20
94.0
 30
0.0
 11
-0.0000000000000005
 21
0.0
 31
0.0
  0
LINE
  5
28
330
1E
100
AcDbEntity
  8
0
100
AcDbLine
 10
-0.0000000000000005
 20
94.0
 30
0.0
 11
0.9
 21
94.0
 31
0.0
  0
LINE
  5
29
330
1E
100
AcDbEntity
  8
0
100
AcDbLine
 10
-0.0000000000000005
 20
94.0
 30
0.0
 11
1.0
 21
95.0
 31
0.0
  0
LINE
  5
2A
330
1E
100
AcDbEntity
  8
0
100
AcDbLine
 10
0.8999999999999989
 20
-0.0000000000000056
 30
0.0
 11
3.299999999999999
 21
-0.000000000000006
 31
0.0
  0
LINE
  5
2B
330
1E
100
AcDbEntity
  8
0
100
AcDbLine
 10
0.9
 20
-0.0000000000000056
 30
0.0
 11
3.299999999999999
 21
-0.000000000000006
 31
0.0
  0
LINE
  5
2C
330
1E
100
AcDbEntity
  8
0
100
AcDbLine
 10
31.4
 20
-0.0000000000000067
 30
0.0
 11
37.4
 21
-0.0000000000000065
 31
0.0
  0
LINE
  5
2D
330
1E
100
AcDbEntity
  8
0
100
AcDbLine
 10
25.0
 20
-0.0000000000000067
 30
0.0
 11
31.4
 21
-0.0000000000000067
 31
0.0
  0
LINE
  5
2E
330
1E
100
AcDbEntity
  8
0
100
AcDbLine
 10
3.299999999999999
 20
-0.000000000000006
 30
0.0
 11
7.299999999999999
 21
-0.0000000000000063
 31
0.0
  0
LINE
  5
2F
330
1E
100
AcDbEntity
  8
0
100
AcDbLine
 10
7.299999999999999
 20
-0.0000000000000063
 30
0.0
 11
12.6
 21
-0.0000000000000065
 31
0.0
  0
LINE
  5
30
330
1E
100
AcDbEntity
  8
0
100
AcDbLine
 10
42.7
 20
-0.0000000000000063
 30
0.0
 11
46.7
 21
-0.000000000000006
 31
0.0
  0
LINE
  5
31
330
1E
100
AcDbEntity
  8
0
100
AcDbLine
 10
46.7
 20
-0.000000000000006
 30
0.0
 11
49.1
 21
-0.0000000000000056
 31
0.0
  0
LINE
  5
32
330
1E
100
AcDbEntity
  8
0
100
AcDbLine
 10
49.1
 20
-0.0000000000000056
 30
0.0
 11
50.0
 21
-0.0000000000000052
 31
0.0
  0
LINE
  5
33
330
1E
100
AcDbEntity
  8
0
100
AcDbLine
 10
37.4
 20
-0.0000000000000065
 30
0.0
 11
42.7
 21
-0.0000000000000063
 31
0.0
  0
LINE
  5
34
330
1E
100
AcDbEntity
  8
0
100
AcDbLine
 10
50.0
 20
-0.0000000000000052
 30
0.0
 11
50.0
 21
94.0
 31
0.0
  0
LINE
  5
35
330
1E
100
AcDbEntity
  8
0
100
AcDbLine
 10
49.1
 20
-0.0000000000000048
 30
0.0
 11
50.0
 21
-0.0000000000000052
 31
0.0
  0
LINE
  5
36
330
1E
100
AcDbEntity
  8
0
100
AcDbLine
 10
25.0
 20
-0.0000000000000052
 30
0.0
 11
42.7
 21
-0.0000000000000041
 31
0.0
  0
LINE
  5
37
330
1E
100
AcDbEntity
  8
0
100
AcDbLine
 10
25.0
 20
-0.0000000000000052
 30
0.0
 11
31.4
 21
-0.0000000000000037
 31
0.0
  0
LINE
  5
38
330
1E
100
AcDbEntity
  8
0
100
AcDbLine
 10
25.0
 20
-0.0000000000000052
 30
0.0
 11
37.4
 21
-0.0000000000000039
 31
0.0
  0
LINE
  5
39
330
1E
100
AcDbEntity
  8
0
100
AcDbLine
 10
12.6
 20
-0.0000000000000065
 30
0.0
 11
18.6
 21
-0.0000000000000067
 31
0.0
  0
LINE
  5
3A
330
1E
100
AcDbEntity
  8
0
100
AcDbLine
 10
18.6
 20
-0.0000000000000067
 30
0.0
 11
25.0
 21
-0.0000000000000067
 31
0.0
  0
LINE
  5
3B
330
1E
100
AcDbEntity
  8
0
100
AcDbLine
 10
0.9
 20
-0.0000000000000048
 30
0.0
 11
3.299999999999999
 21
-0.0000000000000045
 31
0.0
  0
LINE
  5
3C
330
1E
100
AcDbEntity
  8
0
100
AcDbLine
 10
0.5
 20
137.0
 30
0.0
 11
1.399999999999999
 21
137.0
 31
0.0
  0
LINE
  5
3D
330
1E
100
AcDbEntity
  8
0
100
AcDbLine
 10
0.5
 20
137.0
 30
0.0
 11
1.399999999999999
 21
137.0
 31
0.0
  0
LINE
  5
3E
330
1E
100
AcDbEntity
  8
0
100
AcDbLine
 10
0.8999999999999989
 20
136.4999999999999
 30
0.0
 11
3.299999999999999
 21
136.4999999999999
 31
0.0
  0
LINE
  5
3F
330
1E
100
AcDbEntity
  8
0
100
AcDbLine
 10
7.299999999999999
 20
-0.0000000000000041
 30
0.0
 11
12.6
 21
-0.0000000000000039
 31
0.0
  0
LINE
  5
40
330
1E
100
AcDbEntity
  8
0
100
AcDbLine
 10
7.299999999999999
 20
-0.0000000000000041
 30
0.0
 11
25.0
 21
-0.0000000000000052
 31
0.0
  0
LINE
  5
41
330
1E
100
AcDbEntity
  8
0
100
AcDbLine
 10
7.299999999999999
 20
94.0
 30
0.0
 11
8.0
 21
94.0
 31
0.0
  0
LINE
  5
42
330
1E
100
AcDbEntity
  8
0
100
AcDbLine
 10
0.9
 20
94.0
 30
0.0
 11
3.299999999999999
 21
94.0
 31
0.0
  0
LINE
  5
43
330
1E
100
AcDbEntity
  8
0
100
AcDbLine
 10
1.0
 20
97.0
 30
0.0
 11
1.0
 21
95.0
 31
0.0
  0
LINE
  5
44
330
1E
100
AcDbEntity
  8
0
100
AcDbLine
 10
0.9
 20
136.4999999999999
 30
0.0
 11
3.299999999999999
 21
136.4999999999999
 31
0.0
  0
LINE
  5
45
330
1E
100
AcDbEntity
  8
0
100
AcDbLine
 10
0.9
 20
97.0
 30
0.0
 11
3.299999999999999
 21
97.0
 31
0.0
  0
LINE
  5
46
330
1E
100
AcDbEntity
  8
0
100
AcDbLine
 10
1.399999999999999
 20
137.0
 30
0.0
 11
3.799999999999999
 21
137.0
 31
0.0
  0
LINE
  5
47
330
1E
100
AcDbEntity
  8
0
100
AcDbLine
 10
1.399999999999999
 20
137.0
 30
0.0
 11
3.799999999999999
 21
137.0
 31
0.0
  0
LINE
  5
48
330
1E
100
AcDbEntity
  8
0
100
AcDbLine
 10
3.299999999999999
 20
136.4999999999999
 30
0.0
 11
7.299999999999999
 21
136.4999999999999
 31
0.0
  0
LINE
  5
49
330
1E
100
AcDbEntity
  8
0
100
AcDbLine
 10
7.299999999999999
 20
136.4999999999999
 30
0.0
 11
12.6
 21
136.4999999999999
 31
0.0
  0
LINE
  5
4A
330
1E
100
AcDbEntity
  8
0
100
AcDbLine
 10
7.299999999999999
 20
97.0
 30
0.0
 11
12.6
 21
97.0
 31
0.0
  0
LINE
  5
4B
330
1E
100
AcDbEntity
  8
0
100
AcDbLine
 10
3.799999999999999
 20
137.0
 30
0.0
 11
7.7
 21
137.0
 31
0.0
  0
LINE
  5
4C
330
1E
100
AcDbEntity
  8
0
100
AcDbLine
 10
3.299999999999999
 20
97.0
 30
0.0
 11
7.299999999999999
 21
97.0
 31
0.0
  0
LINE
  5
4D
330
1E
100
AcDbEntity
  8
0
100
AcDbLine
 10
1.9
 20
95.0
 30
0.0
 11
9.0
 21
95.0
 31
0.0
  0
LINE
  5
4E
330
1E
100
AcDbEntity
  8
0
100
AcDbLine
 10
1.0
 20
95.0
 30
0.0
 11
1.9
 21
95.0
 31
0.0
  0
LINE
  5
4F
330
1E
100
AcDbEntity
  8
0
100
AcDbLine
 10
1.0
 20
95.0
 30
0.0
 11
1.0
 21
97.0
 31
0.0
  0
LINE
  5
50
330
1E
100
AcDbEntity
  8
0
100
AcDbLine
 10
3.299999999999999
 20
94.0
 30
0.0
 11
7.299999999999999
 21
94.0
 31
0.0
  0
LINE
  5
51
330
1E
100
AcDbEntity
  8
0
100
AcDbLine
 10
0.8999999999999989
 20
94.0
 30
0.0
 11
3.299999999999999
 21
94.0
 31
0.0
  0
LINE
  5
52
330
1E
100
AcDbEntity
  8
0
100
AcDbLine
 10
3.299999999999999
 20
-0.0000000000000045
 30
0.0
 11
7.299999999999999
 21
-0.0000000000000041
 31
0.0
  0
LINE
  5
53
330
1E
100
AcDbEntity
  8
0
100
AcDbLine
 10
8.0
 20
92.5
 30
0.0
 11
8.0
 21
94.0
 31
0.0
  0
LINE
  5
54
330
1E
100
AcDbEntity
  8
0
100
AcDbLine
 10
8.579260000000001
 20
94.0
 30
0.0
 11
10.2776
 21
94.0
 31
0.0
  0
LINE
  5
55
330
1E
100
AcDbEntity
  8
0
100
AcDbLine
 10
12.6
 20
-0.0000000000000039
 30
0.0
 11
18.6
 21
-0.0000000000000037
 31
0.0
  0
LINE
  5
56
330
1E
100
AcDbEntity
  8
0
100
AcDbLine
 10
12.6
 20
-0.0000000000000039
 30
0.0
 11
25.0
 21
-0.0000000000000052
 31
0.0
  0
LINE
  5
57
330
1E
100
AcDbEntity
  8
0
100
AcDbLine
 10
17.432
 20
75.432
 30
0.0
 11
19.676
 21
73.716
 31
0.0
  0
LINE
  5
58
330
1E
100
AcDbEntity
  8
0
100
AcDbLine
 10
14.66
 20
80.22800000000001
 30
0.0
 11
15.716
 21
77.676
 31
0.0
  0
LINE
  5
5A
330
1E
100
AcDbEntity
  8
0
100
AcDbLine
 10
15.716
 20
77.676
 30
0.0
 11
17.432
 21
75.432
 31
0.0
  0
LINE
  5
5C
330
1E
100
AcDbEntity
  8
0
100
AcDbLine
 10
14.264
 20
83.0
 30
0.0
 11
14.66
 21
80.22800000000001
 31
0.0
  0
LINE
  5
5D
330
1E
100
AcDbEntity
  8
0
100
AcDbLine
 10
14.264
 20
83.0
 30
0.0
 11
14.66
 21
85.77200000000001
 31
0.0
  0
LINE
  5
5E
330
1E
100
AcDbEntity
  8
0
100
AcDbLine
 10
14.66
 20
85.77200000000001
 30
0.0
 11
15.716
 21
88.32399999999999
 31
0.0
  0
LINE
  5
62
330
1E
100
AcDbEntity
  8
0
100
AcDbLine
 10
15.6
 20
85.4367
 30
0.0
 11
16.55999999999999
 21
87.75669999999999
 31
0.0
  0
LINE
  5
64
330
1E
100
AcDbEntity
  8
0
100
AcDbLine
 10
15.716
 20
88.32399999999999
 30
0.0
 11
17.432
 21
90.568
 31
0.0
  0
LINE
  5
67
330
1E
100
AcDbEntity
  8
0
100
AcDbLine
 10
15.24
 20
82.91670000000001
 30
0.0
 11
15.6
 21
80.39669999999999
 31
0.0
  0
LINE
  5
68
330
1E
100
AcDbEntity
  8
0
100
AcDbLine
 10
15.24
 20
82.91670000000001
 30
0.0
 11
15.6
 21
85.4367
 31
0.0
  0
LINE
  5
69
330
1E
100
AcDbEntity
  8
0
100
AcDbLine
 10
15.6
 20
80.39669999999999
 30
0.0
 11
16.55999999999999
 21
78.0767
 31
0.0
  0
LINE
  5
6D
330
1E
100
AcDbEntity
  8
0
100
AcDbLine
 10
16.55999999999999
 20
87.75669999999999
 30
0.0
 11
18.12
 21
89.7967
 31
0.0
  0
LINE
  5
6E
330
1E
100
AcDbEntity
  8
0
100
AcDbLine
 10
18.12
 20
89.7967
 30
0.0
 11
20.16
 21
91.35670000000001
 31
0.0
  0
LINE
  5
6F
330
1E
100
AcDbEntity
  8
0
100
AcDbLine
 10
17.432
 20
90.568
 30
0.0
 11
19.676
 21
92.28399999999998
 31
0.0
  0
LINE
  5
72
330
1E
100
AcDbEntity
  8
0
100
AcDbLine
 10
16.55999999999999
 20
78.0767
 30
0.0
 11
18.12
 21
76.0367
 31
0.0
  0
LINE
  5
73
330
1E
100
AcDbEntity
  8
0
100
AcDbLine
 10
18.12
 20
76.0367
 30
0.0
 11
20.16
 21
74.47669999999999
 31
0.0
  0
LINE
  5
76
330
1E
100
AcDbEntity
  8
0
100
AcDbLine
 10
22.228
 20
72.66
 30
0.0
 11
25.0
 21
72.26399999999999
 31
0.0
  0
LINE
  5
78
330
1E
100
AcDbEntity
  8
0
100
AcDbLine
 10
25.0
 20
72.26399999999999
 30
0.0
 11
27.772
 21
72.66
 31
0.0
  0
LINE
  5
79
330
1E
100
AcDbEntity
  8
0
100
AcDbLine
 10
19.676
 20
73.716
 30
0.0
 11
22.228
 21
72.66
 31
0.0
  0
LINE
  5
7B
330
1E
100
AcDbEntity
  8
0
100
AcDbLine
 10
19.676
 20
92.28399999999998
 30
0.0
 11
22.228
 21
93.34000000000001
 31
0.0
  0
LINE
  5
7E
330
1E
100
AcDbEntity
  8
0
100
AcDbLine
 10
20.16
 20
91.35670000000001
 30
0.0
 11
22.48
 21
92.31669999999999
 31
0.0
  0
LINE
  5
7F
330
1E
100
AcDbEntity
  8
0
100
AcDbLine
 10
22.48
 20
92.31669999999999
 30
0.0
 11
25.0
 21
92.6767
 31
0.0
  0
LINE
  5
81
330
1E
100
AcDbEntity
  8
0
100
AcDbLine
 10
25.0
 20
92.6767
 30
0.0
 11
27.52
 21
92.31669999999999
 31
0.0
  0
LINE
  5
82
330
1E
100
AcDbEntity
  8
0
100
AcDbLine
 10
22.228
 20
93.34000000000001
 30
0.0
 11
25.0
 21
93.73600000000001
 31
0.0
  0
LINE
  5
83
330
1E
100
AcDbEntity
  8
0
100
AcDbLine
 10
25.0
 20
93.73600000000001
 30
0.0
 11
27.772
 21
93.34000000000001
 31
0.0
  0
LINE
  5
85
330
1E
100
AcDbEntity
  8
0
100
AcDbLine
 10
20.16
 20
74.47669999999999
 30
0.0
 11
22.48
 21
73.5167
 31
0.0
  0
LINE
  5
86
330
1E
100
AcDbEntity
  8
0
100
AcDbLine
 10
22.48
 20
73.5167
 30
0.0
 11
25.0
 21
73.1567
 31
0.0
  0
LINE
  5
88
330
1E
100
AcDbEntity
  8
0
100
AcDbLine
 10
25.0
 20
73.1567
 30
0.0
 11
27.52
 21
73.5167
 31
0.0
  0
LINE
  5
8A
330
1E
100
AcDbEntity
  8
0
100
AcDbLine
 10
25.0
 20
-0.0000000000000037
 30
0.0
 11
31.4
 21
-0.0000000000000037
 31
0.0
  0
LINE
  5
8B
330
1E
100
AcDbEntity
  8
0
100
AcDbLine
 10
25.0
 20
94.0
 30
0.0
 11
29.39989999999999
 21
94.0
 31
0.0
  0
LINE
  5
8D
330
1E
100
AcDbEntity
  8
0
100
AcDbLine
 10
30.324
 20
73.716
 30
0.0
 11
32.568
 21
75.432
 31
0.0
  0
LINE
  5
8E
330
1E
100
AcDbEntity
  8
0
100
AcDbLine
 10
27.772
 20
72.66
 30
0.0
 11
30.324
 21
73.716
 31
0.0
  0
LINE
  5
90
330
1E
100
AcDbEntity
  8
0
100
AcDbLine
 10
27.52
 20
73.5167
 30
0.0
 11
29.83999999999999
 21
74.47669999999999
 31
0.0
  0
LINE
  5
91
330
1E
100
AcDbEntity
  8
0
100
AcDbLine
 10
29.83999999999999
 20
91.35670000000001
 30
0.0
 11
31.88
 21
89.7967
 31
0.0
  0
LINE
  5
92
330
1E
100
AcDbEntity
  8
0
100
AcDbLine
 10
27.772
 20
93.34000000000001
 30
0.0
 11
30.324
 21
92.28399999999998
 31
0.0
  0
LINE
  5
94
330
1E
100
AcDbEntity
  8
0
100
AcDbLine
 10
27.52
 20
92.31669999999999
 30
0.0
 11
29.83999999999999
 21
91.35670000000001
 31
0.0
  0
LINE
  5
95
330
1E
100
AcDbEntity
  8
0
100
AcDbLine
 10
30.324
 20
92.28399999999998
 30
0.0
 11
32.568
 21
90.568
 31
0.0
  0
LINE
  5
98
330
1E
100
AcDbEntity
  8
0
100
AcDbLine
 10
29.83999999999999
 20
74.47669999999999
 30
0.0
 11
31.88
 21
76.0367
 31
0.0
  0
LINE
  5
9A
330
1E
100
AcDbEntity
  8
0
100
AcDbLine
 10
32.568
 20
75.432
 30
0.0
 11
34.28399999999999
 21
77.676
 31
0.0
  0
LINE
  5
9B
330
1E
100
AcDbEntity
  8
0
100
AcDbLine
 10
33.43999999999999
 20
87.75669999999999
 30
0.0
 11
34.39999999999999
 21
85.4367
 31
0.0
  0
LINE
  5
9C
330
1E
100
AcDbEntity
  8
0
100
AcDbLine
 10
31.88
 20
89.7967
 30
0.0
 11
33.43999999999999
 21
87.75669999999999
 31
0.0
  0
LINE
  5
9D
330
1E
100
AcDbEntity
  8
0
100
AcDbLine
 10
32.568
 20
90.568
 30
0.0
 11
34.28399999999999
 21
88.32399999999999
 31
0.0
  0
LINE
  5
A0
330
1E
100
AcDbEntity
  8
0
100
AcDbLine
 10
34.28399999999999
 20
77.676
 30
0.0
 11
35.34
 21
80.22800000000001
 31
0.0
  0
LINE
  5
A1
330
1E
100
AcDbEntity
  8
0
100
AcDbLine
 10
34.39999999999999
 20
85.4367
 30
0.0
 11
34.75999999999999
 21
82.91670000000001
 31
0.0
  0
LINE
  5
A2
330
1E
100
AcDbEntity
  8
0
100
AcDbLine
 10
34.28399999999999
 20
88.32399999999999
 30
0.0
 11
35.34
 21
85.77200000000001
 31
0.0
  0
LINE
  5
A6
330
1E
100
AcDbEntity
  8
0
100
AcDbLine
 10
34.39999999999999
 20
80.39669999999999
 30
0.0
 11
34.75999999999999
 21
82.91670000000001
 31
0.0
  0
LINE
  5
A7
330
1E
100
AcDbEntity
  8
0
100
AcDbLine
 10
33.43999999999999
 20
78.0767
 30
0.0
 11
34.39999999999999
 21
80.39669999999999
 31
0.0
  0
LINE
  5
A8
330
1E
100
AcDbEntity
  8
0
100
AcDbLine
 10
31.88
 20
76.0367
 30
0.0
 11
33.43999999999999
 21
78.0767
 31
0.0
  0
LINE
  5
A9
330
1E
100
AcDbEntity
  8
0
100
AcDbLine
 10
35.34
 20
85.77200000000001
 30
0.0
 11
35.73599999999999
 21
83.0
 31
0.0
  0
LINE
  5
AB
330
1E
100
AcDbEntity
  8
0
100
AcDbLine
 10
35.34
 20
80.22800000000001
 30
0.0
 11
35.73599999999999
 21
83.0
 31
0.0
  0
LINE
  5
AF
330
1E
100
AcDbEntity
  8
0
100
AcDbLine
 10
31.4
 20
-0.0000000000000037
 30
0.0
 11
37.4
 21
-0.0000000000000039
 31
0.0
  0
LINE
  5
B0
330
1E
100
AcDbEntity
  8
0
100
AcDbLine
 10
29.39989999999999
 20
94.0
 30
0.0
 11
33.5
 21
94.0
 31
0.0
  0
LINE
  5
B1
330
1E
100
AcDbEntity
  8
0
100
AcDbLine
 10
37.4
 20
-0.0000000000000039
 30
0.0
 11
42.7
 21
-0.0000000000000041
 31
0.0
  0
LINE
  5
B2
330
1E
100
AcDbEntity
  8
0
100
AcDbLine
 10
42.0
 20
94.0
 30
0.0
 11
42.0
 21
92.5
 31
0.0
  0
LINE
  5
B3
330
1E
100
AcDbEntity
  8
0
100
AcDbLine
 10
42.0
 20
94.0
 30
0.0
 11
42.7
 21
94.0
 31
0.0
  0
LINE
  5
B4
330
1E
100
AcDbEntity
  8
0
100
AcDbLine
 10
37.0208
 20
94.0
 30
0.0
 11
39.7224
 21
94.0
 31
0.0
  0
LINE
  5
B5
330
1E
100
AcDbEntity
  8
0
100
AcDbLine
 10
33.5
 20
94.0
 30
0.0
 11
37.0208
 21
94.0
 31
0.0
  0
LINE
  5
B6
330
1E
100
AcDbEntity
  8
0
100
AcDbLine
 10
42.7
 20
94.0
 30
0.0
 11
46.7
 21
94.0
 31
0.0
  0
LINE
  5
B7
330
1E
100
AcDbEntity
  8
0
100
AcDbLine
 10
50.0
 20
94.0
 30
0.0
 11
50.0
 21
0.0
 31
0.0
  0
LINE
  5
B8
330
1E
100
AcDbEntity
  8
0
100
AcDbLine
 10
46.7
 20
94.0
 30
0.0
 11
49.1
 21
94.0
 31
0.0
  0
LINE
  5
B9
330
1E
100
AcDbEntity
  8
0
100
AcDbLine
 10
49.1
 20
94.0
 30
0.0
 11
50.0
 21
94.0
 31
0.0
  0
LINE
  5
BA
330
1E
100
AcDbEntity
  8
0
100
AcDbLine
 10
42.7
 20
-0.0000000000000041
 30
0.0
 11
46.7
 21
-0.0000000000000045
 31
0.0
  0
LINE
  5
BB
330
1E
100
AcDbEntity
  8
0
100
AcDbLine
 10
46.7
 20
-0.0000000000000045
 30
0.0
 11
49.1
 21
-0.0000000000000048
 31
0.0
  0
LINE
  5
BC
330
1E
100
AcDbEntity
  8
0
100
AcDbLine
 10
42.0
 20
92.5
 30
0.0
 11
42.0
 21
94.0
 31
0.0
  0
LINE
  5
BD
330
1E
100
AcDbEntity
  8
0
100
AcDbLine
 10
41.42069999999999
 20
94.0
 30
0.0
 11
42.0
 21
94.0
 31
0.0
  0
LINE
  5
BF
330
1E
100
AcDbEntity
  8
0
100
AcDbLine
 10
39.7224
 20
94.0
 30
0.0
 11
41.42069999999999
 21
94.0
 31
0.0
  0
LINE
  5
C0
330
1E
100
AcDbEntity
  8
0
100
AcDbLine
 10
18.6
 20
-0.0000000000000037
 30
0.0
 11
25.0
 21
-0.0000000000000037
 31
0.0
  0
LINE
  5
C1
330
1E
100
AcDbEntity
  8
0
100
AcDbLine
 10
18.6
 20
-0.0000000000000037
 30
0.0
 11
25.0
 21
-0.0000000000000052
 31
0.0
  0
LINE
  5
C2
330
1E
100
AcDbEntity
  8
0
100
AcDbLine
 10
20.6001
 20
94.0
 30
0.0
 11
25.0
 21
94.0
 31
0.0
  0
LINE
  5
C3
330
1E
100
AcDbEntity
  8
0
100
AcDbLine
 10
12.9792
 20
94.0
 30
0.0
 11
16.5
 21
94.0
 31
0.0
  0
LINE
  5
C4
330
1E
100
AcDbEntity
  8
0
100
AcDbLine
 10
16.5
 20
94.0
 30
0.0
 11
20.6001
 21
94.0
 31
0.0
  0
LINE
  5
C5
330
1E
100
AcDbEntity
  8
0
100
AcDbLine
 10
10.2776
 20
94.0
 30
0.0
 11
12.9792
 21
94.0
 31
0.0
  0
LINE
  5
C6
330
1E
100
AcDbEntity
  8
0
100
AcDbLine
 10
9.0
 20
95.0
 30
0.0
 11
9.545189999999999
 21
95.0
 31
0.0
  0
LINE
  5
C7
330
1E
100
AcDbEntity
  8
0
100
AcDbLine
 10
7.7
 20
137.0
 30
0.0
 11
12.8
 21
137.0
 31
0.0
  0
LINE
  5
C8
330
1E
100
AcDbEntity
  8
0
100
AcDbLine
 10
9.545189999999999
 20
95.0
 30
0.0
 11
11.1436
 21
95.0
 31
0.0
  0
LINE
  5
C9
330
1E
100
AcDbEntity
  8
0
100
AcDbLine
 10
25.0
 20
95.0
 30
0.0
 11
29.1411
 21
95.0
 31
0.0
  0
LINE
  5
CA
330
1E
100
AcDbEntity
  8
0
100
AcDbLine
 10
29.1411
 20
95.0
 30
0.0
 11
33.0
 21
95.0
 31
0.0
  0
LINE
  5
CB
330
1E
100
AcDbEntity
  8
0
100
AcDbLine
 10
36.31369999999999
 20
95.0
 30
0.0
 11
38.8564
 21
95.0
 31
0.0
  0
LINE
  5
CC
330
1E
100
AcDbEntity
  8
0
100
AcDbLine
 10
33.0
 20
95.0
 30
0.0
 11
36.31369999999999
 21
95.0
 31
0.0
  0
LINE
  5
CD
330
1E
100
AcDbEntity
  8
0
100
AcDbLine
 10
41.0
 20
95.0
 30
0.0
 11
48.1
 21
95.0
 31
0.0
  0
LINE
  5
CE
330
1E
100
AcDbEntity
  8
0
100
AcDbLine
 10
48.1
 20
95.0
 30
0.0
 11
49.0
 21
95.0
 31
0.0
  0
LINE
  5
CF
330
1E
100
AcDbEntity
  8
0
100
AcDbLine
 10
49.0
 20
95.0
 30
0.0
 11
49.0
 21
97.0
 31
0.0
  0
LINE
  5
D0
330
1E
100
AcDbEntity
  8
0
100
AcDbLine
 10
49.0
 20
95.0
 30
0.0
 11
50.0
 21
94.0
 31
0.0
  0
LINE
  5
D1
330
1E
100
AcDbEntity
  8
0
100
AcDbLine
 10
41.0
 20
95.0
 30
0.0
 11
42.0
 21
94.0
 31
0.0
  0
LINE
  5
D2
330
1E
100
AcDbEntity
  8
0
100
AcDbLine
 10
40.4548
 20
95.0
 30
0.0
 11
41.0
 21
95.0
 31
0.0
  0
LINE
  5
D3
330
1E
100
AcDbEntity
  8
0
100
AcDbLine
 10
38.8564
 20
95.0
 30
0.0
 11
40.4548
 21
95.0
 31
0.0
  0
LINE
  5
D4
330
1E
100
AcDbEntity
  8
0
100
AcDbLine
 10
20.8589
 20
95.0
 30
0.0
 11
25.0
 21
95.0
 31
0.0
  0
LINE
  5
D5
330
1E
100
AcDbEntity
  8
0
100
AcDbLine
 10
13.6863
 20
95.0
 30
0.0
 11
17.0
 21
95.0
 31
0.0
  0
LINE
  5
D6
330
1E
100
AcDbEntity
  8
0
100
AcDbLine
 10
18.6
 20
136.4999999999999
 30
0.0
 11
19.3
 21
136.4999999999999
 31
0.0
  0
LINE
  5
D7
330
1E
100
AcDbEntity
  8
0
100
AcDbLine
 10
18.6
 20
120.5
 30
0.0
 11
19.45319999999999
 21
120.0
 31
0.0
  0
LINE
  5
D8
330
1E
100
AcDbEntity
  8
0
100
AcDbLine
 10
12.8
 20
137.0
 30
0.0
 11
18.7
 21
137.0
 31
0.0
  0
LINE
  5
D9
330
1E
100
AcDbEntity
  8
0
100
AcDbLine
 10
12.6
 20
136.4999999999999
 30
0.0
 11
18.6
 21
136.4999999999999
 31
0.0
  0
LINE
  5
DA
330
1E
100
AcDbEntity
  8
0
100
AcDbLine
 10
12.6
 20
97.0
 30
0.0
 11
18.6
 21
97.0
 31
0.0
  0
LINE
  5
DB
330
1E
100
AcDbEntity
  8
0
100
AcDbLine
 10
19.45319999999999
 20
120.0
 30
0.0
 11
20.22089999999999
 21
120.0
 31
0.0
  0
LINE
  5
DC
330
1E
100
AcDbEntity
  8
0
100
AcDbLine
 10
19.45319999999999
 20
120.0
 30
0.0
 11
25.0
 21
120.0
 31
0.0
  0
LINE
  5
DD
330
1E
100
AcDbEntity
  8
0
100
AcDbLine
 10
20.22089999999999
 20
120.0
 30
0.0
 11
21.1
 21
120.0
 31
0.0
  0
LINE
  5
DE
330
1E
100
AcDbEntity
  8
0
100
AcDbLine
 10
21.1
 20
120.0
 30
0.0
 11
21.49999999999999
 21
120.0
 31
0.0
  0
LINE
  5
DF
330
1E
100
AcDbEntity
  8
0
100
AcDbLine
 10
21.49999999999999
 20
120.0
 30
0.0
 11
21.6
 21
120.0
 31
0.0
  0
LINE
  5
E0
330
1E
100
AcDbEntity
  8
0
100
AcDbLine
 10
21.6
 20
120.0
 30
0.0
 11
21.89999999999999
 21
120.0
 31
0.0
  0
LINE
  5
E1
330
1E
100
AcDbEntity
  8
0
100
AcDbLine
 10
22.87599999999999
 20
103.9609999999999
 30
0.0
 11
23.51199999999999
 21
103.481
 31
0.0
  0
LINE
  5
E3
330
1E
100
AcDbEntity
  8
0
100
AcDbLine
 10
22.396
 20
104.597
 30
0.0
 11
22.87599999999999
 21
103.9609999999999
 31
0.0
  0
LINE
  5
E5
330
1E
100
AcDbEntity
  8
0
100
AcDbLine
 10
22.108
 20
105.317
 30
0.0
 11
22.396
 21
104.597
 31
0.0
  0
LINE
  5
E7
330
1E
100
AcDbEntity
  8
0
100
AcDbLine
 10
22.87599999999999
 20
108.2089999999999
 30
0.0
 11
23.51199999999999
 21
108.6889999999999
 31
0.0
  0
LINE
  5
E9
330
1E
100
AcDbEntity
  8
0
100
AcDbLine
 10
22.396
 20
107.5729999999999
 30
0.0
 11
22.87599999999999
 21
108.2089999999999
 31
0.0
  0
LINE
  5
EB
330
1E
100
AcDbEntity
  8
0
100
AcDbLine
 10
22.108
 20
106.8529999999999
 30
0.0
 11
22.396
 21
107.5729999999999
 31
0.0
  0
LINE
  5
ED
330
1E
100
AcDbEntity
  8
0
100
AcDbLine
 10
22.0
 20
106.0849999999999
 30
0.0
 11
22.108
 21
105.317
 31
0.0
  0
LINE
  5
EF
330
1E
100
AcDbEntity
  8
0
100
AcDbLine
 10
22.0
 20
106.0849999999999
 30
0.0
 11
22.108
 21
106.8529999999999
 31
0.0
  0
LINE
  5
F0
330
1E
100
AcDbEntity
  8
0
100
AcDbLine
 10
21.89999999999999
 20
120.0
 30
0.0
 11
22.5
 21
120.0
 31
0.0
  0
LINE
  5
F1
330
1E
100
AcDbEntity
  8
0
100
AcDbLine
 10
22.5
 20
120.0
 30
0.0
 11
23.3
 21
120.0
 31
0.0
  0
LINE
  5
F2
330
1E
100
AcDbEntity
  8
0
100
AcDbLine
 10
42.7
 20
97.0
 30
0.0
 11
46.7
 21
97.0
 31
0.0
  0
LINE
  5
F3
330
1E
100
AcDbEntity
  8
0
100
AcDbLine
 10
46.7
 20
97.0
 30
0.0
 11
49.1
 21
97.0
 31
0.0
  0
LINE
  5
F4
330
1E
100
AcDbEntity
  8
0
100
AcDbLine
 10
37.4
 20
97.0
 30
0.0
 11
42.7
 21
97.0
 31
0.0
  0
LINE
  5
F5
330
1E
100
AcDbEntity
  8
0
100
AcDbLine
 10
31.4
 20
97.0
 30
0.0
 11
37.4
 21
97.0
 31
0.0
  0
LINE
  5
F6
330
1E
100
AcDbEntity
  8
0
100
AcDbLine
 10
25.0
 20
97.0
 30
0.0
 11
31.4
 21
97.0
 31
0.0
  0
LINE
  5
F7
330
1E
100
AcDbEntity
  8
0
100
AcDbLine
 10
49.1
 20
97.0
 30
0.0
 11
50.0
 21
97.0
 31
0.0
  0
LINE
  5
F8
330
1E
100
AcDbEntity
  8
0
100
AcDbLine
 10
50.0
 20
97.0
 30
0.0
 11
50.0
 21
136.4999999999999
 31
0.0
  0
LINE
  5
F9
330
1E
100
AcDbEntity
  8
0
100
AcDbLine
 10
49.0
 20
97.0
 30
0.0
 11
49.0
 21
95.0
 31
0.0
  0
LINE
  5
FA
330
1E
100
AcDbEntity
  8
0
100
AcDbLine
 10
25.768
 20
103.193
 30
0.0
 11
26.488
 21
103.481
 31
0.0
  0
LINE
  5
FB
330
1E
100
AcDbEntity
  8
0
100
AcDbLine
 10
26.488
 20
103.481
 30
0.0
 11
27.124
 21
103.9609999999999
 31
0.0
  0
LINE
  5
FD
330
1E
100
AcDbEntity
  8
0
100
AcDbLine
 10
25.0
 20
103.085
 30
0.0
 11
25.768
 21
103.193
 31
0.0
  0
LINE
  5
FE
330
1E
100
AcDbEntity
  8
0
100
AcDbLine
 10
24.232
 20
103.193
 30
0.0
 11
25.0
 21
103.085
 31
0.0
  0
LINE
  5
100
330
1E
100
AcDbEntity
  8
0
100
AcDbLine
 10
27.124
 20
103.9609999999999
 30
0.0
 11
27.604
 21
104.597
 31
0.0
  0
LINE
  5
101
330
1E
100
AcDbEntity
  8
0
100
AcDbLine
 10
24.232
 20
108.977
 30
0.0
 11
25.0
 21
109.0849999999999
 31
0.0
  0
LINE
  5
103
330
1E
100
AcDbEntity
  8
0
100
AcDbLine
 10
23.51199999999999
 20
108.6889999999999
 30
0.0
 11
24.232
 21
108.977
 31
0.0
  0
LINE
  5
105
330
1E
100
AcDbEntity
  8
0
100
AcDbLine
 10
25.0
 20
120.0
 30
0.0
 11
25.89999999999999
 21
120.0
 31
0.0
  0
LINE
  5
106
330
1E
100
AcDbEntity
  8
0
100
AcDbLine
 10
25.0
 20
120.0
 30
0.0
 11
30.5468
 21
120.0
 31
0.0
  0
LINE
  5
107
330
1E
100
AcDbEntity
  8
0
100
AcDbLine
 10
25.0
 20
109.0849999999999
 30
0.0
 11
25.768
 21
108.977
 31
0.0
  0
LINE
  5
109
330
1E
100
AcDbEntity
  8
0
100
AcDbLine
 10
25.89999999999999
 20
120.0
 30
0.0
 11
26.69999999999999
 21
120.0
 31
0.0
  0
LINE
  5
10A
330
1E
100
AcDbEntity
  8
0
100
AcDbLine
 10
25.768
 20
108.977
 30
0.0
 11
26.488
 21
108.6889999999999
 31
0.0
  0
LINE
  5
10B
330
1E
100
AcDbEntity
  8
0
100
AcDbLine
 10
27.5
 20
120.0
 30
0.0
 11
28.1
 21
120.0
 31
0.0
  0
LINE
  5
10C
330
1E
100
AcDbEntity
  8
0
100
AcDbLine
 10
26.69999999999999
 20
120.0
 30
0.0
 11
27.5
 21
120.0
 31
0.0
  0
LINE
  5
10D
330
1E
100
AcDbEntity
  8
0
100
AcDbLine
 10
26.488
 20
108.6889999999999
 30
0.0
 11
27.124
 21
108.2089999999999
 31
0.0
  0
LINE
  5
10E
330
1E
100
AcDbEntity
  8
0
100
AcDbLine
 10
27.124
 20
108.2089999999999
 30
0.0
 11
27.604
 21
107.5729999999999
 31
0.0
  0
LINE
  5
10F
330
1E
100
AcDbEntity
  8
0
100
AcDbLine
 10
27.604
 20
107.5729999999999
 30
0.0
 11
27.892
 21
106.8529999999999
 31
0.0
  0
LINE
  5
110
330
1E
100
AcDbEntity
  8
0
100
AcDbLine
 10
27.892
 20
106.8529999999999
 30
0.0
 11
28.0
 21
106.0849999999999
 31
0.0
  0
LINE
  5
11E
330
1E
100
AcDbEntity
  8
0
100
AcDbLine
 10
27.604
 20
104.597
 30
0.0
 11
27.892
 21
105.317
 31
0.0
  0
LINE
  5
11F
330
1E
100
AcDbEntity
  8
0
100
AcDbLine
 10
30.5468
 20
120.0
 30
0.0
 11
31.4
 21
120.5
 31
0.0
  0
LINE
  5
120
330
1E
100
AcDbEntity
  8
0
100
AcDbLine
 10
29.77909999999999
 20
120.0
 30
0.0
 11
30.5468
 21
120.0
 31
0.0
  0
LINE
  5
121
330
1E
100
AcDbEntity
  8
0
100
AcDbLine
 10
28.9
 20
120.0
 30
0.0
 11
29.77909999999999
 21
120.0
 31
0.0
  0
LINE
  5
122
330
1E
100
AcDbEntity
  8
0
100
AcDbLine
 10
28.5
 20
120.0
 30
0.0
 11
28.9
 21
120.0
 31
0.0
  0
LINE
  5
123
330
1E
100
AcDbEntity
  8
0
100
AcDbLine
 10
28.39999999999999
 20
120.0
 30
0.0
 11
28.5
 21
120.0
 31
0.0
  0
LINE
  5
124
330
1E
100
AcDbEntity
  8
0
100
AcDbLine
 10
28.1
 20
120.0
 30
0.0
 11
28.39999999999999
 21
120.0
 31
0.0
  0
LINE
  5
125
330
1E
100
AcDbEntity
  8
0
100
AcDbLine
 10
27.892
 20
105.317
 30
0.0
 11
28.0
 21
106.0849999999999
 31
0.0
  0
LINE
  5
126
330
1E
100
AcDbEntity
  8
0
100
AcDbLine
 10
23.51199999999999
 20
103.481
 30
0.0
 11
24.232
 21
103.193
 31
0.0
  0
LINE
  5
128
330
1E
100
AcDbEntity
  8
0
100
AcDbLine
 10
23.3
 20
120.0
 30
0.0
 11
24.1
 21
120.0
 31
0.0
  0
LINE
  5
131
330
1E
100
AcDbEntity
  8
0
100
AcDbLine
 10
19.3
 20
136.4999999999999
 30
0.0
 11
20.0
 21
136.4999999999999
 31
0.0
  0
LINE
  5
132
330
1E
100
AcDbEntity
  8
0
100
AcDbLine
 10
20.0
 20
136.4999999999999
 30
0.0
 11
20.6
 21
136.4999999999999
 31
0.0
  0
LINE
  5
133
330
1E
100
AcDbEntity
  8
0
100
AcDbLine
 10
20.6
 20
136.4999999999999
 30
0.0
 11
20.89999999999999
 21
136.4999999999999
 31
0.0
  0
LINE
  5
134
330
1E
100
AcDbEntity
  8
0
100
AcDbLine
 10
20.89999999999999
 20
136.4999999999999
 30
0.0
 11
21.0
 21
136.4999999999999
 31
0.0
  0
LINE
  5
136
330
1E
100
AcDbEntity
  8
0
100
AcDbLine
 10
21.0
 20
136.4999999999999
 30
0.0
 11
21.1
 21
136.4999999999999
 31
0.0
  0
LINE
  5
138
330
1E
100
AcDbEntity
  8
0
100
AcDbLine
 10
21.1
 20
136.4999999999999
 30
0.0
 11
21.49999999999999
 21
136.4999999999999
 31
0.0
  0
LINE
  5
139
330
1E
100
AcDbEntity
  8
0
100
AcDbLine
 10
21.49999999999999
 20
136.4999999999999
 30
0.0
 11
22.2
 21
136.4999999999999
 31
0.0
  0
LINE
  5
13A
330
1E
100
AcDbEntity
  8
0
100
AcDbLine
 10
22.2
 20
136.4999999999999
 30
0.0
 11
23.0
 21
136.4999999999999
 31
0.0
  0
LINE
  5
13B
330
1E
100
AcDbEntity
  8
0
100
AcDbLine
 10
18.7
 20
137.0
 30
0.0
 11
19.6
 21
137.0
 31
0.0
  0
LINE
  5
13C
330
1E
100
AcDbEntity
  8
0
100
AcDbLine
 10
19.6
 20
137.0
 30
0.0
 11
20.4
 21
137.0
 31
0.0
  0
LINE
  5
13D
330
1E
100
AcDbEntity
  8
0
100
AcDbLine
 10
20.4
 20
137.0
 30
0.0
 11
21.1
 21
137.0
 31
0.0
  0
LINE
  5
13E
330
1E
100
AcDbEntity
  8
0
100
AcDbLine
 10
21.1
 20
137.0
 30
0.0
 11
21.49999999999999
 21
137.0
 31
0.0
  0
LINE
  5
13F
330
1E
100
AcDbEntity
  8
0
100
AcDbLine
 10
21.49999999999999
 20
137.0
 30
0.0
 11
21.6
 21
137.0
 31
0.0
  0
LINE
  5
140
330
1E
100
AcDbEntity
  8
0
100
AcDbLine
 10
21.6
 20
137.0
 30
0.0
 11
21.89999999999999
 21
137.0
 31
0.0
  0
LINE
  5
141
330
1E
100
AcDbEntity
  8
0
100
AcDbLine
 10
21.89999999999999
 20
137.0
 30
0.0
 11
22.5
 21
137.0
 31
0.0
  0
LINE
  5
142
330
1E
100
AcDbEntity
  8
0
100
AcDbLine
 10
22.5
 20
137.0
 30
0.0
 11
23.3
 21
137.0
 31
0.0
  0
LINE
  5
143
330
1E
100
AcDbEntity
  8
0
100
AcDbLine
 10
23.3
 20
137.0
 30
0.0
 11
24.1
 21
137.0
 31
0.0
  0
LINE
  5
144
330
1E
100
AcDbEntity
  8
0
100
AcDbLine
 10
23.0
 20
136.4999999999999
 30
0.0
 11
24.0
 21
136.4999999999999
 31
0.0
  0
LINE
  5
145
330
1E
100
AcDbEntity
  8
0
100
AcDbLine
 10
24.0
 20
136.4999999999999
 30
0.0
 11
25.0
 21
136.4999999999999
 31
0.0
  0
LINE
  5
147
330
1E
100
AcDbEntity
  8
0
100
AcDbLine
 10
25.0
 20
137.0
 30
0.0
 11
25.89999999999999
 21
137.0
 31
0.0
  0
LINE
  5
148
330
1E
100
AcDbEntity
  8
0
100
AcDbLine
 10
25.0
 20
136.4999999999999
 30
0.0
 11
26.0
 21
136.4999999999999
 31
0.0
  0
LINE
  5
151
330
1E
100
AcDbEntity
  8
0
100
AcDbLine
 10
25.89999999999999
 20
137.0
 30
0.0
 11
26.69999999999999
 21
137.0
 31
0.0
  0
LINE
  5
152
330
1E
100
AcDbEntity
  8
0
100
AcDbLine
 10
42.7
 20
136.4999999999999
 30
0.0
 11
46.7
 21
136.4999999999999
 31
0.0
  0
LINE
  5
153
330
1E
100
AcDbEntity
  8
0
100
AcDbLine
 10
46.7
 20
136.4999999999999
 30
0.0
 11
49.1
 21
136.4999999999999
 31
0.0
  0
LINE
  5
154
330
1E
100
AcDbEntity
  8
0
100
AcDbLine
 10
50.0
 20
136.4999999999999
 30
0.0
 11
50.0
 21
97.0
 31
0.0
  0
LINE
  5
155
330
1E
100
AcDbEntity
  8
0
100
AcDbLine
 10
49.1
 20
136.4999999999999
 30
0.0
 11
50.0
 21
136.4999999999999
 31
0.0
  0
LINE
  5
156
330
1E
100
AcDbEntity
  8
0
100
AcDbLine
 10
37.4
 20
136.4999999999999
 30
0.0
 11
42.7
 21
136.4999999999999
 31
0.0
  0
LINE
  5
157
330
1E
100
AcDbEntity
  8
0
100
AcDbLine
 10
31.4
 20
136.4999999999999
 30
0.0
 11
37.4
 21
136.4999999999999
 31
0.0
  0
LINE
  5
158
330
1E
100
AcDbEntity
  8
0
100
AcDbLine
 10
30.7
 20
136.4999999999999
 30
0.0
 11
31.4
 21
136.4999999999999
 31
0.0
  0
LINE
  5
159
330
1E
100
AcDbEntity
  8
0
100
AcDbLine
 10
30.0
 20
136.4999999999999
 30
0.0
 11
30.7
 21
136.4999999999999
 31
0.0
  0
LINE
  5
15A
330
1E
100
AcDbEntity
  8
0
100
AcDbLine
 10
29.39999999999999
 20
136.4999999999999
 30
0.0
 11
30.0
 21
136.4999999999999
 31
0.0
  0
LINE
  5
15B
330
1E
100
AcDbEntity
  8
0
100
AcDbLine
 10
29.1
 20
136.4999999999999
 30
0.0
 11
29.39999999999999
 21
136.4999999999999
 31
0.0
  0
LINE
  5
15D
330
1E
100
AcDbEntity
  8
0
100
AcDbLine
 10
29.0
 20
136.4999999999999
 30
0.0
 11
29.1
 21
136.4999999999999
 31
0.0
  0
LINE
  5
15E
330
1E
100
AcDbEntity
  8
0
100
AcDbLine
 10
28.9
 20
136.4999999999999
 30
0.0
 11
29.0
 21
136.4999999999999
 31
0.0
  0
LINE
  5
15F
330
1E
100
AcDbEntity
  8
0
100
AcDbLine
 10
28.5
 20
136.4999999999999
 30
0.0
 11
28.9
 21
136.4999999999999
 31
0.0
  0
LINE
  5
160
330
1E
100
AcDbEntity
  8
0
100
AcDbLine
 10
27.8
 20
136.4999999999999
 30
0.0
 11
28.5
 21
136.4999999999999
 31
0.0
  0
LINE
  5
161
330
1E
100
AcDbEntity
  8
0
100
AcDbLine
 10
42.29999999999999
 20
137.0
 30
0.0
 11
46.2
 21
137.0
 31
0.0
  0
LINE
  5
162
330
1E
100
AcDbEntity
  8
0
100
AcDbLine
 10
46.2
 20
137.0
 30
0.0
 11
48.6
 21
137.0
 31
0.0
  0
LINE
  5
163
330
1E
100
AcDbEntity
  8
0
100
AcDbLine
 10
49.5
 20
137.0
 30
0.0
 11
50.0
 21
136.4999999999999
 31
0.0
  0
LINE
  5
164
330
1E
100
AcDbEntity
  8
0
100
AcDbLine
 10
48.6
 20
137.0
 30
0.0
 11
49.5
 21
137.0
 31
0.0
  0
LINE
  5
165
330
1E
100
AcDbEntity
  8
0
100
AcDbLine
 10
37.2
 20
137.0
 30
0.0
 11
42.29999999999999
 21
137.0
 31
0.0
  0
LINE
  5
166
330
1E
100
AcDbEntity
  8
0
100
AcDbLine
 10
31.3
 20
137.0
 30
0.0
 11
37.2
 21
137.0
 31
0.0
  0
LINE
  5
167
330
1E
100
AcDbEntity
  8
0
100
AcDbLine
 10
30.4
 20
137.0
 30
0.0
 11
31.3
 21
137.0
 31
0.0
  0
LINE
  5
168
330
1E
100
AcDbEntity
  8
0
100
AcDbLine
 10
29.6
 20
137.0
 30
0.0
 11
30.4
 21
137.0
 31
0.0
  0
LINE
  5
169
330
1E
100
AcDbEntity
  8
0
100
AcDbLine
 10
28.9
 20
137.0
 30
0.0
 11
29.6
 21
137.0
 31
0.0
  0
LINE
  5
16A
330
1E
100
AcDbEntity
  8
0
100
AcDbLine
 10
28.5
 20
137.0
 30
0.0
 11
28.9
 21
137.0
 31
0.0
  0
LINE
  5
16C
330
1E
100
AcDbEntity
  8
0
100
AcDbLine
 10
28.39999999999999
 20
137.0
 30
0.0
 11
28.5
 21
137.0
 31
0.0
  0
LINE
  5
16D
330
1E
100
AcDbEntity
  8
0
100
AcDbLine
 10
28.1
 20
137.0
 30
0.0
 11
28.39999999999999
 21
137.0
 31
0.0
  0
LINE
  5
16E
330
1E
100
AcDbEntity
  8
0
100
AcDbLine
 10
27.5
 20
137.0
 30
0.0
 11
28.1
 21
137.0
 31
0.0
  0
LINE
  5
16F
330
1E
100
AcDbEntity
  8
0
100
AcDbLine
 10
26.69999999999999
 20
137.0
 30
0.0
 11
27.5
 21
137.0
 31
0.0
  0
LINE
  5
170
330
1E
100
AcDbEntity
  8
0
100
AcDbLine
 10
27.0
 20
136.4999999999999
 30
0.0
 11
27.8
 21
136.4999999999999
 31
0.0
  0
LINE
  5
171
330
1E
100
AcDbEntity
  8
0
100
AcDbLine
 10
26.0
 20
136.4999999999999
 30
0.0
 11
27.0
 21
136.4999999999999
 31
0.0
  0
LINE
  5
174
330
1E
100
AcDbEntity
  8
0
100
AcDbLine
 10
24.1
 20
137.0
 30
0.0
 11
25.0
 21
137.0
 31
0.0
  0
LINE
  5
176
330
1E
100
AcDbEntity
  8
0
100
AcDbLine
 10
24.1
 20
120.0
 30
0.0
 11
25.0
 21
120.0
 31
0.0
  0
LINE
  5
177
330
1E
100
AcDbEntity
  8
0
100
AcDbLine
 10
18.6
 20
97.0
 30
0.0
 11
25.0
 21
97.0
 31
0.0
  0
LINE
  5
178
330
1E
100
AcDbEntity
  8
0
100
AcDbLine
 10
17.0
 20
95.0
 30
0.0
 11
20.8589
 21
95.0
 31
0.0
  0
LINE
  5
179
330
1E
100
AcDbEntity
  8
0
100
AcDbLine
 10
11.1436
 20
95.0
 30
0.0
 11
13.6863
 21
95.0
 31
0.0
  0
LINE
  5
17A
330
1E
100
AcDbEntity
  8
0
100
AcDbLine
 10
8.0
 20
94.0
 30
0.0
 11
9.0
 21
95.0
 31
0.0
  0
LINE
  5
17B
330
1E
100
AcDbEntity
  8
0
100
AcDbLine
 10
8.0
 20
94.0
 30
0.0
 11
8.0
 21
92.5
 31
0.0
  0
LINE
  5
17C
330
1E
100
AcDbEntity
  8
0
100
AcDbLine
 10
8.0
 20
94.0
 30
0.0
 11
8.579260000000001
 21
94.0
 31
0.0
  0
LINE
  5
17D
330
1E
100
AcDbEntity
  8
0
100
AcDbLine
 10
8.0
 20
94.0
 30
0.0
 11
8.0
 21
92.5
 31
0.0
  0
LINE
  5
17E
330
1E
100
AcDbEntity
  8
0
100
AcDbLine
 10
7.299999999999999
 20
-0.0000000000000041
 30
0.0
 11
25.0
 21
-0.0000000000000052
 31
0.0
  0
LINE
  5
17F
330
1E
100
AcDbEntity
  8
0
100
AcDbLine
 10
0.8999999999999989
 20
-0.0000000000000048
 30
0.0
 11
3.299999999999999
 21
-0.0000000000000045
 31
0.0
  0
LINE
  5
180
330
1E
100
AcDbEntity
  8
0
100
AcDbLine
 10
-0.0000000000000005
 20
-0.0000000000000052
 30
0.0
 11
0.9
 21
-0.0000000000000048
 31
0.0
  0
LINE
  5
181
330
1E
100
AcDbEntity
  8
0
100
AcDbLine
 10
-0.0000000000000005
 20
-0.0000000000000052
 30
0.0
 11
0.9
 21
-0.0000000000000056
 31
0.0
  0
LINE
  5
182
330
1E
100
AcDbEntity
  8
0
100
AcDbLine
 10
-0.0000000000000005
 20
-0.0000000000000052
 30
0.0
 11
-0.0000000000000005
 21
94.0
 31
0.0
  0
LINE
  5
187
330
1E
100
AcDbEntity
  8
0
100
AcDbLine
 10
31.4
 20
120.5
 30
0.0
 11
31.4
 21
136.4999999999999
 31
0.0
  0
LINE
  5
188
330
1E
100
AcDbEntity
  8
0
100
AcDbLine
 10
18.6
 20
120.5
 30
0.0
 11
18.6
 21
136.4999999999999
 31
0.0
  0
LINE
  5
189
330
1E
100
AcDbEntity
  8
0
100
AcDbLine
 10
8.0
 20
92.5
 30
0.0
 11
8.941564597494334
 21
81.70426869948181
 31
0.0
  0
LINE
  5
18A
330
1E
100
AcDbEntity
  8
0
100
AcDbLine
 10
8.941564597494334
 20
81.70426869948181
 30
0.0
 11
10.07608066508066
 21
77.54713696603653
 31
0.0
  0
LINE
  5
18B
330
1E
100
AcDbEntity
  8
0
100
AcDbLine
 10
10.07608066508066
 20
77.54713696603653
 30
0.0
 11
11.36186531902672
 21
75.279610419873
 31
0.0
  0
LINE
  5
18C
330
1E
100
AcDbEntity
  8
0
100
AcDbLine
 10
11.36186531902672
 20
75.279610419873
 30
0.0
 11
13.85779999976102
 21
73.314421089385
 31
0.0
  0
LINE
  5
18D
330
1E
100
AcDbEntity
  8
0
100
AcDbLine
 10
13.85779999976102
 20
73.314421089385
 30
0.0
 11
17.03444432104731
 21
71.87832076134037
 31
0.0
  0
LINE
  5
18E
330
1E
100
AcDbEntity
  8
0
100
AcDbLine
 10
17.03444432104731
 20
71.87832076134037
 30
0.0
 11
20.28672326949117
 21
71.19806315105922
 31
0.0
  0
LINE
  5
18F
330
1E
100
AcDbEntity
  8
0
100
AcDbLine
 10
20.28672326949117
 20
71.19806315105922
 30
0.0
 11
23.23646437726006
 21
71.04689454322147
 31
0.0
  0
LINE
  5
190
330
1E
100
AcDbEntity
  8
0
100
AcDbLine
 10
23.23646437726006
 20
71.04689454322147
 30
0.0
 11
25.0
 21
71.0
 31
0.0
  0
LINE
  5
191
330
1E
100
AcDbEntity
  8
0
100
AcDbLine
 10
26.76353562273993
 20
71.04689454322147
 30
0.0
 11
25.0
 21
71.0
 31
0.0
  0
LINE
  5
192
330
1E
100
AcDbEntity
  8
0
100
AcDbLine
 10
32.96555567895268
 20
71.87832076134037
 30
0.0
 11
29.71327673050882
 21
71.19806315105922
 31
0.0
  0
LINE
  5
193
330
1E
100
AcDbEntity
  8
0
100
AcDbLine
 10
36.14220000023897
 20
73.314421089385
 30
0.0
 11
32.96555567895268
 21
71.87832076134037
 31
0.0
  0
LINE
  5
194
330
1E
100
AcDbEntity
  8
0
100
AcDbLine
 10
29.71327673050882
 20
71.19806315105922
 30
0.0
 11
26.76353562273993
 21
71.04689454322147
 31
0.0
  0
LINE
  5
195
330
1E
100
AcDbEntity
  8
0
100
AcDbLine
 10
38.63813468097328
 20
75.279610419873
 30
0.0
 11
36.14220000023897
 21
73.314421089385
 31
0.0
  0
LINE
  5
196
330
1E
100
AcDbEntity
  8
0
100
AcDbLine
 10
39.92391933491933
 20
77.54713696603653
 30
0.0
 11
38.63813468097328
 21
75.279610419873
 31
0.0
  0
LINE
  5
197
330
1E
100
AcDbEntity
  8
0
100
AcDbLine
 10
41.05843540250567
 20
81.70426869948181
 30
0.0
 11
39.92391933491933
 21
77.54713696603653
 31
0.0
  0
LINE
  5
198
330
1E
100
AcDbEntity
  8
0
100
AcDbLine
 10
42.0
 20
92.5
 30
0.0
 11
41.05843540250567
 21
81.70426869948181
 31
0.0
  0
ENDSEC
  0
SECTION
  2
OBJECTS
  0
DICTIONARY
  5
C
330
0
100
AcDbDictionary
281
     1
  3
ACAD_GROUP
350
D
  3
ACAD_LAYOUT
350
19
  3
ACAD_MLINESTYLE
350
16
  3
ACAD_PLOTSETTINGS
350
18
  3
ACAD_PLOTSTYLENAME
350
E
  3
AcDbVariableDictionary
350
199
  0
DICTIONARY
  5
D
102
{ACAD_REACTORS
330
C
102
}
330
C
100
AcDbDictionary
281
     1
  0
DICTIONARY
  5
19
102
{ACAD_REACTORS
330
C
102
}
330
C
100
AcDbDictionary
281
     1
  3
Layout1
350
1D
  3
Model
350
21
  0
DICTIONARY
  5
16
102
{ACAD_REACTORS
330
C
102
}
330
C
100
AcDbDictionary
281
     1
  3
Standard
350
17
  0
DICTIONARY
  5
18
102
{ACAD_REACTORS
330
C
102
}
330
C
100
AcDbDictionary
281
     1
  0
ACDBDICTIONARYWDFLT
  5
E
102
{ACAD_REACTORS
330
C
102
}
330
C
100
AcDbDictionary
281
     1
  3
Normal
350
F
100
AcDbDictionaryWithDefault
340
F
  0
DICTIONARY
  5
199
102
{ACAD_REACTORS
330
C
102
}
330
C
100
AcDbDictionary
281
     1
  3
DIMASSOC
350
19A
  0
LAYOUT
  5
1D
102
{ACAD_REACTORS
330
19
102
}
330
19
100
AcDbPlotSettings
  1

  2
hp deskjet 980c series
  4

  6

 40
0.0
 41
0.0
 42
0.0
 43
0.0
 44
0.0
 45
0.0
 46
0.0
 47
0.0
 48
0.0
 49
0.0
140
0.0
141
0.0
142
1.0
143
1.0
 70
   688
 72
     0
 73
     0
 74
     5
  7

 75
    16
147
1.0
148
0.0
149
0.0
100
AcDbLayout
  1
Layout1
 70
     1
 71
     1
 10
0.0
 20
0.0
 11
12.0
 21
9.0
 12
0.0
 22
0.0
 32
0.0
 14
1.000000000000000E+20
 24
1.000000000000000E+20
 34
1.000000000000000E+20
 15
-1.000000000000000E+20
 25
-1.000000000000000E+20
 35
-1.000000000000000E+20
146
0.0
 13
0.0
 23
0.0
 33
0.0
 16
1.0
 26
0.0
 36
0.0
 17
0.0
 27
1.0
 37
0.0
 76
     0
330
1A
  0
LAYOUT
  5
21
102
{ACAD_REACTORS
330
19
102
}
330
19
100
AcDbPlotSettings
  1

  2
hp deskjet 980c series
  4

  6

 40
0.0
 41
0.0
 42
0.0
 43
0.0
 44
0.0
 45
0.0
 46
0.0
 47
0.0
 48
0.0
 49
0.0
140
0.0
141
0.0
142
1.0
143
1.0
 70
  1712
 72
     0
 73
     0
 74
     0
  7

 75
     0
147
1.0
148
0.0
149
0.0
100
AcDbLayout
  1
Model
 70
     1
 71
     0
 10
0.0
 20
0.0
 11
12.0
 21
9.0
 12
0.0
 22
0.0
 32
0.0
 14
0.0
 24
0.0
 34
0.0
 15
0.0
 25
0.0
 35
0.0
146
0.0
 13
0.0
 23
0.0
 33
0.0
 16
1.0
 26
0.0
 36
0.0
 17
0.0
 27
1.0
 37
0.0
 76
     0
330
1E
  0
MLINESTYLE
  5
17
102
{ACAD_REACTORS
330
16
102
}
330
16
100
AcDbMlineStyle
  2
STANDARD
 70
     0
  3

 62
   256
 51
90.0
 52
90.0
 71
     2
 49
0.5
 62
   256
  6
BYLAYER
 49
-0.5
 62
   256
  6
BYLAYER
  0
ACDBPLACEHOLDER
  5
F
102
{ACAD_REACTORS
330
E
102
}
330
E
  0
DICTIONARYVAR
  5
19A
102
{ACAD_REACTORS
330
199
102
}
330
199
100
DictionaryVariables
280
     0
  1
1
  0
ENDSEC
  0
EOF
