  0
SECTION
  2
HEADER
  9
$ACADVER
  1
AC1014
  9
$ACADMAINTVER
 70
     9
  9
$DWGCODEPAGE
  3
ANSI_1252
  9
$INSBASE
 10
0.0
 20
0.0
 30
0.0
  9
$EXTMIN
 10
0.147857999999989
 20
0.143569999999982
 30
0.0
  9
$EXTMAX
 10
198.8521419999999
 20
185.85643
 30
0.0
  9
$LIMMIN
 10
0.0
 20
0.0
  9
$LIMMAX
 10
12.0
 20
9.0
  9
$ORTHOMODE
 70
     0
  9
$REGENMODE
 70
     1
  9
$FILLMODE
 70
     1
  9
$QTEXTMODE
 70
     0
  9
$MIRRTEXT
 70
     1
  9
$DRAGMODE
 70
     2
  9
$LTSCALE
 40
1.0
  9
$OSMODE
 70
    37
  9
$ATTMODE
 70
     1
  9
$TEXTSIZE
 40
0.2
  9
$TRACEWID
 40
0.05
  9
$TEXTSTYLE
  7
STANDARD
  9
$CLAYER
  8
0
  9
$CELTYPE
  6
CONTINUOUS
  9
$CECOLOR
 62
   256
  9
$CELTSCALE
 40
1.0
  9
$DELOBJ
 70
     1
  9
$DISPSILH
 70
     0
  9
$DIMSCALE
 40
1.0
  9
$DIMASZ
 40
0.18
  9
$DIMEXO
 40
0.0625
  9
$DIMDLI
 40
0.38
  9
$DIMRND
 40
0.0
  9
$DIMDLE
 40
0.0
  9
$DIMEXE
 40
0.18
  9
$DIMTP
 40
0.0
  9
$DIMTM
 40
0.0
  9
$DIMTXT
 40
0.18
  9
$DIMCEN
 40
0.09
  9
$DIMTSZ
 40
0.0
  9
$DIMTOL
 70
     0
  9
$DIMLIM
 70
     0
  9
$DIMTIH
 70
     1
  9
$DIMTOH
 70
     1
  9
$DIMSE1
 70
     0
  9
$DIMSE2
 70
     0
  9
$DIMTAD
 70
     0
  9
$DIMZIN
 70
     0
  9
$DIMBLK
  1

  9
$DIMASO
 70
     1
  9
$DIMSHO
 70
     1
  9
$DIMPOST
  1

  9
$DIMAPOST
  1

  9
$DIMALT
 70
     0
  9
$DIMALTD
 70
     2
  9
$DIMALTF
 40
25.4
  9
$DIMLFAC
 40
1.0
  9
$DIMTOFL
 70
     0
  9
$DIMTVP
 40
0.0
  9
$DIMTIX
 70
     0
  9
$DIMSOXD
 70
     0
  9
$DIMSAH
 70
     0
  9
$DIMBLK1
  1

  9
$DIMBLK2
  1

  9
$DIMSTYLE
  2
STANDARD
  9
$DIMCLRD
 70
     0
  9
$DIMCLRE
 70
     0
  9
$DIMCLRT
 70
     0
  9
$DIMTFAC
 40
1.0
  9
$DIMGAP
 40
0.09
  9
$DIMJUST
 70
     0
  9
$DIMSD1
 70
     0
  9
$DIMSD2
 70
     0
  9
$DIMTOLJ
 70
     1
  9
$DIMTZIN
 70
     0
  9
$DIMALTZ
 70
     0
  9
$DIMALTTZ
 70
     0
  9
$DIMFIT
 70
     3
  9
$DIMUPT
 70
     0
  9
$DIMUNIT
 70
     2
  9
$DIMDEC
 70
     4
  9
$DIMTDEC
 70
     4
  9
$DIMALTU
 70
     2
  9
$DIMALTTD
 70
     2
  9
$DIMTXSTY
  7
STANDARD
  9
$DIMAUNIT
 70
     0
  9
$LUNITS
 70
     2
  9
$LUPREC
 70
     4
  9
$SKETCHINC
 40
0.1
  9
$FILLETRAD
 40
0.0
  9
$AUNITS
 70
     0
  9
$AUPREC
 70
     0
  9
$MENU
  1
.
  9
$ELEVATION
 40
0.0
  9
$PELEVATION
 40
0.0
  9
$THICKNESS
 40
0.0
  9
$LIMCHECK
 70
     0
  9
$BLIPMODE
 70
     0
  9
$CHAMFERA
 40
0.0
  9
$CHAMFERB
 40
0.0
  9
$CHAMFERC
 40
0.0
  9
$CHAMFERD
 40
0.0
  9
$SKPOLY
 70
     0
  9
$TDCREATE
 40
2454697.459989329
  9
$TDUPDATE
 40
2454697.464297778
  9
$TDINDWG
 40
0.0043086227
  9
$TDUSRTIMER
 40
0.0043086227
  9
$USRTIMER
 70
     1
  9
$ANGBASE
 50
0.0
  9
$ANGDIR
 70
     0
  9
$PDMODE
 70
     0
  9
$PDSIZE
 40
0.0
  9
$PLINEWID
 40
0.0
  9
$COORDS
 70
     1
  9
$SPLFRAME
 70
     0
  9
$SPLINETYPE
 70
     6
  9
$SPLINESEGS
 70
     8
  9
$ATTDIA
 70
     0
  9
$ATTREQ
 70
     1
  9
$HANDLING
 70
 22529
  9
$HANDSEED
  5
51F
  9
$SURFTAB1
 70
     6
  9
$SURFTAB2
 70
     6
  9
$SURFTYPE
 70
     6
  9
$SURFU
 70
     6
  9
$SURFV
 70
     6
  9
$UCSNAME
  2

  9
$UCSORG
 10
0.0
 20
0.0
 30
0.0
  9
$UCSXDIR
 10
1.0
 20
0.0
 30
0.0
  9
$UCSYDIR
 10
0.0
 20
1.0
 30
0.0
  9
$PUCSNAME
  2

  9
$PUCSORG
 10
0.0
 20
0.0
 30
0.0
  9
$PUCSXDIR
 10
1.0
 20
0.0
 30
0.0
  9
$PUCSYDIR
 10
0.0
 20
1.0
 30
0.0
  9
$USERI1
 70
     0
  9
$USERI2
 70
     0
  9
$USERI3
 70
     0
  9
$USERI4
 70
     0
  9
$USERI5
 70
     0
  9
$USERR1
 40
0.0
  9
$USERR2
 40
0.0
  9
$USERR3
 40
0.0
  9
$USERR4
 40
0.0
  9
$USERR5
 40
0.0
  9
$WORLDVIEW
 70
     1
  9
$SHADEDGE
 70
     3
  9
$SHADEDIF
 70
    70
  9
$TILEMODE
 70
     1
  9
$MAXACTVP
 70
    64
  9
$PINSBASE
 10
0.0
 20
0.0
 30
0.0
  9
$PLIMCHECK
 70
     0
  9
$PEXTMIN
 10
1.000000000000000E+20
 20
1.000000000000000E+20
 30
1.000000000000000E+20
  9
$PEXTMAX
 10
-1.000000000000000E+20
 20
-1.000000000000000E+20
 30
-1.000000000000000E+20
  9
$PLIMMIN
 10
0.0
 20
0.0
  9
$PLIMMAX
 10
12.0
 20
9.0
  9
$UNITMODE
 70
     0
  9
$VISRETAIN
 70
     1
  9
$PLINEGEN
 70
     0
  9
$PSLTSCALE
 70
     1
  9
$TREEDEPTH
 70
  3020
  9
$PICKSTYLE
 70
     1
  9
$CMLSTYLE
  2
STANDARD
  9
$CMLJUST
 70
     0
  9
$CMLSCALE
 40
1.0
  9
$PROXYGRAPHICS
 70
     1
  9
$MEASUREMENT
 70
     0
  0
ENDSEC
  0
SECTION
  2
CLASSES
  0
CLASS
  1
ACDBDICTIONARYWDFLT
  2
AcDbDictionaryWithDefault
  3
AutoCAD 2000
 90
        0
280
     0
281
     0
  0
CLASS
  1
ACDBPLACEHOLDER
  2
AcDbPlaceHolder
  3
AutoCAD 2000
 90
        0
280
     0
281
     0
  0
CLASS
  1
LAYOUT
  2
AcDbLayout
  3
AutoCAD 2000
 90
        0
280
     0
281
     0
  0
CLASS
  1
DICTIONARYVAR
  2
AcDbDictionaryVar
  3
AutoCAD 2000
 90
        0
280
     0
281
     0
  0
CLASS
  1
LONG_TRANSACTION
  2
AcDbLongTransaction
  3
AutoCAD 2000
 90
        0
280
     0
281
     0
  0
CLASS
  1
LWPOLYLINE
  2
AcDbPolyline
  3
AutoCAD 2000
 90
        0
280
     0
281
     1
  0
CLASS
  1
HATCH
  2
AcDbHatch
  3
AutoCAD 2000
 90
        0
280
     0
281
     1
  0
CLASS
  1
XRECORD
  2
AcDbXrecord
  3
AutoCAD 2000
 90
        0
280
     0
281
     0
  0
ENDSEC
  0
SECTION
  2
TABLES
  0
TABLE
  2
VPORT
  5
8
330
0
100
AcDbSymbolTable
 70
     4
  0
VPORT
  5
4FA
330
8
100
AcDbSymbolTableRecord
100
AcDbViewportTableRecord
  2
*ACTIVE
 70
     0
 10
0.0
 20
0.0
 11
1.0
 21
1.0
 12
99.49999999999999
 22
93.0
 13
0.0
 23
0.0
 14
1.0
 24
1.0
 15
0.0
 25
0.0
 16
0.0
 26
0.0
 36
1.0
 17
0.0
 27
0.0
 37
0.0
 40
187.1377668542199
 41
2.078104993597951
 42
50.0
 43
0.0
 44
0.0
 50
0.0
 51
0.0
 71
     0
 72
   100
 73
     1
 74
     3
 75
     0
 76
     0
 77
     0
 78
     0
  0
ENDTAB
  0
TABLE
  2
LTYPE
  5
5
330
0
100
AcDbSymbolTable
 70
     1
  0
LTYPE
  5
13
330
5
100
AcDbSymbolTableRecord
100
AcDbLinetypeTableRecord
  2
BYBLOCK
 70
     0
  3

 72
    65
 73
     0
 40
0.0
  0
LTYPE
  5
14
330
5
100
AcDbSymbolTableRecord
100
AcDbLinetypeTableRecord
  2
BYLAYER
 70
     0
  3

 72
    65
 73
     0
 40
0.0
  0
LTYPE
  5
15
330
5
100
AcDbSymbolTableRecord
100
AcDbLinetypeTableRecord
  2
CONTINUOUS
 70
     0
  3
Solid line
 72
    65
 73
     0
 40
0.0
  0
ENDTAB
  0
TABLE
  2
LAYER
  5
2
330
0
100
AcDbSymbolTable
 70
     1
  0
LAYER
  5
10
330
2
100
AcDbSymbolTableRecord
100
AcDbLayerTableRecord
  2
0
 70
     0
 62
     7
  6
CONTINUOUS
  0
ENDTAB
  0
TABLE
  2
STYLE
  5
3
330
0
100
AcDbSymbolTable
 70
     1
  0
STYLE
  5
11
330
3
100
AcDbSymbolTableRecord
100
AcDbTextStyleTableRecord
  2
STANDARD
 70
     0
 40
0.0
 41
1.0
 50
0.0
 71
     0
 42
0.2
  3
txt
  4

  0
ENDTAB
  0
TABLE
  2
VIEW
  5
6
330
0
100
AcDbSymbolTable
 70
     0
  0
ENDTAB
  0
TABLE
  2
UCS
  5
7
330
0
100
AcDbSymbolTable
 70
     0
  0
ENDTAB
  0
TABLE
  2
APPID
  5
9
330
0
100
AcDbSymbolTable
 70
     1
  0
APPID
  5
12
330
9
100
AcDbSymbolTableRecord
100
AcDbRegAppTableRecord
  2
ACAD
 70
     0
  0
ENDTAB
  0
TABLE
  2
DIMSTYLE
  5
A
330
0
100
AcDbSymbolTable
 70
     1
  0
DIMSTYLE
105
4AA
330
A
100
AcDbSymbolTableRecord
100
AcDbDimStyleTableRecord
  2
STANDARD
 70
     0
  3

  4

  5

  6

  7

 40
1.0
 41
0.18
 42
0.0625
 43
0.38
 44
0.18
 45
0.0
 46
0.0
 47
0.0
 48
0.0
140
0.18
141
0.09
142
0.0
143
25.4
144
1.0
145
0.0
146
1.0
147
0.09
 71
     0
 72
     0
 73
     1
 74
     1
 75
     0
 76
     0
 77
     0
 78
     0
170
     0
171
     2
172
     0
173
     0
174
     0
175
     0
176
     0
177
     0
178
     0
270
     2
271
     4
272
     4
273
     2
274
     2
340
11
275
     0
280
     0
281
     0
282
     0
283
     1
284
     0
285
     0
286
     0
287
     3
288
     0
  0
ENDTAB
  0
TABLE
  2
BLOCK_RECORD
  5
1
330
0
100
AcDbSymbolTable
 70
     0
  0
BLOCK_RECORD
  5
1E
102
{ACAD_XDICTIONARY
360
51D
102
}
330
1
100
AcDbSymbolTableRecord
100
AcDbBlockTableRecord
  2
*MODEL_SPACE
  0
BLOCK_RECORD
  5
1A
102
{ACAD_XDICTIONARY
360
51B
102
}
330
1
100
AcDbSymbolTableRecord
100
AcDbBlockTableRecord
  2
*PAPER_SPACE
  0
ENDTAB
  0
ENDSEC
  0
SECTION
  2
BLOCKS
  0
BLOCK
  5
1F
330
1E
100
AcDbEntity
  8
0
100
AcDbBlockBegin
  2
*MODEL_SPACE
 70
     0
 10
0.0
 20
0.0
 30
0.0
  3
*MODEL_SPACE
  1

  0
ENDBLK
  5
20
330
1E
100
AcDbEntity
  8
0
100
AcDbBlockEnd
  0
BLOCK
  5
1B
330
1A
100
AcDbEntity
 67
     1
  8
0
100
AcDbBlockBegin
  2
*PAPER_SPACE
 70
     0
 10
0.0
 20
0.0
 30
0.0
  3
*PAPER_SPACE
  1

  0
ENDBLK
  5
1C
330
1A
100
AcDbEntity
 67
     1
  8
0
100
AcDbBlockEnd
  0
ENDSEC
  0
SECTION
  2
ENTITIES
  0
LINE
  5
23
330
1E
100
AcDbEntity
  8
0
100
AcDbLine
 10
65.263542
 20
118.14043
 30
0.0
 11
65.763042
 21
117.79043
 31
0.0
  0
LINE
  5
26
330
1E
100
AcDbEntity
  8
0
100
AcDbLine
 10
68.4934320146708
 20
115.879135505928
 30
0.0
 11
68.99054200000001
 21
115.53043
 31
0.0
  0
LINE
  5
27
330
1E
100
AcDbEntity
  8
0
100
AcDbLine
 10
68.706142
 20
115.73043
 30
0.0
 11
69.31344200000001
 21
115.30443
 31
0.0
  0
LINE
  5
29
330
1E
100
AcDbEntity
  8
0
100
AcDbLine
 10
68.184042
 20
116.0954299999999
 30
0.0
 11
68.4934320146708
 21
115.879135505928
 31
0.0
  0
LINE
  5
2A
330
1E
100
AcDbEntity
  8
0
100
AcDbLine
 10
68.184042
 20
116.0954299999999
 30
0.0
 11
68.706142
 21
115.73043
 31
0.0
  0
LINE
  5
2C
330
1E
100
AcDbEntity
  8
0
100
AcDbLine
 10
68.99054200000001
 20
115.53043
 30
0.0
 11
69.20325198534261
 21
115.381724494062
 31
0.0
  0
LINE
  5
2D
330
1E
100
AcDbEntity
  8
0
100
AcDbLine
 10
69.31344200000001
 20
115.30443
 30
0.0
 11
69.65504200000001
 21
115.06543
 31
0.0
  0
LINE
  5
2F
330
1E
100
AcDbEntity
  8
0
100
AcDbLine
 10
69.20325198534261
 20
115.381724494062
 30
0.0
 11
69.31344200000001
 21
115.30443
 31
0.0
  0
LINE
  5
30
330
1E
100
AcDbEntity
  8
0
100
AcDbLine
 10
67.8709482764759
 20
116.314577092797
 30
0.0
 11
68.142042
 21
116.12443
 31
0.0
  0
LINE
  5
31
330
1E
100
AcDbEntity
  8
0
100
AcDbLine
 10
67.74974199999999
 20
116.39943
 30
0.0
 11
67.8709482764759
 21
116.314577092797
 31
0.0
  0
LINE
  5
32
330
1E
100
AcDbEntity
  8
0
100
AcDbLine
 10
67.74974199999999
 20
116.39943
 30
0.0
 11
68.17684200000001
 21
116.10043
 31
0.0
  0
LINE
  5
34
330
1E
100
AcDbEntity
  8
0
100
AcDbLine
 10
65.836942
 20
117.73943
 30
0.0
 11
66.4358241489909
 21
118.5946030102409
 31
0.0
  0
LINE
  5
35
330
1E
100
AcDbEntity
  8
0
100
AcDbLine
 10
65.763042
 20
117.79043
 30
0.0
 11
65.836942
 21
117.73943
 31
0.0
  0
LINE
  5
37
330
1E
100
AcDbEntity
  8
0
100
AcDbLine
 10
66.672142
 20
117.15443
 30
0.0
 11
67.12684200000001
 21
116.83543
 31
0.0
  0
LINE
  5
39
330
1E
100
AcDbEntity
  8
0
100
AcDbLine
 10
66.9495142933455
 20
116.9598362863929
 30
0.0
 11
67.12684200000001
 21
116.83543
 31
0.0
  0
LINE
  5
3A
330
1E
100
AcDbEntity
  8
0
100
AcDbLine
 10
66.637342
 20
117.17843
 30
0.0
 11
66.9495142933455
 21
116.9598362863929
 31
0.0
  0
LINE
  5
3B
330
1E
100
AcDbEntity
  8
0
100
AcDbLine
 10
66.637342
 20
117.17843
 30
0.0
 11
67.08239659127309
 21
117.8139451429739
 31
0.0
  0
LINE
  5
3C
330
1E
100
AcDbEntity
  8
0
100
AcDbLine
 10
66.637342
 20
117.17843
 30
0.0
 11
67.14947988784199
 21
117.9097366518049
 31
0.0
  0
LINE
  5
3D
330
1E
100
AcDbEntity
  8
0
100
AcDbLine
 10
67.12684200000001
 20
116.83543
 30
0.0
 11
67.74974199999999
 21
116.39943
 31
0.0
  0
LINE
  5
3F
330
1E
100
AcDbEntity
  8
0
100
AcDbLine
 10
65.46314200000001
 20
118.00043
 30
0.0
 11
65.508760905944
 21
117.968577312864
 31
0.0
  0
LINE
  5
40
330
1E
100
AcDbEntity
  8
0
100
AcDbLine
 10
65.46314200000001
 20
118.00043
 30
0.0
 11
65.51996284690339
 21
117.960755732901
 31
0.0
  0
LINE
  5
41
330
1E
100
AcDbEntity
  8
0
100
AcDbLine
 10
69.51480621053021
 20
115.163545789471
 30
0.0
 11
70.152842
 21
114.71643
 31
0.0
  0
LINE
  5
42
330
1E
100
AcDbEntity
  8
0
100
AcDbLine
 10
70.152842
 20
114.71643
 30
0.0
 11
70.7497574380442
 21
115.569240672031
 31
0.0
  0
LINE
  5
43
330
1E
100
AcDbEntity
  8
0
100
AcDbLine
 10
69.90714200000001
 20
114.88943
 30
0.0
 11
70.152842
 21
114.71643
 31
0.0
  0
LINE
  5
45
330
1E
100
AcDbEntity
  8
0
100
AcDbLine
 10
69.6551844103831
 20
115.065633337001
 30
0.0
 11
69.90714200000001
 21
114.88943
 31
0.0
  0
LINE
  5
46
330
1E
100
AcDbEntity
  8
0
100
AcDbLine
 10
64.84374200000001
 20
118.43443
 30
0.0
 11
65.46314200000001
 21
118.00043
 31
0.0
  0
LINE
  5
47
330
1E
100
AcDbEntity
  8
0
100
AcDbLine
 10
64.61330286955599
 20
118.5958988601709
 30
0.0
 11
64.84374200000001
 21
118.43443
 31
0.0
  0
LINE
  5
48
330
1E
100
AcDbEntity
  8
0
100
AcDbLine
 10
64.644042
 20
118.57443
 30
0.0
 11
65.263542
 21
118.14043
 31
0.0
  0
LINE
  5
4A
330
1E
100
AcDbEntity
  8
0
100
AcDbLine
 10
64.270342
 20
118.83543
 30
0.0
 11
64.6149946043856
 21
119.327876707862
 31
0.0
  0
LINE
  5
4B
330
1E
100
AcDbEntity
  8
0
100
AcDbLine
 10
64.270342
 20
118.83543
 30
0.0
 11
64.644042
 21
118.57443
 31
0.0
  0
LINE
  5
4C
330
1E
100
AcDbEntity
  8
0
100
AcDbLine
 10
64.270342
 20
118.83543
 30
0.0
 11
64.81954579494311
 21
119.620143643023
 31
0.0
  0
LINE
  5
4D
330
1E
100
AcDbEntity
  8
0
100
AcDbLine
 10
66.2477593557417
 20
118.326056125625
 30
0.0
 11
67.08239659127309
 21
117.8139451429739
 31
0.0
  0
LINE
  5
4E
330
1E
100
AcDbEntity
  8
0
100
AcDbLine
 10
84.21444200000001
 20
108.10843
 30
0.0
 11
87.36774200000001
 21
107.18343
 31
0.0
  0
LINE
  5
4F
330
1E
100
AcDbEntity
  8
0
100
AcDbLine
 10
81.40844200000001
 20
109.42743
 30
0.0
 11
84.21444200000001
 21
108.10843
 31
0.0
  0
LINE
  5
50
330
1E
100
AcDbEntity
  8
0
100
AcDbLine
 10
78.814142
 20
110.74143
 30
0.0
 11
81.40844200000001
 21
109.42743
 31
0.0
  0
LINE
  5
51
330
1E
100
AcDbEntity
  8
0
100
AcDbLine
 10
75.61354200000001
 20
112.6244299999999
 30
0.0
 11
78.814142
 21
110.74143
 31
0.0
  0
LINE
  5
52
330
1E
100
AcDbEntity
  8
0
100
AcDbLine
 10
72.7783838041298
 20
114.556629728236
 30
0.0
 11
75.61354200000001
 21
112.6244299999999
 31
0.0
  0
LINE
  5
53
330
1E
100
AcDbEntity
  8
0
100
AcDbLine
 10
84.57990695414622
 20
117.8860974531958
 30
0.0
 11
86.27344200000001
 21
116.78543
 31
0.0
  0
LINE
  5
54
330
1E
100
AcDbEntity
  8
0
100
AcDbLine
 10
84.57990695414629
 20
117.8860974531959
 30
0.0
 11
84.726542
 21
118.09543
 31
0.0
  0
LINE
  5
55
330
1E
100
AcDbEntity
  8
0
100
AcDbLine
 10
84.57990695414629
 20
117.8860974531959
 30
0.0
 11
84.726542
 21
118.09543
 31
0.0
  0
LINE
  5
56
330
1E
100
AcDbEntity
  8
0
100
AcDbLine
 10
72.028042
 20
114.77943
 30
0.0
 11
72.7783838041298
 21
114.556629728236
 31
0.0
  0
LINE
  5
57
330
1E
100
AcDbEntity
  8
0
100
AcDbLine
 10
70.7470694426885
 20
115.565400343939
 30
0.0
 11
72.028042
 21
114.77943
 31
0.0
  0
LINE
  5
58
330
1E
100
AcDbEntity
  8
0
100
AcDbLine
 10
28.459742
 20
142.75043
 30
0.0
 11
28.79557967070999
 21
143.229947176275
 31
0.0
  0
LINE
  5
5A
330
1E
100
AcDbEntity
  8
0
100
AcDbLine
 10
27.76454199999999
 20
143.23743
 30
0.0
 11
27.996242
 21
143.07543
 31
0.0
  0
LINE
  5
5C
330
1E
100
AcDbEntity
  8
0
100
AcDbLine
 10
28.228042
 20
142.9124299999999
 30
0.0
 11
28.459742
 21
142.75043
 31
0.0
  0
LINE
  5
5E
330
1E
100
AcDbEntity
  8
0
100
AcDbLine
 10
27.7093972758917
 20
143.275982758957
 30
0.0
 11
28.228042
 21
142.9124299999999
 31
0.0
  0
LINE
  5
5F
330
1E
100
AcDbEntity
  8
0
100
AcDbLine
 10
17.991942
 20
150.38043
 30
0.0
 11
18.599342
 21
149.9554299999999
 31
0.0
  0
LINE
  5
61
330
1E
100
AcDbEntity
  8
0
100
AcDbLine
 10
18.599342
 20
149.9554299999999
 30
0.0
 11
19.121342
 21
149.59043
 31
0.0
  0
LINE
  5
63
330
1E
100
AcDbEntity
  8
0
100
AcDbLine
 10
19.263742
 20
149.4904299999999
 30
0.0
 11
19.46563690486949
 21
149.778700444714
 31
0.0
  0
LINE
  5
64
330
1E
100
AcDbEntity
  8
0
100
AcDbLine
 10
19.121342
 20
149.59043
 30
0.0
 11
19.263742
 21
149.4904299999999
 31
0.0
  0
LINE
  5
66
330
1E
100
AcDbEntity
  8
0
100
AcDbLine
 10
19.828442
 20
149.5244299999999
 30
0.0
 11
20.060142
 21
149.36243
 31
0.0
  0
LINE
  5
68
330
1E
100
AcDbEntity
  8
0
100
AcDbLine
 10
19.249142
 20
149.93043
 30
0.0
 11
19.828442
 21
149.5244299999999
 31
0.0
  0
LINE
  5
6A
330
1E
100
AcDbEntity
  8
0
100
AcDbLine
 10
20.060142
 20
149.36243
 30
0.0
 11
20.49355255130489
 21
149.981318050769
 31
0.0
  0
LINE
  5
6B
330
1E
100
AcDbEntity
  8
0
100
AcDbLine
 10
19.908242
 20
149.03943
 30
0.0
 11
19.98214199999999
 21
148.98743
 31
0.0
  0
LINE
  5
6C
330
1E
100
AcDbEntity
  8
0
100
AcDbLine
 10
19.908242
 20
149.03943
 30
0.0
 11
20.3679335892383
 21
149.69578880681
 31
0.0
  0
LINE
  5
6D
330
1E
100
AcDbEntity
  8
0
100
AcDbLine
 10
19.98214199999999
 20
148.98743
 30
0.0
 11
20.48164199999999
 21
148.63743
 31
0.0
  0
LINE
  5
6F
330
1E
100
AcDbEntity
  8
0
100
AcDbLine
 10
18.922142
 20
149.72943
 30
0.0
 11
19.263742
 21
149.4904299999999
 31
0.0
  0
LINE
  5
70
330
1E
100
AcDbEntity
  8
0
100
AcDbLine
 10
18.438242
 20
150.49843
 30
0.0
 11
18.669942
 21
150.3354299999999
 31
0.0
  0
LINE
  5
71
330
1E
100
AcDbEntity
  8
0
100
AcDbLine
 10
18.438242
 20
150.49843
 30
0.0
 11
18.96947187925499
 21
151.256932913371
 31
0.0
  0
LINE
  5
72
330
1E
100
AcDbEntity
  8
0
100
AcDbLine
 10
18.669942
 20
150.3354299999999
 30
0.0
 11
19.249142
 21
149.93043
 31
0.0
  0
LINE
  5
74
330
1E
100
AcDbEntity
  8
0
100
AcDbLine
 10
18.314842
 20
150.1544299999999
 30
0.0
 11
18.922142
 21
149.72943
 31
0.0
  0
LINE
  5
75
330
1E
100
AcDbEntity
  8
0
100
AcDbLine
 10
18.26940613612339
 20
150.186287329845
 30
0.0
 11
18.314842
 21
150.1544299999999
 31
0.0
  0
LINE
  5
76
330
1E
100
AcDbEntity
  8
0
100
AcDbLine
 10
17.205742
 20
151.36143
 30
0.0
 11
17.40754948257519
 21
151.6495756210409
 31
0.0
  0
LINE
  5
77
330
1E
100
AcDbEntity
  8
0
100
AcDbLine
 10
17.71473288469689
 20
151.552239754279
 30
0.0
 11
18.1001934469502
 21
151.262738812853
 31
0.0
  0
LINE
  5
78
330
1E
100
AcDbEntity
  8
0
100
AcDbLine
 10
17.659542
 20
151.47343
 30
0.0
 11
18.30585583768089
 21
152.3963330303559
 31
0.0
  0
LINE
  5
79
330
1E
100
AcDbEntity
  8
0
100
AcDbLine
 10
17.078142
 20
151.45043
 30
0.0
 11
17.205742
 21
151.36143
 31
0.0
  0
LINE
  5
7A
330
1E
100
AcDbEntity
  8
0
100
AcDbLine
 10
17.650342
 20
150.62043
 30
0.0
 11
17.991942
 21
150.38043
 31
0.0
  0
LINE
  5
7B
330
1E
100
AcDbEntity
  8
0
100
AcDbLine
 10
17.650342
 20
150.62043
 30
0.0
 11
18.1171429002346
 21
151.286939653578
 31
0.0
  0
LINE
  5
7C
330
1E
100
AcDbEntity
  8
0
100
AcDbLine
 10
21.400942
 20
147.99343
 30
0.0
 11
21.474842
 21
147.9424299999999
 31
0.0
  0
LINE
  5
7D
330
1E
100
AcDbEntity
  8
0
100
AcDbLine
 10
21.13188113044429
 20
148.181961139829
 30
0.0
 11
21.400942
 21
147.99343
 31
0.0
  0
LINE
  5
7E
330
1E
100
AcDbEntity
  8
0
100
AcDbLine
 10
21.474842
 20
147.9424299999999
 30
0.0
 11
21.8354738228661
 21
148.4573488684229
 31
0.0
  0
LINE
  5
7F
330
1E
100
AcDbEntity
  8
0
100
AcDbLine
 10
21.474842
 20
147.9424299999999
 30
0.0
 11
21.8783939844553
 21
148.518631316717
 31
0.0
  0
LINE
  5
80
330
1E
100
AcDbEntity
  8
0
100
AcDbLine
 10
20.48164199999999
 20
148.63743
 30
0.0
 11
21.101142
 21
148.20343
 31
0.0
  0
LINE
  5
82
330
1E
100
AcDbEntity
  8
0
100
AcDbLine
 10
21.203442
 20
148.99143
 30
0.0
 11
21.822842
 21
148.55743
 31
0.0
  0
LINE
  5
83
330
1E
100
AcDbEntity
  8
0
100
AcDbLine
 10
20.703842
 20
149.3414299999999
 30
0.0
 11
21.203442
 21
148.99143
 31
0.0
  0
LINE
  5
84
330
1E
100
AcDbEntity
  8
0
100
AcDbLine
 10
20.63004199999999
 20
149.39343
 30
0.0
 11
21.003742
 21
149.1314299999999
 31
0.0
  0
LINE
  5
85
330
1E
100
AcDbEntity
  8
0
100
AcDbLine
 10
20.63004199999999
 20
149.39343
 30
0.0
 11
20.703842
 21
149.3414299999999
 31
0.0
  0
LINE
  5
86
330
1E
100
AcDbEntity
  8
0
100
AcDbLine
 10
20.63004199999999
 20
149.39343
 30
0.0
 11
21.26616646216699
 21
150.301783124426
 31
0.0
  0
LINE
  5
87
330
1E
100
AcDbEntity
  8
0
100
AcDbLine
 10
21.003742
 20
149.1314299999999
 30
0.0
 11
21.623142
 21
148.6974299999999
 31
0.0
  0
LINE
  5
89
330
1E
100
AcDbEntity
  8
0
100
AcDbLine
 10
21.822842
 20
148.55743
 30
0.0
 11
22.196542
 21
148.29643
 31
0.0
  0
LINE
  5
8A
330
1E
100
AcDbEntity
  8
0
100
AcDbLine
 10
21.623142
 20
148.6974299999999
 30
0.0
 11
22.122742
 21
148.34843
 31
0.0
  0
LINE
  5
8C
330
1E
100
AcDbEntity
  8
0
100
AcDbLine
 10
21.101142
 20
148.20343
 30
0.0
 11
21.474842
 21
147.9424299999999
 31
0.0
  0
LINE
  5
8E
330
1E
100
AcDbEntity
  8
0
100
AcDbLine
 10
20.2566933086287
 20
149.643095193561
 30
0.0
 11
20.3054055547556
 21
149.606509761759
 31
0.0
  0
LINE
  5
8F
330
1E
100
AcDbEntity
  8
0
100
AcDbLine
 10
20.2566933086287
 20
149.643095193561
 30
0.0
 11
20.3054055547556
 21
149.606509761759
 31
0.0
  0
LINE
  5
90
330
1E
100
AcDbEntity
  8
0
100
AcDbLine
 10
7.64663199999999
 20
158.48443
 30
0.0
 11
8.10141199999999
 21
158.16543
 31
0.0
  0
LINE
  5
92
330
1E
100
AcDbEntity
  8
0
100
AcDbLine
 10
8.136221999999991
 20
158.14143
 30
0.0
 11
8.6482515214854
 21
158.8725500420109
 31
0.0
  0
LINE
  5
93
330
1E
100
AcDbEntity
  8
0
100
AcDbLine
 10
8.93662199999999
 20
157.58143
 30
0.0
 11
9.01050199999999
 21
157.5294299999999
 31
0.0
  0
LINE
  5
94
330
1E
100
AcDbEntity
  8
0
100
AcDbLine
 10
8.93662199999999
 20
157.58143
 30
0.0
 11
9.535642661827019
 21
158.436785886108
 31
0.0
  0
LINE
  5
95
330
1E
100
AcDbEntity
  8
0
100
AcDbLine
 10
9.01050199999999
 20
157.5294299999999
 30
0.0
 11
9.510041999999989
 21
157.17943
 31
0.0
  0
LINE
  5
97
330
1E
100
AcDbEntity
  8
0
100
AcDbLine
 10
10.503242
 20
156.48443
 30
0.0
 11
10.84771017641329
 21
156.976312898583
 31
0.0
  0
LINE
  5
99
330
1E
100
AcDbEntity
  8
0
100
AcDbLine
 10
10.12944199999999
 20
156.74543
 30
0.0
 11
10.503242
 21
156.48443
 31
0.0
  0
LINE
  5
9B
330
1E
100
AcDbEntity
  8
0
100
AcDbLine
 10
10.1716063646318
 20
156.715989392272
 30
0.0
 11
10.429342
 21
156.5354299999999
 31
0.0
  0
LINE
  5
9C
330
1E
100
AcDbEntity
  8
0
100
AcDbLine
 10
10.429342
 20
156.5354299999999
 30
0.0
 11
10.503242
 21
156.48443
 31
0.0
  0
LINE
  5
9D
330
1E
100
AcDbEntity
  8
0
100
AcDbLine
 10
9.510041999999989
 20
157.17943
 30
0.0
 11
10.12944199999999
 21
156.74543
 31
0.0
  0
LINE
  5
9F
330
1E
100
AcDbEntity
  8
0
100
AcDbLine
 10
8.581329445822658
 20
158.7769929135309
 30
0.0
 11
9.34755589139333
 21
158.168212301854
 31
0.0
  0
LINE
  5
A0
330
1E
100
AcDbEntity
  8
0
100
AcDbLine
 10
7.811877413851179
 20
158.368520577821
 30
0.0
 11
8.10141199999999
 21
158.16543
 31
0.0
  0
LINE
  5
A2
330
1E
100
AcDbEntity
  8
0
100
AcDbLine
 10
7.70917199999999
 20
158.4404299999999
 30
0.0
 11
7.811877413851179
 21
158.368520577821
 31
0.0
  0
LINE
  5
A3
330
1E
100
AcDbEntity
  8
0
100
AcDbLine
 10
4.62068199999999
 20
160.60343
 30
0.0
 11
4.86642199999999
 21
160.43143
 31
0.0
  0
LINE
  5
A4
330
1E
100
AcDbEntity
  8
0
100
AcDbLine
 10
4.62068199999999
 20
160.60343
 30
0.0
 11
5.11855911021066
 21
160.254554383494
 31
0.0
  0
LINE
  5
A5
330
1E
100
AcDbEntity
  8
0
100
AcDbLine
 10
4.62068199999999
 20
160.60343
 30
0.0
 11
5.21750292627219
 21
161.455622544335
 31
0.0
  0
LINE
  5
A6
330
1E
100
AcDbEntity
  8
0
100
AcDbLine
 10
6.06742199999999
 20
159.5904299999999
 30
0.0
 11
6.58944199999999
 21
159.22443
 31
0.0
  0
LINE
  5
A8
330
1E
100
AcDbEntity
  8
0
100
AcDbLine
 10
5.78293199999999
 20
159.78943
 30
0.0
 11
6.218455106705559
 21
159.4839607745579
 31
0.0
  0
LINE
  5
A9
330
1E
100
AcDbEntity
  8
0
100
AcDbLine
 10
5.78293199999999
 20
159.78943
 30
0.0
 11
6.39030199999999
 21
159.3634299999999
 31
0.0
  0
LINE
  5
AA
330
1E
100
AcDbEntity
  8
0
100
AcDbLine
 10
6.58944199999999
 20
159.22443
 30
0.0
 11
6.73188199999999
 21
159.12443
 31
0.0
  0
LINE
  5
AC
330
1E
100
AcDbEntity
  8
0
100
AcDbLine
 10
6.39030199999999
 20
159.3634299999999
 30
0.0
 11
6.73188199999999
 21
159.12443
 31
0.0
  0
LINE
  5
AD
330
1E
100
AcDbEntity
  8
0
100
AcDbLine
 10
6.59671199999999
 20
159.21943
 30
0.0
 11
7.02376199999999
 21
158.92043
 31
0.0
  0
LINE
  5
AF
330
1E
100
AcDbEntity
  8
0
100
AcDbLine
 10
7.08630199999999
 20
158.87643
 30
0.0
 11
7.70917199999999
 21
158.4404299999999
 31
0.0
  0
LINE
  5
B0
330
1E
100
AcDbEntity
  8
0
100
AcDbLine
 10
7.02376199999999
 20
158.92043
 30
0.0
 11
7.64663199999999
 21
158.48443
 31
0.0
  0
LINE
  5
B2
330
1E
100
AcDbEntity
  8
0
100
AcDbLine
 10
6.92105658614448
 20
158.992339422182
 30
0.0
 11
7.08630199999999
 21
158.87643
 31
0.0
  0
LINE
  5
B3
330
1E
100
AcDbEntity
  8
0
100
AcDbLine
 10
6.732051300771809
 20
159.124671889871
 30
0.0
 11
6.92105658614448
 21
158.992339422182
 31
0.0
  0
LINE
  5
B4
330
1E
100
AcDbEntity
  8
0
100
AcDbLine
 10
6.259031683684489
 20
159.455500985973
 30
0.0
 11
6.39030199999999
 21
159.3634299999999
 31
0.0
  0
LINE
  5
B5
330
1E
100
AcDbEntity
  8
0
100
AcDbLine
 10
5.46005199999999
 20
160.0154299999999
 30
0.0
 11
6.06742199999999
 21
159.5904299999999
 31
0.0
  0
LINE
  5
B7
330
1E
100
AcDbEntity
  8
0
100
AcDbLine
 10
5.26091199999999
 20
160.15443
 30
0.0
 11
5.78293199999999
 21
159.78943
 31
0.0
  0
LINE
  5
B8
330
1E
100
AcDbEntity
  8
0
100
AcDbLine
 10
5.11847199999999
 20
160.25443
 30
0.0
 11
5.26091199999999
 21
160.15443
 31
0.0
  0
LINE
  5
B9
330
1E
100
AcDbEntity
  8
0
100
AcDbLine
 10
5.11847199999999
 20
160.25443
 30
0.0
 11
5.46005199999999
 21
160.0154299999999
 31
0.0
  0
LINE
  5
BB
330
1E
100
AcDbEntity
  8
0
100
AcDbLine
 10
5.507030213102079
 20
159.982342440554
 30
0.0
 11
6.25898199999999
 21
159.45543
 31
0.0
  0
LINE
  5
BC
330
1E
100
AcDbEntity
  8
0
100
AcDbLine
 10
4.86642199999999
 20
160.43143
 30
0.0
 11
5.11861082285571
 21
160.254628223282
 31
0.0
  0
LINE
  5
BE
330
1E
100
AcDbEntity
  8
0
100
AcDbLine
 10
8.581329445822658
 20
158.7769929135309
 30
0.0
 11
9.34755589139333
 21
158.168212301854
 31
0.0
  0
LINE
  5
BF
330
1E
100
AcDbEntity
  8
0
100
AcDbLine
 10
16.4874800777389
 20
151.8638107774769
 30
0.0
 11
16.547942
 21
151.8214299999999
 31
0.0
  0
LINE
  5
C0
330
1E
100
AcDbEntity
  8
0
100
AcDbLine
 10
16.877042
 20
151.59143
 30
0.0
 11
17.205742
 21
151.36143
 31
0.0
  0
LINE
  5
C2
330
1E
100
AcDbEntity
  8
0
100
AcDbLine
 10
16.922342
 20
151.9894299999999
 30
0.0
 11
17.479142
 21
151.59943
 31
0.0
  0
LINE
  5
C4
330
1E
100
AcDbEntity
  8
0
100
AcDbLine
 10
16.547942
 20
151.8214299999999
 30
0.0
 11
17.078142
 21
151.45043
 31
0.0
  0
LINE
  5
C5
330
1E
100
AcDbEntity
  8
0
100
AcDbLine
 10
14.958442
 20
152.9344299999999
 30
0.0
 11
15.4526141906141
 21
153.640451809986
 31
0.0
  0
LINE
  5
C6
330
1E
100
AcDbEntity
  8
0
100
AcDbLine
 10
15.608542
 20
152.47943
 30
0.0
 11
15.736142
 21
152.39043
 31
0.0
  0
LINE
  5
C7
330
1E
100
AcDbEntity
  8
0
100
AcDbLine
 10
15.608542
 20
152.47943
 30
0.0
 11
15.8584514668103
 21
152.304614983679
 31
0.0
  0
LINE
  5
C8
330
1E
100
AcDbEntity
  8
0
100
AcDbLine
 10
15.608542
 20
152.47943
 30
0.0
 11
16.1557104538048
 21
153.2606903969079
 31
0.0
  0
LINE
  5
C9
330
1E
100
AcDbEntity
  8
0
100
AcDbLine
 10
15.736142
 20
152.39043
 30
0.0
 11
16.266342
 21
152.0184299999999
 31
0.0
  0
LINE
  5
CB
330
1E
100
AcDbEntity
  8
0
100
AcDbLine
 10
14.542642
 20
153.22543
 30
0.0
 11
14.958442
 21
152.9344299999999
 31
0.0
  0
LINE
  5
CD
330
1E
100
AcDbEntity
  8
0
100
AcDbLine
 10
16.043842
 20
152.60443
 30
0.0
 11
16.325142
 21
152.40743
 31
0.0
  0
LINE
  5
CE
330
1E
100
AcDbEntity
  8
0
100
AcDbLine
 10
16.043842
 20
152.60443
 30
0.0
 11
16.690404667088
 21
153.5276883459939
 31
0.0
  0
LINE
  5
CF
330
1E
100
AcDbEntity
  8
0
100
AcDbLine
 10
16.325142
 20
152.40743
 30
0.0
 11
16.922342
 21
151.9894299999999
 31
0.0
  0
LINE
  5
D1
330
1E
100
AcDbEntity
  8
0
100
AcDbLine
 10
15.8584514668103
 20
152.304614983679
 30
0.0
 11
16.266342
 21
152.0184299999999
 31
0.0
  0
LINE
  5
D2
330
1E
100
AcDbEntity
  8
0
100
AcDbLine
 10
16.266342
 20
152.0184299999999
 30
0.0
 11
16.4874800777389
 21
151.8638107774769
 31
0.0
  0
LINE
  5
D3
330
1E
100
AcDbEntity
  8
0
100
AcDbLine
 10
16.266342
 20
152.0184299999999
 30
0.0
 11
16.877042
 21
151.59143
 31
0.0
  0
LINE
  5
D5
330
1E
100
AcDbEntity
  8
0
100
AcDbLine
 10
17.479142
 20
151.59943
 30
0.0
 11
17.659542
 21
151.47343
 31
0.0
  0
LINE
  5
D7
330
1E
100
AcDbEntity
  8
0
100
AcDbLine
 10
10.84771017641329
 20
156.976312898583
 30
0.0
 11
11.6130016643582
 21
156.3682751274569
 31
0.0
  0
LINE
  5
D8
330
1E
100
AcDbEntity
  8
0
100
AcDbLine
 10
11.10044199999999
 20
155.63643
 30
0.0
 11
11.29534199999999
 21
155.49943
 31
0.0
  0
LINE
  5
D9
330
1E
100
AcDbEntity
  8
0
100
AcDbLine
 10
11.10044199999999
 20
155.63643
 30
0.0
 11
11.395242
 21
155.42943
 31
0.0
  0
LINE
  5
DA
330
1E
100
AcDbEntity
  8
0
100
AcDbLine
 10
11.10044199999999
 20
155.63643
 30
0.0
 11
11.63041250546759
 21
156.393134748916
 31
0.0
  0
LINE
  5
DB
330
1E
100
AcDbEntity
  8
0
100
AcDbLine
 10
11.10044199999999
 20
155.63643
 30
0.0
 11
11.6130016643582
 21
156.3682751274569
 31
0.0
  0
LINE
  5
DC
330
1E
100
AcDbEntity
  8
0
100
AcDbLine
 10
11.893042
 20
155.08143
 30
0.0
 11
12.278842
 21
154.8114299999999
 31
0.0
  0
LINE
  5
DD
330
1E
100
AcDbEntity
  8
0
100
AcDbLine
 10
11.893042
 20
155.08143
 30
0.0
 11
11.981942
 21
155.0184299999999
 31
0.0
  0
LINE
  5
DE
330
1E
100
AcDbEntity
  8
0
100
AcDbLine
 10
11.893042
 20
155.08143
 30
0.0
 11
12.41223746215919
 21
155.822814506161
 31
0.0
  0
LINE
  5
DF
330
1E
100
AcDbEntity
  8
0
100
AcDbLine
 10
12.106142
 20
155.36143
 30
0.0
 11
12.28644199999999
 21
155.23543
 31
0.0
  0
LINE
  5
E0
330
1E
100
AcDbEntity
  8
0
100
AcDbLine
 10
12.106142
 20
155.36143
 30
0.0
 11
12.387442
 21
155.16443
 31
0.0
  0
LINE
  5
E2
330
1E
100
AcDbEntity
  8
0
100
AcDbLine
 10
11.981942
 20
155.0184299999999
 30
0.0
 11
12.253024651631
 21
154.8287882510519
 31
0.0
  0
LINE
  5
E3
330
1E
100
AcDbEntity
  8
0
100
AcDbLine
 10
11.981942
 20
155.0184299999999
 30
0.0
 11
12.472242
 21
154.67543
 31
0.0
  0
LINE
  5
E4
330
1E
100
AcDbEntity
  8
0
100
AcDbLine
 10
12.253024651631
 20
154.8287882510519
 30
0.0
 11
12.437742
 21
154.69943
 31
0.0
  0
LINE
  5
E5
330
1E
100
AcDbEntity
  8
0
100
AcDbLine
 10
12.2538380085175
 20
154.828219249599
 30
0.0
 11
12.437742
 21
154.69943
 31
0.0
  0
LINE
  5
E6
330
1E
100
AcDbEntity
  8
0
100
AcDbLine
 10
13.454042
 20
153.9884299999999
 30
0.0
 11
13.919142
 21
153.6624299999999
 31
0.0
  0
LINE
  5
E8
330
1E
100
AcDbEntity
  8
0
100
AcDbLine
 10
13.919142
 20
153.6624299999999
 30
0.0
 11
14.542642
 21
153.22543
 31
0.0
  0
LINE
  5
EA
330
1E
100
AcDbEntity
  8
0
100
AcDbLine
 10
13.850242
 20
153.71043
 30
0.0
 11
14.0196944580235
 21
153.5919545803429
 31
0.0
  0
LINE
  5
EB
330
1E
100
AcDbEntity
  8
0
100
AcDbLine
 10
13.386542
 20
154.0354299999999
 30
0.0
 11
13.4347391124999
 21
154.001854483427
 31
0.0
  0
LINE
  5
ED
330
1E
100
AcDbEntity
  8
0
100
AcDbLine
 10
13.721842
 20
154.23043
 30
0.0
 11
14.3481898766869
 21
155.124822661506
 31
0.0
  0
LINE
  5
EE
330
1E
100
AcDbEntity
  8
0
100
AcDbLine
 10
13.541542
 20
154.35643
 30
0.0
 11
13.721842
 21
154.23043
 31
0.0
  0
LINE
  5
EF
330
1E
100
AcDbEntity
  8
0
100
AcDbLine
 10
13.434442
 20
154.0014299999999
 30
0.0
 11
13.850242
 21
153.71043
 31
0.0
  0
LINE
  5
F1
330
1E
100
AcDbEntity
  8
0
100
AcDbLine
 10
14.0196944580235
 20
153.5919545803429
 30
0.0
 11
14.542642
 21
153.22543
 31
0.0
  0
LINE
  5
F2
330
1E
100
AcDbEntity
  8
0
100
AcDbLine
 10
13.440542
 20
154.42743
 30
0.0
 11
13.721842
 21
154.23043
 31
0.0
  0
LINE
  5
F4
330
1E
100
AcDbEntity
  8
0
100
AcDbLine
 10
12.89624199999999
 20
154.37843
 30
0.0
 11
13.386542
 21
154.0354299999999
 31
0.0
  0
LINE
  5
F6
330
1E
100
AcDbEntity
  8
0
100
AcDbLine
 10
12.278842
 20
154.8114299999999
 30
0.0
 11
12.89624199999999
 21
154.37843
 31
0.0
  0
LINE
  5
F8
330
1E
100
AcDbEntity
  8
0
100
AcDbLine
 10
12.387442
 20
155.16443
 30
0.0
 11
12.98464199999999
 21
154.74643
 31
0.0
  0
LINE
  5
F9
330
1E
100
AcDbEntity
  8
0
100
AcDbLine
 10
12.28644199999999
 20
155.23543
 30
0.0
 11
12.84334199999999
 21
154.8454299999999
 31
0.0
  0
LINE
  5
FB
330
1E
100
AcDbEntity
  8
0
100
AcDbLine
 10
12.472242
 20
154.67543
 30
0.0
 11
12.6817826387168
 21
154.528836387165
 31
0.0
  0
LINE
  5
FC
330
1E
100
AcDbEntity
  8
0
100
AcDbLine
 10
12.98464199999999
 20
154.74643
 30
0.0
 11
13.541542
 21
154.35643
 31
0.0
  0
LINE
  5
FD
330
1E
100
AcDbEntity
  8
0
100
AcDbLine
 10
12.84334199999999
 20
154.8454299999999
 30
0.0
 11
13.440542
 21
154.42743
 31
0.0
  0
LINE
  5
FF
330
1E
100
AcDbEntity
  8
0
100
AcDbLine
 10
12.537742
 20
154.62943
 30
0.0
 11
12.6600530599004
 21
154.544038294936
 31
0.0
  0
LINE
  5
100
330
1E
100
AcDbEntity
  8
0
100
AcDbLine
 10
12.2770274970348
 20
154.811996539908
 30
0.0
 11
12.537742
 21
154.62943
 31
0.0
  0
LINE
  5
101
330
1E
100
AcDbEntity
  8
0
100
AcDbLine
 10
11.395242
 20
155.42943
 30
0.0
 11
11.9582141003133
 21
155.0352450470219
 31
0.0
  0
LINE
  5
103
330
1E
100
AcDbEntity
  8
0
100
AcDbLine
 10
11.29534199999999
 20
155.49943
 30
0.0
 11
11.3719882974689
 21
155.445758074708
 31
0.0
  0
LINE
  5
104
330
1E
100
AcDbEntity
  8
0
100
AcDbLine
 10
11.29534199999999
 20
155.49943
 30
0.0
 11
11.372105584456
 21
155.445675719191
 31
0.0
  0
LINE
  5
105
330
1E
100
AcDbEntity
  8
0
100
AcDbLine
 10
15.3074111137016
 20
153.433000761294
 30
0.0
 11
15.9299672531643
 21
152.938368776746
 31
0.0
  0
LINE
  5
106
330
1E
100
AcDbEntity
  8
0
100
AcDbLine
 10
10.84771017641329
 20
156.976312898583
 30
0.0
 11
11.6130016643582
 21
156.3682751274569
 31
0.0
  0
LINE
  5
107
330
1E
100
AcDbEntity
  8
0
100
AcDbLine
 10
17.71473288469689
 20
151.552239754279
 30
0.0
 11
18.1001934469502
 21
151.262738812853
 31
0.0
  0
LINE
  5
109
330
1E
100
AcDbEntity
  8
0
100
AcDbLine
 10
24.035242
 20
145.84843
 30
0.0
 11
24.500342
 21
145.52243
 31
0.0
  0
LINE
  5
10B
330
1E
100
AcDbEntity
  8
0
100
AcDbLine
 10
24.500342
 20
145.52243
 30
0.0
 11
25.123842
 21
145.08643
 31
0.0
  0
LINE
  5
10D
330
1E
100
AcDbEntity
  8
0
100
AcDbLine
 10
24.364442
 20
145.9184299999999
 30
0.0
 11
24.961742
 21
145.5004299999999
 31
0.0
  0
LINE
  5
10F
330
1E
100
AcDbEntity
  8
0
100
AcDbLine
 10
25.123842
 20
145.08643
 30
0.0
 11
25.539642
 21
144.79543
 31
0.0
  0
LINE
  5
111
330
1E
100
AcDbEntity
  8
0
100
AcDbLine
 10
25.055042
 20
145.13443
 30
0.0
 11
25.520042
 21
144.80843
 31
0.0
  0
LINE
  5
112
330
1E
100
AcDbEntity
  8
0
100
AcDbLine
 10
24.9810573819488
 20
145.1862761803849
 30
0.0
 11
25.055042
 21
145.13443
 31
0.0
  0
LINE
  5
113
330
1E
100
AcDbEntity
  8
0
100
AcDbLine
 10
25.539642
 20
144.79543
 30
0.0
 11
25.6808280101401
 21
144.997018811549
 31
0.0
  0
LINE
  5
114
330
1E
100
AcDbEntity
  8
0
100
AcDbLine
 10
25.518542
 20
145.11043
 30
0.0
 11
25.698842
 21
144.98443
 31
0.0
  0
LINE
  5
116
330
1E
100
AcDbEntity
  8
0
100
AcDbLine
 10
24.961742
 20
145.5004299999999
 30
0.0
 11
25.518542
 21
145.11043
 31
0.0
  0
LINE
  5
118
330
1E
100
AcDbEntity
  8
0
100
AcDbLine
 10
24.900542
 20
145.24243
 30
0.0
 11
25.0462999439146
 21
145.140556168232
 31
0.0
  0
LINE
  5
119
330
1E
100
AcDbEntity
  8
0
100
AcDbLine
 10
24.80074879427499
 20
145.3123620572509
 30
0.0
 11
24.900542
 21
145.24243
 31
0.0
  0
LINE
  5
11A
330
1E
100
AcDbEntity
  8
0
100
AcDbLine
 10
24.083242
 20
146.11543
 30
0.0
 11
24.364442
 21
145.9184299999999
 31
0.0
  0
LINE
  5
11B
330
1E
100
AcDbEntity
  8
0
100
AcDbLine
 10
24.083242
 20
146.11543
 30
0.0
 11
24.5599520090046
 21
146.79656303527
 31
0.0
  0
LINE
  5
11C
330
1E
100
AcDbEntity
  8
0
100
AcDbLine
 10
23.861142
 20
145.97043
 30
0.0
 11
24.0244919999981
 21
145.8561085714299
 31
0.0
  0
LINE
  5
11D
330
1E
100
AcDbEntity
  8
0
100
AcDbLine
 10
23.861142
 20
145.97043
 30
0.0
 11
24.30862855143439
 21
146.609417857423
 31
0.0
  0
LINE
  5
11E
330
1E
100
AcDbEntity
  8
0
100
AcDbLine
 10
23.880742
 20
145.95643
 30
0.0
 11
24.0327053663362
 21
145.850241881188
 31
0.0
  0
LINE
  5
11F
330
1E
100
AcDbEntity
  8
0
100
AcDbLine
 10
26.37434199999999
 20
144.21043
 30
0.0
 11
26.60604199999999
 21
144.04843
 31
0.0
  0
LINE
  5
120
330
1E
100
AcDbEntity
  8
0
100
AcDbLine
 10
26.37434199999999
 20
144.21043
 30
0.0
 11
26.71777348529429
 21
144.700789809024
 31
0.0
  0
LINE
  5
121
330
1E
100
AcDbEntity
  8
0
100
AcDbLine
 10
26.60604199999999
 20
144.04843
 30
0.0
 11
27.185242
 21
143.64243
 31
0.0
  0
LINE
  5
123
330
1E
100
AcDbEntity
  8
0
100
AcDbLine
 10
25.698842
 20
144.98443
 30
0.0
 11
25.9007221355495
 21
145.272679356721
 31
0.0
  0
LINE
  5
124
330
1E
100
AcDbEntity
  8
0
100
AcDbLine
 10
26.742542
 20
144.68343
 30
0.0
 11
27.207542
 21
144.3574299999999
 31
0.0
  0
LINE
  5
126
330
1E
100
AcDbEntity
  8
0
100
AcDbLine
 10
25.722742
 20
145.39743
 30
0.0
 11
26.187842
 21
145.07143
 31
0.0
  0
LINE
  5
127
330
1E
100
AcDbEntity
  8
0
100
AcDbLine
 10
25.703142
 20
145.41143
 30
0.0
 11
26.119042
 21
145.12043
 31
0.0
  0
LINE
  5
128
330
1E
100
AcDbEntity
  8
0
100
AcDbLine
 10
25.703142
 20
145.41143
 30
0.0
 11
25.9048174037935
 21
145.6993870357509
 31
0.0
  0
LINE
  5
129
330
1E
100
AcDbEntity
  8
0
100
AcDbLine
 10
26.119042
 20
145.12043
 30
0.0
 11
26.742542
 21
144.68343
 31
0.0
  0
LINE
  5
12B
330
1E
100
AcDbEntity
  8
0
100
AcDbLine
 10
26.117542
 20
145.55043
 30
0.0
 11
26.6556752633177
 21
145.173762633157
 31
0.0
  0
LINE
  5
12C
330
1E
100
AcDbEntity
  8
0
100
AcDbLine
 10
25.690542
 20
145.84943
 30
0.0
 11
26.117542
 21
145.55043
 31
0.0
  0
LINE
  5
12D
330
1E
100
AcDbEntity
  8
0
100
AcDbLine
 10
25.690542
 20
145.84943
 30
0.0
 11
26.33684011813739
 21
146.7728740028129
 31
0.0
  0
LINE
  5
12E
330
1E
100
AcDbEntity
  8
0
100
AcDbLine
 10
25.725342
 20
145.82543
 30
0.0
 11
26.180142
 21
145.5074299999999
 31
0.0
  0
LINE
  5
130
330
1E
100
AcDbEntity
  8
0
100
AcDbLine
 10
26.187842
 20
145.07143
 30
0.0
 11
26.6737419999914
 21
144.731650689661
 31
0.0
  0
LINE
  5
131
330
1E
100
AcDbEntity
  8
0
100
AcDbLine
 10
26.180142
 20
145.5074299999999
 30
0.0
 11
26.802942
 21
145.07043
 31
0.0
  0
LINE
  5
133
330
1E
100
AcDbEntity
  8
0
100
AcDbLine
 10
26.802942
 20
145.07043
 30
0.0
 11
27.230042
 21
144.77143
 31
0.0
  0
LINE
  5
135
330
1E
100
AcDbEntity
  8
0
100
AcDbLine
 10
27.185242
 20
143.64243
 30
0.0
 11
27.76454199999999
 21
143.23743
 31
0.0
  0
LINE
  5
138
330
1E
100
AcDbEntity
  8
0
100
AcDbLine
 10
27.227242
 20
144.34443
 30
0.0
 11
27.7344238234583
 21
145.0686596459109
 31
0.0
  0
LINE
  5
139
330
1E
100
AcDbEntity
  8
0
100
AcDbLine
 10
27.230042
 20
144.77143
 30
0.0
 11
27.8763903812026
 21
145.694945819711
 31
0.0
  0
LINE
  5
13A
330
1E
100
AcDbEntity
  8
0
100
AcDbLine
 10
23.434742
 20
146.99943
 30
0.0
 11
23.5525941430627
 21
147.167702149875
 31
0.0
  0
LINE
  5
13B
330
1E
100
AcDbEntity
  8
0
100
AcDbLine
 10
23.434742
 20
146.99943
 30
0.0
 11
23.8585504434858
 21
147.6045539804999
 31
0.0
  0
LINE
  5
13C
330
1E
100
AcDbEntity
  8
0
100
AcDbLine
 10
23.307142
 20
147.08843
 30
0.0
 11
23.434742
 21
146.99943
 31
0.0
  0
LINE
  5
13E
330
1E
100
AcDbEntity
  8
0
100
AcDbLine
 10
22.166342
 20
147.88743
 30
0.0
 11
22.776942
 21
147.46043
 31
0.0
  0
LINE
  5
140
330
1E
100
AcDbEntity
  8
0
100
AcDbLine
 10
23.106042
 20
147.22943
 30
0.0
 11
23.1567795908003
 21
147.1939275786919
 31
0.0
  0
LINE
  5
141
330
1E
100
AcDbEntity
  8
0
100
AcDbLine
 10
22.54373344215449
 20
147.623515578448
 30
0.0
 11
23.106042
 21
147.22943
 31
0.0
  0
LINE
  5
142
330
1E
100
AcDbEntity
  8
0
100
AcDbLine
 10
22.776942
 20
147.46043
 30
0.0
 11
23.307142
 21
147.08843
 31
0.0
  0
LINE
  5
144
330
1E
100
AcDbEntity
  8
0
100
AcDbLine
 10
22.196542
 20
148.29643
 30
0.0
 11
22.7598017193195
 21
149.1006658963089
 31
0.0
  0
LINE
  5
145
330
1E
100
AcDbEntity
  8
0
100
AcDbLine
 10
23.372142
 20
161.05643
 30
0.0
 11
33.283842
 21
154.11643
 31
0.0
  0
LINE
  5
146
330
1E
100
AcDbEntity
  8
0
100
AcDbLine
 10
22.122742
 20
148.34843
 30
0.0
 11
22.196542
 21
148.29643
 31
0.0
  0
LINE
  5
148
330
1E
100
AcDbEntity
  8
0
100
AcDbLine
 10
21.837542
 20
148.11743
 30
0.0
 11
22.166342
 21
147.88743
 31
0.0
  0
LINE
  5
149
330
1E
100
AcDbEntity
  8
0
100
AcDbLine
 10
21.837542
 20
148.11743
 30
0.0
 11
21.99277350408439
 21
148.339208622031
 31
0.0
  0
LINE
  5
14A
330
1E
100
AcDbEntity
  8
0
100
AcDbLine
 10
21.837542
 20
148.11743
 30
0.0
 11
22.03956811252049
 21
148.4060638898369
 31
0.0
  0
LINE
  5
14B
330
1E
100
AcDbEntity
  8
0
100
AcDbLine
 10
23.5525941430627
 20
147.167702149875
 30
0.0
 11
24.3831347605437
 21
146.54392292523
 31
0.0
  0
LINE
  5
14C
330
1E
100
AcDbEntity
  8
0
100
AcDbLine
 10
21.8354738228661
 20
148.4573488684229
 30
0.0
 11
21.99277350408439
 21
148.339208622031
 31
0.0
  0
LINE
  5
14D
330
1E
100
AcDbEntity
  8
0
100
AcDbLine
 10
28.3426674676307
 20
143.570107810112
 30
0.0
 11
28.98134199999999
 21
143.0904299999999
 31
0.0
  0
LINE
  5
14E
330
1E
100
AcDbEntity
  8
0
100
AcDbLine
 10
31.569842
 20
140.30143
 30
0.0
 11
32.091842
 21
139.9354299999999
 31
0.0
  0
LINE
  5
150
330
1E
100
AcDbEntity
  8
0
100
AcDbLine
 10
31.4693495851341
 20
140.643067770902
 30
0.0
 11
31.665342
 21
140.50543
 31
0.0
  0
LINE
  5
151
330
1E
100
AcDbEntity
  8
0
100
AcDbLine
 10
31.285342
 20
140.5004299999999
 30
0.0
 11
31.6438476898881
 21
140.249540953067
 31
0.0
  0
LINE
  5
152
330
1E
100
AcDbEntity
  8
0
100
AcDbLine
 10
31.665342
 20
140.50543
 30
0.0
 11
32.1053898475223
 21
141.1341793872279
 31
0.0
  0
LINE
  5
154
330
1E
100
AcDbEntity
  8
0
100
AcDbLine
 10
33.07704199999999
 20
140.22243
 30
0.0
 11
35.04304199999999
 21
138.84543
 31
0.0
  0
LINE
  5
155
330
1E
100
AcDbEntity
  8
0
100
AcDbLine
 10
32.234242
 20
139.83543
 30
0.0
 11
32.6931749707597
 21
140.49110567911
 31
0.0
  0
LINE
  5
156
330
1E
100
AcDbEntity
  8
0
100
AcDbLine
 10
32.091842
 20
139.9354299999999
 30
0.0
 11
32.234242
 21
139.83543
 31
0.0
  0
LINE
  5
158
330
1E
100
AcDbEntity
  8
0
100
AcDbLine
 10
32.838442
 20
139.41243
 30
0.0
 11
33.2973488695446
 21
140.0681255445759
 31
0.0
  0
LINE
  5
159
330
1E
100
AcDbEntity
  8
0
100
AcDbLine
 10
32.838442
 20
139.41243
 30
0.0
 11
33.11974199999999
 21
139.21543
 31
0.0
  0
LINE
  5
15A
330
1E
100
AcDbEntity
  8
0
100
AcDbLine
 10
33.11974199999999
 20
139.21543
 30
0.0
 11
33.71694199999999
 21
138.7974299999999
 31
0.0
  0
LINE
  5
15C
330
1E
100
AcDbEntity
  8
0
100
AcDbLine
 10
33.71694199999999
 20
138.7974299999999
 30
0.0
 11
34.273742
 21
138.4074299999999
 31
0.0
  0
LINE
  5
15E
330
1E
100
AcDbEntity
  8
0
100
AcDbLine
 10
31.63514199999999
 20
140.25543
 30
0.0
 11
31.7783689058183
 21
140.155221479829
 31
0.0
  0
LINE
  5
15F
330
1E
100
AcDbEntity
  8
0
100
AcDbLine
 10
31.027842
 20
140.68043
 30
0.0
 11
31.63514199999999
 21
140.25543
 31
0.0
  0
LINE
  5
160
330
1E
100
AcDbEntity
  8
0
100
AcDbLine
 10
30.16094199999999
 20
141.5594299999999
 30
0.0
 11
30.3597639895212
 21
141.4200408202499
 31
0.0
  0
LINE
  5
161
330
1E
100
AcDbEntity
  8
0
100
AcDbLine
 10
30.14134199999999
 20
141.57343
 30
0.0
 11
30.557142
 21
141.2814299999999
 31
0.0
  0
LINE
  5
162
330
1E
100
AcDbEntity
  8
0
100
AcDbLine
 10
30.14134199999999
 20
141.57343
 30
0.0
 11
30.28243991320289
 21
141.774910587417
 31
0.0
  0
LINE
  5
163
330
1E
100
AcDbEntity
  8
0
100
AcDbLine
 10
29.814042
 20
142.10343
 30
0.0
 11
30.268842
 21
141.78443
 31
0.0
  0
LINE
  5
165
330
1E
100
AcDbEntity
  8
0
100
AcDbLine
 10
29.82864199999999
 20
142.52243
 30
0.0
 11
29.917642
 21
142.46043
 31
0.0
  0
LINE
  5
166
330
1E
100
AcDbEntity
  8
0
100
AcDbLine
 10
29.82864199999999
 20
142.52243
 30
0.0
 11
30.0796082477699
 21
142.346792657082
 31
0.0
  0
LINE
  5
167
330
1E
100
AcDbEntity
  8
0
100
AcDbLine
 10
29.82864199999999
 20
142.52243
 30
0.0
 11
30.4477641399213
 21
143.4064276161009
 31
0.0
  0
LINE
  5
168
330
1E
100
AcDbEntity
  8
0
100
AcDbLine
 10
29.917642
 20
142.46043
 30
0.0
 11
30.407942
 21
142.11643
 31
0.0
  0
LINE
  5
16A
330
1E
100
AcDbEntity
  8
0
100
AcDbLine
 10
29.779242
 20
142.12743
 30
0.0
 11
30.12788993679739
 21
141.8832947936709
 31
0.0
  0
LINE
  5
16B
330
1E
100
AcDbEntity
  8
0
100
AcDbLine
 10
29.779242
 20
142.12743
 30
0.0
 11
29.98112830801389
 21
142.415713299213
 31
0.0
  0
LINE
  5
16C
330
1E
100
AcDbEntity
  8
0
100
AcDbLine
 10
30.268842
 20
141.78443
 30
0.0
 11
30.89164199999999
 21
141.34843
 31
0.0
  0
LINE
  5
16E
330
1E
100
AcDbEntity
  8
0
100
AcDbLine
 10
31.180642
 20
140.84543
 30
0.0
 11
31.645742
 21
140.5194299999999
 31
0.0
  0
LINE
  5
171
330
1E
100
AcDbEntity
  8
0
100
AcDbLine
 10
30.76334199999999
 20
140.86543
 30
0.0
 11
31.285342
 21
140.5004299999999
 31
0.0
  0
LINE
  5
172
330
1E
100
AcDbEntity
  8
0
100
AcDbLine
 10
30.620842
 20
140.9654299999999
 30
0.0
 11
30.962442
 21
140.72643
 31
0.0
  0
LINE
  5
173
330
1E
100
AcDbEntity
  8
0
100
AcDbLine
 10
30.620842
 20
140.9654299999999
 30
0.0
 11
30.76334199999999
 21
140.86543
 31
0.0
  0
LINE
  5
175
330
1E
100
AcDbEntity
  8
0
100
AcDbLine
 10
30.962442
 20
140.72643
 30
0.0
 11
31.569842
 21
140.30143
 31
0.0
  0
LINE
  5
177
330
1E
100
AcDbEntity
  8
0
100
AcDbLine
 10
32.64594199999999
 20
140.97943
 30
0.0
 11
33.2925749554656
 21
141.9027082261619
 31
0.0
  0
LINE
  5
178
330
1E
100
AcDbEntity
  8
0
100
AcDbLine
 10
30.557142
 20
141.2814299999999
 30
0.0
 11
31.180642
 21
140.84543
 31
0.0
  0
LINE
  5
17A
330
1E
100
AcDbEntity
  8
0
100
AcDbLine
 10
31.31874199999999
 20
141.04943
 30
0.0
 11
31.72254374574059
 21
141.6260381941619
 31
0.0
  0
LINE
  5
17B
330
1E
100
AcDbEntity
  8
0
100
AcDbLine
 10
31.0128482764508
 20
141.263577092815
 30
0.0
 11
31.283942
 21
141.07343
 31
0.0
  0
LINE
  5
17C
330
1E
100
AcDbEntity
  8
0
100
AcDbLine
 10
30.89164199999999
 20
141.34843
 30
0.0
 11
31.31874199999999
 21
141.04943
 31
0.0
  0
LINE
  5
17E
330
1E
100
AcDbEntity
  8
0
100
AcDbLine
 10
31.411142
 20
141.41443
 30
0.0
 11
31.6131087695205
 21
141.702803054807
 31
0.0
  0
LINE
  5
17F
330
1E
100
AcDbEntity
  8
0
100
AcDbLine
 10
31.322242
 20
141.4764299999999
 30
0.0
 11
31.411142
 21
141.41443
 31
0.0
  0
LINE
  5
180
330
1E
100
AcDbEntity
  8
0
100
AcDbLine
 10
31.199887062847
 20
141.562275601429
 30
0.0
 11
31.322242
 21
141.4764299999999
 31
0.0
  0
LINE
  5
181
330
1E
100
AcDbEntity
  8
0
100
AcDbLine
 10
31.98144199999999
 20
141.44443
 30
0.0
 11
32.1884967925965
 21
141.29967803812
 31
0.0
  0
LINE
  5
182
330
1E
100
AcDbEntity
  8
0
100
AcDbLine
 10
31.025342
 20
141.6844299999999
 30
0.0
 11
31.411142
 21
141.41443
 31
0.0
  0
LINE
  5
184
330
1E
100
AcDbEntity
  8
0
100
AcDbLine
 10
30.407942
 20
142.11643
 30
0.0
 11
31.025342
 21
141.6844299999999
 31
0.0
  0
LINE
  5
186
330
1E
100
AcDbEntity
  8
0
100
AcDbLine
 10
31.032542
 20
142.10943
 30
0.0
 11
31.17494199999999
 21
142.00943
 31
0.0
  0
LINE
  5
187
330
1E
100
AcDbEntity
  8
0
100
AcDbLine
 10
31.032542
 20
142.10943
 30
0.0
 11
31.67897554070929
 21
143.0325039601449
 31
0.0
  0
LINE
  5
188
330
1E
100
AcDbEntity
  8
0
100
AcDbLine
 10
31.50289818373069
 20
141.7801119788089
 30
0.0
 11
31.98144199999999
 21
141.44443
 31
0.0
  0
LINE
  5
189
330
1E
100
AcDbEntity
  8
0
100
AcDbLine
 10
31.17494199999999
 20
142.00943
 30
0.0
 11
31.696942
 21
141.64443
 31
0.0
  0
LINE
  5
18B
330
1E
100
AcDbEntity
  8
0
100
AcDbLine
 10
31.696942
 20
141.64443
 30
0.0
 11
32.30434199999999
 21
141.21843
 31
0.0
  0
LINE
  5
18D
330
1E
100
AcDbEntity
  8
0
100
AcDbLine
 10
33.283842
 20
154.11643
 30
0.0
 11
43.76894199999999
 21
146.7744299999999
 31
0.0
  0
LINE
  5
18E
330
1E
100
AcDbEntity
  8
0
100
AcDbLine
 10
32.30434199999999
 20
141.21843
 30
0.0
 11
32.64594199999999
 21
140.97943
 31
0.0
  0
LINE
  5
190
330
1E
100
AcDbEntity
  8
0
100
AcDbLine
 10
30.50574199999999
 20
141.04643
 30
0.0
 11
30.6209891028763
 21
140.965640037057
 31
0.0
  0
LINE
  5
192
330
1E
100
AcDbEntity
  8
0
100
AcDbLine
 10
30.363342
 20
141.14543
 30
0.0
 11
30.6966102926898
 21
140.912259268288
 31
0.0
  0
LINE
  5
193
330
1E
100
AcDbEntity
  8
0
100
AcDbLine
 10
30.363342
 20
141.14543
 30
0.0
 11
30.50574199999999
 21
141.04643
 31
0.0
  0
LINE
  5
194
330
1E
100
AcDbEntity
  8
0
100
AcDbLine
 10
30.363342
 20
141.14543
 30
0.0
 11
30.4910302489016
 21
141.327857684754
 31
0.0
  0
LINE
  5
195
330
1E
100
AcDbEntity
  8
0
100
AcDbLine
 10
28.98134199999999
 20
143.0904299999999
 30
0.0
 11
29.308942
 21
142.86043
 31
0.0
  0
LINE
  5
196
330
1E
100
AcDbEntity
  8
0
100
AcDbLine
 10
24.068442
 20
161.1794299999999
 30
0.0
 11
33.734442
 21
154.4114299999999
 31
0.0
  0
LINE
  5
197
330
1E
100
AcDbEntity
  8
0
100
AcDbLine
 10
33.734442
 20
154.4114299999999
 30
0.0
 11
44.05574199999999
 21
147.1844299999999
 31
0.0
  0
LINE
  5
198
330
1E
100
AcDbEntity
  8
0
100
AcDbLine
 10
3.09646199999999
 20
163.65643
 30
0.0
 11
4.03840199999999
 21
162.38643
 31
0.0
  0
LINE
  5
199
330
1E
100
AcDbEntity
  8
0
100
AcDbLine
 10
4.03840199999999
 20
162.38643
 30
0.0
 11
5.21479895688343
 21
161.451761582945
 31
0.0
  0
LINE
  5
19A
330
1E
100
AcDbEntity
  8
0
100
AcDbLine
 10
4.03840199999999
 20
162.38643
 30
0.0
 11
5.21479895688343
 21
161.451761582945
 31
0.0
  0
LINE
  5
19B
330
1E
100
AcDbEntity
  8
0
100
AcDbLine
 10
23.945642
 20
161.87643
 30
0.0
 11
33.85744199999999
 21
154.93543
 31
0.0
  0
LINE
  5
19C
330
1E
100
AcDbEntity
  8
0
100
AcDbLine
 10
52.20334199999999
 20
126.8554299999999
 30
0.0
 11
52.53214200000001
 21
126.62543
 31
0.0
  0
LINE
  5
19E
330
1E
100
AcDbEntity
  8
0
100
AcDbLine
 10
49.33453939525111
 20
128.1334277349889
 30
0.0
 11
49.667542
 21
127.9004299999999
 31
0.0
  0
LINE
  5
1A0
330
1E
100
AcDbEntity
  8
0
100
AcDbLine
 10
49.82204199999999
 20
127.79243
 30
0.0
 11
50.2649666774129
 21
128.42490373516
 31
0.0
  0
LINE
  5
1A1
330
1E
100
AcDbEntity
  8
0
100
AcDbLine
 10
49.88264199999999
 20
128.05043
 30
0.0
 11
50.3592483345838
 21
128.731355542523
 31
0.0
  0
LINE
  5
1A3
330
1E
100
AcDbEntity
  8
0
100
AcDbLine
 10
49.6676020175586
 20
127.9005157019969
 30
0.0
 11
49.82204199999999
 21
127.79243
 31
0.0
  0
LINE
  5
1A4
330
1E
100
AcDbEntity
  8
0
100
AcDbLine
 10
49.60134199999999
 20
128.24743
 30
0.0
 11
49.88264199999999
 21
128.05043
 31
0.0
  0
LINE
  5
1A6
330
1E
100
AcDbEntity
  8
0
100
AcDbLine
 10
49.182842
 20
128.2394299999999
 30
0.0
 11
49.647942
 21
127.91443
 31
0.0
  0
LINE
  5
1A8
330
1E
100
AcDbEntity
  8
0
100
AcDbLine
 10
51.263642
 20
127.5134299999999
 30
0.0
 11
51.874342
 21
127.08543
 31
0.0
  0
LINE
  5
1A9
330
1E
100
AcDbEntity
  8
0
100
AcDbLine
 10
51.592742
 20
127.28343
 30
0.0
 11
52.20334199999999
 21
126.8554299999999
 31
0.0
  0
LINE
  5
1AB
330
1E
100
AcDbEntity
  8
0
100
AcDbLine
 10
51.062542
 20
127.65443
 30
0.0
 11
51.592742
 21
127.28343
 31
0.0
  0
LINE
  5
1AD
330
1E
100
AcDbEntity
  8
0
100
AcDbLine
 10
50.934942
 20
127.74343
 30
0.0
 11
51.263642
 21
127.5134299999999
 31
0.0
  0
LINE
  5
1AE
330
1E
100
AcDbEntity
  8
0
100
AcDbLine
 10
50.934942
 20
127.74343
 30
0.0
 11
51.0526455770319
 21
127.911607284243
 31
0.0
  0
LINE
  5
1AF
330
1E
100
AcDbEntity
  8
0
100
AcDbLine
 10
50.934942
 20
127.74343
 30
0.0
 11
51.062542
 21
127.65443
 31
0.0
  0
LINE
  5
1B0
330
1E
100
AcDbEntity
  8
0
100
AcDbLine
 10
50.934942
 20
127.74343
 30
0.0
 11
51.3584757463063
 21
128.348583700807
 31
0.0
  0
LINE
  5
1B1
330
1E
100
AcDbEntity
  8
0
100
AcDbLine
 10
51.874342
 20
127.08543
 30
0.0
 11
52.404542
 21
126.71443
 31
0.0
  0
LINE
  5
1B2
330
1E
100
AcDbEntity
  8
0
100
AcDbLine
 10
52.576942
 20
127.02343
 30
0.0
 11
52.9199028695659
 21
126.7838988601639
 31
0.0
  0
LINE
  5
1B3
330
1E
100
AcDbEntity
  8
0
100
AcDbLine
 10
52.576942
 20
127.02343
 30
0.0
 11
52.650842
 21
126.97243
 31
0.0
  0
LINE
  5
1B4
330
1E
100
AcDbEntity
  8
0
100
AcDbLine
 10
52.576942
 20
127.02343
 30
0.0
 11
53.1402599404546
 21
127.828310223525
 31
0.0
  0
LINE
  5
1B5
330
1E
100
AcDbEntity
  8
0
100
AcDbLine
 10
52.650842
 20
126.97243
 30
0.0
 11
53.150342
 21
126.62243
 31
0.0
  0
LINE
  5
1B7
330
1E
100
AcDbEntity
  8
0
100
AcDbLine
 10
52.53214200000001
 20
126.62543
 30
0.0
 11
52.7340303274492
 21
126.913716182863
 31
0.0
  0
LINE
  5
1B8
330
1E
100
AcDbEntity
  8
0
100
AcDbLine
 10
52.49104200000001
 20
126.22443
 30
0.0
 11
52.564842
 21
126.17243
 31
0.0
  0
LINE
  5
1B9
330
1E
100
AcDbEntity
  8
0
100
AcDbLine
 10
52.49104200000001
 20
126.22443
 30
0.0
 11
52.864742
 21
125.96243
 31
0.0
  0
LINE
  5
1BA
330
1E
100
AcDbEntity
  8
0
100
AcDbLine
 10
52.49104200000001
 20
126.22443
 30
0.0
 11
52.8950142189804
 21
126.80128162121
 31
0.0
  0
LINE
  5
1BB
330
1E
100
AcDbEntity
  8
0
100
AcDbLine
 10
52.564842
 20
126.17243
 30
0.0
 11
53.06444200000001
 21
125.82243
 31
0.0
  0
LINE
  5
1BC
330
1E
100
AcDbEntity
  8
0
100
AcDbLine
 10
52.404542
 20
126.71443
 30
0.0
 11
52.53214200000001
 21
126.62543
 31
0.0
  0
LINE
  5
1BD
330
1E
100
AcDbEntity
  8
0
100
AcDbLine
 10
47.30874199999999
 20
129.55243
 30
0.0
 11
47.6517674011082
 21
130.042209992168
 31
0.0
  0
LINE
  5
1BE
330
1E
100
AcDbEntity
  8
0
100
AcDbLine
 10
47.07714199999999
 20
129.71443
 30
0.0
 11
47.30874199999999
 21
129.55243
 31
0.0
  0
LINE
  5
1C0
330
1E
100
AcDbEntity
  8
0
100
AcDbLine
 10
46.64669783356539
 20
130.01610500703
 30
0.0
 11
46.845242
 21
129.8764299999999
 31
0.0
  0
LINE
  5
1C1
330
1E
100
AcDbEntity
  8
0
100
AcDbLine
 10
45.68694199999999
 20
130.68743
 30
0.0
 11
45.91864199999999
 21
130.52543
 31
0.0
  0
LINE
  5
1C3
330
1E
100
AcDbEntity
  8
0
100
AcDbLine
 10
45.91864199999999
 20
130.52543
 30
0.0
 11
46.497842
 21
130.1204299999999
 31
0.0
  0
LINE
  5
1C5
330
1E
100
AcDbEntity
  8
0
100
AcDbLine
 10
45.223442
 20
131.01243
 30
0.0
 11
45.45514199999999
 21
130.85043
 31
0.0
  0
LINE
  5
1C6
330
1E
100
AcDbEntity
  8
0
100
AcDbLine
 10
45.223442
 20
131.01243
 30
0.0
 11
45.55899525520049
 21
131.491582848068
 31
0.0
  0
LINE
  5
1C7
330
1E
100
AcDbEntity
  8
0
100
AcDbLine
 10
45.45514199999999
 20
130.85043
 30
0.0
 11
45.68718423739849
 21
130.6877760835919
 31
0.0
  0
LINE
  5
1C9
330
1E
100
AcDbEntity
  8
0
100
AcDbLine
 10
47.627142
 20
130.0594299999999
 30
0.0
 11
48.25064199999999
 21
129.62343
 31
0.0
  0
LINE
  5
1CB
330
1E
100
AcDbEntity
  8
0
100
AcDbLine
 10
47.14244199999999
 20
130.39943
 30
0.0
 11
47.64977666580379
 21
131.123814747722
 31
0.0
  0
LINE
  5
1CC
330
1E
100
AcDbEntity
  8
0
100
AcDbLine
 10
47.16204199999999
 20
130.38543
 30
0.0
 11
47.627142
 21
130.0594299999999
 31
0.0
  0
LINE
  5
1CD
330
1E
100
AcDbEntity
  8
0
100
AcDbLine
 10
47.16204199999999
 20
130.38543
 30
0.0
 11
47.6704790396274
 21
131.1113887438199
 31
0.0
  0
LINE
  5
1CE
330
1E
100
AcDbEntity
  8
0
100
AcDbLine
 10
46.497842
 20
130.1204299999999
 30
0.0
 11
47.07714199999999
 21
129.71443
 31
0.0
  0
LINE
  5
1D0
330
1E
100
AcDbEntity
  8
0
100
AcDbLine
 10
47.578342
 20
130.5234299999999
 30
0.0
 11
48.033042
 21
130.2054299999999
 31
0.0
  0
LINE
  5
1D1
330
1E
100
AcDbEntity
  8
0
100
AcDbLine
 10
47.54354199999999
 20
130.54843
 30
0.0
 11
47.970542
 21
130.24943
 31
0.0
  0
LINE
  5
1D2
330
1E
100
AcDbEntity
  8
0
100
AcDbLine
 10
47.54354199999999
 20
130.54843
 30
0.0
 11
48.190093596456
 21
131.471672537699
 31
0.0
  0
LINE
  5
1D3
330
1E
100
AcDbEntity
  8
0
100
AcDbLine
 10
46.03434199999999
 20
130.44443
 30
0.0
 11
46.5588152875463
 21
130.077697124558
 31
0.0
  0
LINE
  5
1D4
330
1E
100
AcDbEntity
  8
0
100
AcDbLine
 10
45.97764199998
 20
130.484174820456
 30
0.0
 11
46.03434199999999
 21
130.44443
 31
0.0
  0
LINE
  5
1D5
330
1E
100
AcDbEntity
  8
0
100
AcDbLine
 10
47.6517674011082
 20
130.042209992168
 30
0.0
 11
47.89028233262179
 21
129.875421684005
 31
0.0
  0
LINE
  5
1D6
330
1E
100
AcDbEntity
  8
0
100
AcDbLine
 10
48.143442
 20
128.96743
 30
0.0
 11
48.559342
 21
128.67643
 31
0.0
  0
LINE
  5
1D7
330
1E
100
AcDbEntity
  8
0
100
AcDbLine
 10
48.143442
 20
128.96743
 30
0.0
 11
48.2850206247366
 21
129.1697028085279
 31
0.0
  0
LINE
  5
1D8
330
1E
100
AcDbEntity
  8
0
100
AcDbLine
 10
49.08604200000439
 20
128.608105485596
 30
0.0
 11
49.14544199999999
 21
128.56643
 31
0.0
  0
LINE
  5
1D9
330
1E
100
AcDbEntity
  8
0
100
AcDbLine
 10
49.14544199999999
 20
128.56643
 30
0.0
 11
49.2153191863101
 21
128.5176201140699
 31
0.0
  0
LINE
  5
1DA
330
1E
100
AcDbEntity
  8
0
100
AcDbLine
 10
49.004142
 20
128.66543
 30
0.0
 11
49.60134199999999
 21
128.24743
 31
0.0
  0
LINE
  5
1DC
330
1E
100
AcDbEntity
  8
0
100
AcDbLine
 10
48.447342
 20
129.0554299999999
 30
0.0
 11
49.004142
 21
128.66543
 31
0.0
  0
LINE
  5
1DD
330
1E
100
AcDbEntity
  8
0
100
AcDbLine
 10
48.447342
 20
129.0554299999999
 30
0.0
 11
48.6492399112055
 21
129.3439058752209
 31
0.0
  0
LINE
  5
1DE
330
1E
100
AcDbEntity
  8
0
100
AcDbLine
 10
48.559342
 20
128.67643
 30
0.0
 11
49.182842
 21
128.2394299999999
 31
0.0
  0
LINE
  5
1E0
330
1E
100
AcDbEntity
  8
0
100
AcDbLine
 10
48.317642
 20
128.8454299999999
 30
0.0
 11
48.4677030169364
 21
128.740548644077
 31
0.0
  0
LINE
  5
1E1
330
1E
100
AcDbEntity
  8
0
100
AcDbLine
 10
48.181842
 20
129.67143
 30
0.0
 11
48.64694199999999
 21
129.34543
 31
0.0
  0
LINE
  5
1E2
330
1E
100
AcDbEntity
  8
0
100
AcDbLine
 10
48.666542
 20
129.33243
 30
0.0
 11
48.86835284912029
 21
129.620605547781
 31
0.0
  0
LINE
  5
1E3
330
1E
100
AcDbEntity
  8
0
100
AcDbLine
 10
49.08304199999999
 20
129.47043
 30
0.0
 11
49.729554677841
 21
130.393616963912
 31
0.0
  0
LINE
  5
1E5
330
1E
100
AcDbEntity
  8
0
100
AcDbLine
 10
48.25064199999999
 20
129.62343
 30
0.0
 11
48.666542
 21
129.33243
 31
0.0
  0
LINE
  5
1E7
330
1E
100
AcDbEntity
  8
0
100
AcDbLine
 10
48.266942
 20
129.18243
 30
0.0
 11
48.46859252221261
 21
129.4703515092259
 31
0.0
  0
LINE
  5
1E8
330
1E
100
AcDbEntity
  8
0
100
AcDbLine
 10
48.266942
 20
129.18243
 30
0.0
 11
48.447342
 21
129.0554299999999
 31
0.0
  0
LINE
  5
1E9
330
1E
100
AcDbEntity
  8
0
100
AcDbLine
 10
48.266942
 20
129.18243
 30
0.0
 11
48.4686338681377
 21
129.4704105439409
 31
0.0
  0
LINE
  5
1EA
330
1E
100
AcDbEntity
  8
0
100
AcDbLine
 10
48.1130419999923
 20
129.719650689661
 30
0.0
 11
48.15656623336839
 21
129.689145332828
 31
0.0
  0
LINE
  5
1EB
330
1E
100
AcDbEntity
  8
0
100
AcDbLine
 10
48.1130419999923
 20
129.719650689661
 30
0.0
 11
48.181842
 21
129.67143
 31
0.0
  0
LINE
  5
1EC
330
1E
100
AcDbEntity
  8
0
100
AcDbLine
 10
48.655942
 20
129.76943
 30
0.0
 11
48.77714827648721
 21
129.6845770927889
 31
0.0
  0
LINE
  5
1ED
330
1E
100
AcDbEntity
  8
0
100
AcDbLine
 10
48.033042
 20
130.2054299999999
 30
0.0
 11
48.655942
 21
129.76943
 31
0.0
  0
LINE
  5
1EE
330
1E
100
AcDbEntity
  8
0
100
AcDbLine
 10
48.59344199999999
 20
129.81343
 30
0.0
 11
49.048242
 21
129.49443
 31
0.0
  0
LINE
  5
1F0
330
1E
100
AcDbEntity
  8
0
100
AcDbLine
 10
47.970542
 20
130.24943
 30
0.0
 11
48.59344199999999
 21
129.81343
 31
0.0
  0
LINE
  5
1F2
330
1E
100
AcDbEntity
  8
0
100
AcDbLine
 10
48.1130419999923
 20
129.719650689661
 30
0.0
 11
48.15656623336839
 21
129.689145332828
 31
0.0
  0
LINE
  5
1F3
330
1E
100
AcDbEntity
  8
0
100
AcDbLine
 10
48.1130419999923
 20
129.719650689661
 30
0.0
 11
48.181842
 21
129.67143
 31
0.0
  0
LINE
  5
1F4
330
1E
100
AcDbEntity
  8
0
100
AcDbLine
 10
47.89685273505079
 20
129.870827144375
 30
0.0
 11
48.1130419999923
 21
129.719650689661
 31
0.0
  0
LINE
  5
1F5
330
1E
100
AcDbEntity
  8
0
100
AcDbLine
 10
50.1824076162128
 20
128.478703923442
 30
0.0
 11
51.0526455770319
 21
127.911607284243
 31
0.0
  0
LINE
  5
1F6
330
1E
100
AcDbEntity
  8
0
100
AcDbLine
 10
54.057542
 20
125.12743
 30
0.0
 11
54.5175369403384
 21
125.7842219388719
 31
0.0
  0
LINE
  5
1F7
330
1E
100
AcDbEntity
  8
0
100
AcDbLine
 10
53.983642
 20
125.17943
 30
0.0
 11
54.057542
 21
125.12743
 31
0.0
  0
LINE
  5
1F9
330
1E
100
AcDbEntity
  8
0
100
AcDbLine
 10
53.484142
 20
125.52943
 30
0.0
 11
53.983642
 21
125.17943
 31
0.0
  0
LINE
  5
1FB
330
1E
100
AcDbEntity
  8
0
100
AcDbLine
 10
53.150342
 20
126.62243
 30
0.0
 11
53.769842
 21
126.18843
 31
0.0
  0
LINE
  5
1FD
330
1E
100
AcDbEntity
  8
0
100
AcDbLine
 10
52.864742
 20
125.96243
 30
0.0
 11
53.484142
 21
125.52943
 31
0.0
  0
LINE
  5
1FF
330
1E
100
AcDbEntity
  8
0
100
AcDbLine
 10
53.06444200000001
 20
125.82243
 30
0.0
 11
53.68384200000001
 21
125.38943
 31
0.0
  0
LINE
  5
200
330
1E
100
AcDbEntity
  8
0
100
AcDbLine
 10
54.143542
 20
125.92643
 30
0.0
 11
54.7798313250136
 21
126.835573233979
 31
0.0
  0
LINE
  5
201
330
1E
100
AcDbEntity
  8
0
100
AcDbLine
 10
53.769842
 20
126.18843
 30
0.0
 11
54.143542
 21
125.92643
 31
0.0
  0
LINE
  5
203
330
1E
100
AcDbEntity
  8
0
100
AcDbLine
 10
53.68384200000001
 20
125.38943
 30
0.0
 11
54.057542
 21
125.12743
 31
0.0
  0
LINE
  5
204
330
1E
100
AcDbEntity
  8
0
100
AcDbLine
 10
54.30954200000001
 20
125.38043
 30
0.0
 11
54.50604615993221
 21
125.6611746985079
 31
0.0
  0
LINE
  5
205
330
1E
100
AcDbEntity
  8
0
100
AcDbLine
 10
54.30954200000001
 20
125.38043
 30
0.0
 11
54.541242
 21
125.2184299999999
 31
0.0
  0
LINE
  5
206
330
1E
100
AcDbEntity
  8
0
100
AcDbLine
 10
54.30954200000001
 20
125.38043
 30
0.0
 11
54.74276596803139
 21
125.999375330896
 31
0.0
  0
LINE
  5
207
330
1E
100
AcDbEntity
  8
0
100
AcDbLine
 10
52.687004584948
 20
126.846565833096
 30
0.0
 11
52.8516085307121
 21
126.739300523325
 31
0.0
  0
LINE
  5
208
330
1E
100
AcDbEntity
  8
0
100
AcDbLine
 10
40.308242
 20
134.18243
 30
0.0
 11
40.589542
 21
133.98543
 31
0.0
  0
LINE
  5
20A
330
1E
100
AcDbEntity
  8
0
100
AcDbLine
 10
39.15424199999999
 20
134.99043
 30
0.0
 11
39.711042
 21
134.60043
 31
0.0
  0
LINE
  5
20C
330
1E
100
AcDbEntity
  8
0
100
AcDbLine
 10
38.973942
 20
135.11643
 30
0.0
 11
39.255142
 21
134.91943
 31
0.0
  0
LINE
  5
20D
330
1E
100
AcDbEntity
  8
0
100
AcDbLine
 10
38.973942
 20
135.11643
 30
0.0
 11
39.43289896436979
 21
135.7721971210899
 31
0.0
  0
LINE
  5
20E
330
1E
100
AcDbEntity
  8
0
100
AcDbLine
 10
38.973942
 20
135.11643
 30
0.0
 11
39.15424199999999
 21
134.99043
 31
0.0
  0
LINE
  5
20F
330
1E
100
AcDbEntity
  8
0
100
AcDbLine
 10
39.711042
 20
134.60043
 30
0.0
 11
40.308242
 21
134.18243
 31
0.0
  0
LINE
  5
211
330
1E
100
AcDbEntity
  8
0
100
AcDbLine
 10
40.211542
 20
135.25243
 30
0.0
 11
40.68461900272789
 21
135.927900825025
 31
0.0
  0
LINE
  5
212
330
1E
100
AcDbEntity
  8
0
100
AcDbLine
 10
40.016742
 20
135.38843
 30
0.0
 11
40.211542
 21
135.25243
 31
0.0
  0
LINE
  5
214
330
1E
100
AcDbEntity
  8
0
100
AcDbLine
 10
39.43837814469979
 20
135.793429999915
 30
0.0
 11
39.916742
 21
135.4584299999999
 31
0.0
  0
LINE
  5
215
330
1E
100
AcDbEntity
  8
0
100
AcDbLine
 10
39.46694199999999
 20
135.7734299999999
 30
0.0
 11
40.016742
 21
135.38843
 31
0.0
  0
LINE
  5
217
330
1E
100
AcDbEntity
  8
0
100
AcDbLine
 10
39.255142
 20
134.91943
 30
0.0
 11
39.85244199999999
 21
134.50143
 31
0.0
  0
LINE
  5
218
330
1E
100
AcDbEntity
  8
0
100
AcDbLine
 10
39.85244199999999
 20
134.50143
 30
0.0
 11
40.409242
 21
134.11143
 31
0.0
  0
LINE
  5
219
330
1E
100
AcDbEntity
  8
0
100
AcDbLine
 10
40.589542
 20
133.98543
 30
0.0
 11
41.0484424918498
 21
134.64065925876
 31
0.0
  0
LINE
  5
21A
330
1E
100
AcDbEntity
  8
0
100
AcDbLine
 10
41.193742
 20
133.56243
 30
0.0
 11
41.33614199999999
 21
133.46243
 31
0.0
  0
LINE
  5
21B
330
1E
100
AcDbEntity
  8
0
100
AcDbLine
 10
41.193742
 20
133.56243
 30
0.0
 11
41.6526164228679
 21
134.2176791540909
 31
0.0
  0
LINE
  5
21C
330
1E
100
AcDbEntity
  8
0
100
AcDbLine
 10
40.409242
 20
134.11143
 30
0.0
 11
40.589542
 21
133.98543
 31
0.0
  0
LINE
  5
21D
330
1E
100
AcDbEntity
  8
0
100
AcDbLine
 10
37.533142
 20
136.1254299999999
 30
0.0
 11
37.66071234186579
 21
136.3075780299649
 31
0.0
  0
LINE
  5
220
330
1E
100
AcDbEntity
  8
0
100
AcDbLine
 10
37.79764199999999
 20
136.21143
 30
0.0
 11
38.18136174636279
 21
136.7596488496239
 31
0.0
  0
LINE
  5
221
330
1E
100
AcDbEntity
  8
0
100
AcDbLine
 10
37.502842
 20
136.41843
 30
0.0
 11
37.79764199999999
 21
136.21143
 31
0.0
  0
LINE
  5
223
330
1E
100
AcDbEntity
  8
0
100
AcDbLine
 10
38.77434199999999
 20
136.2584299999999
 30
0.0
 11
38.8535598172551
 21
136.202957356051
 31
0.0
  0
LINE
  5
224
330
1E
100
AcDbEntity
  8
0
100
AcDbLine
 10
38.87424199999999
 20
136.18843
 30
0.0
 11
39.46694199999999
 21
135.7734299999999
 31
0.0
  0
LINE
  5
226
330
1E
100
AcDbEntity
  8
0
100
AcDbLine
 10
38.579542
 20
136.39543
 30
0.0
 11
38.87424199999999
 21
136.18843
 31
0.0
  0
LINE
  5
227
330
1E
100
AcDbEntity
  8
0
100
AcDbLine
 10
38.579542
 20
136.39543
 30
0.0
 11
38.77434199999999
 21
136.2584299999999
 31
0.0
  0
LINE
  5
228
330
1E
100
AcDbEntity
  8
0
100
AcDbLine
 10
38.579542
 20
136.39543
 30
0.0
 11
38.9456394192822
 21
136.9181983486919
 31
0.0
  0
LINE
  5
229
330
1E
100
AcDbEntity
  8
0
100
AcDbLine
 10
37.802042
 20
136.50943
 30
0.0
 11
38.20591836950359
 21
137.0864465355789
 31
0.0
  0
LINE
  5
22A
330
1E
100
AcDbEntity
  8
0
100
AcDbLine
 10
37.418442
 20
135.96143
 30
0.0
 11
37.64786199999489
 21
136.289229999993
 31
0.0
  0
LINE
  5
22B
330
1E
100
AcDbEntity
  8
0
100
AcDbLine
 10
37.17264199999999
 20
136.1334299999999
 30
0.0
 11
37.418442
 21
135.96143
 31
0.0
  0
LINE
  5
22D
330
1E
100
AcDbEntity
  8
0
100
AcDbLine
 10
34.273742
 20
138.4074299999999
 30
0.0
 11
34.454042
 21
138.2814299999999
 31
0.0
  0
LINE
  5
22F
330
1E
100
AcDbEntity
  8
0
100
AcDbLine
 10
34.15814199999999
 20
139.49143
 30
0.0
 11
34.35294199999999
 21
139.35443
 31
0.0
  0
LINE
  5
230
330
1E
100
AcDbEntity
  8
0
100
AcDbLine
 10
34.15814199999999
 20
139.49143
 30
0.0
 11
34.6309203093031
 21
140.1665331912109
 31
0.0
  0
LINE
  5
231
330
1E
100
AcDbEntity
  8
0
100
AcDbLine
 10
34.35294199999999
 20
139.35443
 30
0.0
 11
34.90274199999999
 21
138.96943
 31
0.0
  0
LINE
  5
233
330
1E
100
AcDbEntity
  8
0
100
AcDbLine
 10
35.04554199999999
 20
138.86943
 30
0.0
 11
35.59534199999999
 21
138.48443
 31
0.0
  0
LINE
  5
234
330
1E
100
AcDbEntity
  8
0
100
AcDbLine
 10
34.931305855297
 20
138.949430000087
 30
0.0
 11
35.04554199999999
 21
138.86943
 31
0.0
  0
LINE
  5
235
330
1E
100
AcDbEntity
  8
0
100
AcDbLine
 10
34.90274199999999
 20
138.96943
 30
0.0
 11
35.49544199999999
 21
138.55443
 31
0.0
  0
LINE
  5
237
330
1E
100
AcDbEntity
  8
0
100
AcDbLine
 10
35.79014199999999
 20
138.34843
 30
0.0
 11
36.1562854936981
 21
138.8712185657929
 31
0.0
  0
LINE
  5
238
330
1E
100
AcDbEntity
  8
0
100
AcDbLine
 10
35.59534199999999
 20
138.48443
 30
0.0
 11
35.79014199999999
 21
138.34843
 31
0.0
  0
LINE
  5
239
330
1E
100
AcDbEntity
  8
0
100
AcDbLine
 10
35.49544199999999
 20
138.55443
 30
0.0
 11
35.79014199999999
 21
138.34843
 31
0.0
  0
LINE
  5
23B
330
1E
100
AcDbEntity
  8
0
100
AcDbLine
 10
35.89484199999999
 20
137.27243
 30
0.0
 11
36.353618984213
 21
137.927939961752
 31
0.0
  0
LINE
  5
23D
330
1E
100
AcDbEntity
  8
0
100
AcDbLine
 10
34.454042
 20
138.2814299999999
 30
0.0
 11
34.91289237357479
 21
138.9365876986709
 31
0.0
  0
LINE
  5
23E
330
1E
100
AcDbEntity
  8
0
100
AcDbLine
 10
35.780142
 20
137.1084299999999
 30
0.0
 11
36.02584199999999
 21
136.9364299999999
 31
0.0
  0
LINE
  5
23F
330
1E
100
AcDbEntity
  8
0
100
AcDbLine
 10
35.780142
 20
137.1084299999999
 30
0.0
 11
35.89489568513679
 21
137.272392418219
 31
0.0
  0
LINE
  5
244
330
1E
100
AcDbEntity
  8
0
100
AcDbLine
 10
36.46034199999999
 20
137.1484299999999
 30
0.0
 11
37.0244781445007
 21
136.753430000054
 31
0.0
  0
LINE
  5
245
330
1E
100
AcDbEntity
  8
0
100
AcDbLine
 10
36.360442
 20
137.21843
 30
0.0
 11
36.91024199999999
 21
136.8334299999999
 31
0.0
  0
LINE
  5
247
330
1E
100
AcDbEntity
  8
0
100
AcDbLine
 10
36.91024199999999
 20
136.8334299999999
 30
0.0
 11
37.502842
 21
136.41843
 31
0.0
  0
LINE
  5
249
330
1E
100
AcDbEntity
  8
0
100
AcDbLine
 10
38.1291018026839
 20
136.6849852794619
 30
0.0
 11
39.30264199999999
 21
135.86343
 31
0.0
  0
LINE
  5
24A
330
1E
100
AcDbEntity
  8
0
100
AcDbLine
 10
36.982942
 20
137.08343
 30
0.0
 11
37.556342
 21
136.68143
 31
0.0
  0
LINE
  5
24C
330
1E
100
AcDbEntity
  8
0
100
AcDbLine
 10
37.556342
 20
136.68143
 30
0.0
 11
37.802042
 21
136.50943
 31
0.0
  0
LINE
  5
24E
330
1E
100
AcDbEntity
  8
0
100
AcDbLine
 10
38.205942
 20
137.08643
 30
0.0
 11
38.8525568433735
 21
138.0097628510559
 31
0.0
  0
LINE
  5
24F
330
1E
100
AcDbEntity
  8
0
100
AcDbLine
 10
36.165642
 20
137.35443
 30
0.0
 11
36.360442
 21
137.21843
 31
0.0
  0
LINE
  5
250
330
1E
100
AcDbEntity
  8
0
100
AcDbLine
 10
36.165642
 20
137.35443
 30
0.0
 11
36.46034199999999
 21
137.1484299999999
 31
0.0
  0
LINE
  5
251
330
1E
100
AcDbEntity
  8
0
100
AcDbLine
 10
36.165642
 20
137.35443
 30
0.0
 11
36.3068962501975
 21
137.556256968942
 31
0.0
  0
LINE
  5
252
330
1E
100
AcDbEntity
  8
0
100
AcDbLine
 10
36.163742
 20
137.65643
 30
0.0
 11
36.409542
 21
137.48443
 31
0.0
  0
LINE
  5
253
330
1E
100
AcDbEntity
  8
0
100
AcDbLine
 10
36.163742
 20
137.65643
 30
0.0
 11
36.6407074034195
 21
138.3378685427169
 31
0.0
  0
LINE
  5
254
330
1E
100
AcDbEntity
  8
0
100
AcDbLine
 10
36.409542
 20
137.48443
 30
0.0
 11
36.982942
 21
137.08343
 31
0.0
  0
LINE
  5
256
330
1E
100
AcDbEntity
  8
0
100
AcDbLine
 10
36.567642
 20
138.2334299999999
 30
0.0
 11
36.813342
 21
138.0614299999999
 31
0.0
  0
LINE
  5
257
330
1E
100
AcDbEntity
  8
0
100
AcDbLine
 10
36.567642
 20
138.2334299999999
 30
0.0
 11
37.2143023839326
 21
139.1568278806399
 31
0.0
  0
LINE
  5
258
330
1E
100
AcDbEntity
  8
0
100
AcDbLine
 10
36.813342
 20
138.0614299999999
 30
0.0
 11
37.386742
 21
137.6604299999999
 31
0.0
  0
LINE
  5
25A
330
1E
100
AcDbEntity
  8
0
100
AcDbLine
 10
37.386742
 20
137.6604299999999
 30
0.0
 11
37.960142
 21
137.2584299999999
 31
0.0
  0
LINE
  5
25C
330
1E
100
AcDbEntity
  8
0
100
AcDbLine
 10
37.960142
 20
137.2584299999999
 30
0.0
 11
38.205942
 21
137.08643
 31
0.0
  0
LINE
  5
25E
330
1E
100
AcDbEntity
  8
0
100
AcDbLine
 10
36.02584199999999
 20
136.9364299999999
 30
0.0
 11
36.59924199999999
 21
136.5354299999999
 31
0.0
  0
LINE
  5
260
330
1E
100
AcDbEntity
  8
0
100
AcDbLine
 10
36.59924199999999
 20
136.5354299999999
 30
0.0
 11
37.17264199999999
 21
136.1334299999999
 31
0.0
  0
LINE
  5
263
330
1E
100
AcDbEntity
  8
0
100
AcDbLine
 10
42.720742
 20
132.7644299999999
 30
0.0
 11
43.136542
 21
132.47343
 31
0.0
  0
LINE
  5
265
330
1E
100
AcDbEntity
  8
0
100
AcDbLine
 10
42.465542
 20
132.67143
 30
0.0
 11
42.807142
 21
132.43243
 31
0.0
  0
LINE
  5
267
330
1E
100
AcDbEntity
  8
0
100
AcDbLine
 10
44.540942
 20
132.2204299999999
 30
0.0
 11
45.1601456623454
 21
133.105083767943
 31
0.0
  0
LINE
  5
268
330
1E
100
AcDbEntity
  8
0
100
AcDbLine
 10
44.452042
 20
132.28343
 30
0.0
 11
44.540942
 21
132.2204299999999
 31
0.0
  0
LINE
  5
26A
330
1E
100
AcDbEntity
  8
0
100
AcDbLine
 10
44.186642
 20
132.03943
 30
0.0
 11
44.388251160349
 21
132.3273175465539
 31
0.0
  0
LINE
  5
26C
330
1E
100
AcDbEntity
  8
0
100
AcDbLine
 10
44.3764828012832
 20
132.31051293305
 30
0.0
 11
45.03674199999999
 21
131.84843
 31
0.0
  0
LINE
  5
26D
330
1E
100
AcDbEntity
  8
0
100
AcDbLine
 10
43.759642
 20
132.33843
 30
0.0
 11
43.837994063218
 21
132.283565206318
 31
0.0
  0
LINE
  5
26E
330
1E
100
AcDbEntity
  8
0
100
AcDbLine
 10
43.837994063218
 20
132.283565206318
 30
0.0
 11
44.15184199999999
 21
132.06343
 31
0.0
  0
LINE
  5
26F
330
1E
100
AcDbEntity
  8
0
100
AcDbLine
 10
43.06464199999999
 20
132.2524299999999
 30
0.0
 11
43.3336707945417
 21
132.636589328271
 31
0.0
  0
LINE
  5
270
330
1E
100
AcDbEntity
  8
0
100
AcDbLine
 10
43.697042
 20
132.38243
 30
0.0
 11
44.15184199999999
 21
132.06343
 31
0.0
  0
LINE
  5
272
330
1E
100
AcDbEntity
  8
0
100
AcDbLine
 10
43.76724199998789
 20
132.762501255069
 30
0.0
 11
44.155242
 21
132.49043
 31
0.0
  0
LINE
  5
273
330
1E
100
AcDbEntity
  8
0
100
AcDbLine
 10
44.155242
 20
132.49043
 30
0.0
 11
44.540942
 21
132.2204299999999
 31
0.0
  0
LINE
  5
274
330
1E
100
AcDbEntity
  8
0
100
AcDbLine
 10
43.96174199999999
 20
132.62643
 30
0.0
 11
44.452042
 21
132.28343
 31
0.0
  0
LINE
  5
276
330
1E
100
AcDbEntity
  8
0
100
AcDbLine
 10
43.136742
 20
132.7744299999999
 30
0.0
 11
43.759642
 21
132.33843
 31
0.0
  0
LINE
  5
277
330
1E
100
AcDbEntity
  8
0
100
AcDbLine
 10
43.07414199999999
 20
132.8184299999999
 30
0.0
 11
43.697042
 21
132.38243
 31
0.0
  0
LINE
  5
279
330
1E
100
AcDbEntity
  8
0
100
AcDbLine
 10
43.136542
 20
132.47343
 30
0.0
 11
43.2780617652622
 21
132.6755129705339
 31
0.0
  0
LINE
  5
27A
330
1E
100
AcDbEntity
  8
0
100
AcDbLine
 10
42.80736117444529
 20
132.432743160941
 30
0.0
 11
42.92224199999999
 21
132.35243
 31
0.0
  0
LINE
  5
27B
330
1E
100
AcDbEntity
  8
0
100
AcDbLine
 10
42.92224199999999
 20
132.35243
 30
0.0
 11
43.06464199999999
 21
132.2524299999999
 31
0.0
  0
LINE
  5
27D
330
1E
100
AcDbEntity
  8
0
100
AcDbLine
 10
42.80721695683959
 20
132.4325370998689
 30
0.0
 11
43.06464199999999
 21
132.2524299999999
 31
0.0
  0
LINE
  5
27E
330
1E
100
AcDbEntity
  8
0
100
AcDbLine
 10
41.612542
 20
133.54043
 30
0.0
 11
42.02834199999999
 21
133.24943
 31
0.0
  0
LINE
  5
27F
330
1E
100
AcDbEntity
  8
0
100
AcDbLine
 10
41.612542
 20
133.54043
 30
0.0
 11
42.0382040239775
 21
134.1486246275819
 31
0.0
  0
LINE
  5
280
330
1E
100
AcDbEntity
  8
0
100
AcDbLine
 10
41.33614199999999
 20
133.46243
 30
0.0
 11
41.858142
 21
133.09743
 31
0.0
  0
LINE
  5
282
330
1E
100
AcDbEntity
  8
0
100
AcDbLine
 10
43.34424199999999
 20
133.05843
 30
0.0
 11
43.96174199999999
 21
132.62643
 31
0.0
  0
LINE
  5
284
330
1E
100
AcDbEntity
  8
0
100
AcDbLine
 10
42.68194199999999
 20
133.09243
 30
0.0
 11
43.136742
 21
132.7744299999999
 31
0.0
  0
LINE
  5
285
330
1E
100
AcDbEntity
  8
0
100
AcDbLine
 10
42.02834199999999
 20
133.24943
 30
0.0
 11
42.1711266180439
 21
133.14958381962
 31
0.0
  0
LINE
  5
286
330
1E
100
AcDbEntity
  8
0
100
AcDbLine
 10
42.09714199999999
 20
133.20143
 30
0.0
 11
42.720742
 21
132.7644299999999
 31
0.0
  0
LINE
  5
288
330
1E
100
AcDbEntity
  8
0
100
AcDbLine
 10
41.632142
 20
133.52743
 30
0.0
 11
42.09714199999999
 21
133.20143
 31
0.0
  0
LINE
  5
28A
330
1E
100
AcDbEntity
  8
0
100
AcDbLine
 10
42.95854199999999
 20
133.32843
 30
0.0
 11
43.34424199999999
 21
133.05843
 31
0.0
  0
LINE
  5
28B
330
1E
100
AcDbEntity
  8
0
100
AcDbLine
 10
42.95854199999999
 20
133.32843
 30
0.0
 11
43.1605095036107
 21
133.617005310276
 31
0.0
  0
LINE
  5
28C
330
1E
100
AcDbEntity
  8
0
100
AcDbLine
 10
42.64714199999999
 20
133.11743
 30
0.0
 11
43.07414199999999
 21
132.8184299999999
 31
0.0
  0
LINE
  5
28D
330
1E
100
AcDbEntity
  8
0
100
AcDbLine
 10
42.64714199999999
 20
133.11743
 30
0.0
 11
43.0508550133356
 21
133.693911488836
 31
0.0
  0
LINE
  5
28E
330
1E
100
AcDbEntity
  8
0
100
AcDbLine
 10
42.79204199999999
 20
133.8754299999999
 30
0.0
 11
43.399442
 21
133.44943
 31
0.0
  0
LINE
  5
28F
330
1E
100
AcDbEntity
  8
0
100
AcDbLine
 10
43.740942
 20
133.21043
 30
0.0
 11
44.38756877023529
 21
134.1342630512689
 31
0.0
  0
LINE
  5
290
330
1E
100
AcDbEntity
  8
0
100
AcDbLine
 10
43.399442
 20
133.44943
 30
0.0
 11
43.740942
 21
133.21043
 31
0.0
  0
LINE
  5
291
330
1E
100
AcDbEntity
  8
0
100
AcDbLine
 10
43.598542
 20
133.31043
 30
0.0
 11
43.740942
 21
133.21043
 31
0.0
  0
LINE
  5
293
330
1E
100
AcDbEntity
  8
0
100
AcDbLine
 10
43.07654199999999
 20
133.67643
 30
0.0
 11
43.598542
 21
133.31043
 31
0.0
  0
LINE
  5
295
330
1E
100
AcDbEntity
  8
0
100
AcDbLine
 10
54.254142
 20
139.43343
 30
0.0
 11
64.16584199999999
 21
132.49243
 31
0.0
  0
LINE
  5
296
330
1E
100
AcDbEntity
  8
0
100
AcDbLine
 10
43.76894199999999
 20
146.7744299999999
 30
0.0
 11
54.254142
 21
139.43343
 31
0.0
  0
LINE
  5
297
330
1E
100
AcDbEntity
  8
0
100
AcDbLine
 10
42.27004199999999
 20
134.24043
 30
0.0
 11
42.79204199999999
 21
133.8754299999999
 31
0.0
  0
LINE
  5
298
330
1E
100
AcDbEntity
  8
0
100
AcDbLine
 10
42.46914199999999
 20
134.1014299999999
 30
0.0
 11
43.07654199999999
 21
133.67643
 31
0.0
  0
LINE
  5
29A
330
1E
100
AcDbEntity
  8
0
100
AcDbLine
 10
42.127542
 20
134.3404299999999
 30
0.0
 11
42.46914199999999
 21
134.1014299999999
 31
0.0
  0
LINE
  5
29B
330
1E
100
AcDbEntity
  8
0
100
AcDbLine
 10
42.127542
 20
134.3404299999999
 30
0.0
 11
42.27004199999999
 21
134.24043
 31
0.0
  0
LINE
  5
29C
330
1E
100
AcDbEntity
  8
0
100
AcDbLine
 10
42.127542
 20
134.3404299999999
 30
0.0
 11
42.7742781001663
 21
135.2638554986679
 31
0.0
  0
LINE
  5
29D
330
1E
100
AcDbEntity
  8
0
100
AcDbLine
 10
41.858142
 20
133.09743
 30
0.0
 11
42.465542
 21
132.67143
 31
0.0
  0
LINE
  5
29F
330
1E
100
AcDbEntity
  8
0
100
AcDbLine
 10
41.62114199999529
 20
133.2631483908079
 30
0.0
 11
42.115642
 21
132.9164299999999
 31
0.0
  0
LINE
  5
2A0
330
1E
100
AcDbEntity
  8
0
100
AcDbLine
 10
42.115642
 20
132.9164299999999
 30
0.0
 11
42.36004199999549
 21
132.7454224267399
 31
0.0
  0
LINE
  5
2A1
330
1E
100
AcDbEntity
  8
0
100
AcDbLine
 10
41.26864199999999
 20
134.48643
 30
0.0
 11
41.6526164228679
 21
134.2176791540909
 31
0.0
  0
LINE
  5
2A2
330
1E
100
AcDbEntity
  8
0
100
AcDbLine
 10
41.26864199999999
 20
134.48643
 30
0.0
 11
41.94386394670739
 21
134.013829590841
 31
0.0
  0
LINE
  5
2A3
330
1E
100
AcDbEntity
  8
0
100
AcDbLine
 10
45.364342
 20
131.61843
 30
0.0
 11
46.03340987461489
 21
131.182427251128
 31
0.0
  0
LINE
  5
2A4
330
1E
100
AcDbEntity
  8
0
100
AcDbLine
 10
54.541242
 20
125.2184299999999
 30
0.0
 11
55.12054200000001
 21
124.81243
 31
0.0
  0
LINE
  5
2A6
330
1E
100
AcDbEntity
  8
0
100
AcDbLine
 10
54.70204200000001
 20
124.67643
 30
0.0
 11
54.9037190866937
 21
124.964389438637
 31
0.0
  0
LINE
  5
2A7
330
1E
100
AcDbEntity
  8
0
100
AcDbLine
 10
54.70204200000001
 20
124.67643
 30
0.0
 11
54.844542
 21
124.57643
 31
0.0
  0
LINE
  5
2A8
330
1E
100
AcDbEntity
  8
0
100
AcDbLine
 10
54.4547639348632
 20
125.694593118293
 30
0.0
 11
54.50604615993221
 21
125.6611746985079
 31
0.0
  0
LINE
  5
2A9
330
1E
100
AcDbEntity
  8
0
100
AcDbLine
 10
54.377042
 20
139.95743
 30
0.0
 11
64.043042
 21
133.18943
 31
0.0
  0
LINE
  5
2AA
330
1E
100
AcDbEntity
  8
0
100
AcDbLine
 10
44.05574199999999
 20
147.1844299999999
 30
0.0
 11
54.377042
 21
139.95743
 31
0.0
  0
LINE
  5
2AB
330
1E
100
AcDbEntity
  8
0
100
AcDbLine
 10
57.291542
 20
123.29243
 30
0.0
 11
57.39928746830689
 21
123.217036622516
 31
0.0
  0
LINE
  5
2AC
330
1E
100
AcDbEntity
  8
0
100
AcDbLine
 10
58.43234200000001
 20
122.49343
 30
0.0
 11
58.761142
 21
122.2634299999999
 31
0.0
  0
LINE
  5
2AD
330
1E
100
AcDbEntity
  8
0
100
AcDbLine
 10
58.72964200000001
 20
122.71543
 30
0.0
 11
59.37622016976379
 21
123.638630001807
 31
0.0
  0
LINE
  5
2AE
330
1E
100
AcDbEntity
  8
0
100
AcDbLine
 10
58.761142
 20
122.2634299999999
 30
0.0
 11
59.3080101889911
 21
123.04480648135
 31
0.0
  0
LINE
  5
2AF
330
1E
100
AcDbEntity
  8
0
100
AcDbLine
 10
58.633542
 20
122.35343
 30
0.0
 11
58.761142
 21
122.2634299999999
 31
0.0
  0
LINE
  5
2B1
330
1E
100
AcDbEntity
  8
0
100
AcDbLine
 10
57.851142
 20
123.33043
 30
0.0
 11
58.44834200000001
 21
122.91243
 31
0.0
  0
LINE
  5
2B3
330
1E
100
AcDbEntity
  8
0
100
AcDbLine
 10
58.549342
 20
122.84143
 30
0.0
 11
58.72964200000001
 21
122.71543
 31
0.0
  0
LINE
  5
2B4
330
1E
100
AcDbEntity
  8
0
100
AcDbLine
 10
57.992542
 20
123.23143
 30
0.0
 11
58.549342
 21
122.84143
 31
0.0
  0
LINE
  5
2B5
330
1E
100
AcDbEntity
  8
0
100
AcDbLine
 10
58.44834200000001
 20
122.91243
 30
0.0
 11
58.72964200000001
 21
122.71543
 31
0.0
  0
LINE
  5
2B7
330
1E
100
AcDbEntity
  8
0
100
AcDbLine
 10
57.88220392225991
 20
122.879049222523
 30
0.0
 11
58.43234200000001
 21
122.49343
 31
0.0
  0
LINE
  5
2B8
330
1E
100
AcDbEntity
  8
0
100
AcDbLine
 10
58.103342
 20
122.7244299999999
 30
0.0
 11
58.633542
 21
122.35343
 31
0.0
  0
LINE
  5
2BA
330
1E
100
AcDbEntity
  8
0
100
AcDbLine
 10
57.492642
 20
123.15143
 30
0.0
 11
58.103342
 21
122.7244299999999
 31
0.0
  0
LINE
  5
2BC
330
1E
100
AcDbEntity
  8
0
100
AcDbLine
 10
57.114042
 20
123.8464299999999
 30
0.0
 11
57.39534200000001
 21
123.64943
 31
0.0
  0
LINE
  5
2BD
330
1E
100
AcDbEntity
  8
0
100
AcDbLine
 10
57.114042
 20
123.8464299999999
 30
0.0
 11
57.294342
 21
123.72043
 31
0.0
  0
LINE
  5
2BE
330
1E
100
AcDbEntity
  8
0
100
AcDbLine
 10
57.114042
 20
123.8464299999999
 30
0.0
 11
57.76042698243539
 21
124.769998116303
 31
0.0
  0
LINE
  5
2BF
330
1E
100
AcDbEntity
  8
0
100
AcDbLine
 10
57.39534200000001
 20
123.64943
 30
0.0
 11
57.992542
 21
123.23143
 31
0.0
  0
LINE
  5
2C0
330
1E
100
AcDbEntity
  8
0
100
AcDbLine
 10
57.294342
 20
123.72043
 30
0.0
 11
57.851142
 21
123.33043
 31
0.0
  0
LINE
  5
2C2
330
1E
100
AcDbEntity
  8
0
100
AcDbLine
 10
56.315442
 20
123.54643
 30
0.0
 11
56.76538078955729
 21
124.188863522747
 31
0.0
  0
LINE
  5
2C3
330
1E
100
AcDbEntity
  8
0
100
AcDbLine
 10
56.315442
 20
123.54643
 30
0.0
 11
56.7821836046798
 21
124.212854989946
 31
0.0
  0
LINE
  5
2C4
330
1E
100
AcDbEntity
  8
0
100
AcDbLine
 10
55.973942
 20
123.78543
 30
0.0
 11
56.315442
 21
123.54643
 31
0.0
  0
LINE
  5
2C6
330
1E
100
AcDbEntity
  8
0
100
AcDbLine
 10
57.163942
 20
123.3824299999999
 30
0.0
 11
57.291542
 21
123.29243
 31
0.0
  0
LINE
  5
2C7
330
1E
100
AcDbEntity
  8
0
100
AcDbLine
 10
57.163942
 20
123.3824299999999
 30
0.0
 11
57.492642
 21
123.15143
 31
0.0
  0
LINE
  5
2C8
330
1E
100
AcDbEntity
  8
0
100
AcDbLine
 10
57.163942
 20
123.3824299999999
 30
0.0
 11
57.3655396827457
 21
123.670301157124
 31
0.0
  0
LINE
  5
2C9
330
1E
100
AcDbEntity
  8
0
100
AcDbLine
 10
62.38764200000001
 20
119.7244299999999
 30
0.0
 11
62.476642
 21
119.66243
 31
0.0
  0
LINE
  5
2CA
330
1E
100
AcDbEntity
  8
0
100
AcDbLine
 10
62.4103058554962
 20
119.708429999948
 30
0.0
 11
62.524542
 21
119.62843
 31
0.0
  0
LINE
  5
2CB
330
1E
100
AcDbEntity
  8
0
100
AcDbLine
 10
62.3975473334019
 20
119.717363333285
 30
0.0
 11
62.45314200000001
 21
119.67843
 31
0.0
  0
LINE
  5
2CC
330
1E
100
AcDbEntity
  8
0
100
AcDbLine
 10
62.381742
 20
119.7284299999999
 30
0.0
 11
62.45314200000001
 21
119.67843
 31
0.0
  0
LINE
  5
2CD
330
1E
100
AcDbEntity
  8
0
100
AcDbLine
 10
62.381742
 20
119.7284299999999
 30
0.0
 11
62.97444200000001
 21
119.31343
 31
0.0
  0
LINE
  5
2CE
330
1E
100
AcDbEntity
  8
0
100
AcDbLine
 10
62.97444200000001
 20
119.31343
 30
0.0
 11
63.269242
 21
119.10743
 31
0.0
  0
LINE
  5
2D0
330
1E
100
AcDbEntity
  8
0
100
AcDbLine
 10
63.269242
 20
119.10743
 30
0.0
 11
63.7989958613097
 21
119.863891358927
 31
0.0
  0
LINE
  5
2D1
330
1E
100
AcDbEntity
  8
0
100
AcDbLine
 10
63.074342
 20
119.24343
 30
0.0
 11
63.269242
 21
119.10743
 31
0.0
  0
LINE
  5
2D3
330
1E
100
AcDbEntity
  8
0
100
AcDbLine
 10
62.524542
 20
119.62843
 30
0.0
 11
63.074342
 21
119.24343
 31
0.0
  0
LINE
  5
2D4
330
1E
100
AcDbEntity
  8
0
100
AcDbLine
 10
62.45314200000001
 20
119.67843
 30
0.0
 11
62.524542
 21
119.62843
 31
0.0
  0
LINE
  5
2D5
330
1E
100
AcDbEntity
  8
0
100
AcDbLine
 10
62.45314200000001
 20
119.67843
 30
0.0
 11
62.97444200000001
 21
119.31343
 31
0.0
  0
LINE
  5
2D6
330
1E
100
AcDbEntity
  8
0
100
AcDbLine
 10
62.45314200000001
 20
119.67843
 30
0.0
 11
63.074342
 21
119.24343
 31
0.0
  0
LINE
  5
2D7
330
1E
100
AcDbEntity
  8
0
100
AcDbLine
 10
61.473442
 20
120.36443
 30
0.0
 11
62.090842
 21
119.93243
 31
0.0
  0
LINE
  5
2D9
330
1E
100
AcDbEntity
  8
0
100
AcDbLine
 10
61.6825752288392
 20
120.2180977115989
 30
0.0
 11
61.897442
 21
120.0674299999999
 31
0.0
  0
LINE
  5
2DA
330
1E
100
AcDbEntity
  8
0
100
AcDbLine
 10
61.63714200000001
 20
120.24943
 30
0.0
 11
62.45314200000001
 21
119.67843
 31
0.0
  0
LINE
  5
2DB
330
1E
100
AcDbEntity
  8
0
100
AcDbLine
 10
61.63714200000001
 20
120.24943
 30
0.0
 11
61.85315580243639
 21
120.098484127198
 31
0.0
  0
LINE
  5
2DC
330
1E
100
AcDbEntity
  8
0
100
AcDbLine
 10
61.63714200000001
 20
120.24943
 30
0.0
 11
61.8089403713353
 21
120.129488631922
 31
0.0
  0
LINE
  5
2DD
330
1E
100
AcDbEntity
  8
0
100
AcDbLine
 10
59.411242
 20
121.80843
 30
0.0
 11
59.7601628227137
 21
122.306671049259
 31
0.0
  0
LINE
  5
2DE
330
1E
100
AcDbEntity
  8
0
100
AcDbLine
 10
59.411242
 20
121.80843
 30
0.0
 11
59.827042
 21
121.51743
 31
0.0
  0
LINE
  5
2DF
330
1E
100
AcDbEntity
  8
0
100
AcDbLine
 10
59.411242
 20
121.80843
 30
0.0
 11
59.9055182408661
 21
122.5142311355059
 31
0.0
  0
LINE
  5
2E0
330
1E
100
AcDbEntity
  8
0
100
AcDbLine
 10
59.43084200000001
 20
121.79443
 30
0.0
 11
59.734641999992
 21
121.582096666672
 31
0.0
  0
LINE
  5
2E2
330
1E
100
AcDbEntity
  8
0
100
AcDbLine
 10
61.332942
 20
120.89243
 30
0.0
 11
61.930242
 21
120.4744299999999
 31
0.0
  0
LINE
  5
2E4
330
1E
100
AcDbEntity
  8
0
100
AcDbLine
 10
60.915642
 20
120.7554299999999
 30
0.0
 11
61.1173539394516
 21
121.043464309844
 31
0.0
  0
LINE
  5
2E5
330
1E
100
AcDbEntity
  8
0
100
AcDbLine
 10
60.9235984777323
 20
120.749578785425
 30
0.0
 11
60.983142
 21
120.70743
 31
0.0
  0
LINE
  5
2E6
330
1E
100
AcDbEntity
  8
0
100
AcDbLine
 10
60.654064955521
 20
120.938213357247
 30
0.0
 11
60.9235984777323
 21
120.749578785425
 31
0.0
  0
LINE
  5
2E7
330
1E
100
AcDbEntity
  8
0
100
AcDbLine
 10
60.654064955521
 20
120.938213357247
 30
0.0
 11
60.935242
 21
120.74143
 31
0.0
  0
LINE
  5
2E8
330
1E
100
AcDbEntity
  8
0
100
AcDbLine
 10
61.051742
 20
121.08943
 30
0.0
 11
61.332942
 21
120.89243
 31
0.0
  0
LINE
  5
2E9
330
1E
100
AcDbEntity
  8
0
100
AcDbLine
 10
61.051742
 20
121.08943
 30
0.0
 11
61.67803173820599
 21
121.983739642735
 31
0.0
  0
LINE
  5
2EA
330
1E
100
AcDbEntity
  8
0
100
AcDbLine
 10
60.450542
 20
121.08043
 30
0.0
 11
60.654064955521
 21
120.938213357247
 31
0.0
  0
LINE
  5
2EB
330
1E
100
AcDbEntity
  8
0
100
AcDbLine
 10
60.450542
 20
121.08043
 30
0.0
 11
60.915642
 21
120.7554299999999
 31
0.0
  0
LINE
  5
2ED
330
1E
100
AcDbEntity
  8
0
100
AcDbLine
 10
59.827042
 20
121.51743
 30
0.0
 11
60.450542
 21
121.08043
 31
0.0
  0
LINE
  5
2EF
330
1E
100
AcDbEntity
  8
0
100
AcDbLine
 10
60.983142
 20
120.70743
 30
0.0
 11
61.473442
 21
120.36443
 31
0.0
  0
LINE
  5
2F1
330
1E
100
AcDbEntity
  8
0
100
AcDbLine
 10
62.1442253791239
 20
119.894752115382
 30
0.0
 11
62.381742
 21
119.7284299999999
 31
0.0
  0
LINE
  5
2F2
330
1E
100
AcDbEntity
  8
0
100
AcDbLine
 10
61.930242
 20
120.4744299999999
 30
0.0
 11
62.487042
 21
120.0844299999999
 31
0.0
  0
LINE
  5
2F4
330
1E
100
AcDbEntity
  8
0
100
AcDbLine
 10
61.897442
 20
120.0674299999999
 30
0.0
 11
62.38764200000001
 21
119.7244299999999
 31
0.0
  0
LINE
  5
2F6
330
1E
100
AcDbEntity
  8
0
100
AcDbLine
 10
62.487042
 20
120.0844299999999
 30
0.0
 11
62.66734200000001
 21
119.95843
 31
0.0
  0
LINE
  5
2F8
330
1E
100
AcDbEntity
  8
0
100
AcDbLine
 10
62.090842
 20
119.93243
 30
0.0
 11
62.476642
 21
119.66243
 31
0.0
  0
LINE
  5
2FA
330
1E
100
AcDbEntity
  8
0
100
AcDbLine
 10
62.1425420000119
 20
119.895929999992
 30
0.0
 11
62.45314200000001
 21
119.67843
 31
0.0
  0
LINE
  5
2FB
330
1E
100
AcDbEntity
  8
0
100
AcDbLine
 10
61.85315580243639
 20
120.098484127198
 30
0.0
 11
61.897442
 21
120.0674299999999
 31
0.0
  0
LINE
  5
2FC
330
1E
100
AcDbEntity
  8
0
100
AcDbLine
 10
63.7816853700115
 20
119.8391728646839
 30
0.0
 11
64.6149946043856
 21
119.327876707862
 31
0.0
  0
LINE
  5
2FD
330
1E
100
AcDbEntity
  8
0
100
AcDbLine
 10
59.08243823439221
 20
122.722504647519
 30
0.0
 11
59.7601628227137
 21
122.306671049259
 31
0.0
  0
LINE
  5
2FE
330
1E
100
AcDbEntity
  8
0
100
AcDbLine
 10
55.12054200000001
 20
124.81243
 30
0.0
 11
55.699742
 21
124.40743
 31
0.0
  0
LINE
  5
300
330
1E
100
AcDbEntity
  8
0
100
AcDbLine
 10
54.844542
 20
124.57643
 30
0.0
 11
55.366542
 21
124.21043
 31
0.0
  0
LINE
  5
302
330
1E
100
AcDbEntity
  8
0
100
AcDbLine
 10
55.93144200000001
 20
124.24543
 30
0.0
 11
56.4624336110361
 21
125.00365880209
 31
0.0
  0
LINE
  5
303
330
1E
100
AcDbEntity
  8
0
100
AcDbLine
 10
55.699742
 20
124.40743
 30
0.0
 11
55.93144200000001
 21
124.24543
 31
0.0
  0
LINE
  5
305
330
1E
100
AcDbEntity
  8
0
100
AcDbLine
 10
55.366542
 20
124.21043
 30
0.0
 11
55.973942
 21
123.78543
 31
0.0
  0
LINE
  5
307
330
1E
100
AcDbEntity
  8
0
100
AcDbLine
 10
56.76538078955729
 20
124.188863522747
 30
0.0
 11
57.16942640729801
 21
123.925564376743
 31
0.0
  0
LINE
  5
308
330
1E
100
AcDbEntity
  8
0
100
AcDbLine
 10
64.16584199999999
 20
132.49243
 30
0.0
 11
72.68504200000001
 21
126.52743
 31
0.0
  0
LINE
  5
309
330
1E
100
AcDbEntity
  8
0
100
AcDbLine
 10
64.043042
 20
133.18943
 30
0.0
 11
72.398442
 21
127.33843
 31
0.0
  0
LINE
  5
30A
330
1E
100
AcDbEntity
  8
0
100
AcDbLine
 10
64.73944200000001
 20
133.31143
 30
0.0
 11
73.25864200000001
 21
127.34643
 31
0.0
  0
LINE
  5
30B
330
1E
100
AcDbEntity
  8
0
100
AcDbLine
 10
54.827742
 20
140.25243
 30
0.0
 11
64.73944200000001
 21
133.31143
 31
0.0
  0
LINE
  5
30C
330
1E
100
AcDbEntity
  8
0
100
AcDbLine
 10
44.342542
 20
147.59343
 30
0.0
 11
54.827742
 21
140.25243
 31
0.0
  0
LINE
  5
30D
330
1E
100
AcDbEntity
  8
0
100
AcDbLine
 10
33.85744199999999
 20
154.93543
 30
0.0
 11
44.342542
 21
147.59343
 31
0.0
  0
LINE
  5
30E
330
1E
100
AcDbEntity
  8
0
100
AcDbLine
 10
1.33537199999999
 20
165.5004299999999
 30
0.0
 11
3.09646199999999
 21
163.65643
 31
0.0
  0
LINE
  5
30F
330
1E
100
AcDbEntity
  8
0
100
AcDbLine
 10
0.147857999999989
 20
168.16243
 30
0.0
 11
0.353071999999989
 21
171.07143
 31
0.0
  0
LINE
  5
310
330
1E
100
AcDbEntity
  8
0
100
AcDbLine
 10
0.147857999999989
 20
168.16243
 30
0.0
 11
1.33537199999999
 21
165.5004299999999
 31
0.0
  0
LINE
  5
311
330
1E
100
AcDbEntity
  8
0
100
AcDbLine
 10
0.353071999999989
 20
171.07143
 30
0.0
 11
1.377431999999989
 21
173.4054299999999
 31
0.0
  0
LINE
  5
312
330
1E
100
AcDbEntity
  8
0
100
AcDbLine
 10
0.147857999999989
 20
168.16243
 30
0.0
 11
1.33537199999999
 21
165.5004299999999
 31
0.0
  0
LINE
  5
313
330
1E
100
AcDbEntity
  8
0
100
AcDbLine
 10
4.28585199999999
 20
174.42143
 30
0.0
 11
8.299691999999989
 21
171.61043
 31
0.0
  0
LINE
  5
314
330
1E
100
AcDbEntity
  8
0
100
AcDbLine
 10
1.377431999999989
 20
173.4054299999999
 30
0.0
 11
2.81138199999999
 21
175.4534299999999
 31
0.0
  0
LINE
  5
315
330
1E
100
AcDbEntity
  8
0
100
AcDbLine
 10
1.33537199999999
 20
165.5004299999999
 30
0.0
 11
3.09646199999999
 21
163.65643
 31
0.0
  0
LINE
  5
316
330
1E
100
AcDbEntity
  8
0
100
AcDbLine
 10
2.81138199999999
 20
175.4534299999999
 30
0.0
 11
3.91732199999999
 21
175.28943
 31
0.0
  0
LINE
  5
317
330
1E
100
AcDbEntity
  8
0
100
AcDbLine
 10
2.81138199999999
 20
175.4534299999999
 30
0.0
 11
4.28585199999999
 21
174.42143
 31
0.0
  0
LINE
  5
318
330
1E
100
AcDbEntity
  8
0
100
AcDbLine
 10
3.91732199999999
 20
175.28943
 30
0.0
 11
5.39179199999999
 21
174.25743
 31
0.0
  0
LINE
  5
319
330
1E
100
AcDbEntity
  8
0
100
AcDbLine
 10
8.299691999999989
 20
171.61043
 30
0.0
 11
14.852942
 21
167.02243
 31
0.0
  0
LINE
  5
31A
330
1E
100
AcDbEntity
  8
0
100
AcDbLine
 10
14.852942
 20
167.02243
 30
0.0
 11
23.372142
 21
161.05643
 31
0.0
  0
LINE
  5
31B
330
1E
100
AcDbEntity
  8
0
100
AcDbLine
 10
15.713142
 20
167.0304299999999
 30
0.0
 11
24.068442
 21
161.1794299999999
 31
0.0
  0
LINE
  5
31C
330
1E
100
AcDbEntity
  8
0
100
AcDbLine
 10
15.426442
 20
167.84143
 30
0.0
 11
23.945642
 21
161.87643
 31
0.0
  0
LINE
  5
31D
330
1E
100
AcDbEntity
  8
0
100
AcDbLine
 10
9.32374199999999
 20
171.50443
 30
0.0
 11
15.713142
 21
167.0304299999999
 31
0.0
  0
LINE
  5
31E
330
1E
100
AcDbEntity
  8
0
100
AcDbLine
 10
5.39179199999999
 20
174.25743
 30
0.0
 11
9.32374199999999
 21
171.50443
 31
0.0
  0
LINE
  5
31F
330
1E
100
AcDbEntity
  8
0
100
AcDbLine
 10
8.873271999999991
 20
172.4294299999999
 30
0.0
 11
15.426442
 21
167.84143
 31
0.0
  0
LINE
  5
320
330
1E
100
AcDbEntity
  8
0
100
AcDbLine
 10
4.85943199999999
 20
175.24043
 30
0.0
 11
8.873271999999991
 21
172.4294299999999
 31
0.0
  0
LINE
  5
321
330
1E
100
AcDbEntity
  8
0
100
AcDbLine
 10
3.38495199999999
 20
176.27243
 30
0.0
 11
9.40754199999999
 21
184.87343
 31
0.0
  0
LINE
  5
322
330
1E
100
AcDbEntity
  8
0
100
AcDbLine
 10
3.38495199999999
 20
176.27243
 30
0.0
 11
3.91732199999999
 21
175.28943
 31
0.0
  0
LINE
  5
323
330
1E
100
AcDbEntity
  8
0
100
AcDbLine
 10
3.38495199999999
 20
176.27243
 30
0.0
 11
4.85943199999999
 21
175.24043
 31
0.0
  0
LINE
  5
324
330
1E
100
AcDbEntity
  8
0
100
AcDbLine
 10
54.24204200000001
 20
170.44943
 30
0.0
 11
58.395142
 21
167.66343
 31
0.0
  0
LINE
  5
325
330
1E
100
AcDbEntity
  8
0
100
AcDbLine
 10
50.031542
 20
173.15343
 30
0.0
 11
54.24204200000001
 21
170.44943
 31
0.0
  0
LINE
  5
326
330
1E
100
AcDbEntity
  8
0
100
AcDbLine
 10
43.89604199999999
 20
176.59443
 30
0.0
 11
50.031542
 21
173.15343
 31
0.0
  0
LINE
  5
327
330
1E
100
AcDbEntity
  8
0
100
AcDbLine
 10
38.407542
 20
179.21743
 30
0.0
 11
43.89604199999999
 21
176.59443
 31
0.0
  0
LINE
  5
328
330
1E
100
AcDbEntity
  8
0
100
AcDbLine
 10
33.73814199999999
 20
181.26543
 30
0.0
 11
38.407542
 21
179.21743
 31
0.0
  0
LINE
  5
329
330
1E
100
AcDbEntity
  8
0
100
AcDbLine
 10
26.856942
 20
183.64243
 30
0.0
 11
33.73814199999999
 21
181.26543
 31
0.0
  0
LINE
  5
32A
330
1E
100
AcDbEntity
  8
0
100
AcDbLine
 10
20.098542
 20
185.3224299999999
 30
0.0
 11
26.856942
 21
183.64243
 31
0.0
  0
LINE
  5
32B
330
1E
100
AcDbEntity
  8
0
100
AcDbLine
 10
14.978442
 20
185.85643
 30
0.0
 11
20.098542
 21
185.3224299999999
 31
0.0
  0
LINE
  5
32C
330
1E
100
AcDbEntity
  8
0
100
AcDbLine
 10
10.390642
 20
185.40643
 30
0.0
 11
14.978442
 21
185.85643
 31
0.0
  0
LINE
  5
32D
330
1E
100
AcDbEntity
  8
0
100
AcDbLine
 10
9.40754199999999
 20
184.87343
 30
0.0
 11
10.390642
 21
185.40643
 31
0.0
  0
LINE
  5
32E
330
1E
100
AcDbEntity
  8
0
100
AcDbLine
 10
58.395142
 20
167.66343
 30
0.0
 11
62.433542
 21
164.71343
 31
0.0
  0
LINE
  5
32F
330
1E
100
AcDbEntity
  8
0
100
AcDbLine
 10
62.433542
 20
164.71343
 30
0.0
 11
66.414642
 21
161.68143
 31
0.0
  0
LINE
  5
330
330
1E
100
AcDbEntity
  8
0
100
AcDbLine
 10
72.68504200000001
 20
126.52743
 30
0.0
 11
79.238242
 21
121.93843
 31
0.0
  0
LINE
  5
331
330
1E
100
AcDbEntity
  8
0
100
AcDbLine
 10
72.398442
 20
127.33843
 30
0.0
 11
78.787842
 21
122.86443
 31
0.0
  0
LINE
  5
332
330
1E
100
AcDbEntity
  8
0
100
AcDbLine
 10
73.25864200000001
 20
127.34643
 30
0.0
 11
79.811842
 21
122.7584299999999
 31
0.0
  0
LINE
  5
333
330
1E
100
AcDbEntity
  8
0
100
AcDbLine
 10
79.238242
 20
121.93843
 30
0.0
 11
83.25214200000001
 21
119.12843
 31
0.0
  0
LINE
  5
334
330
1E
100
AcDbEntity
  8
0
100
AcDbLine
 10
83.25214200000001
 20
119.12843
 30
0.0
 11
84.726542
 21
118.09543
 31
0.0
  0
LINE
  5
335
330
1E
100
AcDbEntity
  8
0
100
AcDbLine
 10
82.719742
 20
120.1114299999999
 30
0.0
 11
84.19424199999999
 21
119.07943
 31
0.0
  0
LINE
  5
336
330
1E
100
AcDbEntity
  8
0
100
AcDbLine
 10
78.787842
 20
122.86443
 30
0.0
 11
82.719742
 21
120.1114299999999
 31
0.0
  0
LINE
  5
337
330
1E
100
AcDbEntity
  8
0
100
AcDbLine
 10
79.811842
 20
122.7584299999999
 30
0.0
 11
83.825642
 21
119.94743
 31
0.0
  0
LINE
  5
338
330
1E
100
AcDbEntity
  8
0
100
AcDbLine
 10
83.825642
 20
119.94743
 30
0.0
 11
85.30014200000001
 21
118.91543
 31
0.0
  0
LINE
  5
33A
330
1E
100
AcDbEntity
  8
0
100
AcDbLine
 10
77.82084199999999
 20
152.9954299999999
 30
0.0
 11
94.05668044190941
 21
138.9268805475119
 31
0.0
  0
LINE
  5
33B
330
1E
100
AcDbEntity
  8
0
100
AcDbLine
 10
68.6590751884527
 20
159.7220130709219
 30
0.0
 11
70.158442
 21
158.63443
 31
0.0
  0
LINE
  5
33C
330
1E
100
AcDbEntity
  8
0
100
AcDbLine
 10
70.158442
 20
158.63443
 30
0.0
 11
70.6019661807851
 21
158.273519190639
 31
0.0
  0
LINE
  5
33D
330
1E
100
AcDbEntity
  8
0
100
AcDbLine
 10
70.158442
 20
158.63443
 30
0.0
 11
77.82084199999999
 21
152.9954299999999
 31
0.0
  0
LINE
  5
33E
330
1E
100
AcDbEntity
  8
0
100
AcDbLine
 10
66.414642
 20
161.68143
 30
0.0
 11
69.09463232676829
 21
159.375608036716
 31
0.0
  0
LINE
  5
33F
330
1E
100
AcDbEntity
  8
0
100
AcDbLine
 10
84.19424199999999
 20
119.07943
 30
0.0
 11
85.30014200000001
 21
118.91543
 31
0.0
  0
LINE
  5
340
330
1E
100
AcDbEntity
  8
0
100
AcDbLine
 10
84.19424199999999
 20
119.07943
 30
0.0
 11
84.726542
 21
118.09543
 31
0.0
  0
LINE
  5
341
330
1E
100
AcDbEntity
  8
0
100
AcDbLine
 10
174.5431419999999
 20
7.30342999999998
 30
0.0
 11
174.918142
 21
7.519429999999981
 31
0.0
  0
LINE
  5
342
330
1E
100
AcDbEntity
  8
0
100
AcDbLine
 10
175.9881419999999
 20
6.14572999999998
 30
0.0
 11
176.349142
 21
6.36586999999998
 31
0.0
  0
LINE
  5
343
330
1E
100
AcDbEntity
  8
0
100
AcDbLine
 10
175.9881419999999
 20
6.14572999999998
 30
0.0
 11
176.572142
 21
6.82602999999998
 31
0.0
  0
LINE
  5
344
330
1E
100
AcDbEntity
  8
0
100
AcDbLine
 10
175.9881419999999
 20
6.14572999999998
 30
0.0
 11
176.8691419999999
 21
6.311539999999981
 31
0.0
  0
LINE
  5
345
330
1E
100
AcDbEntity
  8
0
100
AcDbLine
 10
175.879142
 20
8.026429999999981
 30
0.0
 11
176.1621419999999
 21
8.21282999999998
 31
0.0
  0
LINE
  5
346
330
1E
100
AcDbEntity
  8
0
100
AcDbLine
 10
175.6561419999999
 20
7.566329999999981
 30
0.0
 11
176.5991419999999
 21
8.133429999999981
 31
0.0
  0
LINE
  5
347
330
1E
100
AcDbEntity
  8
0
100
AcDbLine
 10
176.1761990451359
 20
7.5120675731919
 30
0.0
 11
176.5722781470049
 21
6.826119674211059
 31
0.0
  0
LINE
  5
348
330
1E
100
AcDbEntity
  8
0
100
AcDbLine
 10
176.4591419999999
 20
7.69842999999998
 30
0.0
 11
177.3241419999999
 21
8.23182999999998
 31
0.0
  0
LINE
  5
349
330
1E
100
AcDbEntity
  8
0
100
AcDbLine
 10
176.176142
 20
7.51202999999999
 30
0.0
 11
176.4591419999999
 21
7.69842999999998
 31
0.0
  0
LINE
  5
34A
330
1E
100
AcDbEntity
  8
0
100
AcDbLine
 10
175.295142
 20
7.34612999999998
 30
0.0
 11
176.176142
 21
7.51202999999999
 31
0.0
  0
LINE
  5
34B
330
1E
100
AcDbEntity
  8
0
100
AcDbLine
 10
175.295142
 20
7.34612999999998
 30
0.0
 11
175.879142
 21
8.026429999999981
 31
0.0
  0
LINE
  5
34C
330
1E
100
AcDbEntity
  8
0
100
AcDbLine
 10
175.295142
 20
7.34612999999998
 30
0.0
 11
175.6561419999999
 21
7.566329999999981
 31
0.0
  0
LINE
  5
34D
330
1E
100
AcDbEntity
  8
0
100
AcDbLine
 10
176.572142
 20
6.82602999999998
 30
0.0
 11
176.855142
 21
7.01242999999998
 31
0.0
  0
LINE
  5
34E
330
1E
100
AcDbEntity
  8
0
100
AcDbLine
 10
176.349142
 20
6.36586999999998
 30
0.0
 11
177.2921419999999
 21
6.93302999999998
 31
0.0
  0
LINE
  5
34F
330
1E
100
AcDbEntity
  8
0
100
AcDbLine
 10
176.869333290187
 20
6.31166599466723
 30
0.0
 11
177.265387292736
 21
5.62576156383715
 31
0.0
  0
LINE
  5
350
330
1E
100
AcDbEntity
  8
0
100
AcDbLine
 10
176.8691419999999
 20
6.311539999999981
 30
0.0
 11
177.152142
 21
6.497939999999981
 31
0.0
  0
LINE
  5
351
330
1E
100
AcDbEntity
  8
0
100
AcDbLine
 10
177.152142
 20
6.497939999999981
 30
0.0
 11
178.0171419999999
 21
7.03137999999998
 31
0.0
  0
LINE
  5
352
330
1E
100
AcDbEntity
  8
0
100
AcDbLine
 10
176.855142
 20
7.01242999999998
 30
0.0
 11
177.7201419999999
 21
7.54582999999998
 31
0.0
  0
LINE
  5
353
330
1E
100
AcDbEntity
  8
0
100
AcDbLine
 10
177.2921419999999
 20
6.93302999999998
 30
0.0
 11
178.7331419999999
 21
7.822029999999981
 31
0.0
  0
LINE
  5
354
330
1E
100
AcDbEntity
  8
0
100
AcDbLine
 10
177.265142
 20
5.62559999999998
 30
0.0
 11
177.548142
 21
5.81199999999998
 31
0.0
  0
LINE
  5
355
330
1E
100
AcDbEntity
  8
0
100
AcDbLine
 10
177.0421419999999
 20
5.16543999999998
 30
0.0
 11
177.9851419999999
 21
5.73257999999998
 31
0.0
  0
LINE
  5
356
330
1E
100
AcDbEntity
  8
0
100
AcDbLine
 10
176.6811419999999
 20
4.94530999999998
 30
0.0
 11
177.562142
 21
5.11112999999998
 31
0.0
  0
LINE
  5
357
330
1E
100
AcDbEntity
  8
0
100
AcDbLine
 10
176.6811419999999
 20
4.94530999999998
 30
0.0
 11
177.265142
 21
5.62559999999998
 31
0.0
  0
LINE
  5
358
330
1E
100
AcDbEntity
  8
0
100
AcDbLine
 10
176.6811419999999
 20
4.94530999999998
 30
0.0
 11
177.0421419999999
 21
5.16543999999998
 31
0.0
  0
LINE
  5
359
330
1E
100
AcDbEntity
  8
0
100
AcDbLine
 10
177.374142
 20
3.744899999999979
 30
0.0
 11
177.735142
 21
3.965009999999979
 31
0.0
  0
LINE
  5
35A
330
1E
100
AcDbEntity
  8
0
100
AcDbLine
 10
177.374142
 20
3.744899999999979
 30
0.0
 11
177.9581419999999
 21
4.42515999999998
 31
0.0
  0
LINE
  5
35B
330
1E
100
AcDbEntity
  8
0
100
AcDbLine
 10
177.374142
 20
3.744899999999979
 30
0.0
 11
178.255142
 21
3.910729999999979
 31
0.0
  0
LINE
  5
35C
330
1E
100
AcDbEntity
  8
0
100
AcDbLine
 10
174.918142
 20
7.519429999999981
 30
0.0
 11
175.915142
 21
8.09542999999998
 31
0.0
  0
LINE
  5
35D
330
1E
100
AcDbEntity
  8
0
100
AcDbLine
 10
176.1621419999999
 20
8.21282999999998
 30
0.0
 11
176.803270807998
 21
8.608254530713098
 31
0.0
  0
LINE
  5
35E
330
1E
100
AcDbEntity
  8
0
100
AcDbLine
 10
177.3241419999999
 20
8.23182999999998
 30
0.0
 11
178.6911419999999
 21
9.078529999999981
 31
0.0
  0
LINE
  5
35F
330
1E
100
AcDbEntity
  8
0
100
AcDbLine
 10
176.5991419999999
 20
8.133429999999981
 30
0.0
 11
178.040142
 21
9.02242999999998
 31
0.0
  0
LINE
  5
360
330
1E
100
AcDbEntity
  8
0
100
AcDbLine
 10
175.915142
 20
8.09542999999998
 30
0.0
 11
177.5361419999999
 21
9.03142999999998
 31
0.0
  0
LINE
  5
361
330
1E
100
AcDbEntity
  8
0
100
AcDbLine
 10
179.453142
 20
0.143569999999982
 30
0.0
 11
180.0371419999999
 21
0.823849999999982
 31
0.0
  0
LINE
  5
362
330
1E
100
AcDbEntity
  8
0
100
AcDbLine
 10
180.335142
 20
0.309419999999982
 30
0.0
 11
180.618142
 21
0.4958199999999821
 31
0.0
  0
LINE
  5
363
330
1E
100
AcDbEntity
  8
0
100
AcDbLine
 10
180.335142
 20
0.309419999999982
 30
0.0
 11
180.6391419999999
 21
0.4585399999999821
 31
0.0
  0
LINE
  5
364
330
1E
100
AcDbEntity
  8
0
100
AcDbLine
 10
180.6391419999999
 20
0.4585399999999821
 30
0.0
 11
181.534142
 21
0.932909999999982
 31
0.0
  0
LINE
  5
365
330
1E
100
AcDbEntity
  8
0
100
AcDbLine
 10
180.618142
 20
0.4958199999999821
 30
0.0
 11
181.4821419999999
 21
1.02924999999998
 31
0.0
  0
LINE
  5
366
330
1E
100
AcDbEntity
  8
0
100
AcDbLine
 10
180.0371419999999
 20
0.823849999999982
 30
0.0
 11
180.3211419999999
 21
1.010259999999979
 31
0.0
  0
LINE
  5
367
330
1E
100
AcDbEntity
  8
0
100
AcDbLine
 10
179.8151419999999
 20
0.363699999999982
 30
0.0
 11
180.757142
 21
0.9308399999999821
 31
0.0
  0
LINE
  5
368
330
1E
100
AcDbEntity
  8
0
100
AcDbLine
 10
178.4291419999999
 20
2.764569999999979
 30
0.0
 11
179.3711419999999
 21
3.331759999999979
 31
0.0
  0
LINE
  5
369
330
1E
100
AcDbEntity
  8
0
100
AcDbLine
 10
178.067142
 20
2.54446999999998
 30
0.0
 11
178.9481419999999
 21
2.710229999999979
 31
0.0
  0
LINE
  5
36A
330
1E
100
AcDbEntity
  8
0
100
AcDbLine
 10
178.067142
 20
2.54446999999998
 30
0.0
 11
178.651142
 21
3.224729999999979
 31
0.0
  0
LINE
  5
36B
330
1E
100
AcDbEntity
  8
0
100
AcDbLine
 10
178.067142
 20
2.54446999999998
 30
0.0
 11
178.4291419999999
 21
2.764569999999979
 31
0.0
  0
LINE
  5
36C
330
1E
100
AcDbEntity
  8
0
100
AcDbLine
 10
179.6417579573289
 20
1.510254189464309
 30
0.0
 11
180.0378370894409
 21
0.8243062381080569
 31
0.0
  0
LINE
  5
36D
330
1E
100
AcDbEntity
  8
0
100
AcDbLine
 10
179.6417579573289
 20
1.510254189464309
 30
0.0
 11
180.0378370894409
 21
0.8243062381080569
 31
0.0
  0
LINE
  5
36E
330
1E
100
AcDbEntity
  8
0
100
AcDbLine
 10
178.9486695979119
 20
2.7105763011505
 30
0.0
 11
179.344698536988
 21
2.02471527638902
 31
0.0
  0
LINE
  5
36F
330
1E
100
AcDbEntity
  8
0
100
AcDbLine
 10
178.9486695979119
 20
2.7105763011505
 30
0.0
 11
179.344698536988
 21
2.02471527638902
 31
0.0
  0
LINE
  5
370
330
1E
100
AcDbEntity
  8
0
100
AcDbLine
 10
179.2321419999999
 20
2.896639999999979
 30
0.0
 11
180.0961419999999
 21
3.430129999999979
 31
0.0
  0
LINE
  5
371
330
1E
100
AcDbEntity
  8
0
100
AcDbLine
 10
178.9481419999999
 20
2.710229999999979
 30
0.0
 11
179.2321419999999
 21
2.896639999999979
 31
0.0
  0
LINE
  5
372
330
1E
100
AcDbEntity
  8
0
100
AcDbLine
 10
179.344142
 20
2.02434999999998
 30
0.0
 11
179.6281419999999
 21
2.21074999999998
 31
0.0
  0
LINE
  5
373
330
1E
100
AcDbEntity
  8
0
100
AcDbLine
 10
179.925142
 20
1.69620999999998
 30
0.0
 11
180.7891419999999
 21
2.229639999999979
 31
0.0
  0
LINE
  5
374
330
1E
100
AcDbEntity
  8
0
100
AcDbLine
 10
179.6281419999999
 20
2.21074999999998
 30
0.0
 11
180.492142
 21
2.744139999999979
 31
0.0
  0
LINE
  5
375
330
1E
100
AcDbEntity
  8
0
100
AcDbLine
 10
179.122142
 20
1.564119999999979
 30
0.0
 11
180.064142
 21
2.13126999999998
 31
0.0
  0
LINE
  5
376
330
1E
100
AcDbEntity
  8
0
100
AcDbLine
 10
180.7891419999999
 20
2.229639999999979
 30
0.0
 11
182.1571419999999
 21
3.076319999999979
 31
0.0
  0
LINE
  5
377
330
1E
100
AcDbEntity
  8
0
100
AcDbLine
 10
180.492142
 20
2.744139999999979
 30
0.0
 11
181.860142
 21
3.590819999999979
 31
0.0
  0
LINE
  5
378
330
1E
100
AcDbEntity
  8
0
100
AcDbLine
 10
180.064142
 20
2.13126999999998
 30
0.0
 11
181.5051419999999
 21
3.020279999999979
 31
0.0
  0
LINE
  5
379
330
1E
100
AcDbEntity
  8
0
100
AcDbLine
 10
179.641142
 20
1.509849999999979
 30
0.0
 11
179.925142
 21
1.69620999999998
 31
0.0
  0
LINE
  5
37A
330
1E
100
AcDbEntity
  8
0
100
AcDbLine
 10
178.760142
 20
1.34396999999998
 30
0.0
 11
179.641142
 21
1.509849999999979
 31
0.0
  0
LINE
  5
37B
330
1E
100
AcDbEntity
  8
0
100
AcDbLine
 10
178.760142
 20
1.34396999999998
 30
0.0
 11
179.344142
 21
2.02434999999998
 31
0.0
  0
LINE
  5
37C
330
1E
100
AcDbEntity
  8
0
100
AcDbLine
 10
178.760142
 20
1.34396999999998
 30
0.0
 11
179.122142
 21
1.564119999999979
 31
0.0
  0
LINE
  5
37D
330
1E
100
AcDbEntity
  8
0
100
AcDbLine
 10
180.3211419999999
 20
1.010259999999979
 30
0.0
 11
181.1851419999999
 21
1.54365999999998
 31
0.0
  0
LINE
  5
37E
330
1E
100
AcDbEntity
  8
0
100
AcDbLine
 10
181.534142
 20
0.932909999999982
 30
0.0
 11
182.9501419999999
 21
1.70051999999998
 31
0.0
  0
LINE
  5
37F
330
1E
100
AcDbEntity
  8
0
100
AcDbLine
 10
181.4821419999999
 20
1.02924999999998
 30
0.0
 11
182.850142
 21
1.87591999999998
 31
0.0
  0
LINE
  5
380
330
1E
100
AcDbEntity
  8
0
100
AcDbLine
 10
181.1851419999999
 20
1.54365999999998
 30
0.0
 11
182.5531419999999
 21
2.39033999999998
 31
0.0
  0
LINE
  5
381
330
1E
100
AcDbEntity
  8
0
100
AcDbLine
 10
180.757142
 20
0.9308399999999821
 30
0.0
 11
182.198142
 21
1.819879999999979
 31
0.0
  0
LINE
  5
382
330
1E
100
AcDbEntity
  8
0
100
AcDbLine
 10
183.142063783037
 20
1.80535598279868
 30
0.0
 11
183.4721419999999
 21
1.98430999999998
 31
0.0
  0
LINE
  5
383
330
1E
100
AcDbEntity
  8
0
100
AcDbLine
 10
183.4721419999999
 20
1.98430999999998
 30
0.0
 11
185.183142
 21
2.910929999999979
 31
0.0
  0
LINE
  5
384
330
1E
100
AcDbEntity
  8
0
100
AcDbLine
 10
182.9501419999999
 20
1.70051999999998
 30
0.0
 11
184.8081419999999
 21
2.715439999999979
 31
0.0
  0
LINE
  5
385
330
1E
100
AcDbEntity
  8
0
100
AcDbLine
 10
182.9501419999999
 20
1.70051999999998
 30
0.0
 11
183.4721419999999
 21
1.98430999999998
 31
0.0
  0
LINE
  5
386
330
1E
100
AcDbEntity
  8
0
100
AcDbLine
 10
182.850142
 20
1.87591999999998
 30
0.0
 11
184.657142
 21
2.976539999999979
 31
0.0
  0
LINE
  5
387
330
1E
100
AcDbEntity
  8
0
100
AcDbLine
 10
184.8081419999999
 20
2.715439999999979
 30
0.0
 11
186.9831419999999
 21
3.855559999999979
 31
0.0
  0
LINE
  5
388
330
1E
100
AcDbEntity
  8
0
100
AcDbLine
 10
184.8081419999999
 20
2.715439999999979
 30
0.0
 11
185.183142
 21
2.910929999999979
 31
0.0
  0
LINE
  5
389
330
1E
100
AcDbEntity
  8
0
100
AcDbLine
 10
185.183142
 20
2.910929999999979
 30
0.0
 11
185.8545177349619
 21
3.263942943882499
 31
0.0
  0
LINE
  5
38A
330
1E
100
AcDbEntity
  8
0
100
AcDbLine
 10
184.657142
 20
2.976539999999979
 30
0.0
 11
186.733142
 21
4.289149999999979
 31
0.0
  0
LINE
  5
38B
330
1E
100
AcDbEntity
  8
0
100
AcDbLine
 10
182.5531419999999
 20
2.39033999999998
 30
0.0
 11
184.3601419999999
 21
3.490959999999979
 31
0.0
  0
LINE
  5
38C
330
1E
100
AcDbEntity
  8
0
100
AcDbLine
 10
182.198142
 20
1.819879999999979
 30
0.0
 11
184.1471419999999
 21
3.013629999999979
 31
0.0
  0
LINE
  5
38D
330
1E
100
AcDbEntity
  8
0
100
AcDbLine
 10
178.651142
 20
3.224729999999979
 30
0.0
 11
178.9351419999999
 21
3.411139999999979
 31
0.0
  0
LINE
  5
38E
330
1E
100
AcDbEntity
  8
0
100
AcDbLine
 10
178.2555310659339
 20
3.91098530397022
 30
0.0
 11
178.651610214772
 21
3.225037323646859
 31
0.0
  0
LINE
  5
38F
330
1E
100
AcDbEntity
  8
0
100
AcDbLine
 10
178.2555310659339
 20
3.91098530397022
 30
0.0
 11
178.651610214772
 21
3.225037323646859
 31
0.0
  0
LINE
  5
390
330
1E
100
AcDbEntity
  8
0
100
AcDbLine
 10
178.255142
 20
3.910729999999979
 30
0.0
 11
178.539142
 21
4.09708999999998
 31
0.0
  0
LINE
  5
391
330
1E
100
AcDbEntity
  8
0
100
AcDbLine
 10
178.539142
 20
4.09708999999998
 30
0.0
 11
179.403142
 21
4.63051999999998
 31
0.0
  0
LINE
  5
392
330
1E
100
AcDbEntity
  8
0
100
AcDbLine
 10
177.735142
 20
3.965009999999979
 30
0.0
 11
178.6781419999999
 21
4.53215999999998
 31
0.0
  0
LINE
  5
393
330
1E
100
AcDbEntity
  8
0
100
AcDbLine
 10
178.9351419999999
 20
3.411139999999979
 30
0.0
 11
179.7991419999999
 21
3.94453999999998
 31
0.0
  0
LINE
  5
394
330
1E
100
AcDbEntity
  8
0
100
AcDbLine
 10
180.0961419999999
 20
3.430129999999979
 30
0.0
 11
181.4641419999999
 21
4.27679999999998
 31
0.0
  0
LINE
  5
395
330
1E
100
AcDbEntity
  8
0
100
AcDbLine
 10
179.7991419999999
 20
3.94453999999998
 30
0.0
 11
181.1671419999999
 21
4.791209999999979
 31
0.0
  0
LINE
  5
396
330
1E
100
AcDbEntity
  8
0
100
AcDbLine
 10
179.3711419999999
 20
3.331759999999979
 30
0.0
 11
180.8121419999999
 21
4.220759999999979
 31
0.0
  0
LINE
  5
397
330
1E
100
AcDbEntity
  8
0
100
AcDbLine
 10
182.1571419999999
 20
3.076319999999979
 30
0.0
 11
183.9641419999999
 21
4.176939999999979
 31
0.0
  0
LINE
  5
398
330
1E
100
AcDbEntity
  8
0
100
AcDbLine
 10
183.9641419999999
 20
4.176939999999979
 30
0.0
 11
186.039142
 21
5.48957999999998
 31
0.0
  0
LINE
  5
399
330
1E
100
AcDbEntity
  8
0
100
AcDbLine
 10
181.860142
 20
3.590819999999979
 30
0.0
 11
183.6671419999999
 21
4.69143999999998
 31
0.0
  0
LINE
  5
39A
330
1E
100
AcDbEntity
  8
0
100
AcDbLine
 10
181.5051419999999
 20
3.020279999999979
 30
0.0
 11
183.4541419999999
 21
4.214119999999979
 31
0.0
  0
LINE
  5
39B
330
1E
100
AcDbEntity
  8
0
100
AcDbLine
 10
177.9581419999999
 20
4.42515999999998
 30
0.0
 11
178.242142
 21
4.611569999999979
 31
0.0
  0
LINE
  5
39C
330
1E
100
AcDbEntity
  8
0
100
AcDbLine
 10
177.56243406516
 20
5.111322381153669
 30
0.0
 11
177.958500964659
 21
4.42539561479595
 31
0.0
  0
LINE
  5
39D
330
1E
100
AcDbEntity
  8
0
100
AcDbLine
 10
177.56243406516
 20
5.111322381153669
 30
0.0
 11
177.958500964659
 21
4.42539561479595
 31
0.0
  0
LINE
  5
39E
330
1E
100
AcDbEntity
  8
0
100
AcDbLine
 10
177.8451419999999
 20
5.29753999999998
 30
0.0
 11
178.7101419999999
 21
5.830969999999981
 31
0.0
  0
LINE
  5
39F
330
1E
100
AcDbEntity
  8
0
100
AcDbLine
 10
177.562142
 20
5.11112999999998
 30
0.0
 11
177.8451419999999
 21
5.29753999999998
 31
0.0
  0
LINE
  5
3A0
330
1E
100
AcDbEntity
  8
0
100
AcDbLine
 10
178.242142
 20
4.611569999999979
 30
0.0
 11
179.106142
 21
5.14499999999998
 31
0.0
  0
LINE
  5
3A1
330
1E
100
AcDbEntity
  8
0
100
AcDbLine
 10
179.403142
 20
4.63051999999998
 30
0.0
 11
180.771142
 21
5.477199999999981
 31
0.0
  0
LINE
  5
3A2
330
1E
100
AcDbEntity
  8
0
100
AcDbLine
 10
179.106142
 20
5.14499999999998
 30
0.0
 11
180.4731419999999
 21
5.991679999999981
 31
0.0
  0
LINE
  5
3A3
330
1E
100
AcDbEntity
  8
0
100
AcDbLine
 10
178.6781419999999
 20
4.53215999999998
 30
0.0
 11
180.1191419999999
 21
5.42116999999998
 31
0.0
  0
LINE
  5
3A4
330
1E
100
AcDbEntity
  8
0
100
AcDbLine
 10
181.4641419999999
 20
4.27679999999998
 30
0.0
 11
183.271142
 21
5.377419999999981
 31
0.0
  0
LINE
  5
3A5
330
1E
100
AcDbEntity
  8
0
100
AcDbLine
 10
183.271142
 20
5.377419999999981
 30
0.0
 11
185.346142
 21
6.690039999999981
 31
0.0
  0
LINE
  5
3A6
330
1E
100
AcDbEntity
  8
0
100
AcDbLine
 10
181.1671419999999
 20
4.791209999999979
 30
0.0
 11
182.9741419999999
 21
5.891829999999981
 31
0.0
  0
LINE
  5
3A7
330
1E
100
AcDbEntity
  8
0
100
AcDbLine
 10
180.8121419999999
 20
4.220759999999979
 30
0.0
 11
182.761142
 21
5.414509999999981
 31
0.0
  0
LINE
  5
3A8
330
1E
100
AcDbEntity
  8
0
100
AcDbLine
 10
177.548142
 20
5.81199999999998
 30
0.0
 11
178.413142
 21
6.34540999999998
 31
0.0
  0
LINE
  5
3A9
330
1E
100
AcDbEntity
  8
0
100
AcDbLine
 10
178.7101419999999
 20
5.830969999999981
 30
0.0
 11
180.0771419999999
 21
6.67761999999998
 31
0.0
  0
LINE
  5
3AA
330
1E
100
AcDbEntity
  8
0
100
AcDbLine
 10
178.413142
 20
6.34540999999998
 30
0.0
 11
179.7801419999999
 21
7.192129999999981
 31
0.0
  0
LINE
  5
3AB
330
1E
100
AcDbEntity
  8
0
100
AcDbLine
 10
177.9851419999999
 20
5.73257999999998
 30
0.0
 11
179.4261419999999
 21
6.621629999999981
 31
0.0
  0
LINE
  5
3AC
330
1E
100
AcDbEntity
  8
0
100
AcDbLine
 10
180.771142
 20
5.477199999999981
 30
0.0
 11
182.578142
 21
6.577819999999981
 31
0.0
  0
LINE
  5
3AD
330
1E
100
AcDbEntity
  8
0
100
AcDbLine
 10
182.578142
 20
6.577819999999981
 30
0.0
 11
184.6531419999999
 21
7.89052999999998
 31
0.0
  0
LINE
  5
3AE
330
1E
100
AcDbEntity
  8
0
100
AcDbLine
 10
180.4731419999999
 20
5.991679999999981
 30
0.0
 11
182.2811419999999
 21
7.092279999999981
 31
0.0
  0
LINE
  5
3AF
330
1E
100
AcDbEntity
  8
0
100
AcDbLine
 10
180.1191419999999
 20
5.42116999999998
 30
0.0
 11
182.0681419999999
 21
6.61491999999999
 31
0.0
  0
LINE
  5
3B0
330
1E
100
AcDbEntity
  8
0
100
AcDbLine
 10
178.0171419999999
 20
7.03137999999998
 30
0.0
 11
179.3841419999999
 21
7.878029999999981
 31
0.0
  0
LINE
  5
3B1
330
1E
100
AcDbEntity
  8
0
100
AcDbLine
 10
180.0771419999999
 20
6.67761999999998
 30
0.0
 11
181.885142
 21
7.778229999999981
 31
0.0
  0
LINE
  5
3B2
330
1E
100
AcDbEntity
  8
0
100
AcDbLine
 10
179.7801419999999
 20
7.192129999999981
 30
0.0
 11
181.588142
 21
8.292729999999981
 31
0.0
  0
LINE
  5
3B3
330
1E
100
AcDbEntity
  8
0
100
AcDbLine
 10
179.4261419999999
 20
6.621629999999981
 30
0.0
 11
181.3751419999999
 21
7.81542999999998
 31
0.0
  0
LINE
  5
3B4
330
1E
100
AcDbEntity
  8
0
100
AcDbLine
 10
182.2811419999999
 20
7.092279999999981
 30
0.0
 11
184.356142
 21
8.40492999999998
 31
0.0
  0
LINE
  5
3B5
330
1E
100
AcDbEntity
  8
0
100
AcDbLine
 10
182.0681419999999
 20
6.61491999999999
 30
0.0
 11
184.2851419999999
 21
8.02082999999998
 31
0.0
  0
LINE
  5
3B6
330
1E
100
AcDbEntity
  8
0
100
AcDbLine
 10
182.9741419999999
 20
5.891829999999981
 30
0.0
 11
185.0491419999999
 21
7.20442999999998
 31
0.0
  0
LINE
  5
3B7
330
1E
100
AcDbEntity
  8
0
100
AcDbLine
 10
182.761142
 20
5.414509999999981
 30
0.0
 11
184.978142
 21
6.82037999999998
 31
0.0
  0
LINE
  5
3B8
330
1E
100
AcDbEntity
  8
0
100
AcDbLine
 10
183.6671419999999
 20
4.69143999999998
 30
0.0
 11
185.742142
 21
6.004089999999981
 31
0.0
  0
LINE
  5
3B9
330
1E
100
AcDbEntity
  8
0
100
AcDbLine
 10
183.4541419999999
 20
4.214119999999979
 30
0.0
 11
185.671142
 21
5.61996999999998
 31
0.0
  0
LINE
  5
3BA
330
1E
100
AcDbEntity
  8
0
100
AcDbLine
 10
186.039142
 20
5.48957999999998
 30
0.0
 11
188.2621419999999
 21
6.886849999999981
 31
0.0
  0
LINE
  5
3BB
330
1E
100
AcDbEntity
  8
0
100
AcDbLine
 10
185.346142
 20
6.690039999999981
 30
0.0
 11
187.569142
 21
8.08732999999998
 31
0.0
  0
LINE
  5
3BC
330
1E
100
AcDbEntity
  8
0
100
AcDbLine
 10
185.0491419999999
 20
7.20442999999998
 30
0.0
 11
187.2721419999999
 21
8.60182999999998
 31
0.0
  0
LINE
  5
3BD
330
1E
100
AcDbEntity
  8
0
100
AcDbLine
 10
184.978142
 20
6.82037999999998
 30
0.0
 11
187.420142
 21
8.34462999999998
 31
0.0
  0
LINE
  5
3BE
330
1E
100
AcDbEntity
  8
0
100
AcDbLine
 10
185.742142
 20
6.004089999999981
 30
0.0
 11
187.9651419999999
 21
7.401329999999981
 31
0.0
  0
LINE
  5
3BF
330
1E
100
AcDbEntity
  8
0
100
AcDbLine
 10
185.671142
 20
5.61996999999998
 30
0.0
 11
188.1131419999999
 21
7.144169999999981
 31
0.0
  0
LINE
  5
3C0
330
1E
100
AcDbEntity
  8
0
100
AcDbLine
 10
184.3601419999999
 20
3.490959999999979
 30
0.0
 11
186.4361419999999
 21
4.80365999999998
 31
0.0
  0
LINE
  5
3C1
330
1E
100
AcDbEntity
  8
0
100
AcDbLine
 10
184.1471419999999
 20
3.013629999999979
 30
0.0
 11
186.364142
 21
4.41947999999998
 31
0.0
  0
LINE
  5
3C2
330
1E
100
AcDbEntity
  8
0
100
AcDbLine
 10
186.9831419999999
 20
3.855559999999979
 30
0.0
 11
189.2991419999999
 21
5.08177999999998
 31
0.0
  0
LINE
  5
3C3
330
1E
100
AcDbEntity
  8
0
100
AcDbLine
 10
186.733142
 20
4.289149999999979
 30
0.0
 11
188.955142
 21
5.68641999999998
 31
0.0
  0
LINE
  5
3C4
330
1E
100
AcDbEntity
  8
0
100
AcDbLine
 10
187.9651419999999
 20
7.401329999999981
 30
0.0
 11
190.1871419999999
 21
8.798629999999981
 31
0.0
  0
LINE
  5
3C5
330
1E
100
AcDbEntity
  8
0
100
AcDbLine
 10
188.2621419999999
 20
6.886849999999981
 30
0.0
 11
190.4841419999999
 21
8.284029999999981
 31
0.0
  0
LINE
  5
3C6
330
1E
100
AcDbEntity
  8
0
100
AcDbLine
 10
188.1131419999999
 20
7.144169999999981
 30
0.0
 11
190.5551419999999
 21
8.668429999999981
 31
0.0
  0
LINE
  5
3C7
330
1E
100
AcDbEntity
  8
0
100
AcDbLine
 10
188.6581419999999
 20
6.200949999999981
 30
0.0
 11
190.8801419999999
 21
7.598329999999981
 31
0.0
  0
LINE
  5
3C8
330
1E
100
AcDbEntity
  8
0
100
AcDbLine
 10
189.2991419999999
 20
5.08177999999998
 30
0.0
 11
190.5660982324059
 21
5.74989660159445
 31
0.0
  0
LINE
  5
3C9
330
1E
100
AcDbEntity
  8
0
100
AcDbLine
 10
189.2991419999999
 20
5.08177999999998
 30
0.0
 11
191.6261419999999
 21
6.30889999999998
 31
0.0
  0
LINE
  5
3CA
330
1E
100
AcDbEntity
  8
0
100
AcDbLine
 10
190.5660982324059
 20
5.74989660159445
 30
0.0
 11
191.3991419999999
 21
6.188889999999981
 31
0.0
  0
LINE
  5
3CB
330
1E
100
AcDbEntity
  8
0
100
AcDbLine
 10
193.424142
 20
7.25322999999998
 30
0.0
 11
193.662960520233
 21
7.382597014790519
 31
0.0
  0
LINE
  5
3CC
330
1E
100
AcDbEntity
  8
0
100
AcDbLine
 10
191.6261419999999
 20
6.30889999999998
 30
0.0
 11
193.7971419999999
 21
7.45332999999998
 31
0.0
  0
LINE
  5
3CD
330
1E
100
AcDbEntity
  8
0
100
AcDbLine
 10
191.3991419999999
 20
6.188889999999981
 30
0.0
 11
191.6261419999999
 21
6.30889999999998
 31
0.0
  0
LINE
  5
3CE
330
1E
100
AcDbEntity
  8
0
100
AcDbLine
 10
191.3991419999999
 20
6.188889999999981
 30
0.0
 11
193.424142
 21
7.25322999999998
 31
0.0
  0
LINE
  5
3CF
330
1E
100
AcDbEntity
  8
0
100
AcDbLine
 10
191.1771419999999
 20
7.083759999999981
 30
0.0
 11
193.253142
 21
8.39642999999998
 31
0.0
  0
LINE
  5
3D0
330
1E
100
AcDbEntity
  8
0
100
AcDbLine
 10
188.955142
 20
5.68641999999998
 30
0.0
 11
191.1771419999999
 21
7.083759999999981
 31
0.0
  0
LINE
  5
3D1
330
1E
100
AcDbEntity
  8
0
100
AcDbLine
 10
188.8061419999999
 20
5.94361999999998
 30
0.0
 11
191.2481419999999
 21
7.46782999999998
 31
0.0
  0
LINE
  5
3D2
330
1E
100
AcDbEntity
  8
0
100
AcDbLine
 10
186.4361419999999
 20
4.80365999999998
 30
0.0
 11
188.6581419999999
 21
6.200949999999981
 31
0.0
  0
LINE
  5
3D3
330
1E
100
AcDbEntity
  8
0
100
AcDbLine
 10
186.364142
 20
4.41947999999998
 30
0.0
 11
188.8061419999999
 21
5.94361999999998
 31
0.0
  0
LINE
  5
3D4
330
1E
100
AcDbEntity
  8
0
100
AcDbLine
 10
193.7971419999999
 20
7.45332999999998
 30
0.0
 11
195.6551419999999
 21
8.46912999999998
 31
0.0
  0
LINE
  5
3D5
330
1E
100
AcDbEntity
  8
0
100
AcDbLine
 10
177.7201419999999
 20
7.54582999999998
 30
0.0
 11
179.087142
 21
8.392529999999981
 31
0.0
  0
LINE
  5
3D6
330
1E
100
AcDbEntity
  8
0
100
AcDbLine
 10
181.885142
 20
7.778229999999981
 30
0.0
 11
183.9601419999999
 21
9.09092999999998
 31
0.0
  0
LINE
  5
3D7
330
1E
100
AcDbEntity
  8
0
100
AcDbLine
 10
179.3841419999999
 20
7.878029999999981
 30
0.0
 11
181.192142
 21
8.978729999999981
 31
0.0
  0
LINE
  5
3D8
330
1E
100
AcDbEntity
  8
0
100
AcDbLine
 10
178.7331419999999
 20
7.822029999999981
 30
0.0
 11
180.682142
 21
9.015729999999981
 31
0.0
  0
LINE
  5
3D9
330
1E
100
AcDbEntity
  8
0
100
AcDbLine
 10
181.3751419999999
 20
7.81542999999998
 30
0.0
 11
183.592142
 21
9.22122999999998
 31
0.0
  0
LINE
  5
3DA
330
1E
100
AcDbEntity
  8
0
100
AcDbLine
 10
184.6531419999999
 20
7.89052999999998
 30
0.0
 11
186.876142
 21
9.28772999999998
 31
0.0
  0
LINE
  5
3DB
330
1E
100
AcDbEntity
  8
0
100
AcDbLine
 10
181.588142
 20
8.292729999999981
 30
0.0
 11
183.6631419999999
 21
9.60532999999998
 31
0.0
  0
LINE
  5
3DC
330
1E
100
AcDbEntity
  8
0
100
AcDbLine
 10
184.2851419999999
 20
8.02082999999998
 30
0.0
 11
186.7271419999999
 21
9.545029999999981
 31
0.0
  0
LINE
  5
3DD
330
1E
100
AcDbEntity
  8
0
100
AcDbLine
 10
187.569142
 20
8.08732999999998
 30
0.0
 11
189.7911419999999
 21
9.484629999999981
 31
0.0
  0
LINE
  5
3DE
330
1E
100
AcDbEntity
  8
0
100
AcDbLine
 10
179.087142
 20
8.392529999999981
 30
0.0
 11
180.8951419999999
 21
9.493129999999981
 31
0.0
  0
LINE
  5
3DF
330
1E
100
AcDbEntity
  8
0
100
AcDbLine
 10
184.356142
 20
8.40492999999998
 30
0.0
 11
186.5791419999999
 21
9.80222999999998
 31
0.0
  0
LINE
  5
3E0
330
1E
100
AcDbEntity
  8
0
100
AcDbLine
 10
187.2721419999999
 20
8.60182999999998
 30
0.0
 11
189.4941419999999
 21
9.999029999999981
 31
0.0
  0
LINE
  5
3E1
330
1E
100
AcDbEntity
  8
0
100
AcDbLine
 10
187.420142
 20
8.34462999999998
 30
0.0
 11
189.8621419999999
 21
9.868729999999981
 31
0.0
  0
LINE
  5
3E2
330
1E
100
AcDbEntity
  8
0
100
AcDbLine
 10
190.4841419999999
 20
8.284029999999981
 30
0.0
 11
192.5591419999999
 21
9.59692999999998
 31
0.0
  0
LINE
  5
3E3
330
1E
100
AcDbEntity
  8
0
100
AcDbLine
 10
181.192142
 20
8.978729999999981
 30
0.0
 11
183.2671419999999
 21
10.29123
 31
0.0
  0
LINE
  5
3E4
330
1E
100
AcDbEntity
  8
0
100
AcDbLine
 10
178.6911419999999
 20
9.078529999999981
 30
0.0
 11
180.499142
 21
10.17913
 31
0.0
  0
LINE
  5
3E5
330
1E
100
AcDbEntity
  8
0
100
AcDbLine
 10
178.040142
 20
9.02242999999998
 30
0.0
 11
179.9891419999999
 21
10.21613
 31
0.0
  0
LINE
  5
3E6
330
1E
100
AcDbEntity
  8
0
100
AcDbLine
 10
180.682142
 20
9.015729999999981
 30
0.0
 11
182.8991419999999
 21
10.42173
 31
0.0
  0
LINE
  5
3E7
330
1E
100
AcDbEntity
  8
0
100
AcDbLine
 10
183.9601419999999
 20
9.09092999999998
 30
0.0
 11
186.182142
 21
10.48823
 31
0.0
  0
LINE
  5
3E8
330
1E
100
AcDbEntity
  8
0
100
AcDbLine
 10
180.8951419999999
 20
9.493129999999981
 30
0.0
 11
182.9701419999999
 21
10.80573
 31
0.0
  0
LINE
  5
3E9
330
1E
100
AcDbEntity
  8
0
100
AcDbLine
 10
183.592142
 20
9.22122999999998
 30
0.0
 11
186.034142
 21
10.74543
 31
0.0
  0
LINE
  5
3EA
330
1E
100
AcDbEntity
  8
0
100
AcDbLine
 10
186.876142
 20
9.28772999999998
 30
0.0
 11
189.0981419999999
 21
10.68513
 31
0.0
  0
LINE
  5
3EB
330
1E
100
AcDbEntity
  8
0
100
AcDbLine
 10
183.6631419999999
 20
9.60532999999998
 30
0.0
 11
185.885142
 21
11.00262999999999
 31
0.0
  0
LINE
  5
3EC
330
1E
100
AcDbEntity
  8
0
100
AcDbLine
 10
186.5791419999999
 20
9.80222999999998
 30
0.0
 11
188.8011419999999
 21
11.19953
 31
0.0
  0
LINE
  5
3ED
330
1E
100
AcDbEntity
  8
0
100
AcDbLine
 10
186.7271419999999
 20
9.545029999999981
 30
0.0
 11
189.1691419999999
 21
11.06913
 31
0.0
  0
LINE
  5
3EE
330
1E
100
AcDbEntity
  8
0
100
AcDbLine
 10
189.7911419999999
 20
9.484629999999981
 30
0.0
 11
191.866142
 21
10.79733
 31
0.0
  0
LINE
  5
3EF
330
1E
100
AcDbEntity
  8
0
100
AcDbLine
 10
180.499142
 20
10.17913
 30
0.0
 11
182.5741419999999
 21
11.49173
 31
0.0
  0
LINE
  5
3F0
330
1E
100
AcDbEntity
  8
0
100
AcDbLine
 10
179.9891419999999
 20
10.21613
 30
0.0
 11
182.2061419999999
 21
11.62203
 31
0.0
  0
LINE
  5
3F1
330
1E
100
AcDbEntity
  8
0
100
AcDbLine
 10
189.4941419999999
 20
9.999029999999981
 30
0.0
 11
191.5691419999999
 21
11.31173
 31
0.0
  0
LINE
  5
3F2
330
1E
100
AcDbEntity
  8
0
100
AcDbLine
 10
189.8621419999999
 20
9.868729999999981
 30
0.0
 11
192.079142
 21
11.27453
 31
0.0
  0
LINE
  5
3F3
330
1E
100
AcDbEntity
  8
0
100
AcDbLine
 10
192.2621419999999
 20
10.11133
 30
0.0
 11
194.070142
 21
11.21183
 31
0.0
  0
LINE
  5
3F4
330
1E
100
AcDbEntity
  8
0
100
AcDbLine
 10
190.1871419999999
 20
8.798629999999981
 30
0.0
 11
192.2621419999999
 21
10.11133
 31
0.0
  0
LINE
  5
3F5
330
1E
100
AcDbEntity
  8
0
100
AcDbLine
 10
192.772142
 20
10.07422999999999
 30
0.0
 11
194.721142
 21
11.26802999999999
 31
0.0
  0
LINE
  5
3F6
330
1E
100
AcDbEntity
  8
0
100
AcDbLine
 10
192.5591419999999
 20
9.59692999999998
 30
0.0
 11
194.367142
 21
10.69743
 31
0.0
  0
LINE
  5
3F7
330
1E
100
AcDbEntity
  8
0
100
AcDbLine
 10
190.5551419999999
 20
8.668429999999981
 30
0.0
 11
192.772142
 21
10.07422999999999
 31
0.0
  0
LINE
  5
3F8
330
1E
100
AcDbEntity
  8
0
100
AcDbLine
 10
192.9551419999999
 20
8.910829999999981
 30
0.0
 11
194.763142
 21
10.01143
 31
0.0
  0
LINE
  5
3F9
330
1E
100
AcDbEntity
  8
0
100
AcDbLine
 10
190.8801419999999
 20
7.598329999999981
 30
0.0
 11
192.9551419999999
 21
8.910829999999981
 31
0.0
  0
LINE
  5
3FA
330
1E
100
AcDbEntity
  8
0
100
AcDbLine
 10
193.4651419999999
 20
8.87382999999998
 30
0.0
 11
195.414142
 21
10.06753
 31
0.0
  0
LINE
  5
3FB
330
1E
100
AcDbEntity
  8
0
100
AcDbLine
 10
193.253142
 20
8.39642999999998
 30
0.0
 11
195.0601419999999
 21
9.49702999999998
 31
0.0
  0
LINE
  5
3FC
330
1E
100
AcDbEntity
  8
0
100
AcDbLine
 10
191.2481419999999
 20
7.46782999999998
 30
0.0
 11
193.4651419999999
 21
8.87382999999998
 31
0.0
  0
LINE
  5
3FD
330
1E
100
AcDbEntity
  8
0
100
AcDbLine
 10
195.134142
 20
8.17952999999998
 30
0.0
 11
196.4031419999999
 21
8.86542999999998
 31
0.0
  0
LINE
  5
3FE
330
1E
100
AcDbEntity
  8
0
100
AcDbLine
 10
196.4031419999999
 20
8.86542999999998
 30
0.0
 11
197.068142
 21
9.223129999999981
 31
0.0
  0
LINE
  5
3FF
330
1E
100
AcDbEntity
  8
0
100
AcDbLine
 10
196.4031419999999
 20
8.86542999999998
 30
0.0
 11
197.022643127005
 21
9.198851054325171
 31
0.0
  0
LINE
  5
400
330
1E
100
AcDbEntity
  8
0
100
AcDbLine
 10
195.6551419999999
 20
8.46912999999998
 30
0.0
 11
197.068142
 21
9.223129999999981
 31
0.0
  0
LINE
  5
401
330
1E
100
AcDbEntity
  8
0
100
AcDbLine
 10
194.186023824905
 20
7.665938265736469
 30
0.0
 11
195.134142
 21
8.17952999999998
 31
0.0
  0
LINE
  5
402
330
1E
100
AcDbEntity
  8
0
100
AcDbLine
 10
197.068142
 20
9.223129999999981
 30
0.0
 11
197.967142
 21
9.707329999999981
 31
0.0
  0
LINE
  5
403
330
1E
100
AcDbEntity
  8
0
100
AcDbLine
 10
194.763142
 20
10.01143
 30
0.0
 11
196.130142
 21
10.85813
 31
0.0
  0
LINE
  5
404
330
1E
100
AcDbEntity
  8
0
100
AcDbLine
 10
197.967142
 20
9.707329999999981
 30
0.0
 11
198.2681419999999
 21
9.86302999999998
 31
0.0
  0
LINE
  5
405
330
1E
100
AcDbEntity
  8
0
100
AcDbLine
 10
195.414142
 20
10.06753
 30
0.0
 11
196.855142
 21
10.95653
 31
0.0
  0
LINE
  5
406
330
1E
100
AcDbEntity
  8
0
100
AcDbLine
 10
195.0601419999999
 20
9.49702999999998
 30
0.0
 11
196.427142
 21
10.34363
 31
0.0
  0
LINE
  5
407
330
1E
100
AcDbEntity
  8
0
100
AcDbLine
 10
193.7971419999999
 20
7.45322999999998
 30
0.0
 11
194.226829340544
 21
7.688042446517941
 31
0.0
  0
LINE
  5
408
330
1E
100
AcDbEntity
  8
0
100
AcDbLine
 10
198.2681419999999
 20
9.86302999999998
 30
0.0
 11
198.8521419999999
 21
10.54333
 31
0.0
  0
LINE
  5
409
330
1E
100
AcDbEntity
  8
0
100
AcDbLine
 10
198.1108278899649
 20
10.13550747742709
 30
0.0
 11
198.4811419999999
 21
10.34043
 31
0.0
  0
LINE
  5
40A
330
1E
100
AcDbEntity
  8
0
100
AcDbLine
 10
179.453142
 20
0.143569999999982
 30
0.0
 11
180.335142
 21
0.309419999999982
 31
0.0
  0
LINE
  5
40B
330
1E
100
AcDbEntity
  8
0
100
AcDbLine
 10
179.453142
 20
0.143569999999982
 30
0.0
 11
180.0371419999999
 21
0.823849999999982
 31
0.0
  0
LINE
  5
40C
330
1E
100
AcDbEntity
  8
0
100
AcDbLine
 10
179.453142
 20
0.143569999999982
 30
0.0
 11
179.8151419999999
 21
0.363699999999982
 31
0.0
  0
LINE
  5
40D
330
1E
100
AcDbEntity
  8
0
100
AcDbLine
 10
177.5361419999999
 20
9.03142999999998
 30
0.0
 11
179.6561419999999
 21
10.25543
 31
0.0
  0
LINE
  5
40E
330
1E
100
AcDbEntity
  8
0
100
AcDbLine
 10
183.2671419999999
 20
10.29123
 30
0.0
 11
185.4891419999999
 21
11.68862999999999
 31
0.0
  0
LINE
  5
40F
330
1E
100
AcDbEntity
  8
0
100
AcDbLine
 10
196.427142
 20
10.34363
 30
0.0
 11
197.2921419999999
 21
10.87713
 31
0.0
  0
LINE
  5
410
330
1E
100
AcDbEntity
  8
0
100
AcDbLine
 10
182.8991419999999
 20
10.42173
 30
0.0
 11
185.341142
 21
11.94583
 31
0.0
  0
LINE
  5
411
330
1E
100
AcDbEntity
  8
0
100
AcDbLine
 10
186.182142
 20
10.48823
 30
0.0
 11
188.4051419999999
 21
11.88553
 31
0.0
  0
LINE
  5
412
330
1E
100
AcDbEntity
  8
0
100
AcDbLine
 10
186.034142
 20
10.74543
 30
0.0
 11
188.4761419999999
 21
12.26963
 31
0.0
  0
LINE
  5
413
330
1E
100
AcDbEntity
  8
0
100
AcDbLine
 10
189.0981419999999
 20
10.68513
 30
0.0
 11
191.1731419999999
 21
11.99773
 31
0.0
  0
LINE
  5
414
330
1E
100
AcDbEntity
  8
0
100
AcDbLine
 10
182.9701419999999
 20
10.80573
 30
0.0
 11
185.192142
 21
12.20312999999999
 31
0.0
  0
LINE
  5
415
330
1E
100
AcDbEntity
  8
0
100
AcDbLine
 10
191.866142
 20
10.79733
 30
0.0
 11
193.6741419999999
 21
11.89783
 31
0.0
  0
LINE
  5
416
330
1E
100
AcDbEntity
  8
0
100
AcDbLine
 10
194.367142
 20
10.69743
 30
0.0
 11
195.7341419999999
 21
11.54413
 31
0.0
  0
LINE
  5
417
330
1E
100
AcDbEntity
  8
0
100
AcDbLine
 10
185.885142
 20
11.00262999999999
 30
0.0
 11
188.1081419999999
 21
12.39993
 31
0.0
  0
LINE
  5
418
330
1E
100
AcDbEntity
  8
0
100
AcDbLine
 10
188.8011419999999
 20
11.19953
 30
0.0
 11
190.8761419999999
 21
12.51213
 31
0.0
  0
LINE
  5
419
330
1E
100
AcDbEntity
  8
0
100
AcDbLine
 10
189.1691419999999
 20
11.06913
 30
0.0
 11
191.386142
 21
12.47503
 31
0.0
  0
LINE
  5
41A
330
1E
100
AcDbEntity
  8
0
100
AcDbLine
 10
191.5691419999999
 20
11.31173
 30
0.0
 11
193.377142
 21
12.41233
 31
0.0
  0
LINE
  5
41B
330
1E
100
AcDbEntity
  8
0
100
AcDbLine
 10
192.079142
 20
11.27453
 30
0.0
 11
194.0281419999999
 21
12.46833
 31
0.0
  0
LINE
  5
41C
330
1E
100
AcDbEntity
  8
0
100
AcDbLine
 10
194.070142
 20
11.21183
 30
0.0
 11
195.437142
 21
12.05853
 31
0.0
  0
LINE
  5
41D
330
1E
100
AcDbEntity
  8
0
100
AcDbLine
 10
194.721142
 20
11.26802999999999
 30
0.0
 11
196.1621419999999
 21
12.15703
 31
0.0
  0
LINE
  5
41E
330
1E
100
AcDbEntity
  8
0
100
AcDbLine
 10
196.130142
 20
10.85813
 30
0.0
 11
196.9951419999999
 21
11.39153
 31
0.0
  0
LINE
  5
41F
330
1E
100
AcDbEntity
  8
0
100
AcDbLine
 10
197.575065696539
 20
11.06347974217269
 30
0.0
 11
198.2681419999999
 21
9.86302999999998
 31
0.0
  0
LINE
  5
420
330
1E
100
AcDbEntity
  8
0
100
AcDbLine
 10
196.9951419999999
 20
11.39153
 30
0.0
 11
197.278142
 21
11.57793
 31
0.0
  0
LINE
  5
421
330
1E
100
AcDbEntity
  8
0
100
AcDbLine
 10
197.575142
 20
11.06353
 30
0.0
 11
198.1591419999999
 21
11.74383
 31
0.0
  0
LINE
  5
422
330
1E
100
AcDbEntity
  8
0
100
AcDbLine
 10
197.2921419999999
 20
10.87713
 30
0.0
 11
197.575142
 21
11.06353
 31
0.0
  0
LINE
  5
423
330
1E
100
AcDbEntity
  8
0
100
AcDbLine
 10
196.855142
 20
10.95653
 30
0.0
 11
197.7981419999999
 21
11.52373
 31
0.0
  0
LINE
  5
424
330
1E
100
AcDbEntity
  8
0
100
AcDbLine
 10
197.9711419999999
 20
10.37762999999999
 30
0.0
 11
198.8521419999999
 21
10.54333
 31
0.0
  0
LINE
  5
425
330
1E
100
AcDbEntity
  8
0
100
AcDbLine
 10
198.4811419999999
 20
10.34043
 30
0.0
 11
198.8521419999999
 21
10.54333
 31
0.0
  0
LINE
  5
426
330
1E
100
AcDbEntity
  8
0
100
AcDbLine
 10
179.6561419999999
 20
10.25543
 30
0.0
 11
182.067142
 21
11.64743
 31
0.0
  0
LINE
  5
427
330
1E
100
AcDbEntity
  8
0
100
AcDbLine
 10
173.9941419999999
 20
7.67902999999998
 30
0.0
 11
174.5431419999999
 21
7.30342999999998
 31
0.0
  0
LINE
  5
428
330
1E
100
AcDbEntity
  8
0
100
AcDbLine
 10
94.396842
 20
109.64643
 30
0.0
 11
94.710242
 21
110.80643
 31
0.0
  0
LINE
  5
429
330
1E
100
AcDbEntity
  8
0
100
AcDbLine
 10
93.33874200000002
 20
112.12543
 30
0.0
 11
94.710242
 21
110.80643
 31
0.0
  0
LINE
  5
42A
330
1E
100
AcDbEntity
  8
0
100
AcDbLine
 10
92.78624200000001
 20
108.00543
 30
0.0
 11
94.396842
 21
109.64643
 31
0.0
  0
LINE
  5
42B
330
1E
100
AcDbEntity
  8
0
100
AcDbLine
 10
91.558042
 20
113.37243
 30
0.0
 11
93.33874200000002
 21
112.12543
 31
0.0
  0
LINE
  5
42C
330
1E
100
AcDbEntity
  8
0
100
AcDbLine
 10
90.278042
 20
107.22243
 30
0.0
 11
92.78624200000001
 21
108.00543
 31
0.0
  0
LINE
  5
42D
330
1E
100
AcDbEntity
  8
0
100
AcDbLine
 10
89.247942
 20
114.9894299999999
 30
0.0
 11
91.558042
 21
113.37243
 31
0.0
  0
LINE
  5
42E
330
1E
100
AcDbEntity
  8
0
100
AcDbLine
 10
87.36774200000001
 20
107.18343
 30
0.0
 11
90.278042
 21
107.22243
 31
0.0
  0
LINE
  5
42F
330
1E
100
AcDbEntity
  8
0
100
AcDbLine
 10
86.27344200000001
 20
116.78543
 30
0.0
 11
89.247942
 21
114.9894299999999
 31
0.0
  0
LINE
  5
434
330
1E
100
AcDbEntity
  8
0
100
AcDbLine
 10
85.579198891014
 20
119.3264507222949
 30
0.0
 11
86.049842
 21
118.97843
 31
0.0
  0
LINE
  5
435
330
1E
100
AcDbEntity
  8
0
100
AcDbLine
 10
94.05668044190941
 20
138.9268805475119
 30
0.0
 11
98.72174200000001
 21
134.9824299999999
 31
0.0
  0
LINE
  5
436
330
1E
100
AcDbEntity
  8
0
100
AcDbLine
 10
86.049842
 20
118.97843
 30
0.0
 11
94.91084200000001
 21
111.10043
 31
0.0
  0
LINE
  5
437
330
1E
100
AcDbEntity
  8
0
100
AcDbLine
 10
98.72174200000001
 20
134.9824299999999
 30
0.0
 11
107.5831419999999
 21
127.10443
 31
0.0
  0
LINE
  5
439
330
1E
100
AcDbEntity
  8
0
100
AcDbLine
 10
107.5831419999999
 20
127.10443
 30
0.0
 11
116.6801419999999
 21
118.5764299999999
 31
0.0
  0
LINE
  5
43A
330
1E
100
AcDbEntity
  8
0
100
AcDbLine
 10
94.91084200000001
 20
111.10043
 30
0.0
 11
103.379142
 21
103.09143
 31
0.0
  0
LINE
  5
43B
330
1E
100
AcDbEntity
  8
0
100
AcDbLine
 10
103.379142
 20
103.09143
 30
0.0
 11
111.7211419999999
 21
94.48703
 31
0.0
  0
LINE
  5
43C
330
1E
100
AcDbEntity
  8
0
100
AcDbLine
 10
116.6801419999999
 20
118.5764299999999
 30
0.0
 11
126.2901419999999
 21
109.37543
 31
0.0
  0
LINE
  5
43D
330
1E
100
AcDbEntity
  8
0
100
AcDbLine
 10
111.7211419999999
 20
94.48703
 30
0.0
 11
122.092142
 21
82.84373
 31
0.0
  0
LINE
  5
43E
330
1E
100
AcDbEntity
  8
0
100
AcDbLine
 10
126.2901419999999
 20
109.37543
 30
0.0
 11
138.5411419999999
 21
97.14803000000001
 31
0.0
  0
LINE
  5
43F
330
1E
100
AcDbEntity
  8
0
100
AcDbLine
 10
138.5411419999999
 20
97.14803000000001
 30
0.0
 11
150.4951419999999
 21
84.28933
 31
0.0
  0
LINE
  5
440
330
1E
100
AcDbEntity
  8
0
100
AcDbLine
 10
122.092142
 20
82.84373
 30
0.0
 11
132.491142
 21
69.91513000000001
 31
0.0
  0
LINE
  5
441
330
1E
100
AcDbEntity
  8
0
100
AcDbLine
 10
132.491142
 20
69.91513000000001
 30
0.0
 11
142.748142
 21
55.79713
 31
0.0
  0
LINE
  5
442
330
1E
100
AcDbEntity
  8
0
100
AcDbLine
 10
150.4951419999999
 20
84.28933
 30
0.0
 11
162.9531419999999
 21
69.64233
 31
0.0
  0
LINE
  5
443
330
1E
100
AcDbEntity
  8
0
100
AcDbLine
 10
142.748142
 20
55.79713
 30
0.0
 11
154.082142
 21
38.57273
 31
0.0
  0
LINE
  5
444
330
1E
100
AcDbEntity
  8
0
100
AcDbLine
 10
154.082142
 20
38.57273
 30
0.0
 11
162.9001419999999
 21
25.04483
 31
0.0
  0
LINE
  5
445
330
1E
100
AcDbEntity
  8
0
100
AcDbLine
 10
182.5741419999999
 20
11.49173
 30
0.0
 11
184.796142
 21
12.88903
 31
0.0
  0
LINE
  5
446
330
1E
100
AcDbEntity
  8
0
100
AcDbLine
 10
182.2061419999999
 20
11.62203
 30
0.0
 11
184.461592691278
 21
13.02979328568599
 31
0.0
  0
LINE
  5
447
330
1E
100
AcDbEntity
  8
0
100
AcDbLine
 10
182.067142
 20
11.64743
 30
0.0
 11
184.6861419999999
 21
13.15942999999999
 31
0.0
  0
LINE
  5
448
330
1E
100
AcDbEntity
  8
0
100
AcDbLine
 10
185.4891419999999
 20
11.68862999999999
 30
0.0
 11
187.7121419999999
 21
13.08583
 31
0.0
  0
LINE
  5
449
330
1E
100
AcDbEntity
  8
0
100
AcDbLine
 10
188.4051419999999
 20
11.88553
 30
0.0
 11
190.480142
 21
13.19812999999999
 31
0.0
  0
LINE
  5
44A
330
1E
100
AcDbEntity
  8
0
100
AcDbLine
 10
185.192142
 20
12.20312999999999
 30
0.0
 11
187.415142
 21
13.60033
 31
0.0
  0
LINE
  5
44B
330
1E
100
AcDbEntity
  8
0
100
AcDbLine
 10
185.341142
 20
11.94583
 30
0.0
 11
187.7831419999999
 21
13.47002999999999
 31
0.0
  0
LINE
  5
44C
330
1E
100
AcDbEntity
  8
0
100
AcDbLine
 10
188.1081419999999
 20
12.39993
 30
0.0
 11
190.183142
 21
13.71262999999999
 31
0.0
  0
LINE
  5
44D
330
1E
100
AcDbEntity
  8
0
100
AcDbLine
 10
188.4761419999999
 20
12.26963
 30
0.0
 11
190.693142
 21
13.67542999999999
 31
0.0
  0
LINE
  5
44E
330
1E
100
AcDbEntity
  8
0
100
AcDbLine
 10
191.1731419999999
 20
11.99773
 30
0.0
 11
192.981142
 21
13.09833
 31
0.0
  0
LINE
  5
44F
330
1E
100
AcDbEntity
  8
0
100
AcDbLine
 10
184.796142
 20
12.88903
 30
0.0
 11
187.0181419999999
 21
14.28633
 31
0.0
  0
LINE
  5
450
330
1E
100
AcDbEntity
  8
0
100
AcDbLine
 10
187.415142
 20
13.60033
 30
0.0
 11
189.490142
 21
14.91303
 31
0.0
  0
LINE
  5
451
330
1E
100
AcDbEntity
  8
0
100
AcDbLine
 10
187.7121419999999
 20
13.08583
 30
0.0
 11
189.7871419999999
 21
14.39853
 31
0.0
  0
LINE
  5
452
330
1E
100
AcDbEntity
  8
0
100
AcDbLine
 10
187.7831419999999
 20
13.47002999999999
 30
0.0
 11
190.0001419999999
 21
14.87592999999999
 31
0.0
  0
LINE
  5
453
330
1E
100
AcDbEntity
  8
0
100
AcDbLine
 10
187.0181419999999
 20
14.28633
 30
0.0
 11
189.094142
 21
15.59903
 31
0.0
  0
LINE
  5
454
330
1E
100
AcDbEntity
  8
0
100
AcDbLine
 10
189.094142
 20
15.59903
 30
0.0
 11
190.9011419999999
 21
16.69953
 31
0.0
  0
LINE
  5
455
330
1E
100
AcDbEntity
  8
0
100
AcDbLine
 10
189.490142
 20
14.91303
 30
0.0
 11
191.2971419999999
 21
16.01363
 31
0.0
  0
LINE
  5
456
330
1E
100
AcDbEntity
  8
0
100
AcDbLine
 10
190.0001419999999
 20
14.87592999999999
 30
0.0
 11
191.9491419999999
 21
16.06963
 31
0.0
  0
LINE
  5
457
330
1E
100
AcDbEntity
  8
0
100
AcDbLine
 10
189.7871419999999
 20
14.39853
 30
0.0
 11
191.594142
 21
15.49913
 31
0.0
  0
LINE
  5
458
330
1E
100
AcDbEntity
  8
0
100
AcDbLine
 10
190.183142
 20
13.71262999999999
 30
0.0
 11
191.990142
 21
14.81313
 31
0.0
  0
LINE
  5
459
330
1E
100
AcDbEntity
  8
0
100
AcDbLine
 10
190.9011419999999
 20
16.69953
 30
0.0
 11
192.047542920095
 21
17.4091588736375
 31
0.0
  0
LINE
  5
45A
330
1E
100
AcDbEntity
  8
0
100
AcDbLine
 10
191.2971419999999
 20
16.01363
 30
0.0
 11
192.6651419999999
 21
16.86032999999999
 31
0.0
  0
LINE
  5
45B
330
1E
100
AcDbEntity
  8
0
100
AcDbLine
 10
190.693142
 20
13.67542999999999
 30
0.0
 11
192.6421419999999
 21
14.86922999999999
 31
0.0
  0
LINE
  5
45C
330
1E
100
AcDbEntity
  8
0
100
AcDbLine
 10
190.480142
 20
13.19812999999999
 30
0.0
 11
192.2871419999999
 21
14.29863
 31
0.0
  0
LINE
  5
45D
330
1E
100
AcDbEntity
  8
0
100
AcDbLine
 10
190.8761419999999
 20
12.51213
 30
0.0
 11
192.683142
 21
13.61272999999999
 31
0.0
  0
LINE
  5
45E
330
1E
100
AcDbEntity
  8
0
100
AcDbLine
 10
191.9491419999999
 20
16.06963
 30
0.0
 11
193.3901419999999
 21
16.95863
 31
0.0
  0
LINE
  5
45F
330
1E
100
AcDbEntity
  8
0
100
AcDbLine
 10
191.594142
 20
15.49913
 30
0.0
 11
192.962142
 21
16.34583
 31
0.0
  0
LINE
  5
460
330
1E
100
AcDbEntity
  8
0
100
AcDbLine
 10
191.990142
 20
14.81313
 30
0.0
 11
193.3581419999999
 21
15.65992999999999
 31
0.0
  0
LINE
  5
461
330
1E
100
AcDbEntity
  8
0
100
AcDbLine
 10
192.6651419999999
 20
16.86032999999999
 30
0.0
 11
193.5291419999999
 21
17.39372999999999
 31
0.0
  0
LINE
  5
462
330
1E
100
AcDbEntity
  8
0
100
AcDbLine
 10
192.962142
 20
16.34583
 30
0.0
 11
193.826142
 21
16.87933
 31
0.0
  0
LINE
  5
463
330
1E
100
AcDbEntity
  8
0
100
AcDbLine
 10
192.6421419999999
 20
14.86922999999999
 30
0.0
 11
194.0831419999999
 21
15.75822999999999
 31
0.0
  0
LINE
  5
464
330
1E
100
AcDbEntity
  8
0
100
AcDbLine
 10
192.2871419999999
 20
14.29863
 30
0.0
 11
193.6551419999999
 21
15.14542999999999
 31
0.0
  0
LINE
  5
465
330
1E
100
AcDbEntity
  8
0
100
AcDbLine
 10
192.683142
 20
13.61272999999999
 30
0.0
 11
194.0511419999999
 21
14.45942999999999
 31
0.0
  0
LINE
  5
466
330
1E
100
AcDbEntity
  8
0
100
AcDbLine
 10
193.826142
 20
16.87933
 30
0.0
 11
194.110142
 21
17.06572999999999
 31
0.0
  0
LINE
  5
467
330
1E
100
AcDbEntity
  8
0
100
AcDbLine
 10
193.3901419999999
 20
16.95863
 30
0.0
 11
194.332142
 21
17.52583
 31
0.0
  0
LINE
  5
468
330
1E
100
AcDbEntity
  8
0
100
AcDbLine
 10
193.3581419999999
 20
15.65992999999999
 30
0.0
 11
194.2221419999999
 21
16.19333
 31
0.0
  0
LINE
  5
469
330
1E
100
AcDbEntity
  8
0
100
AcDbLine
 10
193.6551419999999
 20
15.14542999999999
 30
0.0
 11
194.520142
 21
15.67883
 31
0.0
  0
LINE
  5
46A
330
1E
100
AcDbEntity
  8
0
100
AcDbLine
 10
193.3351419999999
 20
13.66873
 30
0.0
 11
194.7761419999999
 21
14.55783
 31
0.0
  0
LINE
  5
46B
330
1E
100
AcDbEntity
  8
0
100
AcDbLine
 10
192.981142
 20
13.09833
 30
0.0
 11
194.3481419999999
 21
13.94492999999999
 31
0.0
  0
LINE
  5
46C
330
1E
100
AcDbEntity
  8
0
100
AcDbLine
 10
191.386142
 20
12.47503
 30
0.0
 11
193.3351419999999
 21
13.66873
 31
0.0
  0
LINE
  5
46D
330
1E
100
AcDbEntity
  8
0
100
AcDbLine
 10
193.377142
 20
12.41233
 30
0.0
 11
194.7441419999999
 21
13.25903
 31
0.0
  0
LINE
  5
46E
330
1E
100
AcDbEntity
  8
0
100
AcDbLine
 10
194.109809341879
 20
17.0655116638249
 30
0.0
 11
194.505894818823
 21
16.3794678526293
 31
0.0
  0
LINE
  5
46F
330
1E
100
AcDbEntity
  8
0
100
AcDbLine
 10
194.110142
 20
17.06572999999999
 30
0.0
 11
194.694142
 21
17.74602999999999
 31
0.0
  0
LINE
  5
470
330
1E
100
AcDbEntity
  8
0
100
AcDbLine
 10
194.0831419999999
 20
15.75822999999999
 30
0.0
 11
195.026142
 21
16.32542999999999
 31
0.0
  0
LINE
  5
471
330
1E
100
AcDbEntity
  8
0
100
AcDbLine
 10
194.0511419999999
 20
14.45942999999999
 30
0.0
 11
194.9161419999999
 21
14.99283
 31
0.0
  0
LINE
  5
472
330
1E
100
AcDbEntity
  8
0
100
AcDbLine
 10
194.0281419999999
 20
12.46833
 30
0.0
 11
195.4691419999999
 21
13.35733
 31
0.0
  0
LINE
  5
473
330
1E
100
AcDbEntity
  8
0
100
AcDbLine
 10
193.6741419999999
 20
11.89783
 30
0.0
 11
195.0411419999999
 21
12.74453
 31
0.0
  0
LINE
  5
474
330
1E
100
AcDbEntity
  8
0
100
AcDbLine
 10
184.6861419999999
 20
13.15942999999999
 30
0.0
 11
191.615142
 21
17.15943
 31
0.0
  0
LINE
  5
475
330
1E
100
AcDbEntity
  8
0
100
AcDbLine
 10
193.445314856641
 20
18.2164559819269
 30
0.0
 11
193.81281847771
 21
17.579917660018
 31
0.0
  0
LINE
  5
476
330
1E
100
AcDbEntity
  8
0
100
AcDbLine
 10
193.8131419999999
 20
17.58013
 30
0.0
 11
194.694142
 21
17.74602999999999
 31
0.0
  0
LINE
  5
477
330
1E
100
AcDbEntity
  8
0
100
AcDbLine
 10
193.5291419999999
 20
17.39372999999999
 30
0.0
 11
193.8131419999999
 21
17.58013
 31
0.0
  0
LINE
  5
478
330
1E
100
AcDbEntity
  8
0
100
AcDbLine
 10
192.9241419999999
 20
17.91542999999999
 30
0.0
 11
194.1291419999999
 21
18.61143
 31
0.0
  0
LINE
  5
479
330
1E
100
AcDbEntity
  8
0
100
AcDbLine
 10
191.615142
 20
17.15943
 30
0.0
 11
192.9241419999999
 21
17.91542999999999
 31
0.0
  0
LINE
  5
47A
330
1E
100
AcDbEntity
  8
0
100
AcDbLine
 10
194.332142
 20
17.52583
 30
0.0
 11
194.694142
 21
17.74602999999999
 31
0.0
  0
LINE
  5
47B
330
1E
100
AcDbEntity
  8
0
100
AcDbLine
 10
194.5061419999999
 20
16.37963
 30
0.0
 11
195.3871419999999
 21
16.54552999999999
 31
0.0
  0
LINE
  5
47C
330
1E
100
AcDbEntity
  8
0
100
AcDbLine
 10
194.2221419999999
 20
16.19333
 30
0.0
 11
194.5061419999999
 21
16.37963
 31
0.0
  0
LINE
  5
47D
330
1E
100
AcDbEntity
  8
0
100
AcDbLine
 10
194.520142
 20
15.67883
 30
0.0
 11
194.8031419999999
 21
15.86522999999999
 31
0.0
  0
LINE
  5
47E
330
1E
100
AcDbEntity
  8
0
100
AcDbLine
 10
194.3481419999999
 20
13.94492999999999
 30
0.0
 11
195.213142
 21
14.47842999999999
 31
0.0
  0
LINE
  5
47F
330
1E
100
AcDbEntity
  8
0
100
AcDbLine
 10
194.802885968049
 20
15.8650613627009
 30
0.0
 11
195.198929570027
 21
15.1790900814593
 31
0.0
  0
LINE
  5
480
330
1E
100
AcDbEntity
  8
0
100
AcDbLine
 10
194.8031419999999
 20
15.86522999999999
 30
0.0
 11
195.3871419999999
 21
16.54552999999999
 31
0.0
  0
LINE
  5
481
330
1E
100
AcDbEntity
  8
0
100
AcDbLine
 10
195.026142
 20
16.32542999999999
 30
0.0
 11
195.3871419999999
 21
16.54552999999999
 31
0.0
  0
LINE
  5
482
330
1E
100
AcDbEntity
  8
0
100
AcDbLine
 10
194.9161419999999
 20
14.99283
 30
0.0
 11
195.1991419999999
 21
15.17922999999999
 31
0.0
  0
LINE
  5
483
330
1E
100
AcDbEntity
  8
0
100
AcDbLine
 10
194.7761419999999
 20
14.55783
 30
0.0
 11
195.719142
 21
15.12493
 31
0.0
  0
LINE
  5
484
330
1E
100
AcDbEntity
  8
0
100
AcDbLine
 10
194.7441419999999
 20
13.25903
 30
0.0
 11
195.6091419999999
 21
13.79242999999999
 31
0.0
  0
LINE
  5
485
330
1E
100
AcDbEntity
  8
0
100
AcDbLine
 10
195.0411419999999
 20
12.74453
 30
0.0
 11
195.9061419999999
 21
13.27803
 31
0.0
  0
LINE
  5
486
330
1E
100
AcDbEntity
  8
0
100
AcDbLine
 10
195.7341419999999
 20
11.54413
 30
0.0
 11
196.599142
 21
12.07753
 31
0.0
  0
LINE
  5
487
330
1E
100
AcDbEntity
  8
0
100
AcDbLine
 10
195.1991419999999
 20
15.17922999999999
 30
0.0
 11
196.0801419999999
 21
15.34513
 31
0.0
  0
LINE
  5
488
330
1E
100
AcDbEntity
  8
0
100
AcDbLine
 10
195.213142
 20
14.47842999999999
 30
0.0
 11
195.496142
 21
14.66483
 31
0.0
  0
LINE
  5
489
330
1E
100
AcDbEntity
  8
0
100
AcDbLine
 10
195.4959204430589
 20
14.6646840699157
 30
0.0
 11
195.891964045036
 21
13.9787127886742
 31
0.0
  0
LINE
  5
48A
330
1E
100
AcDbEntity
  8
0
100
AcDbLine
 10
195.496142
 20
14.66483
 30
0.0
 11
196.0801419999999
 21
15.34513
 31
0.0
  0
LINE
  5
48B
330
1E
100
AcDbEntity
  8
0
100
AcDbLine
 10
195.719142
 20
15.12493
 30
0.0
 11
196.0801419999999
 21
15.34513
 31
0.0
  0
LINE
  5
48C
330
1E
100
AcDbEntity
  8
0
100
AcDbLine
 10
195.8921419999999
 20
13.97882999999999
 30
0.0
 11
196.7731419999999
 21
14.14463
 31
0.0
  0
LINE
  5
48D
330
1E
100
AcDbEntity
  8
0
100
AcDbLine
 10
195.6091419999999
 20
13.79242999999999
 30
0.0
 11
195.8921419999999
 21
13.97882999999999
 31
0.0
  0
LINE
  5
48E
330
1E
100
AcDbEntity
  8
0
100
AcDbLine
 10
195.9061419999999
 20
13.27803
 30
0.0
 11
196.189142
 21
13.46432999999999
 31
0.0
  0
LINE
  5
48F
330
1E
100
AcDbEntity
  8
0
100
AcDbLine
 10
195.4691419999999
 20
13.35733
 30
0.0
 11
196.4121419999999
 21
13.92452999999999
 31
0.0
  0
LINE
  5
490
330
1E
100
AcDbEntity
  8
0
100
AcDbLine
 10
195.437142
 20
12.05853
 30
0.0
 11
196.302142
 21
12.59193
 31
0.0
  0
LINE
  5
491
330
1E
100
AcDbEntity
  8
0
100
AcDbLine
 10
196.882031221529
 20
12.2638570349578
 30
0.0
 11
197.278074823507
 21
11.5778857537163
 31
0.0
  0
LINE
  5
492
330
1E
100
AcDbEntity
  8
0
100
AcDbLine
 10
196.1889967250479
 20
13.4642343649341
 30
0.0
 11
196.585040348497
 21
12.7782630465015
 31
0.0
  0
LINE
  5
493
330
1E
100
AcDbEntity
  8
0
100
AcDbLine
 10
196.189142
 20
13.46432999999999
 30
0.0
 11
196.7731419999999
 21
14.14463
 31
0.0
  0
LINE
  5
494
330
1E
100
AcDbEntity
  8
0
100
AcDbLine
 10
196.4121419999999
 20
13.92452999999999
 30
0.0
 11
196.7731419999999
 21
14.14463
 31
0.0
  0
LINE
  5
495
330
1E
100
AcDbEntity
  8
0
100
AcDbLine
 10
196.5851419999999
 20
12.77833
 30
0.0
 11
197.4661419999999
 21
12.94423
 31
0.0
  0
LINE
  5
496
330
1E
100
AcDbEntity
  8
0
100
AcDbLine
 10
196.302142
 20
12.59193
 30
0.0
 11
196.5851419999999
 21
12.77833
 31
0.0
  0
LINE
  5
497
330
1E
100
AcDbEntity
  8
0
100
AcDbLine
 10
196.8821419999999
 20
12.26393
 30
0.0
 11
197.4661419999999
 21
12.94423
 31
0.0
  0
LINE
  5
498
330
1E
100
AcDbEntity
  8
0
100
AcDbLine
 10
197.105142
 20
12.72413
 30
0.0
 11
197.4661419999999
 21
12.94423
 31
0.0
  0
LINE
  5
499
330
1E
100
AcDbEntity
  8
0
100
AcDbLine
 10
196.599142
 20
12.07753
 30
0.0
 11
196.8821419999999
 21
12.26393
 31
0.0
  0
LINE
  5
49A
330
1E
100
AcDbEntity
  8
0
100
AcDbLine
 10
196.1621419999999
 20
12.15703
 30
0.0
 11
197.105142
 21
12.72413
 31
0.0
  0
LINE
  5
49B
330
1E
100
AcDbEntity
  8
0
100
AcDbLine
 10
197.278142
 20
11.57793
 30
0.0
 11
198.1591419999999
 21
11.74383
 31
0.0
  0
LINE
  5
49C
330
1E
100
AcDbEntity
  8
0
100
AcDbLine
 10
197.7981419999999
 20
11.52373
 30
0.0
 11
198.1591419999999
 21
11.74383
 31
0.0
  0
LINE
  5
49D
330
1E
100
AcDbEntity
  8
0
100
AcDbLine
 10
195.189142
 20
19.22343
 30
0.0
 11
196.0001419999999
 21
19.69143
 31
0.0
  0
LINE
  5
49E
330
1E
100
AcDbEntity
  8
0
100
AcDbLine
 10
196.511142
 20
20.67902999999999
 30
0.0
 11
196.6861419999999
 21
20.08742999999999
 31
0.0
  0
LINE
  5
49F
330
1E
100
AcDbEntity
  8
0
100
AcDbLine
 10
196.499142
 20
19.97942999999999
 30
0.0
 11
196.6861419999999
 21
20.08742999999999
 31
0.0
  0
LINE
  5
4A0
330
1E
100
AcDbEntity
  8
0
100
AcDbLine
 10
196.0001419999999
 20
19.69143
 30
0.0
 11
196.499142
 21
19.97942999999999
 31
0.0
  0
LINE
  5
4A1
330
1E
100
AcDbEntity
  8
0
100
AcDbLine
 10
194.1291419999999
 20
18.61143
 30
0.0
 11
195.189142
 21
19.22343
 31
0.0
  0
LINE
  5
4A2
330
1E
100
AcDbEntity
  8
0
100
AcDbLine
 10
162.9531419999999
 20
69.64233
 30
0.0
 11
175.3301419999999
 21
53.55693
 31
0.0
  0
LINE
  5
4A3
330
1E
100
AcDbEntity
  8
0
100
AcDbLine
 10
175.3301419999999
 20
53.55693
 30
0.0
 11
184.460142
 21
39.57653
 31
0.0
  0
LINE
  5
4A4
330
1E
100
AcDbEntity
  8
0
100
AcDbLine
 10
184.460142
 20
39.57653
 30
0.0
 11
194.3111419999999
 21
24.48952999999999
 31
0.0
  0
LINE
  5
4A5
330
1E
100
AcDbEntity
  8
0
100
AcDbLine
 10
194.3111419999999
 20
24.48952999999999
 30
0.0
 11
196.511142
 21
20.67902999999999
 31
0.0
  0
LINE
  5
4A6
330
1E
100
AcDbEntity
  8
0
100
AcDbLine
 10
162.9001419999999
 20
25.04483
 30
0.0
 11
171.794142
 21
11.48953
 31
0.0
  0
LINE
  5
4A7
330
1E
100
AcDbEntity
  8
0
100
AcDbLine
 10
162.9001419999999
 20
25.04483
 30
0.0
 11
171.794142
 21
11.48953
 31
0.0
  0
LINE
  5
4A8
330
1E
100
AcDbEntity
  8
0
100
AcDbLine
 10
171.794142
 20
11.48953
 30
0.0
 11
173.9941419999999
 21
7.67902999999998
 31
0.0
  0
LINE
  5
4A9
330
1E
100
AcDbEntity
  8
0
100
AcDbLine
 10
85.30014200000001
 20
118.91543
 30
0.0
 11
85.579198891014
 21
119.3264507222949
 31
0.0
  0
ENDSEC
  0
SECTION
  2
OBJECTS
  0
DICTIONARY
  5
C
330
0
100
AcDbDictionary
  3
ACAD_GROUP
350
D
  3
ACAD_LAYOUT
350
19
  3
ACAD_MLINESTYLE
350
16
  3
ACAD_PLOTSETTINGS
350
18
  3
ACAD_PLOTSTYLENAME
350
E
  3
ACDBHEADERROUNDTRIPXREC
350
4FB
  3
ACDBVARIABLEDICTIONARY
350
4AE
  0
DICTIONARY
  5
51D
330
1E
100
AcDbDictionary
280
     1
  3
ACAD_LAYOUTSELFREF
360
51E
  0
DICTIONARY
  5
51B
330
1A
100
AcDbDictionary
280
     1
  3
ACAD_LAYOUTSELFREF
360
51C
  0
DICTIONARY
  5
D
102
{ACAD_REACTORS
330
C
102
}
330
C
100
AcDbDictionary
  0
DICTIONARY
  5
19
102
{ACAD_REACTORS
330
C
102
}
330
C
100
AcDbDictionary
  0
DICTIONARY
  5
16
102
{ACAD_REACTORS
330
C
102
}
330
C
100
AcDbDictionary
  3
STANDARD
350
17
  0
DICTIONARY
  5
18
102
{ACAD_REACTORS
330
C
102
}
330
C
100
AcDbDictionary
  0
ACDBDICTIONARYWDFLT
  5
E
102
{ACAD_REACTORS
330
C
102
}
330
C
100
AcDbDictionary
281
     1
  3
Normal
350
F
100
AcDbDictionaryWithDefault
340
F
  0
DICTIONARY
  5
4FB
102
{ACAD_REACTORS
330
C
102
}
330
C
100
AcDbDictionary
  3
CEPSNTYPE
350
505
  3
FINGERPRINTGUID
350
506
  3
HYPERLINKBASE
350
4FE
  3
INSUNITS
350
504
  3
LAYOUTDICT
350
500
  3
LWETCUNION
350
503
  3
PLOTSETDICT
350
501
  3
PLOTSTYLNAMDICT
350
502
  3
PSVPSCALE
350
508
  3
PUCSBASE
350
50B
  3
PUCSORGBACK
350
511
  3
PUCSORGBOTTOM
350
50D
  3
PUCSORGFRONT
350
510
  3
PUCSORGLEFT
350
50E
  3
PUCSORGRIGHT
350
50F
  3
PUCSORGTOP
350
50C
  3
PUCSORTHOREF
350
509
  3
PUCSORTHOVIEW
350
50A
  3
STYLESHEET
350
4FF
  3
TSTACKALIGN
350
4FC
  3
TSTACKSIZE
350
4FD
  3
UCSBASE
350
514
  3
UCSORGBACK
350
51A
  3
UCSORGBOTTOM
350
516
  3
UCSORGFRONT
350
519
  3
UCSORGLEFT
350
517
  3
UCSORGRIGHT
350
518
  3
UCSORGTOP
350
515
  3
UCSORTHOREF
350
512
  3
UCSORTHOVIEW
350
513
  3
VERSIONGUID
350
507
  0
DICTIONARY
  5
4AE
102
{ACAD_REACTORS
330
C
102
}
330
C
100
AcDbDictionary
  3
DIMASSOC
350
4AF
  0
XRECORD
  5
51E
102
{ACAD_REACTORS
330
51D
102
}
330
51D
100
AcDbXrecord
340
1E
  0
XRECORD
  5
51C
102
{ACAD_REACTORS
330
51B
102
}
330
51B
100
AcDbXrecord
340
1A
  0
MLINESTYLE
  5
17
102
{ACAD_REACTORS
330
16
102
}
330
16
100
AcDbMlineStyle
  2
STANDARD
 70
     0
  3

 62
   256
 51
90.0
 52
90.0
 71
     2
 49
0.5
 62
   256
  6
BYLAYER
 49
-0.5
 62
   256
  6
BYLAYER
  0
ACDBPLACEHOLDER
  5
F
102
{ACAD_REACTORS
330
E
102
}
330
E
100
AcDbPlaceHolder
280
     0
  0
XRECORD
  5
505
102
{ACAD_REACTORS
330
4FB
102
}
330
4FB
100
AcDbXrecord
 90
        0
  0
XRECORD
  5
506
102
{ACAD_REACTORS
330
4FB
102
}
330
4FB
100
AcDbXrecord
  1
{B0F0EF16-22E3-4686-9CAF-0D16FF1AF69A}
  0
XRECORD
  5
4FE
102
{ACAD_REACTORS
330
4FB
102
}
330
4FB
100
AcDbXrecord
  1

  0
XRECORD
  5
504
102
{ACAD_REACTORS
330
4FB
102
}
330
4FB
100
AcDbXrecord
 90
        0
  0
XRECORD
  5
500
102
{ACAD_REACTORS
330
4FB
102
}
330
4FB
100
AcDbXrecord
340
19
  0
XRECORD
  5
503
102
{ACAD_REACTORS
330
4FB
102
}
330
4FB
100
AcDbXrecord
 90
    10781
  0
XRECORD
  5
501
102
{ACAD_REACTORS
330
4FB
102
}
330
4FB
100
AcDbXrecord
340
18
  0
XRECORD
  5
502
102
{ACAD_REACTORS
330
4FB
102
}
330
4FB
100
AcDbXrecord
340
E
  0
XRECORD
  5
508
102
{ACAD_REACTORS
330
4FB
102
}
330
4FB
100
AcDbXrecord
 40
0.0
  0
XRECORD
  5
50B
102
{ACAD_REACTORS
330
4FB
102
}
330
4FB
100
AcDbXrecord
340
0
  0
XRECORD
  5
511
102
{ACAD_REACTORS
330
4FB
102
}
330
4FB
100
AcDbXrecord
 10
0.0
 20
0.0
 30
0.0
  0
XRECORD
  5
50D
102
{ACAD_REACTORS
330
4FB
102
}
330
4FB
100
AcDbXrecord
 10
0.0
 20
0.0
 30
0.0
  0
XRECORD
  5
510
102
{ACAD_REACTORS
330
4FB
102
}
330
4FB
100
AcDbXrecord
 10
0.0
 20
0.0
 30
0.0
  0
XRECORD
  5
50E
102
{ACAD_REACTORS
330
4FB
102
}
330
4FB
100
AcDbXrecord
 10
0.0
 20
0.0
 30
0.0
  0
XRECORD
  5
50F
102
{ACAD_REACTORS
330
4FB
102
}
330
4FB
100
AcDbXrecord
 10
0.0
 20
0.0
 30
0.0
  0
XRECORD
  5
50C
102
{ACAD_REACTORS
330
4FB
102
}
330
4FB
100
AcDbXrecord
 10
0.0
 20
0.0
 30
0.0
  0
XRECORD
  5
509
102
{ACAD_REACTORS
330
4FB
102
}
330
4FB
100
AcDbXrecord
340
0
  0
XRECORD
  5
50A
102
{ACAD_REACTORS
330
4FB
102
}
330
4FB
100
AcDbXrecord
 70
     0
  0
XRECORD
  5
4FF
102
{ACAD_REACTORS
330
4FB
102
}
330
4FB
100
AcDbXrecord
  1

  0
XRECORD
  5
4FC
102
{ACAD_REACTORS
330
4FB
102
}
330
4FB
100
AcDbXrecord
 90
        1
  0
XRECORD
  5
4FD
102
{ACAD_REACTORS
330
4FB
102
}
330
4FB
100
AcDbXrecord
 90
       70
  0
XRECORD
  5
514
102
{ACAD_REACTORS
330
4FB
102
}
330
4FB
100
AcDbXrecord
340
0
  0
XRECORD
  5
51A
102
{ACAD_REACTORS
330
4FB
102
}
330
4FB
100
AcDbXrecord
 10
0.0
 20
0.0
 30
0.0
  0
XRECORD
  5
516
102
{ACAD_REACTORS
330
4FB
102
}
330
4FB
100
AcDbXrecord
 10
0.0
 20
0.0
 30
0.0
  0
XRECORD
  5
519
102
{ACAD_REACTORS
330
4FB
102
}
330
4FB
100
AcDbXrecord
 10
0.0
 20
0.0
 30
0.0
  0
XRECORD
  5
517
102
{ACAD_REACTORS
330
4FB
102
}
330
4FB
100
AcDbXrecord
 10
0.0
 20
0.0
 30
0.0
  0
XRECORD
  5
518
102
{ACAD_REACTORS
330
4FB
102
}
330
4FB
100
AcDbXrecord
 10
0.0
 20
0.0
 30
0.0
  0
XRECORD
  5
515
102
{ACAD_REACTORS
330
4FB
102
}
330
4FB
100
AcDbXrecord
 10
0.0
 20
0.0
 30
0.0
  0
XRECORD
  5
512
102
{ACAD_REACTORS
330
4FB
102
}
330
4FB
100
AcDbXrecord
340
0
  0
XRECORD
  5
513
102
{ACAD_REACTORS
330
4FB
102
}
330
4FB
100
AcDbXrecord
 70
     1
  0
XRECORD
  5
507
102
{ACAD_REACTORS
330
4FB
102
}
330
4FB
100
AcDbXrecord
  1
{5D4FE9A9-DF4C-4EDC-BECC-ED92CD679A50}
  0
DICTIONARYVAR
  5
4AF
102
{ACAD_REACTORS
330
4AE
102
}
330
4AE
100
DictionaryVariables
280
     0
  1
1
  0
ENDSEC
  0
EOF
