  0
SECTION
  2
HEADER
  9
$ACADVER
  1
AC1015
  9
$ACADMAINTVER
 70
    13
  9
$DWGCODEPAGE
  3
ANSI_1252
  9
$INSBASE
 10
0.0
 20
0.0
 30
0.0
  9
$EXTMIN
 10
30.0
 20
93.0
 30
0.0
  9
$EXTMAX
 10
121.0
 20
421.0
 30
0.0
  9
$LIMMIN
 10
0.0
 20
0.0
  9
$LIMMAX
 10
12.0
 20
9.0
  9
$ORTHOMODE
 70
     0
  9
$REGENMODE
 70
     1
  9
$FILLMODE
 70
     1
  9
$QTEXTMODE
 70
     0
  9
$MIRRTEXT
 70
     1
  9
$LTSCALE
 40
1.0
  9
$ATTMODE
 70
     1
  9
$TEXTSIZE
 40
0.2
  9
$TRACEWID
 40
0.05
  9
$TEXTSTYLE
  7
STANDARD
  9
$CLAYER
  8
0
  9
$CELTYPE
  6
CONTINUOUS
  9
$CECOLOR
 62
   256
  9
$CELTSCALE
 40
1.0
  9
$DISPSILH
 70
     0
  9
$DIMSCALE
 40
1.0
  9
$DIMASZ
 40
0.18
  9
$DIMEXO
 40
0.0625
  9
$DIMDLI
 40
0.38
  9
$DIMRND
 40
0.0
  9
$DIMDLE
 40
0.0
  9
$DIMEXE
 40
0.18
  9
$DIMTP
 40
0.0
  9
$DIMTM
 40
0.0
  9
$DIMTXT
 40
0.18
  9
$DIMCEN
 40
0.09
  9
$DIMTSZ
 40
0.0
  9
$DIMTOL
 70
     0
  9
$DIMLIM
 70
     0
  9
$DIMTIH
 70
     1
  9
$DIMTOH
 70
     1
  9
$DIMSE1
 70
     0
  9
$DIMSE2
 70
     0
  9
$DIMTAD
 70
     0
  9
$DIMZIN
 70
     0
  9
$DIMBLK
  1

  9
$DIMASO
 70
     1
  9
$DIMSHO
 70
     1
  9
$DIMPOST
  1

  9
$DIMAPOST
  1

  9
$DIMALT
 70
     0
  9
$DIMALTD
 70
     2
  9
$DIMALTF
 40
25.4
  9
$DIMLFAC
 40
1.0
  9
$DIMTOFL
 70
     0
  9
$DIMTVP
 40
0.0
  9
$DIMTIX
 70
     0
  9
$DIMSOXD
 70
     0
  9
$DIMSAH
 70
     0
  9
$DIMBLK1
  1

  9
$DIMBLK2
  1

  9
$DIMSTYLE
  2
STANDARD
  9
$DIMCLRD
 70
     0
  9
$DIMCLRE
 70
     0
  9
$DIMCLRT
 70
     0
  9
$DIMTFAC
 40
1.0
  9
$DIMGAP
 40
0.09
  9
$DIMJUST
 70
     0
  9
$DIMSD1
 70
     0
  9
$DIMSD2
 70
     0
  9
$DIMTOLJ
 70
     1
  9
$DIMTZIN
 70
     0
  9
$DIMALTZ
 70
     0
  9
$DIMALTTZ
 70
     0
  9
$DIMUPT
 70
     0
  9
$DIMDEC
 70
     4
  9
$DIMTDEC
 70
     4
  9
$DIMALTU
 70
     2
  9
$DIMALTTD
 70
     2
  9
$DIMTXSTY
  7
STANDARD
  9
$DIMAUNIT
 70
     0
  9
$DIMADEC
 70
     0
  9
$DIMALTRND
 40
0.0
  9
$DIMAZIN
 70
     0
  9
$DIMDSEP
 70
    46
  9
$DIMATFIT
 70
     3
  9
$DIMFRAC
 70
     0
  9
$DIMLDRBLK
  1

  9
$DIMLUNIT
 70
     2
  9
$DIMLWD
 70
    -2
  9
$DIMLWE
 70
    -2
  9
$DIMTMOVE
 70
     2
  9
$LUNITS
 70
     2
  9
$LUPREC
 70
     4
  9
$SKETCHINC
 40
0.1
  9
$FILLETRAD
 40
0.0
  9
$AUNITS
 70
     0
  9
$AUPREC
 70
     0
  9
$MENU
  1
.
  9
$ELEVATION
 40
0.0
  9
$PELEVATION
 40
0.0
  9
$THICKNESS
 40
0.0
  9
$LIMCHECK
 70
     0
  9
$CHAMFERA
 40
0.0
  9
$CHAMFERB
 40
0.0
  9
$CHAMFERC
 40
0.0
  9
$CHAMFERD
 40
0.0
  9
$SKPOLY
 70
     0
  9
$TDCREATE
 40
2454983.614173900
  9
$TDUCREATE
 40
2454983.530840567
  9
$TDUPDATE
 40
2454987.689676829
  9
$TDUUPDATE
 40
2454987.606343495
  9
$TDINDWG
 40
0.0065827546
  9
$TDUSRTIMER
 40
0.0065827546
  9
$USRTIMER
 70
     1
  9
$ANGBASE
 50
0.0
  9
$ANGDIR
 70
     0
  9
$PDMODE
 70
     0
  9
$PDSIZE
 40
0.0
  9
$PLINEWID
 40
0.0
  9
$SPLFRAME
 70
     0
  9
$SPLINETYPE
 70
     6
  9
$SPLINESEGS
 70
     8
  9
$HANDSEED
  5
96D
  9
$SURFTAB1
 70
     6
  9
$SURFTAB2
 70
     6
  9
$SURFTYPE
 70
     6
  9
$SURFU
 70
     6
  9
$SURFV
 70
     6
  9
$UCSBASE
  2

  9
$UCSNAME
  2

  9
$UCSORG
 10
0.0
 20
0.0
 30
0.0
  9
$UCSXDIR
 10
1.0
 20
0.0
 30
0.0
  9
$UCSYDIR
 10
0.0
 20
1.0
 30
0.0
  9
$UCSORTHOREF
  2

  9
$UCSORTHOVIEW
 70
     1
  9
$UCSORGTOP
 10
0.0
 20
0.0
 30
0.0
  9
$UCSORGBOTTOM
 10
0.0
 20
0.0
 30
0.0
  9
$UCSORGLEFT
 10
0.0
 20
0.0
 30
0.0
  9
$UCSORGRIGHT
 10
0.0
 20
0.0
 30
0.0
  9
$UCSORGFRONT
 10
0.0
 20
0.0
 30
0.0
  9
$UCSORGBACK
 10
0.0
 20
0.0
 30
0.0
  9
$PUCSBASE
  2

  9
$PUCSNAME
  2

  9
$PUCSORG
 10
0.0
 20
0.0
 30
0.0
  9
$PUCSXDIR
 10
1.0
 20
0.0
 30
0.0
  9
$PUCSYDIR
 10
0.0
 20
1.0
 30
0.0
  9
$PUCSORTHOREF
  2

  9
$PUCSORTHOVIEW
 70
     0
  9
$PUCSORGTOP
 10
0.0
 20
0.0
 30
0.0
  9
$PUCSORGBOTTOM
 10
0.0
 20
0.0
 30
0.0
  9
$PUCSORGLEFT
 10
0.0
 20
0.0
 30
0.0
  9
$PUCSORGRIGHT
 10
0.0
 20
0.0
 30
0.0
  9
$PUCSORGFRONT
 10
0.0
 20
0.0
 30
0.0
  9
$PUCSORGBACK
 10
0.0
 20
0.0
 30
0.0
  9
$USERI1
 70
     0
  9
$USERI2
 70
     0
  9
$USERI3
 70
     0
  9
$USERI4
 70
     0
  9
$USERI5
 70
     0
  9
$USERR1
 40
0.0
  9
$USERR2
 40
0.0
  9
$USERR3
 40
0.0
  9
$USERR4
 40
0.0
  9
$USERR5
 40
0.0
  9
$WORLDVIEW
 70
     1
  9
$SHADEDGE
 70
     3
  9
$SHADEDIF
 70
    70
  9
$TILEMODE
 70
     1
  9
$MAXACTVP
 70
    64
  9
$PINSBASE
 10
0.0
 20
0.0
 30
0.0
  9
$PLIMCHECK
 70
     0
  9
$PEXTMIN
 10
1.000000000000000E+20
 20
1.000000000000000E+20
 30
1.000000000000000E+20
  9
$PEXTMAX
 10
-1.000000000000000E+20
 20
-1.000000000000000E+20
 30
-1.000000000000000E+20
  9
$PLIMMIN
 10
0.0
 20
0.0
  9
$PLIMMAX
 10
12.0
 20
9.0
  9
$UNITMODE
 70
     0
  9
$VISRETAIN
 70
     1
  9
$PLINEGEN
 70
     0
  9
$PSLTSCALE
 70
     1
  9
$TREEDEPTH
 70
  3020
  9
$CMLSTYLE
  2
STANDARD
  9
$CMLJUST
 70
     0
  9
$CMLSCALE
 40
1.0
  9
$PROXYGRAPHICS
 70
     1
  9
$MEASUREMENT
 70
     0
  9
$CELWEIGHT
370
    -1
  9
$ENDCAPS
280
     0
  9
$JOINSTYLE
280
     0
  9
$LWDISPLAY
290
     0
  9
$INSUNITS
 70
     0
  9
$HYPERLINKBASE
  1

  9
$STYLESHEET
  1

  9
$XEDIT
290
     1
  9
$CEPSNTYPE
380
     0
  9
$PSTYLEMODE
290
     1
  9
$FINGERPRINTGUID
  2
{0C41A7B0-1D42-4359-A29C-ADAA79B590B4}
  9
$VERSIONGUID
  2
{54EEB0B7-AE61-44B5-A438-E354DBEE167E}
  9
$EXTNAMES
290
     1
  9
$PSVPSCALE
 40
0.0
  9
$OLESTARTUP
290
     0
  0
ENDSEC
  0
SECTION
  2
CLASSES
  0
CLASS
  1
ACDBDICTIONARYWDFLT
  2
AcDbDictionaryWithDefault
  3
AutoCAD 2000
 90
        0
280
     0
281
     0
  0
CLASS
  1
ACDBPLACEHOLDER
  2
AcDbPlaceHolder
  3
AutoCAD 2000
 90
        0
280
     0
281
     0
  0
CLASS
  1
LAYOUT
  2
AcDbLayout
  3
AutoCAD 2000
 90
        0
280
     0
281
     0
  0
CLASS
  1
DICTIONARYVAR
  2
AcDbDictionaryVar
  3
AutoCAD 2000
 90
        0
280
     0
281
     0
  0
CLASS
  1
LONG_TRANSACTION
  2
AcDbLongTransaction
  3
AutoCAD 2000
 90
    32768
280
     0
281
     0
  0
CLASS
  1
LWPOLYLINE
  2
AcDbPolyline
  3
AutoCAD 2000
 90
    32768
280
     0
281
     1
  0
CLASS
  1
HATCH
  2
AcDbHatch
  3
AutoCAD 2000
 90
    32768
280
     0
281
     1
  0
CLASS
  1
XRECORD
  2
AcDbXrecord
  3
AutoCAD 2000
 90
    32768
280
     0
281
     0
  0
ENDSEC
  0
SECTION
  2
TABLES
  0
TABLE
  2
VPORT
  5
8
330
0
100
AcDbSymbolTable
 70
     6
  0
VPORT
  5
96C
330
8
100
AcDbSymbolTableRecord
100
AcDbViewportTableRecord
  2
*Active
 70
     0
 10
0.0
 20
0.0
 11
1.0
 21
1.0
 12
75.5
 22
257.0
 13
0.0
 23
0.0
 14
1.0
 24
1.0
 15
0.0
 25
0.0
 16
0.0
 26
0.0
 36
1.0
 17
0.0
 27
0.0
 37
0.0
 40
330.0715789473684
 41
1.968387776606954
 42
50.0
 43
0.0
 44
0.0
 50
0.0
 51
0.0
 71
     0
 72
   100
 73
     1
 74
     3
 75
     0
 76
     0
 77
     0
 78
     0
281
     0
 65
     1
110
0.0
120
0.0
130
0.0
111
1.0
121
0.0
131
0.0
112
0.0
122
1.0
132
0.0
 79
     1
146
0.0
  0
ENDTAB
  0
TABLE
  2
LTYPE
  5
5
330
0
100
AcDbSymbolTable
 70
     1
  0
LTYPE
  5
13
330
5
100
AcDbSymbolTableRecord
100
AcDbLinetypeTableRecord
  2
BYBLOCK
 70
     0
  3

 72
    65
 73
     0
 40
0.0
  0
LTYPE
  5
14
330
5
100
AcDbSymbolTableRecord
100
AcDbLinetypeTableRecord
  2
BYLAYER
 70
     0
  3

 72
    65
 73
     0
 40
0.0
  0
LTYPE
  5
15
330
5
100
AcDbSymbolTableRecord
100
AcDbLinetypeTableRecord
  2
CONTINUOUS
 70
     0
  3
Solid line
 72
    65
 73
     0
 40
0.0
  0
ENDTAB
  0
TABLE
  2
LAYER
  5
2
330
0
100
AcDbSymbolTable
 70
     1
  0
LAYER
  5
10
330
2
100
AcDbSymbolTableRecord
100
AcDbLayerTableRecord
  2
0
 70
     0
 62
     7
  6
CONTINUOUS
370
    -3
390
F
  0
ENDTAB
  0
TABLE
  2
STYLE
  5
3
330
0
100
AcDbSymbolTable
 70
     1
  0
STYLE
  5
11
330
3
100
AcDbSymbolTableRecord
100
AcDbTextStyleTableRecord
  2
STANDARD
 70
     0
 40
0.0
 41
1.0
 50
0.0
 71
     0
 42
0.2
  3
txt
  4

  0
ENDTAB
  0
TABLE
  2
VIEW
  5
6
330
0
100
AcDbSymbolTable
 70
     0
  0
ENDTAB
  0
TABLE
  2
UCS
  5
7
330
0
100
AcDbSymbolTable
 70
     0
  0
ENDTAB
  0
TABLE
  2
APPID
  5
9
330
0
100
AcDbSymbolTable
 70
     1
  0
APPID
  5
12
330
9
100
AcDbSymbolTableRecord
100
AcDbRegAppTableRecord
  2
ACAD
 70
     0
  0
ENDTAB
  0
TABLE
  2
DIMSTYLE
  5
A
330
0
100
AcDbSymbolTable
 70
     1
100
AcDbDimStyleTable
 71
     0
  0
DIMSTYLE
105
8E4
330
A
100
AcDbSymbolTableRecord
100
AcDbDimStyleTableRecord
  2
STANDARD
 70
     0
340
11
  0
ENDTAB
  0
TABLE
  2
BLOCK_RECORD
  5
1
330
0
100
AcDbSymbolTable
 70
     0
  0
BLOCK_RECORD
  5
1E
330
1
100
AcDbSymbolTableRecord
100
AcDbBlockTableRecord
  2
*MODEL_SPACE
340
960
  0
BLOCK_RECORD
  5
1A
330
1
100
AcDbSymbolTableRecord
100
AcDbBlockTableRecord
  2
*PAPER_SPACE
340
961
  0
ENDTAB
  0
ENDSEC
  0
SECTION
  2
BLOCKS
  0
BLOCK
  5
1F
330
1E
100
AcDbEntity
  8
0
100
AcDbBlockBegin
  2
*MODEL_SPACE
 70
     0
 10
0.0
 20
0.0
 30
0.0
  3
*MODEL_SPACE
  1

  0
ENDBLK
  5
20
330
1E
100
AcDbEntity
  8
0
100
AcDbBlockEnd
  0
BLOCK
  5
1B
330
1A
100
AcDbEntity
 67
     1
  8
0
100
AcDbBlockBegin
  2
*PAPER_SPACE
 70
     0
 10
0.0
 20
0.0
 30
0.0
  3
*PAPER_SPACE
  1

  0
ENDBLK
  5
1C
330
1A
100
AcDbEntity
 67
     1
  8
0
100
AcDbBlockEnd
  0
ENDSEC
  0
SECTION
  2
ENTITIES
  0
LINE
  5
1CE
330
1E
100
AcDbEntity
  8
0
100
AcDbLine
 10
57.2273
 20
93.0
 30
0.0
 11
57.67269999999999
 21
93.0
 31
0.0
  0
LINE
  5
1CF
330
1E
100
AcDbEntity
  8
0
100
AcDbLine
 10
57.67269999999999
 20
93.0
 30
0.0
 11
58.0
 21
93.0
 31
0.0
  0
LINE
  5
1D0
330
1E
100
AcDbEntity
  8
0
100
AcDbLine
 10
57.67269999999999
 20
93.0
 30
0.0
 11
58.8182
 21
93.0
 31
0.0
  0
LINE
  5
1D2
330
1E
100
AcDbEntity
  8
0
100
AcDbLine
 10
66.184
 20
93.0
 30
0.0
 11
69.0
 21
93.0
 31
0.0
  0
LINE
  5
1D3
330
1E
100
AcDbEntity
  8
0
100
AcDbLine
 10
63.544
 20
93.0
 30
0.0
 11
66.184
 21
93.0
 31
0.0
  0
LINE
  5
1D4
330
1E
100
AcDbEntity
  8
0
100
AcDbLine
 10
61.21199999999999
 20
93.0
 30
0.0
 11
63.544
 21
93.0
 31
0.0
  0
LINE
  5
1D5
330
1E
100
AcDbEntity
  8
0
100
AcDbLine
 10
59.45199999999999
 20
93.0
 30
0.0
 11
61.21199999999999
 21
93.0
 31
0.0
  0
LINE
  5
1D6
330
1E
100
AcDbEntity
  8
0
100
AcDbLine
 10
58.396
 20
93.0
 30
0.0
 11
59.45199999999999
 21
93.0
 31
0.0
  0
LINE
  5
1D7
330
1E
100
AcDbEntity
  8
0
100
AcDbLine
 10
55.0981
 20
93.89299999999998
 30
0.0
 11
55.5355
 21
93.44599999999998
 31
0.0
  0
LINE
  5
1D8
330
1E
100
AcDbEntity
  8
0
100
AcDbLine
 10
55.0
 20
93.89299999999998
 30
0.0
 11
55.31819999999999
 21
93.44599999999998
 31
0.0
  0
LINE
  5
1D9
330
1E
100
AcDbEntity
  8
0
100
AcDbLine
 10
55.0
 20
93.89299999999998
 30
0.0
 11
55.0981
 21
93.89299999999998
 31
0.0
  0
LINE
  5
1DA
330
1E
100
AcDbEntity
  8
0
100
AcDbLine
 10
55.0
 20
93.89299999999998
 30
0.0
 11
55.0
 21
106.0
 31
0.0
  0
LINE
  5
1DC
330
1E
100
AcDbEntity
  8
0
100
AcDbLine
 10
55.31819999999999
 20
93.44599999999998
 30
0.0
 11
56.2727
 21
93.13399999999999
 31
0.0
  0
LINE
  5
1DD
330
1E
100
AcDbEntity
  8
0
100
AcDbLine
 10
65.7927
 20
93.10699999999988
 30
0.0
 11
69.0
 21
93.045
 31
0.0
  0
LINE
  5
1DE
330
1E
100
AcDbEntity
  8
0
100
AcDbLine
 10
69.0
 20
93.045
 30
0.0
 11
71.55488897279429
 21
93.09438830677299
 31
0.0
  0
LINE
  5
1DF
330
1E
100
AcDbEntity
  8
0
100
AcDbLine
 10
58.26080000000001
 20
93.0899999999999
 30
0.0
 11
59.9636
 21
93.16199999999991
 31
0.0
  0
LINE
  5
1E2
330
1E
100
AcDbEntity
  8
0
100
AcDbLine
 10
56.56719999999999
 20
93.18700000000001
 30
0.0
 11
58.26080000000001
 21
93.0899999999999
 31
0.0
  0
LINE
  5
1E4
330
1E
100
AcDbEntity
  8
0
100
AcDbLine
 10
59.9636
 20
93.16199999999991
 30
0.0
 11
61.1563
 21
93.44599999999998
 31
0.0
  0
LINE
  5
1E5
330
1E
100
AcDbEntity
  8
0
100
AcDbLine
 10
62.1909
 20
93.44599999999998
 30
0.0
 11
62.82119999999999
 21
93.44599999999998
 31
0.0
  0
LINE
  5
1E7
330
1E
100
AcDbEntity
  8
0
100
AcDbLine
 10
61.9823
 20
93.89299999999998
 30
0.0
 11
61.9823
 21
106.0
 31
0.0
  0
LINE
  5
1E9
330
1E
100
AcDbEntity
  8
0
100
AcDbLine
 10
62.82119999999999
 20
93.44599999999998
 30
0.0
 11
65.7927
 21
93.10699999999988
 31
0.0
  0
LINE
  5
1EC
330
1E
100
AcDbEntity
  8
0
100
AcDbLine
 10
61.1563
 20
93.44599999999998
 30
0.0
 11
62.1909
 21
93.44599999999998
 31
0.0
  0
LINE
  5
1ED
330
1E
100
AcDbEntity
  8
0
100
AcDbLine
 10
56.2727
 20
93.13399999999999
 30
0.0
 11
57.2273
 21
93.0
 31
0.0
  0
LINE
  5
1EF
330
1E
100
AcDbEntity
  8
0
100
AcDbLine
 10
55.5355
 20
93.44599999999998
 30
0.0
 11
56.56719999999999
 21
93.18700000000001
 31
0.0
  0
LINE
  5
1F0
330
1E
100
AcDbEntity
  8
0
100
AcDbLine
 10
58.0
 20
93.0
 30
0.0
 11
58.396
 21
93.0
 31
0.0
  0
LINE
  5
1F2
330
1E
100
AcDbEntity
  8
0
100
AcDbLine
 10
69.0
 20
93.0
 30
0.0
 11
71.816
 21
93.0
 31
0.0
  0
LINE
  5
210
330
1E
100
AcDbEntity
  8
0
100
AcDbLine
 10
30.0
 20
108.0
 30
0.0
 11
30.0
 21
108.18
 31
0.0
  0
LINE
  5
211
330
1E
100
AcDbEntity
  8
0
100
AcDbLine
 10
30.0
 20
108.0
 30
0.0
 11
39.0
 21
108.0
 31
0.0
  0
LINE
  5
212
330
1E
100
AcDbEntity
  8
0
100
AcDbLine
 10
30.0
 20
108.18
 30
0.0
 11
30.0
 21
108.66
 31
0.0
  0
LINE
  5
213
330
1E
100
AcDbEntity
  8
0
100
AcDbLine
 10
30.0
 20
108.18
 30
0.0
 11
30.0
 21
108.0
 31
0.0
  0
LINE
  5
214
330
1E
100
AcDbEntity
  8
0
100
AcDbLine
 10
30.0
 20
108.66
 30
0.0
 11
30.0
 21
109.46
 31
0.0
  0
LINE
  5
215
330
1E
100
AcDbEntity
  8
0
100
AcDbLine
 10
30.0
 20
108.66
 30
0.0
 11
30.0
 21
108.18
 31
0.0
  0
LINE
  5
216
330
1E
100
AcDbEntity
  8
0
100
AcDbLine
 10
30.0
 20
109.46
 30
0.0
 11
30.0
 21
110.5199999999999
 31
0.0
  0
LINE
  5
217
330
1E
100
AcDbEntity
  8
0
100
AcDbLine
 10
30.0
 20
109.46
 30
0.0
 11
30.0
 21
108.66
 31
0.0
  0
LINE
  5
218
330
1E
100
AcDbEntity
  8
0
100
AcDbLine
 10
39.0
 20
108.0
 30
0.0
 11
39.0
 21
108.18
 31
0.0
  0
LINE
  5
219
330
1E
100
AcDbEntity
  8
0
100
AcDbLine
 10
39.0
 20
108.18
 30
0.0
 11
39.0
 21
108.0
 31
0.0
  0
LINE
  5
21A
330
1E
100
AcDbEntity
  8
0
100
AcDbLine
 10
39.0
 20
108.18
 30
0.0
 11
39.0
 21
108.66
 31
0.0
  0
LINE
  5
21B
330
1E
100
AcDbEntity
  8
0
100
AcDbLine
 10
39.0
 20
108.66
 30
0.0
 11
39.0
 21
108.18
 31
0.0
  0
LINE
  5
21C
330
1E
100
AcDbEntity
  8
0
100
AcDbLine
 10
39.0
 20
108.66
 30
0.0
 11
39.0
 21
109.46
 31
0.0
  0
LINE
  5
21D
330
1E
100
AcDbEntity
  8
0
100
AcDbLine
 10
39.0
 20
109.46
 30
0.0
 11
39.0
 21
108.66
 31
0.0
  0
LINE
  5
21E
330
1E
100
AcDbEntity
  8
0
100
AcDbLine
 10
39.0
 20
109.46
 30
0.0
 11
39.0
 21
110.5199999999999
 31
0.0
  0
LINE
  5
21F
330
1E
100
AcDbEntity
  8
0
100
AcDbLine
 10
39.0
 20
111.0
 30
0.0
 11
121.0
 21
111.0
 31
0.0
  0
LINE
  5
220
330
1E
100
AcDbEntity
  8
0
100
AcDbLine
 10
39.0
 20
110.5199999999999
 30
0.0
 11
39.0
 21
109.46
 31
0.0
  0
LINE
  5
221
330
1E
100
AcDbEntity
  8
0
100
AcDbLine
 10
39.0
 20
110.5199999999999
 30
0.0
 11
39.0
 21
111.7199999999999
 31
0.0
  0
LINE
  5
222
330
1E
100
AcDbEntity
  8
0
100
AcDbLine
 10
30.0
 20
110.5199999999999
 30
0.0
 11
30.0
 21
111.7199999999999
 31
0.0
  0
LINE
  5
223
330
1E
100
AcDbEntity
  8
0
100
AcDbLine
 10
30.0
 20
110.5199999999999
 30
0.0
 11
30.0
 21
109.46
 31
0.0
  0
LINE
  5
224
330
1E
100
AcDbEntity
  8
0
100
AcDbLine
 10
30.0
 20
113.0
 30
0.0
 11
30.0
 21
111.7199999999999
 31
0.0
  0
LINE
  5
225
330
1E
100
AcDbEntity
  8
0
100
AcDbLine
 10
30.0
 20
113.0
 30
0.0
 11
30.0
 21
284.0
 31
0.0
  0
LINE
  5
226
330
1E
100
AcDbEntity
  8
0
100
AcDbLine
 10
30.0
 20
284.0
 30
0.0
 11
39.0
 21
284.0
 31
0.0
  0
LINE
  5
227
330
1E
100
AcDbEntity
  8
0
100
AcDbLine
 10
30.0
 20
284.0
 30
0.0
 11
30.0
 21
421.0
 31
0.0
  0
LINE
  5
228
330
1E
100
AcDbEntity
  8
0
100
AcDbLine
 10
30.0
 20
284.0
 30
0.0
 11
30.0
 21
416.0
 31
0.0
  0
LINE
  5
229
330
1E
100
AcDbEntity
  8
0
100
AcDbLine
 10
30.0
 20
111.7199999999999
 30
0.0
 11
30.0
 21
113.0
 31
0.0
  0
LINE
  5
22A
330
1E
100
AcDbEntity
  8
0
100
AcDbLine
 10
30.0
 20
111.7199999999999
 30
0.0
 11
30.0
 21
110.5199999999999
 31
0.0
  0
LINE
  5
22B
330
1E
100
AcDbEntity
  8
0
100
AcDbLine
 10
30.0
 20
286.0
 30
0.0
 11
30.0
 21
421.0
 31
0.0
  0
LINE
  5
22C
330
1E
100
AcDbEntity
  8
0
100
AcDbLine
 10
30.0
 20
286.0
 30
0.0
 11
30.0
 21
416.0
 31
0.0
  0
LINE
  5
22D
330
1E
100
AcDbEntity
  8
0
100
AcDbLine
 10
30.0
 20
286.0
 30
0.0
 11
39.0
 21
286.0
 31
0.0
  0
LINE
  5
22E
330
1E
100
AcDbEntity
  8
0
100
AcDbLine
 10
30.0
 20
416.0
 30
0.0
 11
30.0
 21
417.2799999999999
 31
0.0
  0
LINE
  5
22F
330
1E
100
AcDbEntity
  8
0
100
AcDbLine
 10
30.0
 20
418.48
 30
0.0
 11
30.0
 21
417.2799999999999
 31
0.0
  0
LINE
  5
230
330
1E
100
AcDbEntity
  8
0
100
AcDbLine
 10
30.0
 20
418.48
 30
0.0
 11
30.0
 21
419.54
 31
0.0
  0
LINE
  5
231
330
1E
100
AcDbEntity
  8
0
100
AcDbLine
 10
39.0
 20
111.7199999999999
 30
0.0
 11
39.0
 21
110.5199999999999
 31
0.0
  0
LINE
  5
232
330
1E
100
AcDbEntity
  8
0
100
AcDbLine
 10
39.0
 20
111.7199999999999
 30
0.0
 11
39.0
 21
113.0
 31
0.0
  0
LINE
  5
233
330
1E
100
AcDbEntity
  8
0
100
AcDbLine
 10
39.0
 20
284.0
 30
0.0
 11
39.0
 21
286.0
 31
0.0
  0
LINE
  5
234
330
1E
100
AcDbEntity
  8
0
100
AcDbLine
 10
39.0
 20
284.0
 30
0.0
 11
39.0
 21
286.0
 31
0.0
  0
LINE
  5
235
330
1E
100
AcDbEntity
  8
0
100
AcDbLine
 10
39.0
 20
113.0
 30
0.0
 11
39.0
 21
111.7199999999999
 31
0.0
  0
LINE
  5
236
330
1E
100
AcDbEntity
  8
0
100
AcDbLine
 10
39.0
 20
113.0
 30
0.0
 11
39.0
 21
284.0
 31
0.0
  0
LINE
  5
237
330
1E
100
AcDbEntity
  8
0
100
AcDbLine
 10
39.0
 20
286.0
 30
0.0
 11
39.0
 21
416.0
 31
0.0
  0
LINE
  5
238
330
1E
100
AcDbEntity
  8
0
100
AcDbLine
 10
39.0
 20
286.0
 30
0.0
 11
39.0
 21
284.0
 31
0.0
  0
LINE
  5
239
330
1E
100
AcDbEntity
  8
0
100
AcDbLine
 10
39.0
 20
418.0
 30
0.0
 11
121.0
 21
418.0
 31
0.0
  0
LINE
  5
23A
330
1E
100
AcDbEntity
  8
0
100
AcDbLine
 10
39.0
 20
418.0
 30
0.0
 11
121.0
 21
418.0
 31
0.0
  0
LINE
  5
23B
330
1E
100
AcDbEntity
  8
0
100
AcDbLine
 10
39.0
 20
416.0
 30
0.0
 11
39.0
 21
417.2799999999999
 31
0.0
  0
LINE
  5
23C
330
1E
100
AcDbEntity
  8
0
100
AcDbLine
 10
30.0
 20
417.2799999999999
 30
0.0
 11
30.0
 21
416.0
 31
0.0
  0
LINE
  5
23D
330
1E
100
AcDbEntity
  8
0
100
AcDbLine
 10
30.0
 20
417.2799999999999
 30
0.0
 11
30.0
 21
418.48
 31
0.0
  0
LINE
  5
23E
330
1E
100
AcDbEntity
  8
0
100
AcDbLine
 10
30.0
 20
420.34
 30
0.0
 11
30.0
 21
419.54
 31
0.0
  0
LINE
  5
23F
330
1E
100
AcDbEntity
  8
0
100
AcDbLine
 10
30.0
 20
420.34
 30
0.0
 11
30.0
 21
420.8199999999998
 31
0.0
  0
LINE
  5
240
330
1E
100
AcDbEntity
  8
0
100
AcDbLine
 10
30.0
 20
419.54
 30
0.0
 11
30.0
 21
418.48
 31
0.0
  0
LINE
  5
241
330
1E
100
AcDbEntity
  8
0
100
AcDbLine
 10
30.0
 20
419.54
 30
0.0
 11
30.0
 21
420.34
 31
0.0
  0
LINE
  5
242
330
1E
100
AcDbEntity
  8
0
100
AcDbLine
 10
30.0
 20
421.0
 30
0.0
 11
30.0
 21
420.8199999999998
 31
0.0
  0
LINE
  5
243
330
1E
100
AcDbEntity
  8
0
100
AcDbLine
 10
30.0
 20
421.0
 30
0.0
 11
39.0
 21
421.0
 31
0.0
  0
LINE
  5
244
330
1E
100
AcDbEntity
  8
0
100
AcDbLine
 10
30.0
 20
420.8199999999998
 30
0.0
 11
30.0
 21
420.34
 31
0.0
  0
LINE
  5
245
330
1E
100
AcDbEntity
  8
0
100
AcDbLine
 10
30.0
 20
420.8199999999998
 30
0.0
 11
30.0
 21
421.0
 31
0.0
  0
LINE
  5
246
330
1E
100
AcDbEntity
  8
0
100
AcDbLine
 10
39.0
 20
421.0
 30
0.0
 11
39.0
 21
420.8199999999998
 31
0.0
  0
LINE
  5
247
330
1E
100
AcDbEntity
  8
0
100
AcDbLine
 10
39.0
 20
420.8199999999998
 30
0.0
 11
39.0
 21
420.34
 31
0.0
  0
LINE
  5
248
330
1E
100
AcDbEntity
  8
0
100
AcDbLine
 10
39.0
 20
420.8199999999998
 30
0.0
 11
39.0
 21
421.0
 31
0.0
  0
LINE
  5
249
330
1E
100
AcDbEntity
  8
0
100
AcDbLine
 10
39.0
 20
420.34
 30
0.0
 11
39.0
 21
419.54
 31
0.0
  0
LINE
  5
24A
330
1E
100
AcDbEntity
  8
0
100
AcDbLine
 10
39.0
 20
420.34
 30
0.0
 11
39.0
 21
420.8199999999998
 31
0.0
  0
LINE
  5
24B
330
1E
100
AcDbEntity
  8
0
100
AcDbLine
 10
39.0
 20
419.54
 30
0.0
 11
39.0
 21
418.48
 31
0.0
  0
LINE
  5
24C
330
1E
100
AcDbEntity
  8
0
100
AcDbLine
 10
39.0
 20
419.54
 30
0.0
 11
39.0
 21
420.34
 31
0.0
  0
LINE
  5
24D
330
1E
100
AcDbEntity
  8
0
100
AcDbLine
 10
39.0
 20
418.48
 30
0.0
 11
39.0
 21
417.2799999999999
 31
0.0
  0
LINE
  5
24E
330
1E
100
AcDbEntity
  8
0
100
AcDbLine
 10
39.0
 20
418.48
 30
0.0
 11
39.0
 21
419.54
 31
0.0
  0
LINE
  5
24F
330
1E
100
AcDbEntity
  8
0
100
AcDbLine
 10
39.0
 20
417.2799999999999
 30
0.0
 11
39.0
 21
416.0
 31
0.0
  0
LINE
  5
250
330
1E
100
AcDbEntity
  8
0
100
AcDbLine
 10
39.0
 20
417.2799999999999
 30
0.0
 11
39.0
 21
418.48
 31
0.0
  0
LINE
  5
251
330
1E
100
AcDbEntity
  8
0
100
AcDbLine
 10
53.0
 20
111.0
 30
0.0
 11
53.0
 21
106.8929999999999
 31
0.0
  0
LINE
  5
252
330
1E
100
AcDbEntity
  8
0
100
AcDbLine
 10
53.0
 20
111.0
 30
0.0
 11
53.11209999999999
 21
111.0
 31
0.0
  0
LINE
  5
253
330
1E
100
AcDbEntity
  8
0
100
AcDbLine
 10
54.7911
 20
106.187
 30
0.0
 11
56.7266
 21
106.0899999999999
 31
0.0
  0
LINE
  5
255
330
1E
100
AcDbEntity
  8
0
100
AcDbLine
 10
54.45450000000001
 20
106.1339999999999
 30
0.0
 11
55.54549999999998
 21
106.0
 31
0.0
  0
LINE
  5
257
330
1E
100
AcDbEntity
  8
0
100
AcDbLine
 10
53.61209999999999
 20
106.4459999999999
 30
0.0
 11
54.7911
 21
106.187
 31
0.0
  0
LINE
  5
258
330
1E
100
AcDbEntity
  8
0
100
AcDbLine
 10
53.11209999999999
 20
111.0
 30
0.0
 11
53.61209999999999
 21
111.0
 31
0.0
  0
LINE
  5
259
330
1E
100
AcDbEntity
  8
0
100
AcDbLine
 10
53.11209999999999
 20
106.8929999999999
 30
0.0
 11
53.61209999999999
 21
106.4459999999999
 31
0.0
  0
LINE
  5
25A
330
1E
100
AcDbEntity
  8
0
100
AcDbLine
 10
53.61209999999999
 20
111.0
 30
0.0
 11
54.7911
 21
111.0
 31
0.0
  0
LINE
  5
25B
330
1E
100
AcDbEntity
  8
0
100
AcDbLine
 10
54.7911
 20
111.0
 30
0.0
 11
56.7266
 21
111.0
 31
0.0
  0
LINE
  5
25D
330
1E
100
AcDbEntity
  8
0
100
AcDbLine
 10
53.36359999999999
 20
106.4459999999999
 30
0.0
 11
54.45450000000001
 21
106.1339999999999
 31
0.0
  0
LINE
  5
25E
330
1E
100
AcDbEntity
  8
0
100
AcDbLine
 10
53.0
 20
106.8929999999999
 30
0.0
 11
53.0
 21
111.0
 31
0.0
  0
LINE
  5
25F
330
1E
100
AcDbEntity
  8
0
100
AcDbLine
 10
53.0
 20
106.8929999999999
 30
0.0
 11
53.36359999999999
 21
106.4459999999999
 31
0.0
  0
LINE
  5
260
330
1E
100
AcDbEntity
  8
0
100
AcDbLine
 10
53.0
 20
106.8929999999999
 30
0.0
 11
53.11209999999999
 21
106.8929999999999
 31
0.0
  0
LINE
  5
2E7
330
1E
100
AcDbEntity
  8
0
100
AcDbLine
 10
56.0545
 20
106.0
 30
0.0
 11
57.3636
 21
106.0
 31
0.0
  0
LINE
  5
2E9
330
1E
100
AcDbEntity
  8
0
100
AcDbLine
 10
55.0981
 20
106.0
 30
0.0
 11
55.5355
 21
106.0
 31
0.0
  0
LINE
  5
2EA
330
1E
100
AcDbEntity
  8
0
100
AcDbLine
 10
55.5355
 20
106.0
 30
0.0
 11
56.56719999999999
 21
106.0
 31
0.0
  0
LINE
  5
2EB
330
1E
100
AcDbEntity
  8
0
100
AcDbLine
 10
57.3636
 20
106.0
 30
0.0
 11
59.4728
 21
106.0
 31
0.0
  0
LINE
  5
2EC
330
1E
100
AcDbEntity
  8
0
100
AcDbLine
 10
59.4728
 20
106.0
 30
0.0
 11
61.1563
 21
106.0
 31
0.0
  0
LINE
  5
2ED
330
1E
100
AcDbEntity
  8
0
100
AcDbLine
 10
56.56719999999999
 20
106.0
 30
0.0
 11
58.26080000000001
 21
106.0
 31
0.0
  0
LINE
  5
2EE
330
1E
100
AcDbEntity
  8
0
100
AcDbLine
 10
58.26080000000001
 20
106.0
 30
0.0
 11
59.9636
 21
106.0
 31
0.0
  0
LINE
  5
2EF
330
1E
100
AcDbEntity
  8
0
100
AcDbLine
 10
61.5847
 20
106.0
 30
0.0
 11
61.9823
 21
106.0
 31
0.0
  0
LINE
  5
2F0
330
1E
100
AcDbEntity
  8
0
100
AcDbLine
 10
65.5091
 20
106.0
 30
0.0
 11
69.0
 21
106.0
 31
0.0
  0
LINE
  5
2F1
330
1E
100
AcDbEntity
  8
0
100
AcDbLine
 10
61.9823
 20
106.0
 30
0.0
 11
62.82119999999999
 21
106.0
 31
0.0
  0
LINE
  5
2F2
330
1E
100
AcDbEntity
  8
0
100
AcDbLine
 10
61.9823
 20
106.0
 30
0.0
 11
61.9823
 21
93.89299999999998
 31
0.0
  0
LINE
  5
2F3
330
1E
100
AcDbEntity
  8
0
100
AcDbLine
 10
62.82119999999999
 20
106.0
 30
0.0
 11
65.7927
 21
106.0
 31
0.0
  0
LINE
  5
2F4
330
1E
100
AcDbEntity
  8
0
100
AcDbLine
 10
62.82119999999999
 20
106.0
 30
0.0
 11
65.5091
 21
106.0
 31
0.0
  0
LINE
  5
2F5
330
1E
100
AcDbEntity
  8
0
100
AcDbLine
 10
65.7927
 20
106.0
 30
0.0
 11
69.0
 21
106.0
 31
0.0
  0
LINE
  5
2F6
330
1E
100
AcDbEntity
  8
0
100
AcDbLine
 10
69.0
 20
106.0
 30
0.0
 11
70.0
 21
106.0
 31
0.0
  0
LINE
  5
2F7
330
1E
100
AcDbEntity
  8
0
100
AcDbLine
 10
59.9636
 20
106.0
 30
0.0
 11
61.1563
 21
106.0
 31
0.0
  0
LINE
  5
2F8
330
1E
100
AcDbEntity
  8
0
100
AcDbLine
 10
56.7266
 20
111.0
 30
0.0
 11
58.6727
 21
111.0
 31
0.0
  0
LINE
  5
2F9
330
1E
100
AcDbEntity
  8
0
100
AcDbLine
 10
56.7266
 20
106.0899999999999
 30
0.0
 11
58.6727
 21
106.162
 31
0.0
  0
LINE
  5
2FC
330
1E
100
AcDbEntity
  8
0
100
AcDbLine
 10
58.6727
 20
111.0
 30
0.0
 11
60.03569999999999
 21
111.0
 31
0.0
  0
LINE
  5
2FD
330
1E
100
AcDbEntity
  8
0
100
AcDbLine
 10
58.6727
 20
106.162
 30
0.0
 11
60.03569999999999
 21
106.4459999999999
 31
0.0
  0
LINE
  5
2FE
330
1E
100
AcDbEntity
  8
0
100
AcDbLine
 10
60.03569999999999
 20
111.0
 30
0.0
 11
60.5253
 21
111.0
 31
0.0
  0
LINE
  5
2FF
330
1E
100
AcDbEntity
  8
0
100
AcDbLine
 10
61.21809999999999
 20
106.4459999999999
 30
0.0
 11
61.9386
 21
106.4459999999999
 31
0.0
  0
LINE
  5
302
330
1E
100
AcDbEntity
  8
0
100
AcDbLine
 10
60.5253
 20
111.0
 30
0.0
 11
60.9797
 21
111.0
 31
0.0
  0
LINE
  5
303
330
1E
100
AcDbEntity
  8
0
100
AcDbLine
 10
60.9797
 20
111.0
 30
0.0
 11
60.9797
 21
106.8929999999999
 31
0.0
  0
LINE
  5
304
330
1E
100
AcDbEntity
  8
0
100
AcDbLine
 10
60.9797
 20
111.0
 30
0.0
 11
61.9386
 21
111.0
 31
0.0
  0
LINE
  5
306
330
1E
100
AcDbEntity
  8
0
100
AcDbLine
 10
60.9797
 20
106.8929999999999
 30
0.0
 11
60.9797
 21
111.0
 31
0.0
  0
LINE
  5
308
330
1E
100
AcDbEntity
  8
0
100
AcDbLine
 10
61.9386
 20
111.0
 30
0.0
 11
65.33450000000001
 21
111.0
 31
0.0
  0
LINE
  5
309
330
1E
100
AcDbEntity
  8
0
100
AcDbLine
 10
61.9386
 20
106.4459999999999
 30
0.0
 11
65.33450000000001
 21
106.1069999999999
 31
0.0
  0
LINE
  5
30A
330
1E
100
AcDbEntity
  8
0
100
AcDbLine
 10
65.33450000000001
 20
111.0
 30
0.0
 11
68.0
 21
111.0
 31
0.0
  0
LINE
  5
30B
330
1E
100
AcDbEntity
  8
0
100
AcDbLine
 10
65.33450000000001
 20
106.1069999999999
 30
0.0
 11
69.0
 21
106.045
 31
0.0
  0
LINE
  5
30E
330
1E
100
AcDbEntity
  8
0
100
AcDbLine
 10
60.03569999999999
 20
106.4459999999999
 30
0.0
 11
61.21809999999999
 21
106.4459999999999
 31
0.0
  0
LINE
  5
4C7
330
1E
100
AcDbEntity
  8
0
100
AcDbLine
 10
68.0
 20
111.0
 30
0.0
 11
68.0
 21
106.8929999999999
 31
0.0
  0
LINE
  5
4C8
330
1E
100
AcDbEntity
  8
0
100
AcDbLine
 10
68.0
 20
111.0
 30
0.0
 11
68.11209999999999
 21
111.0
 31
0.0
  0
LINE
  5
4C9
330
1E
100
AcDbEntity
  8
0
100
AcDbLine
 10
69.0
 20
106.045
 30
0.0
 11
70.0363934136097
 21
106.0625300481909
 31
0.0
  0
LINE
  5
4CA
330
1E
100
AcDbEntity
  8
0
100
AcDbLine
 10
69.7912
 20
106.187
 30
0.0
 11
71.7266
 21
106.0899999999999
 31
0.0
  0
LINE
  5
4CC
330
1E
100
AcDbEntity
  8
0
100
AcDbLine
 10
69.4545
 20
106.1339999999999
 30
0.0
 11
70.5455
 21
106.0
 31
0.0
  0
LINE
  5
4CE
330
1E
100
AcDbEntity
  8
0
100
AcDbLine
 10
68.61209999999998
 20
106.4459999999999
 30
0.0
 11
69.7912
 21
106.187
 31
0.0
  0
LINE
  5
4CF
330
1E
100
AcDbEntity
  8
0
100
AcDbLine
 10
68.11209999999999
 20
111.0
 30
0.0
 11
68.61209999999998
 21
111.0
 31
0.0
  0
LINE
  5
4D0
330
1E
100
AcDbEntity
  8
0
100
AcDbLine
 10
68.11209999999999
 20
106.8929999999999
 30
0.0
 11
68.61209999999998
 21
106.4459999999999
 31
0.0
  0
LINE
  5
4D1
330
1E
100
AcDbEntity
  8
0
100
AcDbLine
 10
68.61209999999998
 20
111.0
 30
0.0
 11
69.7912
 21
111.0
 31
0.0
  0
LINE
  5
4D2
330
1E
100
AcDbEntity
  8
0
100
AcDbLine
 10
69.7912
 20
111.0
 30
0.0
 11
71.7266
 21
111.0
 31
0.0
  0
LINE
  5
4D4
330
1E
100
AcDbEntity
  8
0
100
AcDbLine
 10
68.3636
 20
106.4459999999999
 30
0.0
 11
69.4545
 21
106.1339999999999
 31
0.0
  0
LINE
  5
4D5
330
1E
100
AcDbEntity
  8
0
100
AcDbLine
 10
68.0
 20
106.8929999999999
 30
0.0
 11
68.0
 21
111.0
 31
0.0
  0
LINE
  5
4D6
330
1E
100
AcDbEntity
  8
0
100
AcDbLine
 10
68.0
 20
106.8929999999999
 30
0.0
 11
68.3636
 21
106.4459999999999
 31
0.0
  0
LINE
  5
4D7
330
1E
100
AcDbEntity
  8
0
100
AcDbLine
 10
68.0
 20
106.8929999999999
 30
0.0
 11
68.11209999999999
 21
106.8929999999999
 31
0.0
  0
LINE
  5
4D8
330
1E
100
AcDbEntity
  8
0
100
AcDbLine
 10
61.1563
 20
106.0
 30
0.0
 11
61.5847
 21
106.0
 31
0.0
  0
LINE
  5
4D9
330
1E
100
AcDbEntity
  8
0
100
AcDbLine
 10
55.0
 20
106.0
 30
0.0
 11
55.0
 21
93.89299999999998
 31
0.0
  0
LINE
  5
4DA
330
1E
100
AcDbEntity
  8
0
100
AcDbLine
 10
55.0
 20
106.0
 30
0.0
 11
55.0981
 21
106.0
 31
0.0
  0
LINE
  5
4DB
330
1E
100
AcDbEntity
  8
0
100
AcDbLine
 10
70.0
 20
93.89299999999998
 30
0.0
 11
70.3182
 21
93.44599999999998
 31
0.0
  0
LINE
  5
4DC
330
1E
100
AcDbEntity
  8
0
100
AcDbLine
 10
70.0
 20
93.89299999999998
 30
0.0
 11
70.0981
 21
93.89299999999998
 31
0.0
  0
LINE
  5
4DD
330
1E
100
AcDbEntity
  8
0
100
AcDbLine
 10
70.0
 20
93.89299999999998
 30
0.0
 11
70.0
 21
106.0
 31
0.0
  0
LINE
  5
4DF
330
1E
100
AcDbEntity
  8
0
100
AcDbLine
 10
70.3182
 20
93.44599999999998
 30
0.0
 11
71.2726999999999
 21
93.13399999999999
 31
0.0
  0
LINE
  5
4E0
330
1E
100
AcDbEntity
  8
0
100
AcDbLine
 10
70.0981
 20
93.89299999999998
 30
0.0
 11
70.5356
 21
93.44599999999998
 31
0.0
  0
LINE
  5
4E1
330
1E
100
AcDbEntity
  8
0
100
AcDbLine
 10
70.0981
 20
106.0
 30
0.0
 11
70.5356
 21
106.0
 31
0.0
  0
LINE
  5
4E2
330
1E
100
AcDbEntity
  8
0
100
AcDbLine
 10
70.5356
 20
106.0
 30
0.0
 11
71.5673
 21
106.0
 31
0.0
  0
LINE
  5
4E4
330
1E
100
AcDbEntity
  8
0
100
AcDbLine
 10
70.5356
 20
93.44599999999998
 30
0.0
 11
71.5673
 21
93.18700000000001
 31
0.0
  0
LINE
  5
4E5
330
1E
100
AcDbEntity
  8
0
100
AcDbLine
 10
70.0
 20
106.0
 30
0.0
 11
70.0
 21
93.89299999999998
 31
0.0
  0
LINE
  5
4E6
330
1E
100
AcDbEntity
  8
0
100
AcDbLine
 10
70.0
 20
106.0
 30
0.0
 11
70.0981
 21
106.0
 31
0.0
  0
LINE
  5
69B
330
1E
100
AcDbEntity
  8
0
100
AcDbLine
 10
71.816
 20
93.0
 30
0.0
 11
73.0
 21
93.0
 31
0.0
  0
LINE
  5
69C
330
1E
100
AcDbEntity
  8
0
100
AcDbLine
 10
72.2273
 20
93.0
 30
0.0
 11
72.67269999999991
 21
93.0
 31
0.0
  0
LINE
  5
69D
330
1E
100
AcDbEntity
  8
0
100
AcDbLine
 10
72.67269999999991
 20
93.0
 30
0.0
 11
73.0
 21
93.0
 31
0.0
  0
LINE
  5
69E
330
1E
100
AcDbEntity
  8
0
100
AcDbLine
 10
72.67269999999991
 20
93.0
 30
0.0
 11
73.81820000000001
 21
93.0
 31
0.0
  0
LINE
  5
6A0
330
1E
100
AcDbEntity
  8
0
100
AcDbLine
 10
81.18399999999999
 20
93.0
 30
0.0
 11
84.0
 21
93.0
 31
0.0
  0
LINE
  5
6A1
330
1E
100
AcDbEntity
  8
0
100
AcDbLine
 10
78.544
 20
93.0
 30
0.0
 11
81.18399999999999
 21
93.0
 31
0.0
  0
LINE
  5
6A2
330
1E
100
AcDbEntity
  8
0
100
AcDbLine
 10
76.212
 20
93.0
 30
0.0
 11
78.544
 21
93.0
 31
0.0
  0
LINE
  5
6A3
330
1E
100
AcDbEntity
  8
0
100
AcDbLine
 10
74.45199999999998
 20
93.0
 30
0.0
 11
76.212
 21
93.0
 31
0.0
  0
LINE
  5
6A4
330
1E
100
AcDbEntity
  8
0
100
AcDbLine
 10
73.396
 20
93.0
 30
0.0
 11
74.45199999999998
 21
93.0
 31
0.0
  0
LINE
  5
6A5
330
1E
100
AcDbEntity
  8
0
100
AcDbLine
 10
73.0
 20
93.0
 30
0.0
 11
73.396
 21
93.0
 31
0.0
  0
LINE
  5
6A7
330
1E
100
AcDbEntity
  8
0
100
AcDbLine
 10
84.0
 20
93.0
 30
0.0
 11
86.81600000000001
 21
93.0
 31
0.0
  0
LINE
  5
6A8
330
1E
100
AcDbEntity
  8
0
100
AcDbLine
 10
86.81600000000001
 20
93.0
 30
0.0
 11
89.456
 21
93.0
 31
0.0
  0
LINE
  5
6A9
330
1E
100
AcDbEntity
  8
0
100
AcDbLine
 10
89.456
 20
93.0
 30
0.0
 11
91.788
 21
93.0
 31
0.0
  0
LINE
  5
6AA
330
1E
100
AcDbEntity
  8
0
100
AcDbLine
 10
91.788
 20
93.0
 30
0.0
 11
93.54799999999999
 21
93.0
 31
0.0
  0
LINE
  5
6AB
330
1E
100
AcDbEntity
  8
0
100
AcDbLine
 10
93.54799999999999
 20
93.0
 30
0.0
 11
94.60399999999998
 21
93.0
 31
0.0
  0
LINE
  5
6AC
330
1E
100
AcDbEntity
  8
0
100
AcDbLine
 10
71.05450000000001
 20
106.0
 30
0.0
 11
72.36360000000001
 21
106.0
 31
0.0
  0
LINE
  5
6AE
330
1E
100
AcDbEntity
  8
0
100
AcDbLine
 10
72.36360000000001
 20
106.0
 30
0.0
 11
74.4726999999999
 21
106.0
 31
0.0
  0
LINE
  5
6AF
330
1E
100
AcDbEntity
  8
0
100
AcDbLine
 10
71.5673
 20
93.18700000000001
 30
0.0
 11
73.26080000000001
 21
93.0899999999999
 31
0.0
  0
LINE
  5
6B1
330
1E
100
AcDbEntity
  8
0
100
AcDbLine
 10
71.5673
 20
106.0
 30
0.0
 11
73.26080000000001
 21
106.0
 31
0.0
  0
LINE
  5
6B2
330
1E
100
AcDbEntity
  8
0
100
AcDbLine
 10
74.4726999999999
 20
106.0
 30
0.0
 11
76.1562999999999
 21
106.0
 31
0.0
  0
LINE
  5
6B3
330
1E
100
AcDbEntity
  8
0
100
AcDbLine
 10
73.26080000000001
 20
93.0899999999999
 30
0.0
 11
74.9637
 21
93.16199999999991
 31
0.0
  0
LINE
  5
6B6
330
1E
100
AcDbEntity
  8
0
100
AcDbLine
 10
73.26080000000001
 20
106.0
 30
0.0
 11
74.9637
 21
106.0
 31
0.0
  0
LINE
  5
6B7
330
1E
100
AcDbEntity
  8
0
100
AcDbLine
 10
74.9637
 20
93.16199999999991
 30
0.0
 11
76.1562999999999
 21
93.44599999999998
 31
0.0
  0
LINE
  5
6B8
330
1E
100
AcDbEntity
  8
0
100
AcDbLine
 10
74.9637
 20
106.0
 30
0.0
 11
76.1562999999999
 21
106.0
 31
0.0
  0
LINE
  5
6B9
330
1E
100
AcDbEntity
  8
0
100
AcDbLine
 10
77.1909
 20
93.44599999999998
 30
0.0
 11
77.8212
 21
93.44599999999998
 31
0.0
  0
LINE
  5
6BB
330
1E
100
AcDbEntity
  8
0
100
AcDbLine
 10
77.8212
 20
93.44599999999998
 30
0.0
 11
80.79269999999999
 21
93.10699999999988
 31
0.0
  0
LINE
  5
6BC
330
1E
100
AcDbEntity
  8
0
100
AcDbLine
 10
80.79269999999999
 20
93.10699999999988
 30
0.0
 11
84.0
 21
93.045
 31
0.0
  0
LINE
  5
6BD
330
1E
100
AcDbEntity
  8
0
100
AcDbLine
 10
84.0
 20
93.045
 30
0.0
 11
87.20730000000001
 21
93.10699999999988
 31
0.0
  0
LINE
  5
6BE
330
1E
100
AcDbEntity
  8
0
100
AcDbLine
 10
90.80910000000001
 20
93.44599999999998
 30
0.0
 11
91.8438
 21
93.44599999999998
 31
0.0
  0
LINE
  5
6C1
330
1E
100
AcDbEntity
  8
0
100
AcDbLine
 10
87.20730000000001
 20
93.10699999999988
 30
0.0
 11
90.17879999999991
 21
93.44599999999998
 31
0.0
  0
LINE
  5
6C2
330
1E
100
AcDbEntity
  8
0
100
AcDbLine
 10
76.5847
 20
106.0
 30
0.0
 11
76.98229999999999
 21
106.0
 31
0.0
  0
LINE
  5
6C3
330
1E
100
AcDbEntity
  8
0
100
AcDbLine
 10
76.98229999999999
 20
93.89299999999998
 30
0.0
 11
76.98229999999999
 21
106.0
 31
0.0
  0
LINE
  5
6C5
330
1E
100
AcDbEntity
  8
0
100
AcDbLine
 10
76.98229999999999
 20
106.0
 30
0.0
 11
77.8212
 21
106.0
 31
0.0
  0
LINE
  5
6C6
330
1E
100
AcDbEntity
  8
0
100
AcDbLine
 10
76.98229999999999
 20
106.0
 30
0.0
 11
76.98229999999999
 21
93.89299999999998
 31
0.0
  0
LINE
  5
6C7
330
1E
100
AcDbEntity
  8
0
100
AcDbLine
 10
80.5091
 20
106.0
 30
0.0
 11
84.0
 21
106.0
 31
0.0
  0
LINE
  5
6C8
330
1E
100
AcDbEntity
  8
0
100
AcDbLine
 10
77.8212
 20
106.0
 30
0.0
 11
80.79269999999999
 21
106.0
 31
0.0
  0
LINE
  5
6C9
330
1E
100
AcDbEntity
  8
0
100
AcDbLine
 10
77.8212
 20
106.0
 30
0.0
 11
80.5091
 21
106.0
 31
0.0
  0
LINE
  5
6CA
330
1E
100
AcDbEntity
  8
0
100
AcDbLine
 10
80.79269999999999
 20
106.0
 30
0.0
 11
84.0
 21
106.0
 31
0.0
  0
LINE
  5
6CB
330
1E
100
AcDbEntity
  8
0
100
AcDbLine
 10
87.4909
 20
106.0
 30
0.0
 11
90.17879999999991
 21
106.0
 31
0.0
  0
LINE
  5
6CC
330
1E
100
AcDbEntity
  8
0
100
AcDbLine
 10
91.0177
 20
93.89299999999998
 30
0.0
 11
91.0177
 21
106.0
 31
0.0
  0
LINE
  5
6CD
330
1E
100
AcDbEntity
  8
0
100
AcDbLine
 10
91.0177
 20
106.0
 30
0.0
 11
91.0177
 21
93.89299999999998
 31
0.0
  0
LINE
  5
6CE
330
1E
100
AcDbEntity
  8
0
100
AcDbLine
 10
91.0177
 20
106.0
 30
0.0
 11
91.41530000000001
 21
106.0
 31
0.0
  0
LINE
  5
6CF
330
1E
100
AcDbEntity
  8
0
100
AcDbLine
 10
90.17879999999991
 20
106.0
 30
0.0
 11
91.0177
 21
106.0
 31
0.0
  0
LINE
  5
6D0
330
1E
100
AcDbEntity
  8
0
100
AcDbLine
 10
87.20730000000001
 20
106.0
 30
0.0
 11
90.17879999999991
 21
106.0
 31
0.0
  0
LINE
  5
6D1
330
1E
100
AcDbEntity
  8
0
100
AcDbLine
 10
84.0
 20
106.0
 30
0.0
 11
87.20730000000001
 21
106.0
 31
0.0
  0
LINE
  5
6D2
330
1E
100
AcDbEntity
  8
0
100
AcDbLine
 10
84.0
 20
106.0
 30
0.0
 11
87.4909
 21
106.0
 31
0.0
  0
LINE
  5
6D3
330
1E
100
AcDbEntity
  8
0
100
AcDbLine
 10
90.17879999999991
 20
93.44599999999998
 30
0.0
 11
90.80910000000001
 21
93.44599999999998
 31
0.0
  0
LINE
  5
6D7
330
1E
100
AcDbEntity
  8
0
100
AcDbLine
 10
76.1562999999999
 20
93.44599999999998
 30
0.0
 11
77.1909
 21
93.44599999999998
 31
0.0
  0
LINE
  5
6D8
330
1E
100
AcDbEntity
  8
0
100
AcDbLine
 10
76.1562999999999
 20
106.0
 30
0.0
 11
76.5847
 21
106.0
 31
0.0
  0
LINE
  5
6D9
330
1E
100
AcDbEntity
  8
0
100
AcDbLine
 10
93.52729999999999
 20
106.0
 30
0.0
 11
95.63639999999999
 21
106.0
 31
0.0
  0
LINE
  5
6DA
330
1E
100
AcDbEntity
  8
0
100
AcDbLine
 10
94.73919999999999
 20
93.0899999999999
 30
0.0
 11
96.4328
 21
93.18700000000001
 31
0.0
  0
LINE
  5
6DC
330
1E
100
AcDbEntity
  8
0
100
AcDbLine
 10
94.73919999999999
 20
106.0
 30
0.0
 11
96.4328
 21
106.0
 31
0.0
  0
LINE
  5
6DD
330
1E
100
AcDbEntity
  8
0
100
AcDbLine
 10
93.03639999999999
 20
93.16199999999991
 30
0.0
 11
94.73919999999999
 21
93.0899999999999
 31
0.0
  0
LINE
  5
6DE
330
1E
100
AcDbEntity
  8
0
100
AcDbLine
 10
93.03639999999999
 20
106.0
 30
0.0
 11
94.73919999999999
 21
106.0
 31
0.0
  0
LINE
  5
6DF
330
1E
100
AcDbEntity
  8
0
100
AcDbLine
 10
91.8438
 20
93.44599999999998
 30
0.0
 11
93.03639999999999
 21
93.16199999999991
 31
0.0
  0
LINE
  5
6E0
330
1E
100
AcDbEntity
  8
0
100
AcDbLine
 10
91.8438
 20
106.0
 30
0.0
 11
93.03639999999999
 21
106.0
 31
0.0
  0
LINE
  5
6E1
330
1E
100
AcDbEntity
  8
0
100
AcDbLine
 10
91.8438
 20
106.0
 30
0.0
 11
93.52729999999999
 21
106.0
 31
0.0
  0
LINE
  5
6E3
330
1E
100
AcDbEntity
  8
0
100
AcDbLine
 10
71.7266
 20
111.0
 30
0.0
 11
73.67279999999991
 21
111.0
 31
0.0
  0
LINE
  5
6E4
330
1E
100
AcDbEntity
  8
0
100
AcDbLine
 10
71.7266
 20
106.0899999999999
 30
0.0
 11
73.67279999999991
 21
106.162
 31
0.0
  0
LINE
  5
6E7
330
1E
100
AcDbEntity
  8
0
100
AcDbLine
 10
73.67279999999991
 20
111.0
 30
0.0
 11
75.0356999999999
 21
111.0
 31
0.0
  0
LINE
  5
6E8
330
1E
100
AcDbEntity
  8
0
100
AcDbLine
 10
73.67279999999991
 20
106.162
 30
0.0
 11
75.0356999999999
 21
106.4459999999999
 31
0.0
  0
LINE
  5
6E9
330
1E
100
AcDbEntity
  8
0
100
AcDbLine
 10
75.0356999999999
 20
111.0
 30
0.0
 11
75.5253
 21
111.0
 31
0.0
  0
LINE
  5
6EA
330
1E
100
AcDbEntity
  8
0
100
AcDbLine
 10
80.3345
 20
106.1069999999999
 30
0.0
 11
84.0
 21
106.045
 31
0.0
  0
LINE
  5
6EB
330
1E
100
AcDbEntity
  8
0
100
AcDbLine
 10
84.0
 20
106.045
 30
0.0
 11
87.6655
 21
106.1069999999999
 31
0.0
  0
LINE
  5
6EC
330
1E
100
AcDbEntity
  8
0
100
AcDbLine
 10
75.5253
 20
111.0
 30
0.0
 11
75.9797
 21
111.0
 31
0.0
  0
LINE
  5
6EE
330
1E
100
AcDbEntity
  8
0
100
AcDbLine
 10
75.9797
 20
111.0
 30
0.0
 11
75.9797
 21
106.8929999999999
 31
0.0
  0
LINE
  5
6EF
330
1E
100
AcDbEntity
  8
0
100
AcDbLine
 10
75.9797
 20
111.0
 30
0.0
 11
76.93859999999999
 21
111.0
 31
0.0
  0
LINE
  5
6F0
330
1E
100
AcDbEntity
  8
0
100
AcDbLine
 10
76.2181
 20
106.4459999999999
 30
0.0
 11
76.93859999999999
 21
106.4459999999999
 31
0.0
  0
LINE
  5
6F3
330
1E
100
AcDbEntity
  8
0
100
AcDbLine
 10
75.9797
 20
106.8929999999999
 30
0.0
 11
75.9797
 21
111.0
 31
0.0
  0
LINE
  5
6F5
330
1E
100
AcDbEntity
  8
0
100
AcDbLine
 10
76.93859999999999
 20
111.0
 30
0.0
 11
80.3345
 21
111.0
 31
0.0
  0
LINE
  5
6F6
330
1E
100
AcDbEntity
  8
0
100
AcDbLine
 10
76.93859999999999
 20
106.4459999999999
 30
0.0
 11
80.3345
 21
106.1069999999999
 31
0.0
  0
LINE
  5
6F7
330
1E
100
AcDbEntity
  8
0
100
AcDbLine
 10
80.3345
 20
111.0
 30
0.0
 11
84.0
 21
111.0
 31
0.0
  0
LINE
  5
6F8
330
1E
100
AcDbEntity
  8
0
100
AcDbLine
 10
91.06149999999999
 20
111.0
 30
0.0
 11
92.0202
 21
111.0
 31
0.0
  0
LINE
  5
6F9
330
1E
100
AcDbEntity
  8
0
100
AcDbLine
 10
87.6655
 20
111.0
 30
0.0
 11
91.06149999999999
 21
111.0
 31
0.0
  0
LINE
  5
6FA
330
1E
100
AcDbEntity
  8
0
100
AcDbLine
 10
84.0
 20
111.0
 30
0.0
 11
87.6655
 21
111.0
 31
0.0
  0
LINE
  5
6FB
330
1E
100
AcDbEntity
  8
0
100
AcDbLine
 10
91.78180000000001
 20
106.4459999999999
 30
0.0
 11
92.96429999999999
 21
106.4459999999999
 31
0.0
  0
LINE
  5
6FC
330
1E
100
AcDbEntity
  8
0
100
AcDbLine
 10
92.0202
 20
111.0
 30
0.0
 11
92.0202
 21
106.8929999999999
 31
0.0
  0
LINE
  5
6FD
330
1E
100
AcDbEntity
  8
0
100
AcDbLine
 10
92.0202
 20
111.0
 30
0.0
 11
92.4746
 21
111.0
 31
0.0
  0
LINE
  5
6FE
330
1E
100
AcDbEntity
  8
0
100
AcDbLine
 10
92.0202
 20
106.8929999999999
 30
0.0
 11
92.0202
 21
111.0
 31
0.0
  0
LINE
  5
702
330
1E
100
AcDbEntity
  8
0
100
AcDbLine
 10
91.06149999999999
 20
106.4459999999999
 30
0.0
 11
91.78180000000001
 21
106.4459999999999
 31
0.0
  0
LINE
  5
704
330
1E
100
AcDbEntity
  8
0
100
AcDbLine
 10
87.6655
 20
106.1069999999999
 30
0.0
 11
91.06149999999999
 21
106.4459999999999
 31
0.0
  0
LINE
  5
707
330
1E
100
AcDbEntity
  8
0
100
AcDbLine
 10
75.0356999999999
 20
106.4459999999999
 30
0.0
 11
76.2181
 21
106.4459999999999
 31
0.0
  0
LINE
  5
718
330
1E
100
AcDbEntity
  8
0
100
AcDbLine
 10
88.0981
 20
222.6939999999999
 30
0.0
 11
88.53559999999999
 21
223.483
 31
0.0
  0
LINE
  5
719
330
1E
100
AcDbEntity
  8
0
100
AcDbLine
 10
88.0
 20
222.0
 30
0.0
 11
88.0981
 21
221.306
 31
0.0
  0
LINE
  5
71A
330
1E
100
AcDbEntity
  8
0
100
AcDbLine
 10
88.0
 20
222.0
 30
0.0
 11
88.0981
 21
222.6939999999999
 31
0.0
  0
LINE
  5
71D
330
1E
100
AcDbEntity
  8
0
100
AcDbLine
 10
88.53559999999999
 20
223.483
 30
0.0
 11
89.5673
 21
225.2639999999999
 31
0.0
  0
LINE
  5
71F
330
1E
100
AcDbEntity
  8
0
100
AcDbLine
 10
89.5673
 20
225.2639999999999
 30
0.0
 11
91.26079999999999
 21
228.108
 31
0.0
  0
LINE
  5
724
330
1E
100
AcDbEntity
  8
0
100
AcDbLine
 10
88.0981
 20
221.306
 30
0.0
 11
88.53559999999999
 21
220.5169999999998
 31
0.0
  0
LINE
  5
725
330
1E
100
AcDbEntity
  8
0
100
AcDbLine
 10
88.53559999999999
 20
220.5169999999998
 30
0.0
 11
89.5673
 21
218.7359999999999
 31
0.0
  0
LINE
  5
727
330
1E
100
AcDbEntity
  8
0
100
AcDbLine
 10
91.26079999999999
 20
215.892
 30
0.0
 11
92.96370000000001
 21
213.032
 31
0.0
  0
LINE
  5
728
330
1E
100
AcDbEntity
  8
0
100
AcDbLine
 10
92.1471
 20
222.0
 30
0.0
 11
92.5
 21
219.4709999999998
 31
0.0
  0
LINE
  5
729
330
1E
100
AcDbEntity
  8
0
100
AcDbLine
 10
92.1471
 20
222.0
 30
0.0
 11
92.5
 21
224.529
 31
0.0
  0
LINE
  5
731
330
1E
100
AcDbEntity
  8
0
100
AcDbLine
 10
91.26079999999999
 20
228.108
 30
0.0
 11
92.96370000000001
 21
230.9689999999999
 31
0.0
  0
LINE
  5
73B
330
1E
100
AcDbEntity
  8
0
100
AcDbLine
 10
89.5673
 20
218.7359999999999
 30
0.0
 11
91.26079999999999
 21
215.892
 31
0.0
  0
LINE
  5
73D
330
1E
100
AcDbEntity
  8
0
100
AcDbLine
 10
92.4746
 20
111.0
 30
0.0
 11
92.96429999999999
 21
111.0
 31
0.0
  0
LINE
  5
73E
330
1E
100
AcDbEntity
  8
0
100
AcDbLine
 10
94.32729999999999
 20
106.162
 30
0.0
 11
96.2734
 21
106.0899999999999
 31
0.0
  0
LINE
  5
73F
330
1E
100
AcDbEntity
  8
0
100
AcDbLine
 10
92.5
 20
224.529
 30
0.0
 11
93.4706
 21
226.912
 31
0.0
  0
LINE
  5
740
330
1E
100
AcDbEntity
  8
0
100
AcDbLine
 10
92.5
 20
219.4709999999998
 30
0.0
 11
93.4706
 21
217.0879999999999
 31
0.0
  0
LINE
  5
741
330
1E
100
AcDbEntity
  8
0
100
AcDbLine
 10
92.96370000000001
 20
230.9689999999999
 30
0.0
 11
94.1563
 21
232.9709999999999
 31
0.0
  0
LINE
  5
742
330
1E
100
AcDbEntity
  8
0
100
AcDbLine
 10
92.96370000000001
 20
213.032
 30
0.0
 11
94.1563
 21
211.0289999999999
 31
0.0
  0
LINE
  5
743
330
1E
100
AcDbEntity
  8
0
100
AcDbLine
 10
94.5847
 20
210.3089999999999
 30
0.0
 11
94.98229999999999
 21
210.0
 31
0.0
  0
LINE
  5
744
330
1E
100
AcDbEntity
  8
0
100
AcDbLine
 10
94.1563
 20
211.0289999999999
 30
0.0
 11
94.5847
 21
210.3089999999999
 31
0.0
  0
LINE
  5
749
330
1E
100
AcDbEntity
  8
0
100
AcDbLine
 10
93.4706
 20
217.0879999999999
 30
0.0
 11
95.0294
 21
215.029
 31
0.0
  0
LINE
  5
74B
330
1E
100
AcDbEntity
  8
0
100
AcDbLine
 10
93.4706
 20
226.912
 30
0.0
 11
95.0294
 21
228.9709999999999
 31
0.0
  0
LINE
  5
74F
330
1E
100
AcDbEntity
  8
0
100
AcDbLine
 10
94.5847
 20
233.6909999999999
 30
0.0
 11
94.98229999999999
 21
234.0
 31
0.0
  0
LINE
  5
751
330
1E
100
AcDbEntity
  8
0
100
AcDbLine
 10
94.98229999999999
 20
234.0
 30
0.0
 11
95.82120000000001
 21
234.0
 31
0.0
  0
LINE
  5
752
330
1E
100
AcDbEntity
  8
0
100
AcDbLine
 10
94.1563
 20
232.9709999999999
 30
0.0
 11
94.5847
 21
233.6909999999999
 31
0.0
  0
LINE
  5
756
330
1E
100
AcDbEntity
  8
0
100
AcDbLine
 10
94.98229999999999
 20
210.0
 30
0.0
 11
95.82120000000001
 21
210.0
 31
0.0
  0
LINE
  5
757
330
1E
100
AcDbEntity
  8
0
100
AcDbLine
 10
94.32729999999999
 20
111.0
 30
0.0
 11
96.2734
 21
111.0
 31
0.0
  0
LINE
  5
758
330
1E
100
AcDbEntity
  8
0
100
AcDbLine
 10
92.96429999999999
 20
111.0
 30
0.0
 11
94.32729999999999
 21
111.0
 31
0.0
  0
LINE
  5
759
330
1E
100
AcDbEntity
  8
0
100
AcDbLine
 10
92.96429999999999
 20
106.4459999999999
 30
0.0
 11
94.32729999999999
 21
106.162
 31
0.0
  0
LINE
  5
75B
330
1E
100
AcDbEntity
  8
0
100
AcDbLine
 10
91.41530000000001
 20
106.0
 30
0.0
 11
91.8438
 21
106.0
 31
0.0
  0
LINE
  5
75D
330
1E
100
AcDbEntity
  8
0
100
AcDbLine
 10
94.60399999999998
 20
93.0
 30
0.0
 11
95.0
 21
93.0
 31
0.0
  0
LINE
  5
75E
330
1E
100
AcDbEntity
  8
0
100
AcDbLine
 10
95.77269999999989
 20
93.0
 30
0.0
 11
96.72730000000001
 21
93.13399999999999
 31
0.0
  0
LINE
  5
75F
330
1E
100
AcDbEntity
  8
0
100
AcDbLine
 10
95.63639999999999
 20
106.0
 30
0.0
 11
96.94549999999999
 21
106.0
 31
0.0
  0
LINE
  5
760
330
1E
100
AcDbEntity
  8
0
100
AcDbLine
 10
95.0294
 20
228.9709999999999
 30
0.0
 11
97.08820000000002
 21
230.5289999999999
 31
0.0
  0
LINE
  5
761
330
1E
100
AcDbEntity
  8
0
100
AcDbLine
 10
95.0294
 20
215.029
 30
0.0
 11
97.08820000000002
 21
213.4709999999998
 31
0.0
  0
LINE
  5
764
330
1E
100
AcDbEntity
  8
0
100
AcDbLine
 10
95.82120000000001
 20
234.0
 30
0.0
 11
98.79269999999999
 21
234.0
 31
0.0
  0
LINE
  5
768
330
1E
100
AcDbEntity
  8
0
100
AcDbLine
 10
95.82120000000001
 20
210.0
 30
0.0
 11
98.79269999999999
 21
210.0
 31
0.0
  0
LINE
  5
769
330
1E
100
AcDbEntity
  8
0
100
AcDbLine
 10
96.2734
 20
111.0
 30
0.0
 11
98.2089
 21
111.0
 31
0.0
  0
LINE
  5
76A
330
1E
100
AcDbEntity
  8
0
100
AcDbLine
 10
96.2734
 20
106.0899999999999
 30
0.0
 11
98.2089
 21
106.187
 31
0.0
  0
LINE
  5
76C
330
1E
100
AcDbEntity
  8
0
100
AcDbLine
 10
96.4328
 20
106.0
 30
0.0
 11
97.46439999999999
 21
106.0
 31
0.0
  0
LINE
  5
76F
330
1E
100
AcDbEntity
  8
0
100
AcDbLine
 10
96.72730000000001
 20
93.13399999999999
 30
0.0
 11
97.6818
 21
93.44599999999998
 31
0.0
  0
LINE
  5
771
330
1E
100
AcDbEntity
  8
0
100
AcDbLine
 10
96.4328
 20
93.18700000000001
 30
0.0
 11
97.46439999999999
 21
93.44599999999998
 31
0.0
  0
LINE
  5
772
330
1E
100
AcDbEntity
  8
0
100
AcDbLine
 10
95.32729999999999
 20
93.0
 30
0.0
 11
95.77269999999989
 21
93.0
 31
0.0
  0
LINE
  5
775
330
1E
100
AcDbEntity
  8
0
100
AcDbLine
 10
95.0
 20
93.0
 30
0.0
 11
95.32729999999999
 21
93.0
 31
0.0
  0
LINE
  5
777
330
1E
100
AcDbEntity
  8
0
100
AcDbLine
 10
97.6818
 20
93.44599999999998
 30
0.0
 11
98.0
 21
93.89299999999998
 31
0.0
  0
LINE
  5
77A
330
1E
100
AcDbEntity
  8
0
100
AcDbLine
 10
97.08820000000002
 20
230.5289999999999
 30
0.0
 11
99.4706
 21
231.4999999999999
 31
0.0
  0
LINE
  5
77B
330
1E
100
AcDbEntity
  8
0
100
AcDbLine
 10
97.08820000000002
 20
213.4709999999998
 30
0.0
 11
99.4706
 21
212.5
 31
0.0
  0
LINE
  5
77D
330
1E
100
AcDbEntity
  8
0
100
AcDbLine
 10
97.45449999999999
 20
106.0
 30
0.0
 11
98.54550000000001
 21
106.1339999999999
 31
0.0
  0
LINE
  5
77E
330
1E
100
AcDbEntity
  8
0
100
AcDbLine
 10
97.9019
 20
106.0
 30
0.0
 11
98.0
 21
106.0
 31
0.0
  0
LINE
  5
77F
330
1E
100
AcDbEntity
  8
0
100
AcDbLine
 10
98.0
 20
106.0
 30
0.0
 11
98.0
 21
93.89299999999998
 31
0.0
  0
LINE
  5
780
330
1E
100
AcDbEntity
  8
0
100
AcDbLine
 10
97.46439999999999
 20
106.0
 30
0.0
 11
97.9019
 21
106.0
 31
0.0
  0
LINE
  5
781
330
1E
100
AcDbEntity
  8
0
100
AcDbLine
 10
97.9019
 20
93.89299999999998
 30
0.0
 11
98.0
 21
93.89299999999998
 31
0.0
  0
LINE
  5
783
330
1E
100
AcDbEntity
  8
0
100
AcDbLine
 10
98.54550000000001
 20
106.1339999999999
 30
0.0
 11
99.63639999999999
 21
106.4459999999999
 31
0.0
  0
LINE
  5
784
330
1E
100
AcDbEntity
  8
0
100
AcDbLine
 10
99.3879
 20
111.0
 30
0.0
 11
99.88790000000001
 21
111.0
 31
0.0
  0
LINE
  5
818
330
1E
100
AcDbEntity
  8
0
100
AcDbLine
 10
98.79269999999999
 20
234.0
 30
0.0
 11
102.0
 21
234.0
 31
0.0
  0
LINE
  5
819
330
1E
100
AcDbEntity
  8
0
100
AcDbLine
 10
99.10800000000001
 20
221.232
 30
0.0
 11
99.396
 21
220.5119999999999
 31
0.0
  0
LINE
  5
81B
330
1E
100
AcDbEntity
  8
0
100
AcDbLine
 10
99.10800000000001
 20
222.7679999999998
 30
0.0
 11
99.396
 21
223.4879999999999
 31
0.0
  0
LINE
  5
81C
330
1E
100
AcDbEntity
  8
0
100
AcDbLine
 10
99.0
 20
222.0
 30
0.0
 11
99.10800000000001
 21
221.232
 31
0.0
  0
LINE
  5
81D
330
1E
100
AcDbEntity
  8
0
100
AcDbLine
 10
99.0
 20
222.0
 30
0.0
 11
99.10800000000001
 21
222.7679999999998
 31
0.0
  0
LINE
  5
81E
330
1E
100
AcDbEntity
  8
0
100
AcDbLine
 10
98.79269999999999
 20
210.0
 30
0.0
 11
102.0
 21
210.0
 31
0.0
  0
LINE
  5
81F
330
1E
100
AcDbEntity
  8
0
100
AcDbLine
 10
98.2089
 20
111.0
 30
0.0
 11
99.3879
 21
111.0
 31
0.0
  0
LINE
  5
820
330
1E
100
AcDbEntity
  8
0
100
AcDbLine
 10
100.0
 20
106.8929999999999
 30
0.0
 11
100.0
 21
111.0
 31
0.0
  0
LINE
  5
821
330
1E
100
AcDbEntity
  8
0
100
AcDbLine
 10
99.396
 20
223.4879999999999
 30
0.0
 11
99.6471
 21
223.821
 31
0.0
  0
LINE
  5
822
330
1E
100
AcDbEntity
  8
0
100
AcDbLine
 10
99.396
 20
223.4879999999999
 30
0.0
 11
99.87599999999991
 21
224.1239999999999
 31
0.0
  0
LINE
  5
823
330
1E
100
AcDbEntity
  8
0
100
AcDbLine
 10
99.396
 20
220.5119999999999
 30
0.0
 11
99.6471
 21
220.1789999999999
 31
0.0
  0
LINE
  5
825
330
1E
100
AcDbEntity
  8
0
100
AcDbLine
 10
99.4706
 20
231.4999999999999
 30
0.0
 11
102.0
 21
231.8529999999999
 31
0.0
  0
LINE
  5
827
330
1E
100
AcDbEntity
  8
0
100
AcDbLine
 10
99.87599999999991
 20
219.8759999999999
 30
0.0
 11
100.512
 21
219.396
 31
0.0
  0
LINE
  5
829
330
1E
100
AcDbEntity
  8
0
100
AcDbLine
 10
99.87599999999991
 20
224.1239999999999
 30
0.0
 11
100.512
 21
224.604
 31
0.0
  0
LINE
  5
82A
330
1E
100
AcDbEntity
  8
0
100
AcDbLine
 10
99.6471
 20
223.821
 30
0.0
 11
99.87599999999991
 21
224.1239999999999
 31
0.0
  0
LINE
  5
82B
330
1E
100
AcDbEntity
  8
0
100
AcDbLine
 10
99.6471
 20
220.1789999999999
 30
0.0
 11
99.87599999999991
 21
219.8759999999999
 31
0.0
  0
LINE
  5
82C
330
1E
100
AcDbEntity
  8
0
100
AcDbLine
 10
99.4706
 20
212.5
 30
0.0
 11
102.0
 21
212.1469999999999
 31
0.0
  0
LINE
  5
82E
330
1E
100
AcDbEntity
  8
0
100
AcDbLine
 10
99.88790000000001
 20
111.0
 30
0.0
 11
100.0
 21
111.0
 31
0.0
  0
LINE
  5
82F
330
1E
100
AcDbEntity
  8
0
100
AcDbLine
 10
99.88790000000001
 20
106.8929999999999
 30
0.0
 11
100.0
 21
106.8929999999999
 31
0.0
  0
LINE
  5
830
330
1E
100
AcDbEntity
  8
0
100
AcDbLine
 10
121.0
 20
111.0
 30
0.0
 11
121.0
 21
111.177
 31
0.0
  0
LINE
  5
831
330
1E
100
AcDbEntity
  8
0
100
AcDbLine
 10
121.0
 20
111.177
 30
0.0
 11
121.0
 21
111.0
 31
0.0
  0
LINE
  5
832
330
1E
100
AcDbEntity
  8
0
100
AcDbLine
 10
121.0
 20
111.177
 30
0.0
 11
121.0
 21
111.647
 31
0.0
  0
LINE
  5
833
330
1E
100
AcDbEntity
  8
0
100
AcDbLine
 10
121.0
 20
111.647
 30
0.0
 11
121.0
 21
111.177
 31
0.0
  0
LINE
  5
834
330
1E
100
AcDbEntity
  8
0
100
AcDbLine
 10
121.0
 20
111.647
 30
0.0
 11
121.0
 21
112.4319999999999
 31
0.0
  0
LINE
  5
835
330
1E
100
AcDbEntity
  8
0
100
AcDbLine
 10
121.0
 20
112.4319999999999
 30
0.0
 11
121.0
 21
111.647
 31
0.0
  0
LINE
  5
836
330
1E
100
AcDbEntity
  8
0
100
AcDbLine
 10
121.0
 20
112.4319999999999
 30
0.0
 11
121.0
 21
113.4719999999999
 31
0.0
  0
LINE
  5
837
330
1E
100
AcDbEntity
  8
0
100
AcDbLine
 10
121.0
 20
113.4719999999999
 30
0.0
 11
121.0
 21
112.4319999999999
 31
0.0
  0
LINE
  5
838
330
1E
100
AcDbEntity
  8
0
100
AcDbLine
 10
121.0
 20
113.4719999999999
 30
0.0
 11
121.0
 21
114.649
 31
0.0
  0
LINE
  5
839
330
1E
100
AcDbEntity
  8
0
100
AcDbLine
 10
121.0
 20
114.649
 30
0.0
 11
121.0
 21
113.4719999999999
 31
0.0
  0
LINE
  5
83A
330
1E
100
AcDbEntity
  8
0
100
AcDbLine
 10
121.0
 20
114.649
 30
0.0
 11
121.0
 21
115.904
 31
0.0
  0
LINE
  5
83B
330
1E
100
AcDbEntity
  8
0
100
AcDbLine
 10
109.0179999999999
 20
210.0
 30
0.0
 11
109.415
 21
210.3089999999999
 31
0.0
  0
LINE
  5
83C
330
1E
100
AcDbEntity
  8
0
100
AcDbLine
 10
108.179
 20
210.0
 30
0.0
 11
109.0179999999999
 21
210.0
 31
0.0
  0
LINE
  5
83F
330
1E
100
AcDbEntity
  8
0
100
AcDbLine
 10
105.207
 20
210.0
 30
0.0
 11
108.179
 21
210.0
 31
0.0
  0
LINE
  5
840
330
1E
100
AcDbEntity
  8
0
100
AcDbLine
 10
102.0
 20
210.0
 30
0.0
 11
105.207
 21
210.0
 31
0.0
  0
LINE
  5
841
330
1E
100
AcDbEntity
  8
0
100
AcDbLine
 10
104.529
 20
212.5
 30
0.0
 11
106.912
 21
213.4709999999998
 31
0.0
  0
LINE
  5
842
330
1E
100
AcDbEntity
  8
0
100
AcDbLine
 10
102.0
 20
212.1469999999999
 30
0.0
 11
104.529
 21
212.5
 31
0.0
  0
LINE
  5
845
330
1E
100
AcDbEntity
  8
0
100
AcDbLine
 10
100.512
 20
224.604
 30
0.0
 11
101.232
 21
224.892
 31
0.0
  0
LINE
  5
846
330
1E
100
AcDbEntity
  8
0
100
AcDbLine
 10
102.0
 20
219.0
 30
0.0
 11
102.7679999999999
 21
219.1079999999999
 31
0.0
  0
LINE
  5
847
330
1E
100
AcDbEntity
  8
0
100
AcDbLine
 10
101.232
 20
224.892
 30
0.0
 11
102.0
 21
225.0
 31
0.0
  0
LINE
  5
848
330
1E
100
AcDbEntity
  8
0
100
AcDbLine
 10
102.0
 20
225.0
 30
0.0
 11
102.7679999999999
 21
224.892
 31
0.0
  0
LINE
  5
849
330
1E
100
AcDbEntity
  8
0
100
AcDbLine
 10
101.232
 20
219.1079999999999
 30
0.0
 11
102.0
 21
219.0
 31
0.0
  0
LINE
  5
84A
330
1E
100
AcDbEntity
  8
0
100
AcDbLine
 10
100.512
 20
219.396
 30
0.0
 11
101.232
 21
219.1079999999999
 31
0.0
  0
LINE
  5
84B
330
1E
100
AcDbEntity
  8
0
100
AcDbLine
 10
102.0
 20
231.8529999999999
 30
0.0
 11
104.529
 21
231.4999999999999
 31
0.0
  0
LINE
  5
84C
330
1E
100
AcDbEntity
  8
0
100
AcDbLine
 10
102.7679999999999
 20
219.1079999999999
 30
0.0
 11
103.488
 21
219.396
 31
0.0
  0
LINE
  5
84D
330
1E
100
AcDbEntity
  8
0
100
AcDbLine
 10
103.488
 20
219.396
 30
0.0
 11
104.1239999999999
 21
219.8759999999999
 31
0.0
  0
LINE
  5
84E
330
1E
100
AcDbEntity
  8
0
100
AcDbLine
 10
104.1239999999999
 20
219.8759999999999
 30
0.0
 11
104.604
 21
220.5119999999999
 31
0.0
  0
LINE
  5
84F
330
1E
100
AcDbEntity
  8
0
100
AcDbLine
 10
102.7679999999999
 20
224.892
 30
0.0
 11
103.488
 21
224.604
 31
0.0
  0
LINE
  5
850
330
1E
100
AcDbEntity
  8
0
100
AcDbLine
 10
103.488
 20
224.604
 30
0.0
 11
104.1239999999999
 21
224.1239999999999
 31
0.0
  0
LINE
  5
851
330
1E
100
AcDbEntity
  8
0
100
AcDbLine
 10
104.1239999999999
 20
224.1239999999999
 30
0.0
 11
104.604
 21
223.4879999999999
 31
0.0
  0
LINE
  5
852
330
1E
100
AcDbEntity
  8
0
100
AcDbLine
 10
104.604
 20
223.4879999999999
 30
0.0
 11
104.892
 21
222.7679999999998
 31
0.0
  0
LINE
  5
853
330
1E
100
AcDbEntity
  8
0
100
AcDbLine
 10
104.892
 20
222.7679999999998
 30
0.0
 11
105.0
 21
222.0
 31
0.0
  0
LINE
  5
854
330
1E
100
AcDbEntity
  8
0
100
AcDbLine
 10
104.604
 20
220.5119999999999
 30
0.0
 11
104.892
 21
221.232
 31
0.0
  0
LINE
  5
855
330
1E
100
AcDbEntity
  8
0
100
AcDbLine
 10
104.892
 20
221.232
 30
0.0
 11
105.0
 21
222.0
 31
0.0
  0
LINE
  5
856
330
1E
100
AcDbEntity
  8
0
100
AcDbLine
 10
106.912
 20
230.5289999999999
 30
0.0
 11
108.9709999999999
 21
228.9709999999999
 31
0.0
  0
LINE
  5
857
330
1E
100
AcDbEntity
  8
0
100
AcDbLine
 10
106.912
 20
213.4709999999998
 30
0.0
 11
108.9709999999999
 21
215.029
 31
0.0
  0
LINE
  5
858
330
1E
100
AcDbEntity
  8
0
100
AcDbLine
 10
104.529
 20
231.4999999999999
 30
0.0
 11
106.912
 21
230.5289999999999
 31
0.0
  0
LINE
  5
859
330
1E
100
AcDbEntity
  8
0
100
AcDbLine
 10
102.0
 20
234.0
 30
0.0
 11
105.207
 21
234.0
 31
0.0
  0
LINE
  5
85A
330
1E
100
AcDbEntity
  8
0
100
AcDbLine
 10
105.207
 20
234.0
 30
0.0
 11
108.179
 21
234.0
 31
0.0
  0
LINE
  5
85B
330
1E
100
AcDbEntity
  8
0
100
AcDbLine
 10
108.9709999999999
 20
228.9709999999999
 30
0.0
 11
110.5289999999998
 21
226.912
 31
0.0
  0
LINE
  5
85C
330
1E
100
AcDbEntity
  8
0
100
AcDbLine
 10
108.9709999999999
 20
215.029
 30
0.0
 11
110.5289999999998
 21
217.0879999999999
 31
0.0
  0
LINE
  5
85F
330
1E
100
AcDbEntity
  8
0
100
AcDbLine
 10
109.8439999999998
 20
232.9709999999999
 30
0.0
 11
111.036
 21
230.9689999999999
 31
0.0
  0
LINE
  5
861
330
1E
100
AcDbEntity
  8
0
100
AcDbLine
 10
109.0179999999999
 20
234.0
 30
0.0
 11
109.415
 21
233.6909999999999
 31
0.0
  0
LINE
  5
863
330
1E
100
AcDbEntity
  8
0
100
AcDbLine
 10
108.179
 20
234.0
 30
0.0
 11
109.0179999999999
 21
234.0
 31
0.0
  0
LINE
  5
864
330
1E
100
AcDbEntity
  8
0
100
AcDbLine
 10
109.415
 20
233.6909999999999
 30
0.0
 11
109.8439999999998
 21
232.9709999999999
 31
0.0
  0
LINE
  5
866
330
1E
100
AcDbEntity
  8
0
100
AcDbLine
 10
110.5289999999998
 20
217.0879999999999
 30
0.0
 11
111.4999999999999
 21
219.4709999999998
 31
0.0
  0
LINE
  5
867
330
1E
100
AcDbEntity
  8
0
100
AcDbLine
 10
110.5289999999998
 20
226.912
 30
0.0
 11
111.4999999999999
 21
224.529
 31
0.0
  0
LINE
  5
86B
330
1E
100
AcDbEntity
  8
0
100
AcDbLine
 10
111.4999999999999
 20
224.529
 30
0.0
 11
111.853
 21
222.0
 31
0.0
  0
LINE
  5
86C
330
1E
100
AcDbEntity
  8
0
100
AcDbLine
 10
111.4999999999999
 20
219.4709999999998
 30
0.0
 11
111.853
 21
222.0
 31
0.0
  0
LINE
  5
86E
330
1E
100
AcDbEntity
  8
0
100
AcDbLine
 10
111.036
 20
230.9689999999999
 30
0.0
 11
112.7389999999999
 21
228.108
 31
0.0
  0
LINE
  5
870
330
1E
100
AcDbEntity
  8
0
100
AcDbLine
 10
111.036
 20
213.032
 30
0.0
 11
112.7389999999999
 21
215.892
 31
0.0
  0
LINE
  5
871
330
1E
100
AcDbEntity
  8
0
100
AcDbLine
 10
109.8439999999998
 20
211.0289999999999
 30
0.0
 11
111.036
 21
213.032
 31
0.0
  0
LINE
  5
872
330
1E
100
AcDbEntity
  8
0
100
AcDbLine
 10
109.415
 20
210.3089999999999
 30
0.0
 11
109.8439999999998
 21
211.0289999999999
 31
0.0
  0
LINE
  5
875
330
1E
100
AcDbEntity
  8
0
100
AcDbLine
 10
114.4329999999998
 20
218.7359999999999
 30
0.0
 11
115.464
 21
220.5169999999998
 31
0.0
  0
LINE
  5
877
330
1E
100
AcDbEntity
  8
0
100
AcDbLine
 10
112.7389999999999
 20
215.892
 30
0.0
 11
114.4329999999998
 21
218.7359999999999
 31
0.0
  0
LINE
  5
87A
330
1E
100
AcDbEntity
  8
0
100
AcDbLine
 10
112.7389999999999
 20
228.108
 30
0.0
 11
114.4329999999998
 21
225.2639999999999
 31
0.0
  0
LINE
  5
87D
330
1E
100
AcDbEntity
  8
0
100
AcDbLine
 10
115.464
 20
223.483
 30
0.0
 11
115.9019999999999
 21
222.6939999999999
 31
0.0
  0
LINE
  5
87F
330
1E
100
AcDbEntity
  8
0
100
AcDbLine
 10
114.4329999999998
 20
225.2639999999999
 30
0.0
 11
115.464
 21
223.483
 31
0.0
  0
LINE
  5
884
330
1E
100
AcDbEntity
  8
0
100
AcDbLine
 10
115.9019999999999
 20
222.6939999999999
 30
0.0
 11
116.0
 21
222.0
 31
0.0
  0
LINE
  5
885
330
1E
100
AcDbEntity
  8
0
100
AcDbLine
 10
115.9019999999999
 20
221.306
 30
0.0
 11
116.0
 21
222.0
 31
0.0
  0
LINE
  5
886
330
1E
100
AcDbEntity
  8
0
100
AcDbLine
 10
115.464
 20
220.5169999999998
 30
0.0
 11
115.9019999999999
 21
221.306
 31
0.0
  0
LINE
  5
88B
330
1E
100
AcDbEntity
  8
0
100
AcDbLine
 10
118.0
 20
384.0
 30
0.0
 11
121.0
 21
384.0
 31
0.0
  0
LINE
  5
88C
330
1E
100
AcDbEntity
  8
0
100
AcDbLine
 10
118.0
 20
384.0
 30
0.0
 11
118.0
 21
401.0
 31
0.0
  0
LINE
  5
88D
330
1E
100
AcDbEntity
  8
0
100
AcDbLine
 10
121.0
 20
384.0
 30
0.0
 11
121.0
 21
401.0
 31
0.0
  0
LINE
  5
88E
330
1E
100
AcDbEntity
  8
0
100
AcDbLine
 10
121.0
 20
401.0
 30
0.0
 11
121.0
 21
384.0
 31
0.0
  0
LINE
  5
88F
330
1E
100
AcDbEntity
  8
0
100
AcDbLine
 10
118.0
 20
401.0
 30
0.0
 11
121.0
 21
401.0
 31
0.0
  0
LINE
  5
890
330
1E
100
AcDbEntity
  8
0
100
AcDbLine
 10
118.0
 20
401.0
 30
0.0
 11
118.0
 21
384.0
 31
0.0
  0
LINE
  5
891
330
1E
100
AcDbEntity
  8
0
100
AcDbLine
 10
121.0
 20
401.0
 30
0.0
 11
121.0
 21
413.0959999999999
 31
0.0
  0
LINE
  5
892
330
1E
100
AcDbEntity
  8
0
100
AcDbLine
 10
121.0
 20
413.0959999999999
 30
0.0
 11
121.0
 21
414.351
 31
0.0
  0
LINE
  5
893
330
1E
100
AcDbEntity
  8
0
100
AcDbLine
 10
121.0
 20
413.0959999999999
 30
0.0
 11
121.0
 21
401.0
 31
0.0
  0
LINE
  5
8C7
330
1E
100
AcDbEntity
  8
0
100
AcDbLine
 10
121.0
 20
418.0
 30
0.0
 11
121.0
 21
417.823
 31
0.0
  0
LINE
  5
8C8
330
1E
100
AcDbEntity
  8
0
100
AcDbLine
 10
121.0
 20
417.823
 30
0.0
 11
121.0
 21
417.353
 31
0.0
  0
LINE
  5
8C9
330
1E
100
AcDbEntity
  8
0
100
AcDbLine
 10
121.0
 20
417.823
 30
0.0
 11
121.0
 21
418.0
 31
0.0
  0
LINE
  5
8CA
330
1E
100
AcDbEntity
  8
0
100
AcDbLine
 10
121.0
 20
417.353
 30
0.0
 11
121.0
 21
416.568
 31
0.0
  0
LINE
  5
8CB
330
1E
100
AcDbEntity
  8
0
100
AcDbLine
 10
121.0
 20
417.353
 30
0.0
 11
121.0
 21
417.823
 31
0.0
  0
LINE
  5
8CC
330
1E
100
AcDbEntity
  8
0
100
AcDbLine
 10
121.0
 20
416.568
 30
0.0
 11
121.0
 21
415.528
 31
0.0
  0
LINE
  5
8CD
330
1E
100
AcDbEntity
  8
0
100
AcDbLine
 10
121.0
 20
416.568
 30
0.0
 11
121.0
 21
417.353
 31
0.0
  0
LINE
  5
8CE
330
1E
100
AcDbEntity
  8
0
100
AcDbLine
 10
121.0
 20
415.528
 30
0.0
 11
121.0
 21
414.351
 31
0.0
  0
LINE
  5
8CF
330
1E
100
AcDbEntity
  8
0
100
AcDbLine
 10
121.0
 20
415.528
 30
0.0
 11
121.0
 21
416.568
 31
0.0
  0
LINE
  5
8D0
330
1E
100
AcDbEntity
  8
0
100
AcDbLine
 10
121.0
 20
414.351
 30
0.0
 11
121.0
 21
413.0959999999999
 31
0.0
  0
LINE
  5
8D1
330
1E
100
AcDbEntity
  8
0
100
AcDbLine
 10
121.0
 20
414.351
 30
0.0
 11
121.0
 21
415.528
 31
0.0
  0
LINE
  5
8D2
330
1E
100
AcDbEntity
  8
0
100
AcDbLine
 10
121.0
 20
115.904
 30
0.0
 11
121.0
 21
114.649
 31
0.0
  0
LINE
  5
8D3
330
1E
100
AcDbEntity
  8
0
100
AcDbLine
 10
121.0
 20
115.904
 30
0.0
 11
121.0
 21
384.0
 31
0.0
  0
LINE
  5
8D4
330
1E
100
AcDbEntity
  8
0
100
AcDbLine
 10
121.0
 20
115.904
 30
0.0
 11
121.0
 21
384.0
 31
0.0
  0
LINE
  5
8D5
330
1E
100
AcDbEntity
  8
0
100
AcDbLine
 10
100.0
 20
111.0
 30
0.0
 11
100.0
 21
106.8929999999999
 31
0.0
  0
LINE
  5
8D6
330
1E
100
AcDbEntity
  8
0
100
AcDbLine
 10
99.63639999999999
 20
106.4459999999999
 30
0.0
 11
100.0
 21
106.8929999999999
 31
0.0
  0
LINE
  5
8D8
330
1E
100
AcDbEntity
  8
0
100
AcDbLine
 10
99.3879
 20
106.4459999999999
 30
0.0
 11
99.88790000000001
 21
106.8929999999999
 31
0.0
  0
LINE
  5
8DA
330
1E
100
AcDbEntity
  8
0
100
AcDbLine
 10
98.2089
 20
106.187
 30
0.0
 11
99.3879
 21
106.4459999999999
 31
0.0
  0
LINE
  5
8DB
330
1E
100
AcDbEntity
  8
0
100
AcDbLine
 10
98.0
 20
93.89299999999998
 30
0.0
 11
98.0
 21
106.0
 31
0.0
  0
LINE
  5
8DD
330
1E
100
AcDbEntity
  8
0
100
AcDbLine
 10
97.46439999999999
 20
93.44599999999998
 30
0.0
 11
97.9019
 21
93.89299999999998
 31
0.0
  0
ENDSEC
  0
SECTION
  2
OBJECTS
  0
DICTIONARY
  5
C
330
0
100
AcDbDictionary
281
     1
  3
ACAD_GROUP
350
D
  3
ACAD_LAYOUT
350
19
  3
ACAD_MLINESTYLE
350
16
  3
ACAD_PLOTSETTINGS
350
18
  3
ACAD_PLOTSTYLENAME
350
E
  3
ACAD_TABLESTYLE
350
964
  3
ACDBVARIABLEDICTIONARY
350
8EA
  0
DICTIONARY
  5
D
102
{ACAD_REACTORS
330
C
102
}
330
C
100
AcDbDictionary
281
     1
  0
DICTIONARY
  5
19
102
{ACAD_REACTORS
330
C
102
}
330
C
100
AcDbDictionary
281
     1
  3
Layout1
350
961
  3
Model
350
960
  0
DICTIONARY
  5
16
102
{ACAD_REACTORS
330
C
102
}
330
C
100
AcDbDictionary
281
     1
  3
STANDARD
350
17
  0
DICTIONARY
  5
18
102
{ACAD_REACTORS
330
C
102
}
330
C
100
AcDbDictionary
281
     1
  0
ACDBDICTIONARYWDFLT
  5
E
102
{ACAD_REACTORS
330
C
102
}
330
C
100
AcDbDictionary
281
     1
  3
Normal
350
F
100
AcDbDictionaryWithDefault
340
F
  0
DICTIONARY
  5
964
102
{ACAD_REACTORS
330
C
102
}
330
C
100
AcDbDictionary
281
     1
  0
DICTIONARY
  5
8EA
102
{ACAD_REACTORS
330
C
102
}
330
C
100
AcDbDictionary
281
     1
  3
DIMASSOC
350
8EB
  0
LAYOUT
  5
961
102
{ACAD_REACTORS
330
19
102
}
330
19
100
AcDbPlotSettings
  1

  2
none_device
  4

  6

 40
0.0
 41
0.0
 42
0.0
 43
0.0
 44
0.0
 45
0.0
 46
0.0
 47
0.0
 48
0.0
 49
0.0
140
0.0
141
0.0
142
1.0
143
1.0
 70
   688
 72
     0
 73
     0
 74
     5
  7

 75
    16
147
1.0
148
0.0
149
0.0
100
AcDbLayout
  1
Layout1
 70
     1
 71
     1
 10
0.0
 20
0.0
 11
12.0
 21
9.0
 12
0.0
 22
0.0
 32
0.0
 14
1.000000000000000E+20
 24
1.000000000000000E+20
 34
1.000000000000000E+20
 15
-1.000000000000000E+20
 25
-1.000000000000000E+20
 35
-1.000000000000000E+20
146
0.0
 13
0.0
 23
0.0
 33
0.0
 16
1.0
 26
0.0
 36
0.0
 17
0.0
 27
1.0
 37
0.0
 76
     0
330
1A
  0
LAYOUT
  5
960
102
{ACAD_REACTORS
330
19
102
}
330
19
100
AcDbPlotSettings
  1

  2
none_device
  4

  6

 40
0.0
 41
0.0
 42
0.0
 43
0.0
 44
0.0
 45
0.0
 46
0.0
 47
0.0
 48
0.0
 49
0.0
140
0.0
141
0.0
142
1.0
143
1.0
 70
   688
 72
     0
 73
     0
 74
     5
  7

 75
    16
147
1.0
148
0.0
149
0.0
100
AcDbLayout
  1
Model
 70
     1
 71
     0
 10
0.0
 20
0.0
 11
0.0
 21
0.0
 12
0.0
 22
0.0
 32
0.0
 14
0.0
 24
0.0
 34
0.0
 15
0.0
 25
0.0
 35
0.0
146
0.0
 13
0.0
 23
0.0
 33
0.0
 16
1.0
 26
0.0
 36
0.0
 17
0.0
 27
1.0
 37
0.0
 76
     0
330
1E
  0
MLINESTYLE
  5
17
102
{ACAD_REACTORS
330
16
102
}
330
16
100
AcDbMlineStyle
  2
STANDARD
 70
     0
  3

 62
   256
 51
90.0
 52
90.0
 71
     2
 49
0.5
 62
   256
  6
BYLAYER
 49
-0.5
 62
   256
  6
BYLAYER
  0
ACDBPLACEHOLDER
  5
F
102
{ACAD_REACTORS
330
E
102
}
330
E
  0
DICTIONARYVAR
  5
8EB
102
{ACAD_REACTORS
330
8EA
102
}
330
8EA
100
DictionaryVariables
280
     0
  1
1
  0
ENDSEC
  0
EOF
