  0
SECTION
  2
HEADER
  9
$ACADVER
  1
AC1015
  9
$ACADMAINTVER
 70
    13
  9
$DWGCODEPAGE
  3
ANSI_1252
  9
$INSBASE
 10
0.0
 20
0.0
 30
0.0
  9
$EXTMIN
 10
0.0715000000000545
 20
81.9999999999999
 30
0.0
  9
$EXTMAX
 10
517.9285
 20
421.0
 30
0.0
  9
$LIMMIN
 10
0.0
 20
0.0
  9
$LIMMAX
 10
12.0
 20
9.0
  9
$ORTHOMODE
 70
     0
  9
$REGENMODE
 70
     1
  9
$FILLMODE
 70
     1
  9
$QTEXTMODE
 70
     0
  9
$MIRRTEXT
 70
     1
  9
$LTSCALE
 40
1.0
  9
$ATTMODE
 70
     1
  9
$TEXTSIZE
 40
0.2
  9
$TRACEWID
 40
0.05
  9
$TEXTSTYLE
  7
STANDARD
  9
$CLAYER
  8
0
  9
$CELTYPE
  6
CONTINUOUS
  9
$CECOLOR
 62
   256
  9
$CELTSCALE
 40
1.0
  9
$DISPSILH
 70
     0
  9
$DIMSCALE
 40
1.0
  9
$DIMASZ
 40
0.18
  9
$DIMEXO
 40
0.0625
  9
$DIMDLI
 40
0.38
  9
$DIMRND
 40
0.0
  9
$DIMDLE
 40
0.0
  9
$DIMEXE
 40
0.18
  9
$DIMTP
 40
0.0
  9
$DIMTM
 40
0.0
  9
$DIMTXT
 40
0.18
  9
$DIMCEN
 40
0.09
  9
$DIMTSZ
 40
0.0
  9
$DIMTOL
 70
     0
  9
$DIMLIM
 70
     0
  9
$DIMTIH
 70
     1
  9
$DIMTOH
 70
     1
  9
$DIMSE1
 70
     0
  9
$DIMSE2
 70
     0
  9
$DIMTAD
 70
     0
  9
$DIMZIN
 70
     0
  9
$DIMBLK
  1

  9
$DIMASO
 70
     1
  9
$DIMSHO
 70
     1
  9
$DIMPOST
  1

  9
$DIMAPOST
  1

  9
$DIMALT
 70
     0
  9
$DIMALTD
 70
     2
  9
$DIMALTF
 40
25.4
  9
$DIMLFAC
 40
1.0
  9
$DIMTOFL
 70
     0
  9
$DIMTVP
 40
0.0
  9
$DIMTIX
 70
     0
  9
$DIMSOXD
 70
     0
  9
$DIMSAH
 70
     0
  9
$DIMBLK1
  1

  9
$DIMBLK2
  1

  9
$DIMSTYLE
  2
STANDARD
  9
$DIMCLRD
 70
     0
  9
$DIMCLRE
 70
     0
  9
$DIMCLRT
 70
     0
  9
$DIMTFAC
 40
1.0
  9
$DIMGAP
 40
0.09
  9
$DIMJUST
 70
     0
  9
$DIMSD1
 70
     0
  9
$DIMSD2
 70
     0
  9
$DIMTOLJ
 70
     1
  9
$DIMTZIN
 70
     0
  9
$DIMALTZ
 70
     0
  9
$DIMALTTZ
 70
     0
  9
$DIMUPT
 70
     0
  9
$DIMDEC
 70
     4
  9
$DIMTDEC
 70
     4
  9
$DIMALTU
 70
     2
  9
$DIMALTTD
 70
     2
  9
$DIMTXSTY
  7
STANDARD
  9
$DIMAUNIT
 70
     0
  9
$DIMADEC
 70
     0
  9
$DIMALTRND
 40
0.0
  9
$DIMAZIN
 70
     0
  9
$DIMDSEP
 70
    46
  9
$DIMATFIT
 70
     3
  9
$DIMFRAC
 70
     0
  9
$DIMLDRBLK
  1

  9
$DIMLUNIT
 70
     2
  9
$DIMLWD
 70
    -2
  9
$DIMLWE
 70
    -2
  9
$DIMTMOVE
 70
     2
  9
$LUNITS
 70
     2
  9
$LUPREC
 70
     4
  9
$SKETCHINC
 40
0.1
  9
$FILLETRAD
 40
0.0
  9
$AUNITS
 70
     0
  9
$AUPREC
 70
     0
  9
$MENU
  1
.
  9
$ELEVATION
 40
0.0
  9
$PELEVATION
 40
0.0
  9
$THICKNESS
 40
0.0
  9
$LIMCHECK
 70
     0
  9
$CHAMFERA
 40
0.0
  9
$CHAMFERB
 40
0.0
  9
$CHAMFERC
 40
0.0
  9
$CHAMFERD
 40
0.0
  9
$SKPOLY
 70
     0
  9
$TDCREATE
 40
2454983.614170092
  9
$TDUCREATE
 40
2454983.530836759
  9
$TDUPDATE
 40
2454987.689816261
  9
$TDUUPDATE
 40
2454987.606482928
  9
$TDINDWG
 40
0.0330884838
  9
$TDUSRTIMER
 40
0.0330884838
  9
$USRTIMER
 70
     1
  9
$ANGBASE
 50
0.0
  9
$ANGDIR
 70
     0
  9
$PDMODE
 70
     0
  9
$PDSIZE
 40
0.0
  9
$PLINEWID
 40
0.0
  9
$SPLFRAME
 70
     0
  9
$SPLINETYPE
 70
     6
  9
$SPLINESEGS
 70
     8
  9
$HANDSEED
  5
16A3
  9
$SURFTAB1
 70
     6
  9
$SURFTAB2
 70
     6
  9
$SURFTYPE
 70
     6
  9
$SURFU
 70
     6
  9
$SURFV
 70
     6
  9
$UCSBASE
  2

  9
$UCSNAME
  2

  9
$UCSORG
 10
0.0
 20
0.0
 30
0.0
  9
$UCSXDIR
 10
1.0
 20
0.0
 30
0.0
  9
$UCSYDIR
 10
0.0
 20
1.0
 30
0.0
  9
$UCSORTHOREF
  2

  9
$UCSORTHOVIEW
 70
     1
  9
$UCSORGTOP
 10
0.0
 20
0.0
 30
0.0
  9
$UCSORGBOTTOM
 10
0.0
 20
0.0
 30
0.0
  9
$UCSORGLEFT
 10
0.0
 20
0.0
 30
0.0
  9
$UCSORGRIGHT
 10
0.0
 20
0.0
 30
0.0
  9
$UCSORGFRONT
 10
0.0
 20
0.0
 30
0.0
  9
$UCSORGBACK
 10
0.0
 20
0.0
 30
0.0
  9
$PUCSBASE
  2

  9
$PUCSNAME
  2

  9
$PUCSORG
 10
0.0
 20
0.0
 30
0.0
  9
$PUCSXDIR
 10
1.0
 20
0.0
 30
0.0
  9
$PUCSYDIR
 10
0.0
 20
1.0
 30
0.0
  9
$PUCSORTHOREF
  2

  9
$PUCSORTHOVIEW
 70
     0
  9
$PUCSORGTOP
 10
0.0
 20
0.0
 30
0.0
  9
$PUCSORGBOTTOM
 10
0.0
 20
0.0
 30
0.0
  9
$PUCSORGLEFT
 10
0.0
 20
0.0
 30
0.0
  9
$PUCSORGRIGHT
 10
0.0
 20
0.0
 30
0.0
  9
$PUCSORGFRONT
 10
0.0
 20
0.0
 30
0.0
  9
$PUCSORGBACK
 10
0.0
 20
0.0
 30
0.0
  9
$USERI1
 70
     0
  9
$USERI2
 70
     0
  9
$USERI3
 70
     0
  9
$USERI4
 70
     0
  9
$USERI5
 70
     0
  9
$USERR1
 40
0.0
  9
$USERR2
 40
0.0
  9
$USERR3
 40
0.0
  9
$USERR4
 40
0.0
  9
$USERR5
 40
0.0
  9
$WORLDVIEW
 70
     1
  9
$SHADEDGE
 70
     3
  9
$SHADEDIF
 70
    70
  9
$TILEMODE
 70
     1
  9
$MAXACTVP
 70
    64
  9
$PINSBASE
 10
0.0
 20
0.0
 30
0.0
  9
$PLIMCHECK
 70
     0
  9
$PEXTMIN
 10
1.000000000000000E+20
 20
1.000000000000000E+20
 30
1.000000000000000E+20
  9
$PEXTMAX
 10
-1.000000000000000E+20
 20
-1.000000000000000E+20
 30
-1.000000000000000E+20
  9
$PLIMMIN
 10
0.0
 20
0.0
  9
$PLIMMAX
 10
12.0
 20
9.0
  9
$UNITMODE
 70
     0
  9
$VISRETAIN
 70
     1
  9
$PLINEGEN
 70
     0
  9
$PSLTSCALE
 70
     1
  9
$TREEDEPTH
 70
  3020
  9
$CMLSTYLE
  2
STANDARD
  9
$CMLJUST
 70
     0
  9
$CMLSCALE
 40
1.0
  9
$PROXYGRAPHICS
 70
     1
  9
$MEASUREMENT
 70
     0
  9
$CELWEIGHT
370
    -1
  9
$ENDCAPS
280
     0
  9
$JOINSTYLE
280
     0
  9
$LWDISPLAY
290
     0
  9
$INSUNITS
 70
     0
  9
$HYPERLINKBASE
  1

  9
$STYLESHEET
  1

  9
$XEDIT
290
     1
  9
$CEPSNTYPE
380
     0
  9
$PSTYLEMODE
290
     1
  9
$FINGERPRINTGUID
  2
{C283DAE6-E955-4C67-A5CE-A00A00825C82}
  9
$VERSIONGUID
  2
{20D541D3-2B5D-4D0C-B147-F883F59F913C}
  9
$EXTNAMES
290
     1
  9
$PSVPSCALE
 40
0.0
  9
$OLESTARTUP
290
     0
  0
ENDSEC
  0
SECTION
  2
CLASSES
  0
CLASS
  1
ACDBDICTIONARYWDFLT
  2
AcDbDictionaryWithDefault
  3
AutoCAD 2000
 90
        0
280
     0
281
     0
  0
CLASS
  1
ACDBPLACEHOLDER
  2
AcDbPlaceHolder
  3
AutoCAD 2000
 90
        0
280
     0
281
     0
  0
CLASS
  1
LAYOUT
  2
AcDbLayout
  3
AutoCAD 2000
 90
        0
280
     0
281
     0
  0
CLASS
  1
DICTIONARYVAR
  2
AcDbDictionaryVar
  3
AutoCAD 2000
 90
        0
280
     0
281
     0
  0
CLASS
  1
LONG_TRANSACTION
  2
AcDbLongTransaction
  3
AutoCAD 2000
 90
    32768
280
     0
281
     0
  0
CLASS
  1
LWPOLYLINE
  2
AcDbPolyline
  3
AutoCAD 2000
 90
    32768
280
     0
281
     1
  0
CLASS
  1
HATCH
  2
AcDbHatch
  3
AutoCAD 2000
 90
    32768
280
     0
281
     1
  0
CLASS
  1
XRECORD
  2
AcDbXrecord
  3
AutoCAD 2000
 90
    32768
280
     0
281
     0
  0
ENDSEC
  0
SECTION
  2
TABLES
  0
TABLE
  2
VPORT
  5
8
330
0
100
AcDbSymbolTable
 70
     2
  0
VPORT
  5
16A2
330
8
100
AcDbSymbolTableRecord
100
AcDbViewportTableRecord
  2
*Active
 70
     0
 10
0.0
 20
0.0
 11
1.0
 21
1.0
 12
259.0
 22
251.4999999999999
 13
0.0
 23
0.0
 14
1.0
 24
1.0
 15
0.0
 25
0.0
 16
0.0
 26
0.0
 36
1.0
 17
0.0
 27
0.0
 37
0.0
 40
341.141052631579
 41
1.968387776606954
 42
50.0
 43
0.0
 44
0.0
 50
0.0
 51
0.0
 71
     0
 72
   100
 73
     1
 74
     3
 75
     0
 76
     0
 77
     0
 78
     0
281
     0
 65
     1
110
0.0
120
0.0
130
0.0
111
1.0
121
0.0
131
0.0
112
0.0
122
1.0
132
0.0
 79
     1
146
0.0
  0
ENDTAB
  0
TABLE
  2
LTYPE
  5
5
330
0
100
AcDbSymbolTable
 70
     1
  0
LTYPE
  5
13
330
5
100
AcDbSymbolTableRecord
100
AcDbLinetypeTableRecord
  2
BYBLOCK
 70
     0
  3

 72
    65
 73
     0
 40
0.0
  0
LTYPE
  5
14
330
5
100
AcDbSymbolTableRecord
100
AcDbLinetypeTableRecord
  2
BYLAYER
 70
     0
  3

 72
    65
 73
     0
 40
0.0
  0
LTYPE
  5
15
330
5
100
AcDbSymbolTableRecord
100
AcDbLinetypeTableRecord
  2
CONTINUOUS
 70
     0
  3
Solid line
 72
    65
 73
     0
 40
0.0
  0
ENDTAB
  0
TABLE
  2
LAYER
  5
2
330
0
100
AcDbSymbolTable
 70
     1
  0
LAYER
  5
10
330
2
100
AcDbSymbolTableRecord
100
AcDbLayerTableRecord
  2
0
 70
     0
 62
     7
  6
CONTINUOUS
370
    -3
390
F
  0
ENDTAB
  0
TABLE
  2
STYLE
  5
3
330
0
100
AcDbSymbolTable
 70
     1
  0
STYLE
  5
11
330
3
100
AcDbSymbolTableRecord
100
AcDbTextStyleTableRecord
  2
STANDARD
 70
     0
 40
0.0
 41
1.0
 50
0.0
 71
     0
 42
0.2
  3
txt
  4

  0
ENDTAB
  0
TABLE
  2
VIEW
  5
6
330
0
100
AcDbSymbolTable
 70
     0
  0
ENDTAB
  0
TABLE
  2
UCS
  5
7
330
0
100
AcDbSymbolTable
 70
     0
  0
ENDTAB
  0
TABLE
  2
APPID
  5
9
330
0
100
AcDbSymbolTable
 70
     1
  0
APPID
  5
12
330
9
100
AcDbSymbolTableRecord
100
AcDbRegAppTableRecord
  2
ACAD
 70
     0
  0
ENDTAB
  0
TABLE
  2
DIMSTYLE
  5
A
330
0
100
AcDbSymbolTable
 70
     1
100
AcDbDimStyleTable
 71
     0
  0
DIMSTYLE
105
FB1
330
A
100
AcDbSymbolTableRecord
100
AcDbDimStyleTableRecord
  2
STANDARD
 70
     0
340
11
  0
ENDTAB
  0
TABLE
  2
BLOCK_RECORD
  5
1
330
0
100
AcDbSymbolTable
 70
     0
  0
BLOCK_RECORD
  5
1E
330
1
100
AcDbSymbolTableRecord
100
AcDbBlockTableRecord
  2
*MODEL_SPACE
340
1696
  0
BLOCK_RECORD
  5
1A
330
1
100
AcDbSymbolTableRecord
100
AcDbBlockTableRecord
  2
*PAPER_SPACE
340
1697
  0
ENDTAB
  0
ENDSEC
  0
SECTION
  2
BLOCKS
  0
BLOCK
  5
1F
330
1E
100
AcDbEntity
  8
0
100
AcDbBlockBegin
  2
*MODEL_SPACE
 70
     0
 10
0.0
 20
0.0
 30
0.0
  3
*MODEL_SPACE
  1

  0
ENDBLK
  5
20
330
1E
100
AcDbEntity
  8
0
100
AcDbBlockEnd
  0
BLOCK
  5
1B
330
1A
100
AcDbEntity
 67
     1
  8
0
100
AcDbBlockBegin
  2
*PAPER_SPACE
 70
     0
 10
0.0
 20
0.0
 30
0.0
  3
*PAPER_SPACE
  1

  0
ENDBLK
  5
1C
330
1A
100
AcDbEntity
 67
     1
  8
0
100
AcDbBlockEnd
  0
ENDSEC
  0
SECTION
  2
ENTITIES
  0
LINE
  5
B1
330
1E
100
AcDbEntity
  8
0
100
AcDbLine
 10
67.0715000000001
 20
86.28599999999989
 30
0.0
 11
67.0715000000001
 21
82.71399999999998
 31
0.0
  0
LINE
  5
B2
330
1E
100
AcDbEntity
  8
0
100
AcDbLine
 10
67.0715000000001
 20
86.28599999999989
 30
0.0
 11
67.17660000000011
 21
86.28599999999989
 31
0.0
  0
LINE
  5
B3
330
1E
100
AcDbEntity
  8
0
100
AcDbLine
 10
67.0715000000001
 20
86.28599999999989
 30
0.0
 11
67.41240000000011
 21
86.64299999999999
 31
0.0
  0
LINE
  5
B4
330
1E
100
AcDbEntity
  8
0
100
AcDbLine
 10
67.0715000000001
 20
82.71399999999998
 30
0.0
 11
67.17660000000011
 21
82.71399999999998
 31
0.0
  0
LINE
  5
B5
330
1E
100
AcDbEntity
  8
0
100
AcDbLine
 10
67.0715000000001
 20
82.71399999999998
 30
0.0
 11
67.41240000000011
 21
82.35700000000001
 31
0.0
  0
LINE
  5
B6
330
1E
100
AcDbEntity
  8
0
100
AcDbLine
 10
67.0715000000001
 20
82.71399999999998
 30
0.0
 11
67.0715000000001
 21
86.28599999999989
 31
0.0
  0
LINE
  5
B7
330
1E
100
AcDbEntity
  8
0
100
AcDbLine
 10
67.17660000000011
 20
86.28599999999989
 30
0.0
 11
67.64530000000011
 21
86.64299999999999
 31
0.0
  0
LINE
  5
B8
330
1E
100
AcDbEntity
  8
0
100
AcDbLine
 10
67.41240000000011
 20
82.35700000000001
 30
0.0
 11
68.4351000000001
 21
82.107
 31
0.0
  0
LINE
  5
BA
330
1E
100
AcDbEntity
  8
0
100
AcDbLine
 10
67.41240000000011
 20
86.64299999999999
 30
0.0
 11
68.4351000000001
 21
86.89299999999999
 31
0.0
  0
LINE
  5
BC
330
1E
100
AcDbEntity
  8
0
100
AcDbLine
 10
67.17660000000011
 20
82.71399999999998
 30
0.0
 11
67.64530000000011
 21
82.35700000000001
 31
0.0
  0
LINE
  5
BD
330
1E
100
AcDbEntity
  8
0
100
AcDbLine
 10
67.64530000000011
 20
86.64299999999999
 30
0.0
 11
68.75070000000011
 21
86.85099999999989
 31
0.0
  0
LINE
  5
BF
330
1E
100
AcDbEntity
  8
0
100
AcDbLine
 10
68.6195000000001
 20
81.9999999999999
 30
0.0
 11
72.6475000000001
 21
81.9999999999999
 31
0.0
  0
LINE
  5
C2
330
1E
100
AcDbEntity
  8
0
100
AcDbLine
 10
68.4351000000001
 20
82.107
 30
0.0
 11
69.45790000000011
 21
81.9999999999999
 31
0.0
  0
LINE
  5
C3
330
1E
100
AcDbEntity
  8
0
100
AcDbLine
 10
67.64530000000011
 20
82.35700000000001
 30
0.0
 11
68.75070000000011
 21
82.149
 31
0.0
  0
LINE
  5
C4
330
1E
100
AcDbEntity
  8
0
100
AcDbLine
 10
68.4351000000001
 20
86.89299999999999
 30
0.0
 11
69.45790000000011
 21
87.0
 31
0.0
  0
LINE
  5
C6
330
1E
100
AcDbEntity
  8
0
100
AcDbLine
 10
68.75070000000011
 20
86.85099999999989
 30
0.0
 11
70.56520000000009
 21
86.928
 31
0.0
  0
LINE
  5
D0
330
1E
100
AcDbEntity
  8
0
100
AcDbLine
 10
69.45790000000011
 20
87.0
 30
0.0
 11
69.93510000000011
 21
87.0
 31
0.0
  0
LINE
  5
D3
330
1E
100
AcDbEntity
  8
0
100
AcDbLine
 10
68.75070000000011
 20
82.149
 30
0.0
 11
70.56520000000009
 21
82.07199999999991
 31
0.0
  0
LINE
  5
D5
330
1E
100
AcDbEntity
  8
0
100
AcDbLine
 10
69.0715000000001
 20
87.0
 30
0.0
 11
69.5395000000001
 21
87.0
 31
0.0
  0
LINE
  5
D6
330
1E
100
AcDbEntity
  8
0
100
AcDbLine
 10
69.0715000000001
 20
87.0
 30
0.0
 11
69.0715000000001
 21
89.99999999999991
 31
0.0
  0
LINE
  5
F1
330
1E
100
AcDbEntity
  8
0
100
AcDbLine
 10
72.6475000000001
 20
81.9999999999999
 30
0.0
 11
77.20750000000009
 21
81.9999999999999
 31
0.0
  0
LINE
  5
F2
330
1E
100
AcDbEntity
  8
0
100
AcDbLine
 10
71.16240000000009
 20
87.0
 30
0.0
 11
73.13970000000009
 21
87.0
 31
0.0
  0
LINE
  5
F3
330
1E
100
AcDbEntity
  8
0
100
AcDbLine
 10
70.56520000000009
 20
86.928
 30
0.0
 11
72.38970000000009
 21
86.8699999999999
 31
0.0
  0
LINE
  5
F4
330
1E
100
AcDbEntity
  8
0
100
AcDbLine
 10
72.38970000000009
 20
86.8699999999999
 30
0.0
 11
73.66750000000009
 21
86.64299999999999
 31
0.0
  0
LINE
  5
F5
330
1E
100
AcDbEntity
  8
0
100
AcDbLine
 10
72.38970000000009
 20
82.12999999999999
 30
0.0
 11
73.66750000000009
 21
82.35700000000001
 31
0.0
  0
LINE
  5
FA
330
1E
100
AcDbEntity
  8
0
100
AcDbLine
 10
69.93510000000011
 20
87.0
 30
0.0
 11
71.16240000000009
 21
87.0
 31
0.0
  0
LINE
  5
FC
330
1E
100
AcDbEntity
  8
0
100
AcDbLine
 10
70.56520000000009
 20
82.07199999999991
 30
0.0
 11
72.38970000000009
 21
82.12999999999999
 31
0.0
  0
LINE
  5
FE
330
1E
100
AcDbEntity
  8
0
100
AcDbLine
 10
69.5395000000001
 20
87.0
 30
0.0
 11
70.7875000000001
 21
87.0
 31
0.0
  0
LINE
  5
FF
330
1E
100
AcDbEntity
  8
0
100
AcDbLine
 10
69.5395000000001
 20
87.0
 30
0.0
 11
69.93510000000011
 21
87.0
 31
0.0
  0
LINE
  5
100
330
1E
100
AcDbEntity
  8
0
100
AcDbLine
 10
70.7875000000001
 20
87.0
 30
0.0
 11
72.86750000000009
 21
87.0
 31
0.0
  0
LINE
  5
132
330
1E
100
AcDbEntity
  8
0
100
AcDbLine
 10
77.20750000000009
 20
81.9999999999999
 30
0.0
 11
82.07150000000011
 21
81.9999999999999
 31
0.0
  0
LINE
  5
139
330
1E
100
AcDbEntity
  8
0
100
AcDbLine
 10
73.66750000000009
 20
82.35700000000001
 30
0.0
 11
74.77600000000009
 21
82.35700000000001
 31
0.0
  0
LINE
  5
13D
330
1E
100
AcDbEntity
  8
0
100
AcDbLine
 10
73.13970000000009
 20
87.0
 30
0.0
 11
75.79880000000009
 21
87.0
 31
0.0
  0
LINE
  5
140
330
1E
100
AcDbEntity
  8
0
100
AcDbLine
 10
73.66750000000009
 20
86.64299999999999
 30
0.0
 11
74.77600000000009
 21
86.64299999999999
 31
0.0
  0
LINE
  5
142
330
1E
100
AcDbEntity
  8
0
100
AcDbLine
 10
74.77600000000009
 20
86.64299999999999
 30
0.0
 11
75.4514
 21
86.64299999999999
 31
0.0
  0
LINE
  5
144
330
1E
100
AcDbEntity
  8
0
100
AcDbLine
 10
74.5525000000001
 20
86.28599999999989
 30
0.0
 11
74.5525000000001
 21
82.71399999999998
 31
0.0
  0
LINE
  5
148
330
1E
100
AcDbEntity
  8
0
100
AcDbLine
 10
74.5525000000001
 20
82.71399999999998
 30
0.0
 11
74.5525000000001
 21
86.28599999999989
 31
0.0
  0
LINE
  5
14A
330
1E
100
AcDbEntity
  8
0
100
AcDbLine
 10
75.79880000000009
 20
87.0
 30
0.0
 11
78.7988000000001
 21
87.0
 31
0.0
  0
LINE
  5
14B
330
1E
100
AcDbEntity
  8
0
100
AcDbLine
 10
75.4514
 20
86.64299999999999
 30
0.0
 11
78.63510000000009
 21
86.91399999999999
 31
0.0
  0
LINE
  5
14C
330
1E
100
AcDbEntity
  8
0
100
AcDbLine
 10
74.77600000000009
 20
82.35700000000001
 30
0.0
 11
78.63510000000009
 21
82.086
 31
0.0
  0
LINE
  5
14D
330
1E
100
AcDbEntity
  8
0
100
AcDbLine
 10
78.63510000000009
 20
86.91399999999999
 30
0.0
 11
82.07150000000011
 21
86.964
 31
0.0
  0
LINE
  5
14E
330
1E
100
AcDbEntity
  8
0
100
AcDbLine
 10
78.63510000000009
 20
82.086
 30
0.0
 11
82.07150000000011
 21
82.0359999999999
 31
0.0
  0
LINE
  5
150
330
1E
100
AcDbEntity
  8
0
100
AcDbLine
 10
72.86750000000009
 20
87.0
 30
0.0
 11
75.62350000000009
 21
87.0
 31
0.0
  0
LINE
  5
151
330
1E
100
AcDbEntity
  8
0
100
AcDbLine
 10
75.62350000000009
 20
87.0
 30
0.0
 11
78.74349999999998
 21
87.0
 31
0.0
  0
LINE
  5
174
330
1E
100
AcDbEntity
  8
0
100
AcDbLine
 10
82.07150000000011
 20
81.9999999999999
 30
0.0
 11
86.93550000000007
 21
81.9999999999999
 31
0.0
  0
LINE
  5
179
330
1E
100
AcDbEntity
  8
0
100
AcDbLine
 10
82.07150000000011
 20
86.964
 30
0.0
 11
85.50790000000009
 21
86.91399999999999
 31
0.0
  0
LINE
  5
17A
330
1E
100
AcDbEntity
  8
0
100
AcDbLine
 10
82.07150000000011
 20
82.0359999999999
 30
0.0
 11
85.50790000000009
 21
82.086
 31
0.0
  0
LINE
  5
17D
330
1E
100
AcDbEntity
  8
0
100
AcDbLine
 10
85.34420000000009
 20
87.0
 30
0.0
 11
88.34419999999999
 21
87.0
 31
0.0
  0
LINE
  5
17E
330
1E
100
AcDbEntity
  8
0
100
AcDbLine
 10
78.7988000000001
 20
87.0
 30
0.0
 11
82.07150000000011
 21
87.0
 31
0.0
  0
LINE
  5
19C
330
1E
100
AcDbEntity
  8
0
100
AcDbLine
 10
86.93550000000007
 20
81.9999999999999
 30
0.0
 11
91.4955000000001
 21
81.9999999999999
 31
0.0
  0
LINE
  5
1C4
330
1E
100
AcDbEntity
  8
0
100
AcDbLine
 10
89.5905000000001
 20
82.71399999999998
 30
0.0
 11
89.5905000000001
 21
86.28599999999989
 31
0.0
  0
LINE
  5
1C5
330
1E
100
AcDbEntity
  8
0
100
AcDbLine
 10
89.5905000000001
 20
82.71399999999998
 30
0.0
 11
89.5905000000001
 21
82.71399999999998
 31
0.0
  0
LINE
  5
1C7
330
1E
100
AcDbEntity
  8
0
100
AcDbLine
 10
88.69160000000009
 20
82.35700000000001
 30
0.0
 11
89.5905000000001
 21
82.71399999999998
 31
0.0
  0
LINE
  5
1C8
330
1E
100
AcDbEntity
  8
0
100
AcDbLine
 10
85.50790000000009
 20
82.086
 30
0.0
 11
88.69160000000009
 21
82.35700000000001
 31
0.0
  0
LINE
  5
1D4
330
1E
100
AcDbEntity
  8
0
100
AcDbLine
 10
90.47550000000009
 20
82.35700000000001
 30
0.0
 11
91.75330000000009
 21
82.12999999999999
 31
0.0
  0
LINE
  5
1D7
330
1E
100
AcDbEntity
  8
0
100
AcDbLine
 10
89.5905000000001
 20
86.28599999999989
 30
0.0
 11
89.5905000000001
 21
82.71399999999998
 31
0.0
  0
LINE
  5
1D9
330
1E
100
AcDbEntity
  8
0
100
AcDbLine
 10
89.5905000000001
 20
86.28599999999989
 30
0.0
 11
90.47550000000009
 21
86.64299999999999
 31
0.0
  0
LINE
  5
1DC
330
1E
100
AcDbEntity
  8
0
100
AcDbLine
 10
88.69160000000009
 20
86.64299999999999
 30
0.0
 11
89.5905000000001
 21
86.28599999999989
 31
0.0
  0
LINE
  5
1DE
330
1E
100
AcDbEntity
  8
0
100
AcDbLine
 10
85.50790000000009
 20
86.91399999999999
 30
0.0
 11
88.69160000000009
 21
86.64299999999999
 31
0.0
  0
LINE
  5
1DF
330
1E
100
AcDbEntity
  8
0
100
AcDbLine
 10
88.34419999999999
 20
87.0
 30
0.0
 11
91.0033000000001
 21
87.0
 31
0.0
  0
LINE
  5
1E0
330
1E
100
AcDbEntity
  8
0
100
AcDbLine
 10
91.0033000000001
 20
87.0
 30
0.0
 11
92.9806000000001
 21
87.0
 31
0.0
  0
LINE
  5
1E2
330
1E
100
AcDbEntity
  8
0
100
AcDbLine
 10
90.47550000000009
 20
86.64299999999999
 30
0.0
 11
91.75330000000009
 21
86.8699999999999
 31
0.0
  0
LINE
  5
1E4
330
1E
100
AcDbEntity
  8
0
100
AcDbLine
 10
89.5905000000001
 20
82.71399999999998
 30
0.0
 11
90.47550000000009
 21
82.35700000000001
 31
0.0
  0
LINE
  5
1E7
330
1E
100
AcDbEntity
  8
0
100
AcDbLine
 10
91.4955000000001
 20
81.9999999999999
 30
0.0
 11
95.52350000000009
 21
81.9999999999999
 31
0.0
  0
LINE
  5
1EF
330
1E
100
AcDbEntity
  8
0
100
AcDbLine
 10
91.75330000000009
 20
86.8699999999999
 30
0.0
 11
93.5778000000001
 21
86.928
 31
0.0
  0
LINE
  5
20C
330
1E
100
AcDbEntity
  8
0
100
AcDbLine
 10
92.9806000000001
 20
87.0
 30
0.0
 11
94.20790000000009
 21
87.0
 31
0.0
  0
LINE
  5
20E
330
1E
100
AcDbEntity
  8
0
100
AcDbLine
 10
93.5778000000001
 20
86.928
 30
0.0
 11
95.39230000000008
 21
86.85099999999989
 31
0.0
  0
LINE
  5
210
330
1E
100
AcDbEntity
  8
0
100
AcDbLine
 10
93.5778000000001
 20
82.07199999999991
 30
0.0
 11
95.39230000000008
 21
82.149
 31
0.0
  0
LINE
  5
211
330
1E
100
AcDbEntity
  8
0
100
AcDbLine
 10
91.75330000000009
 20
82.12999999999999
 30
0.0
 11
93.5778000000001
 21
82.07199999999991
 31
0.0
  0
LINE
  5
212
330
1E
100
AcDbEntity
  8
0
100
AcDbLine
 10
93.3555000000001
 20
87.0
 30
0.0
 11
94.6035000000001
 21
87.0
 31
0.0
  0
LINE
  5
213
330
1E
100
AcDbEntity
  8
0
100
AcDbLine
 10
91.2755000000001
 20
87.0
 30
0.0
 11
93.3555000000001
 21
87.0
 31
0.0
  0
LINE
  5
214
330
1E
100
AcDbEntity
  8
0
100
AcDbLine
 10
88.51950000000009
 20
87.0
 30
0.0
 11
91.2755000000001
 21
87.0
 31
0.0
  0
LINE
  5
215
330
1E
100
AcDbEntity
  8
0
100
AcDbLine
 10
85.39950000000009
 20
87.0
 30
0.0
 11
88.51950000000009
 21
87.0
 31
0.0
  0
LINE
  5
216
330
1E
100
AcDbEntity
  8
0
100
AcDbLine
 10
82.07150000000011
 20
87.0
 30
0.0
 11
85.39950000000009
 21
87.0
 31
0.0
  0
LINE
  5
217
330
1E
100
AcDbEntity
  8
0
100
AcDbLine
 10
82.07150000000011
 20
87.0
 30
0.0
 11
85.34420000000009
 21
87.0
 31
0.0
  0
LINE
  5
21D
330
1E
100
AcDbEntity
  8
0
100
AcDbLine
 10
94.68510000000009
 20
81.9999999999999
 30
0.0
 11
95.70790000000009
 21
82.107
 31
0.0
  0
LINE
  5
22E
330
1E
100
AcDbEntity
  8
0
100
AcDbLine
 10
96.7306000000001
 20
82.35700000000001
 30
0.0
 11
97.07150000000012
 21
82.71399999999998
 31
0.0
  0
LINE
  5
22F
330
1E
100
AcDbEntity
  8
0
100
AcDbLine
 10
95.70790000000009
 20
82.107
 30
0.0
 11
96.7306000000001
 21
82.35700000000001
 31
0.0
  0
LINE
  5
230
330
1E
100
AcDbEntity
  8
0
100
AcDbLine
 10
96.96640000000009
 20
82.71399999999998
 30
0.0
 11
97.07150000000012
 21
82.71399999999998
 31
0.0
  0
LINE
  5
231
330
1E
100
AcDbEntity
  8
0
100
AcDbLine
 10
97.07150000000012
 20
86.28599999999989
 30
0.0
 11
97.07150000000012
 21
82.71399999999998
 31
0.0
  0
LINE
  5
232
330
1E
100
AcDbEntity
  8
0
100
AcDbLine
 10
97.07150000000012
 20
82.71399999999998
 30
0.0
 11
97.07150000000012
 21
86.28599999999989
 31
0.0
  0
LINE
  5
233
330
1E
100
AcDbEntity
  8
0
100
AcDbLine
 10
96.96640000000009
 20
86.28599999999989
 30
0.0
 11
97.07150000000012
 21
86.28599999999989
 31
0.0
  0
LINE
  5
234
330
1E
100
AcDbEntity
  8
0
100
AcDbLine
 10
96.4977000000001
 20
82.35700000000001
 30
0.0
 11
96.96640000000009
 21
82.71399999999998
 31
0.0
  0
LINE
  5
236
330
1E
100
AcDbEntity
  8
0
100
AcDbLine
 10
95.39230000000008
 20
82.149
 30
0.0
 11
96.4977000000001
 21
82.35700000000001
 31
0.0
  0
LINE
  5
23F
330
1E
100
AcDbEntity
  8
0
100
AcDbLine
 10
96.7306000000001
 20
86.64299999999999
 30
0.0
 11
97.07150000000012
 21
86.28599999999989
 31
0.0
  0
LINE
  5
240
330
1E
100
AcDbEntity
  8
0
100
AcDbLine
 10
96.4977000000001
 20
86.64299999999999
 30
0.0
 11
96.96640000000009
 21
86.28599999999989
 31
0.0
  0
LINE
  5
248
330
1E
100
AcDbEntity
  8
0
100
AcDbLine
 10
95.39230000000008
 20
86.85099999999989
 30
0.0
 11
96.4977000000001
 21
86.64299999999999
 31
0.0
  0
LINE
  5
251
330
1E
100
AcDbEntity
  8
0
100
AcDbLine
 10
94.68510000000009
 20
87.0
 30
0.0
 11
95.70790000000009
 21
86.89299999999999
 31
0.0
  0
LINE
  5
253
330
1E
100
AcDbEntity
  8
0
100
AcDbLine
 10
95.70790000000009
 20
86.89299999999999
 30
0.0
 11
96.7306000000001
 21
86.64299999999999
 31
0.0
  0
LINE
  5
265
330
1E
100
AcDbEntity
  8
0
100
AcDbLine
 10
95.07150000000008
 20
87.0
 30
0.0
 11
95.07150000000008
 21
89.99999999999991
 31
0.0
  0
LINE
  5
266
330
1E
100
AcDbEntity
  8
0
100
AcDbLine
 10
94.6035000000001
 20
87.0
 30
0.0
 11
95.07150000000008
 21
87.0
 31
0.0
  0
LINE
  5
267
330
1E
100
AcDbEntity
  8
0
100
AcDbLine
 10
94.20790000000009
 20
87.0
 30
0.0
 11
94.6035000000001
 21
87.0
 31
0.0
  0
LINE
  5
268
330
1E
100
AcDbEntity
  8
0
100
AcDbLine
 10
94.20790000000009
 20
87.0
 30
0.0
 11
94.68510000000009
 21
87.0
 31
0.0
  0
LINE
  5
26A
330
1E
100
AcDbEntity
  8
0
100
AcDbLine
 10
78.74349999999998
 20
87.0
 30
0.0
 11
82.07150000000011
 21
87.0
 31
0.0
  0
LINE
  5
6FC
330
1E
100
AcDbEntity
  8
0
100
AcDbLine
 10
69.0715000000001
 20
89.99999999999991
 30
0.0
 11
69.5395000000001
 21
89.99999999999991
 31
0.0
  0
LINE
  5
6FD
330
1E
100
AcDbEntity
  8
0
100
AcDbLine
 10
69.0715000000001
 20
89.99999999999991
 30
0.0
 11
69.0715000000001
 21
87.0
 31
0.0
  0
LINE
  5
6FE
330
1E
100
AcDbEntity
  8
0
100
AcDbLine
 10
71.0715000000001
 20
89.99999999999991
 30
0.0
 11
71.0715000000001
 21
93.0
 31
0.0
  0
LINE
  5
6FF
330
1E
100
AcDbEntity
  8
0
100
AcDbLine
 10
69.5395000000001
 20
89.99999999999991
 30
0.0
 11
70.7875000000001
 21
89.99999999999991
 31
0.0
  0
LINE
  5
700
330
1E
100
AcDbEntity
  8
0
100
AcDbLine
 10
70.7875000000001
 20
89.99999999999991
 30
0.0
 11
72.86750000000009
 21
89.99999999999991
 31
0.0
  0
LINE
  5
701
330
1E
100
AcDbEntity
  8
0
100
AcDbLine
 10
72.86750000000009
 20
89.99999999999991
 30
0.0
 11
75.62350000000009
 21
89.99999999999991
 31
0.0
  0
LINE
  5
702
330
1E
100
AcDbEntity
  8
0
100
AcDbLine
 10
75.62350000000009
 20
89.99999999999991
 30
0.0
 11
78.74349999999998
 21
89.99999999999991
 31
0.0
  0
LINE
  5
703
330
1E
100
AcDbEntity
  8
0
100
AcDbLine
 10
93.0715000000001
 20
89.99999999999991
 30
0.0
 11
93.0715000000001
 21
93.0
 31
0.0
  0
LINE
  5
704
330
1E
100
AcDbEntity
  8
0
100
AcDbLine
 10
94.6035000000001
 20
89.99999999999991
 30
0.0
 11
95.07150000000008
 21
89.99999999999991
 31
0.0
  0
LINE
  5
705
330
1E
100
AcDbEntity
  8
0
100
AcDbLine
 10
93.3555000000001
 20
89.99999999999991
 30
0.0
 11
94.6035000000001
 21
89.99999999999991
 31
0.0
  0
LINE
  5
706
330
1E
100
AcDbEntity
  8
0
100
AcDbLine
 10
91.2755000000001
 20
89.99999999999991
 30
0.0
 11
93.3555000000001
 21
89.99999999999991
 31
0.0
  0
LINE
  5
707
330
1E
100
AcDbEntity
  8
0
100
AcDbLine
 10
88.51950000000009
 20
89.99999999999991
 30
0.0
 11
91.2755000000001
 21
89.99999999999991
 31
0.0
  0
LINE
  5
708
330
1E
100
AcDbEntity
  8
0
100
AcDbLine
 10
85.39950000000009
 20
89.99999999999991
 30
0.0
 11
88.51950000000009
 21
89.99999999999991
 31
0.0
  0
LINE
  5
709
330
1E
100
AcDbEntity
  8
0
100
AcDbLine
 10
82.07150000000011
 20
89.99999999999991
 30
0.0
 11
85.39950000000009
 21
89.99999999999991
 31
0.0
  0
LINE
  5
70A
330
1E
100
AcDbEntity
  8
0
100
AcDbLine
 10
95.07150000000008
 20
89.99999999999991
 30
0.0
 11
95.07150000000008
 21
87.0
 31
0.0
  0
LINE
  5
70B
330
1E
100
AcDbEntity
  8
0
100
AcDbLine
 10
78.74349999999998
 20
89.99999999999991
 30
0.0
 11
82.07150000000011
 21
89.99999999999991
 31
0.0
  0
LINE
  5
7BF
330
1E
100
AcDbEntity
  8
0
100
AcDbLine
 10
70.82940000000009
 20
93.0
 30
0.0
 11
71.0715000000001
 21
93.0
 31
0.0
  0
LINE
  5
7C0
330
1E
100
AcDbEntity
  8
0
100
AcDbLine
 10
70.38730000000009
 20
93.0
 30
0.0
 11
70.82940000000009
 21
93.0
 31
0.0
  0
LINE
  5
7C1
330
1E
100
AcDbEntity
  8
0
100
AcDbLine
 10
71.0715000000001
 20
93.0
 30
0.0
 11
71.4675000000001
 21
93.0
 31
0.0
  0
LINE
  5
7C2
330
1E
100
AcDbEntity
  8
0
100
AcDbLine
 10
71.0715000000001
 20
93.0
 30
0.0
 11
71.0715000000001
 21
89.99999999999991
 31
0.0
  0
LINE
  5
7C3
330
1E
100
AcDbEntity
  8
0
100
AcDbLine
 10
71.4675000000001
 20
93.0
 30
0.0
 11
72.5235000000001
 21
93.0
 31
0.0
  0
LINE
  5
7C4
330
1E
100
AcDbEntity
  8
0
100
AcDbLine
 10
72.5235000000001
 20
93.0
 30
0.0
 11
74.28350000000008
 21
93.0
 31
0.0
  0
LINE
  5
7C5
330
1E
100
AcDbEntity
  8
0
100
AcDbLine
 10
74.28350000000008
 20
93.0
 30
0.0
 11
76.61550000000009
 21
93.0
 31
0.0
  0
LINE
  5
7C7
330
1E
100
AcDbEntity
  8
0
100
AcDbLine
 10
85.10300000000009
 20
93.0
 30
0.0
 11
87.88200000000008
 21
93.0
 31
0.0
  0
LINE
  5
7CA
330
1E
100
AcDbEntity
  8
0
100
AcDbLine
 10
93.31360000000008
 20
93.0
 30
0.0
 11
93.75570000000008
 21
93.0
 31
0.0
  0
LINE
  5
7CB
330
1E
100
AcDbEntity
  8
0
100
AcDbLine
 10
93.75570000000008
 20
93.0
 30
0.0
 11
94.0715000000001
 21
93.045
 31
0.0
  0
LINE
  5
7CC
330
1E
100
AcDbEntity
  8
0
100
AcDbLine
 10
92.17679999999999
 20
93.0
 30
0.0
 11
93.31360000000008
 21
93.0
 31
0.0
  0
LINE
  5
7CD
330
1E
100
AcDbEntity
  8
0
100
AcDbLine
 10
92.6755000000001
 20
93.0
 30
0.0
 11
93.0715000000001
 21
93.0
 31
0.0
  0
LINE
  5
7CE
330
1E
100
AcDbEntity
  8
0
100
AcDbLine
 10
91.61950000000009
 20
93.0
 30
0.0
 11
92.6755000000001
 21
93.0
 31
0.0
  0
LINE
  5
7CF
330
1E
100
AcDbEntity
  8
0
100
AcDbLine
 10
89.85950000000009
 20
93.0
 30
0.0
 11
91.61950000000009
 21
93.0
 31
0.0
  0
LINE
  5
7D0
330
1E
100
AcDbEntity
  8
0
100
AcDbLine
 10
87.52750000000009
 20
93.0
 30
0.0
 11
89.85950000000009
 21
93.0
 31
0.0
  0
LINE
  5
7D1
330
1E
100
AcDbEntity
  8
0
100
AcDbLine
 10
84.8875000000001
 20
93.0
 30
0.0
 11
87.52750000000009
 21
93.0
 31
0.0
  0
LINE
  5
7D2
330
1E
100
AcDbEntity
  8
0
100
AcDbLine
 10
82.07150000000011
 20
93.0
 30
0.0
 11
84.8875000000001
 21
93.0
 31
0.0
  0
LINE
  5
7D3
330
1E
100
AcDbEntity
  8
0
100
AcDbLine
 10
82.07150000000011
 20
93.0
 30
0.0
 11
85.10300000000009
 21
93.0
 31
0.0
  0
LINE
  5
7D4
330
1E
100
AcDbEntity
  8
0
100
AcDbLine
 10
93.0715000000001
 20
93.0
 30
0.0
 11
93.0715000000001
 21
89.99999999999991
 31
0.0
  0
LINE
  5
7D5
330
1E
100
AcDbEntity
  8
0
100
AcDbLine
 10
93.0715000000001
 20
93.0
 30
0.0
 11
93.31360000000008
 21
93.0
 31
0.0
  0
LINE
  5
7D6
330
1E
100
AcDbEntity
  8
0
100
AcDbLine
 10
76.61550000000009
 20
93.0
 30
0.0
 11
79.2555000000001
 21
93.0
 31
0.0
  0
LINE
  5
7D7
330
1E
100
AcDbEntity
  8
0
100
AcDbLine
 10
79.2555000000001
 20
93.0
 30
0.0
 11
82.07150000000011
 21
93.0
 31
0.0
  0
LINE
  5
856
330
1E
100
AcDbEntity
  8
0
100
AcDbLine
 10
94.0715000000001
 20
93.045
 30
0.0
 11
94.0715000000001
 21
93.10699999999988
 31
0.0
  0
LINE
  5
857
330
1E
100
AcDbEntity
  8
0
100
AcDbLine
 10
88.17980000000011
 20
93.0899999999999
 30
0.0
 11
91.04000000000009
 21
93.16199999999991
 31
0.0
  0
LINE
  5
859
330
1E
100
AcDbEntity
  8
0
100
AcDbLine
 10
94.0715000000001
 20
93.10699999999988
 30
0.0
 11
94.0715000000001
 21
93.045
 31
0.0
  0
LINE
  5
85A
330
1E
100
AcDbEntity
  8
0
100
AcDbLine
 10
94.0715000000001
 20
93.10699999999988
 30
0.0
 11
94.0715000000001
 21
93.44599999999998
 31
0.0
  0
LINE
  5
85C
330
1E
100
AcDbEntity
  8
0
100
AcDbLine
 10
75.96310000000009
 20
93.0899999999999
 30
0.0
 11
78.80760000000009
 21
93.18700000000001
 31
0.0
  0
LINE
  5
85D
330
1E
100
AcDbEntity
  8
0
100
AcDbLine
 10
70.07150000000009
 20
93.045
 30
0.0
 11
70.07150000000009
 21
93.10699999999988
 31
0.0
  0
LINE
  5
85E
330
1E
100
AcDbEntity
  8
0
100
AcDbLine
 10
70.07150000000009
 20
93.045
 30
0.0
 11
70.38730000000009
 21
93.0
 31
0.0
  0
LINE
  5
85F
330
1E
100
AcDbEntity
  8
0
100
AcDbLine
 10
70.07150000000009
 20
93.10699999999988
 30
0.0
 11
70.07150000000009
 21
93.045
 31
0.0
  0
LINE
  5
860
330
1E
100
AcDbEntity
  8
0
100
AcDbLine
 10
70.07150000000009
 20
93.10699999999988
 30
0.0
 11
70.07150000000009
 21
93.44599999999998
 31
0.0
  0
LINE
  5
896
330
1E
100
AcDbEntity
  8
0
100
AcDbLine
 10
70.07150000000009
 20
93.89299999999998
 30
0.0
 11
70.07150000000009
 21
93.44599999999998
 31
0.0
  0
LINE
  5
897
330
1E
100
AcDbEntity
  8
0
100
AcDbLine
 10
70.07150000000009
 20
93.89299999999998
 30
0.0
 11
70.07150000000009
 21
106.0
 31
0.0
  0
LINE
  5
89C
330
1E
100
AcDbEntity
  8
0
100
AcDbLine
 10
85.33540000000009
 20
93.18700000000001
 30
0.0
 11
88.17980000000011
 21
93.0899999999999
 31
0.0
  0
LINE
  5
89D
330
1E
100
AcDbEntity
  8
0
100
AcDbLine
 10
91.04000000000009
 20
93.16199999999991
 30
0.0
 11
93.0430000000001
 21
93.44599999999998
 31
0.0
  0
LINE
  5
89E
330
1E
100
AcDbEntity
  8
0
100
AcDbLine
 10
73.1031000000001
 20
93.16199999999991
 30
0.0
 11
75.96310000000009
 21
93.0899999999999
 31
0.0
  0
LINE
  5
8A0
330
1E
100
AcDbEntity
  8
0
100
AcDbLine
 10
70.3241000000001
 20
93.44599999999998
 30
0.0
 11
71.1000000000001
 21
93.44599999999998
 31
0.0
  0
LINE
  5
8A1
330
1E
100
AcDbEntity
  8
0
100
AcDbLine
 10
83.55460000000009
 20
93.44599999999998
 30
0.0
 11
85.33540000000009
 21
93.18700000000001
 31
0.0
  0
LINE
  5
8A2
330
1E
100
AcDbEntity
  8
0
100
AcDbLine
 10
93.8189000000001
 20
93.44599999999998
 30
0.0
 11
94.0715000000001
 21
93.44599999999998
 31
0.0
  0
LINE
  5
8A3
330
1E
100
AcDbEntity
  8
0
100
AcDbLine
 10
94.0715000000001
 20
93.44599999999998
 30
0.0
 11
94.0715000000001
 21
93.89299999999998
 31
0.0
  0
LINE
  5
8A4
330
1E
100
AcDbEntity
  8
0
100
AcDbLine
 10
94.0715000000001
 20
93.44599999999998
 30
0.0
 11
94.0715000000001
 21
93.10699999999988
 31
0.0
  0
LINE
  5
8A6
330
1E
100
AcDbEntity
  8
0
100
AcDbLine
 10
93.0430000000001
 20
93.44599999999998
 30
0.0
 11
93.8189000000001
 21
93.44599999999998
 31
0.0
  0
LINE
  5
8A8
330
1E
100
AcDbEntity
  8
0
100
AcDbLine
 10
82.07150000000011
 20
93.44599999999998
 30
0.0
 11
83.55460000000009
 21
93.44599999999998
 31
0.0
  0
LINE
  5
8AB
330
1E
100
AcDbEntity
  8
0
100
AcDbLine
 10
80.58840000000008
 20
93.44599999999998
 30
0.0
 11
82.07150000000011
 21
93.44599999999998
 31
0.0
  0
LINE
  5
8AC
330
1E
100
AcDbEntity
  8
0
100
AcDbLine
 10
94.0715000000001
 20
93.89299999999998
 30
0.0
 11
94.0715000000001
 21
106.0
 31
0.0
  0
LINE
  5
8AD
330
1E
100
AcDbEntity
  8
0
100
AcDbLine
 10
94.0715000000001
 20
93.89299999999998
 30
0.0
 11
94.0715000000001
 21
93.44599999999998
 31
0.0
  0
LINE
  5
8B1
330
1E
100
AcDbEntity
  8
0
100
AcDbLine
 10
71.1000000000001
 20
93.44599999999998
 30
0.0
 11
73.1031000000001
 21
93.16199999999991
 31
0.0
  0
LINE
  5
8B5
330
1E
100
AcDbEntity
  8
0
100
AcDbLine
 10
78.80760000000009
 20
93.18700000000001
 30
0.0
 11
80.58840000000008
 21
93.44599999999998
 31
0.0
  0
LINE
  5
8B6
330
1E
100
AcDbEntity
  8
0
100
AcDbLine
 10
70.07150000000009
 20
93.44599999999998
 30
0.0
 11
70.07150000000009
 21
93.10699999999988
 31
0.0
  0
LINE
  5
8B7
330
1E
100
AcDbEntity
  8
0
100
AcDbLine
 10
70.07150000000009
 20
93.44599999999998
 30
0.0
 11
70.3241000000001
 21
93.44599999999998
 31
0.0
  0
LINE
  5
8B8
330
1E
100
AcDbEntity
  8
0
100
AcDbLine
 10
70.07150000000009
 20
93.44599999999998
 30
0.0
 11
70.07150000000009
 21
93.89299999999998
 31
0.0
  0
LINE
  5
96C
330
1E
100
AcDbEntity
  8
0
100
AcDbLine
 10
68.9557000000001
 20
106.0
 30
0.0
 11
70.07150000000009
 21
106.0
 31
0.0
  0
LINE
  5
96D
330
1E
100
AcDbEntity
  8
0
100
AcDbLine
 10
68.43990000000011
 20
106.0
 30
0.0
 11
68.9557000000001
 21
106.0
 31
0.0
  0
LINE
  5
96E
330
1E
100
AcDbEntity
  8
0
100
AcDbLine
 10
72.41890000000009
 20
106.0
 30
0.0
 11
75.29250000000009
 21
106.0
 31
0.0
  0
LINE
  5
96F
330
1E
100
AcDbEntity
  8
0
100
AcDbLine
 10
82.07150000000011
 20
106.0
 30
0.0
 11
82.76530000000009
 21
106.0
 31
0.0
  0
LINE
  5
970
330
1E
100
AcDbEntity
  8
0
100
AcDbLine
 10
82.76530000000009
 20
106.0
 30
0.0
 11
83.55460000000009
 21
106.0
 31
0.0
  0
LINE
  5
971
330
1E
100
AcDbEntity
  8
0
100
AcDbLine
 10
83.55460000000009
 20
106.0
 30
0.0
 11
85.33540000000009
 21
106.0
 31
0.0
  0
LINE
  5
972
330
1E
100
AcDbEntity
  8
0
100
AcDbLine
 10
83.55460000000009
 20
106.0
 30
0.0
 11
85.60830000000008
 21
106.0
 31
0.0
  0
LINE
  5
975
330
1E
100
AcDbEntity
  8
0
100
AcDbLine
 10
85.60830000000008
 20
106.0
 30
0.0
 11
88.85040000000008
 21
106.0
 31
0.0
  0
LINE
  5
977
330
1E
100
AcDbEntity
  8
0
100
AcDbLine
 10
85.33540000000009
 20
106.0
 30
0.0
 11
88.17980000000011
 21
106.0
 31
0.0
  0
LINE
  5
978
330
1E
100
AcDbEntity
  8
0
100
AcDbLine
 10
88.17980000000011
 20
106.0
 30
0.0
 11
91.04000000000009
 21
106.0
 31
0.0
  0
LINE
  5
979
330
1E
100
AcDbEntity
  8
0
100
AcDbLine
 10
91.72410000000009
 20
106.0
 30
0.0
 11
93.0430000000001
 21
106.0
 31
0.0
  0
LINE
  5
97A
330
1E
100
AcDbEntity
  8
0
100
AcDbLine
 10
95.70310000000009
 20
106.0
 30
0.0
 11
96.07150000000011
 21
106.045
 31
0.0
  0
LINE
  5
97B
330
1E
100
AcDbEntity
  8
0
100
AcDbLine
 10
95.1873000000001
 20
106.0
 30
0.0
 11
95.70310000000009
 21
106.0
 31
0.0
  0
LINE
  5
97E
330
1E
100
AcDbEntity
  8
0
100
AcDbLine
 10
93.7627000000001
 20
106.0
 30
0.0
 11
94.0715000000001
 21
106.0
 31
0.0
  0
LINE
  5
97F
330
1E
100
AcDbEntity
  8
0
100
AcDbLine
 10
94.0715000000001
 20
106.0
 30
0.0
 11
94.0715000000001
 21
93.89299999999998
 31
0.0
  0
LINE
  5
980
330
1E
100
AcDbEntity
  8
0
100
AcDbLine
 10
94.0715000000001
 20
106.0
 30
0.0
 11
95.1873000000001
 21
106.0
 31
0.0
  0
LINE
  5
981
330
1E
100
AcDbEntity
  8
0
100
AcDbLine
 10
91.04000000000009
 20
106.0
 30
0.0
 11
93.0430000000001
 21
106.0
 31
0.0
  0
LINE
  5
982
330
1E
100
AcDbEntity
  8
0
100
AcDbLine
 10
93.0430000000001
 20
106.0
 30
0.0
 11
93.7627000000001
 21
106.0
 31
0.0
  0
LINE
  5
983
330
1E
100
AcDbEntity
  8
0
100
AcDbLine
 10
81.37770000000008
 20
106.0
 30
0.0
 11
82.07150000000011
 21
106.0
 31
0.0
  0
LINE
  5
984
330
1E
100
AcDbEntity
  8
0
100
AcDbLine
 10
80.58840000000008
 20
106.0
 30
0.0
 11
81.37770000000008
 21
106.0
 31
0.0
  0
LINE
  5
985
330
1E
100
AcDbEntity
  8
0
100
AcDbLine
 10
78.80760000000009
 20
106.0
 30
0.0
 11
80.58840000000008
 21
106.0
 31
0.0
  0
LINE
  5
986
330
1E
100
AcDbEntity
  8
0
100
AcDbLine
 10
75.96310000000009
 20
106.0
 30
0.0
 11
78.80760000000009
 21
106.0
 31
0.0
  0
LINE
  5
987
330
1E
100
AcDbEntity
  8
0
100
AcDbLine
 10
73.1031000000001
 20
106.0
 30
0.0
 11
75.96310000000009
 21
106.0
 31
0.0
  0
LINE
  5
988
330
1E
100
AcDbEntity
  8
0
100
AcDbLine
 10
71.1000000000001
 20
106.0
 30
0.0
 11
73.1031000000001
 21
106.0
 31
0.0
  0
LINE
  5
989
330
1E
100
AcDbEntity
  8
0
100
AcDbLine
 10
70.38030000000009
 20
106.0
 30
0.0
 11
71.1000000000001
 21
106.0
 31
0.0
  0
LINE
  5
98A
330
1E
100
AcDbEntity
  8
0
100
AcDbLine
 10
70.07150000000009
 20
106.0
 30
0.0
 11
70.07150000000009
 21
93.89299999999998
 31
0.0
  0
LINE
  5
98B
330
1E
100
AcDbEntity
  8
0
100
AcDbLine
 10
70.07150000000009
 20
106.0
 30
0.0
 11
70.38030000000009
 21
106.0
 31
0.0
  0
LINE
  5
A21
330
1E
100
AcDbEntity
  8
0
100
AcDbLine
 10
96.07150000000011
 20
106.045
 30
0.0
 11
96.07150000000011
 21
106.1069999999999
 31
0.0
  0
LINE
  5
A22
330
1E
100
AcDbEntity
  8
0
100
AcDbLine
 10
68.0715000000001
 20
106.045
 30
0.0
 11
68.0715000000001
 21
106.1069999999999
 31
0.0
  0
LINE
  5
A23
330
1E
100
AcDbEntity
  8
0
100
AcDbLine
 10
68.0715000000001
 20
106.045
 30
0.0
 11
68.43990000000011
 21
106.0
 31
0.0
  0
LINE
  5
A25
330
1E
100
AcDbEntity
  8
0
100
AcDbLine
 10
68.0715000000001
 20
106.4459999999999
 30
0.0
 11
68.0715000000001
 21
106.8929999999999
 31
0.0
  0
LINE
  5
A27
330
1E
100
AcDbEntity
  8
0
100
AcDbLine
 10
68.0715000000001
 20
106.4459999999999
 30
0.0
 11
68.0715000000001
 21
106.1069999999999
 31
0.0
  0
LINE
  5
A28
330
1E
100
AcDbEntity
  8
0
100
AcDbLine
 10
89.1979
 20
106.0899999999999
 30
0.0
 11
92.5347000000001
 21
106.162
 31
0.0
  0
LINE
  5
A2C
330
1E
100
AcDbEntity
  8
0
100
AcDbLine
 10
71.6083000000001
 20
106.162
 30
0.0
 11
74.94510000000009
 21
106.0899999999999
 31
0.0
  0
LINE
  5
A2D
330
1E
100
AcDbEntity
  8
0
100
AcDbLine
 10
69.2714000000001
 20
106.4459999999999
 30
0.0
 11
71.6083000000001
 21
106.162
 31
0.0
  0
LINE
  5
A30
330
1E
100
AcDbEntity
  8
0
100
AcDbLine
 10
82.07150000000011
 20
106.4459999999999
 30
0.0
 11
83.80180000000008
 21
106.4459999999999
 31
0.0
  0
LINE
  5
A31
330
1E
100
AcDbEntity
  8
0
100
AcDbLine
 10
83.80180000000008
 20
106.4459999999999
 30
0.0
 11
85.87940000000008
 21
106.187
 31
0.0
  0
LINE
  5
A32
330
1E
100
AcDbEntity
  8
0
100
AcDbLine
 10
85.87940000000008
 20
106.187
 30
0.0
 11
89.1979
 21
106.0899999999999
 31
0.0
  0
LINE
  5
A33
330
1E
100
AcDbEntity
  8
0
100
AcDbLine
 10
95.77680000000009
 20
106.4459999999999
 30
0.0
 11
96.07150000000011
 21
106.4459999999999
 31
0.0
  0
LINE
  5
A37
330
1E
100
AcDbEntity
  8
0
100
AcDbLine
 10
96.07150000000011
 20
106.4459999999999
 30
0.0
 11
96.07150000000011
 21
106.1069999999999
 31
0.0
  0
LINE
  5
A38
330
1E
100
AcDbEntity
  8
0
100
AcDbLine
 10
96.07150000000011
 20
106.4459999999999
 30
0.0
 11
96.07150000000011
 21
106.8929999999999
 31
0.0
  0
LINE
  5
A39
330
1E
100
AcDbEntity
  8
0
100
AcDbLine
 10
96.07150000000011
 20
106.1069999999999
 30
0.0
 11
96.07150000000011
 21
106.045
 31
0.0
  0
LINE
  5
A3A
330
1E
100
AcDbEntity
  8
0
100
AcDbLine
 10
96.07150000000011
 20
106.1069999999999
 30
0.0
 11
96.07150000000011
 21
106.4459999999999
 31
0.0
  0
LINE
  5
A3B
330
1E
100
AcDbEntity
  8
0
100
AcDbLine
 10
92.5347000000001
 20
106.162
 30
0.0
 11
94.8716000000001
 21
106.4459999999999
 31
0.0
  0
LINE
  5
A3D
330
1E
100
AcDbEntity
  8
0
100
AcDbLine
 10
94.8716000000001
 20
106.4459999999999
 30
0.0
 11
95.77680000000009
 21
106.4459999999999
 31
0.0
  0
LINE
  5
A43
330
1E
100
AcDbEntity
  8
0
100
AcDbLine
 10
80.3412000000001
 20
106.4459999999999
 30
0.0
 11
82.07150000000011
 21
106.4459999999999
 31
0.0
  0
LINE
  5
A45
330
1E
100
AcDbEntity
  8
0
100
AcDbLine
 10
78.26360000000009
 20
106.187
 30
0.0
 11
80.3412000000001
 21
106.4459999999999
 31
0.0
  0
LINE
  5
A46
330
1E
100
AcDbEntity
  8
0
100
AcDbLine
 10
74.94510000000009
 20
106.0899999999999
 30
0.0
 11
78.26360000000009
 21
106.187
 31
0.0
  0
LINE
  5
A48
330
1E
100
AcDbEntity
  8
0
100
AcDbLine
 10
68.0715000000001
 20
106.1069999999999
 30
0.0
 11
68.0715000000001
 21
106.4459999999999
 31
0.0
  0
LINE
  5
A49
330
1E
100
AcDbEntity
  8
0
100
AcDbLine
 10
68.0715000000001
 20
106.1069999999999
 30
0.0
 11
68.0715000000001
 21
106.045
 31
0.0
  0
LINE
  5
A4A
330
1E
100
AcDbEntity
  8
0
100
AcDbLine
 10
19.0715000000001
 20
108.0
 30
0.0
 11
472.0715
 21
108.0
 31
0.0
  0
LINE
  5
A4B
330
1E
100
AcDbEntity
  8
0
100
AcDbLine
 10
19.0715000000001
 20
108.0
 30
0.0
 11
472.0715
 21
108.0
 31
0.0
  0
LINE
  5
A4C
330
1E
100
AcDbEntity
  8
0
100
AcDbLine
 10
68.0715000000001
 20
108.0
 30
0.0
 11
68.0715000000001
 21
106.8929999999999
 31
0.0
  0
LINE
  5
A4E
330
1E
100
AcDbEntity
  8
0
100
AcDbLine
 10
96.07150000000011
 20
106.8929999999999
 30
0.0
 11
96.07150000000011
 21
106.4459999999999
 31
0.0
  0
LINE
  5
A4F
330
1E
100
AcDbEntity
  8
0
100
AcDbLine
 10
96.07150000000011
 20
106.8929999999999
 30
0.0
 11
96.07150000000011
 21
108.0
 31
0.0
  0
LINE
  5
A53
330
1E
100
AcDbEntity
  8
0
100
AcDbLine
 10
96.07150000000011
 20
108.0
 30
0.0
 11
96.07150000000011
 21
106.8929999999999
 31
0.0
  0
LINE
  5
A55
330
1E
100
AcDbEntity
  8
0
100
AcDbLine
 10
68.0715000000001
 20
106.8929999999999
 30
0.0
 11
68.0715000000001
 21
108.0
 31
0.0
  0
LINE
  5
A57
330
1E
100
AcDbEntity
  8
0
100
AcDbLine
 10
68.0715000000001
 20
106.8929999999999
 30
0.0
 11
68.0715000000001
 21
106.4459999999999
 31
0.0
  0
LINE
  5
A59
330
1E
100
AcDbEntity
  8
0
100
AcDbLine
 10
68.0715000000001
 20
106.8929999999999
 30
0.0
 11
69.2714000000001
 21
106.4459999999999
 31
0.0
  0
LINE
  5
A5A
330
1E
100
AcDbEntity
  8
0
100
AcDbLine
 10
0.0715000000000545
 20
401.0
 30
0.0
 11
0.0715000000000545
 21
384.0
 31
0.0
  0
LINE
  5
A5B
330
1E
100
AcDbEntity
  8
0
100
AcDbLine
 10
0.0715000000000545
 20
401.0
 30
0.0
 11
14.0715000000001
 21
401.0
 31
0.0
  0
LINE
  5
A5C
330
1E
100
AcDbEntity
  8
0
100
AcDbLine
 10
0.0715000000000545
 20
384.0
 30
0.0
 11
14.0715000000001
 21
384.0
 31
0.0
  0
LINE
  5
A5D
330
1E
100
AcDbEntity
  8
0
100
AcDbLine
 10
0.0715000000000545
 20
384.0
 30
0.0
 11
0.0715000000000545
 21
401.0
 31
0.0
  0
LINE
  5
A5E
330
1E
100
AcDbEntity
  8
0
100
AcDbLine
 10
14.0715000000001
 20
416.0
 30
0.0
 11
14.2515000000001
 21
417.2799999999999
 31
0.0
  0
LINE
  5
A5F
330
1E
100
AcDbEntity
  8
0
100
AcDbLine
 10
14.0715000000001
 20
416.0
 30
0.0
 11
14.0715000000001
 21
284.0
 31
0.0
  0
LINE
  5
A60
330
1E
100
AcDbEntity
  8
0
100
AcDbLine
 10
14.0715000000001
 20
284.0
 30
0.0
 11
14.0715000000001
 21
113.0
 31
0.0
  0
LINE
  5
A61
330
1E
100
AcDbEntity
  8
0
100
AcDbLine
 10
14.0715000000001
 20
284.0
 30
0.0
 11
14.0715000000001
 21
416.0
 31
0.0
  0
LINE
  5
A62
330
1E
100
AcDbEntity
  8
0
100
AcDbLine
 10
14.7315000000001
 20
110.5199999999999
 30
0.0
 11
15.5315000000001
 21
109.46
 31
0.0
  0
LINE
  5
A63
330
1E
100
AcDbEntity
  8
0
100
AcDbLine
 10
17.7915000000001
 20
108.18
 30
0.0
 11
19.0715000000001
 21
108.0
 31
0.0
  0
LINE
  5
A64
330
1E
100
AcDbEntity
  8
0
100
AcDbLine
 10
16.5915000000001
 20
108.66
 30
0.0
 11
17.7915000000001
 21
108.18
 31
0.0
  0
LINE
  5
A65
330
1E
100
AcDbEntity
  8
0
100
AcDbLine
 10
15.5315000000001
 20
109.46
 30
0.0
 11
16.5915000000001
 21
108.66
 31
0.0
  0
LINE
  5
A66
330
1E
100
AcDbEntity
  8
0
100
AcDbLine
 10
14.7315000000001
 20
110.5199999999999
 30
0.0
 11
15.5315000000001
 21
109.46
 31
0.0
  0
LINE
  5
A67
330
1E
100
AcDbEntity
  8
0
100
AcDbLine
 10
14.2515000000001
 20
417.2799999999999
 30
0.0
 11
14.7315000000001
 21
418.48
 31
0.0
  0
LINE
  5
A68
330
1E
100
AcDbEntity
  8
0
100
AcDbLine
 10
16.5915000000001
 20
420.34
 30
0.0
 11
17.7915000000001
 21
420.8199999999998
 31
0.0
  0
LINE
  5
A69
330
1E
100
AcDbEntity
  8
0
100
AcDbLine
 10
17.7915000000001
 20
420.8199999999998
 30
0.0
 11
19.0715000000001
 21
421.0
 31
0.0
  0
LINE
  5
A6A
330
1E
100
AcDbEntity
  8
0
100
AcDbLine
 10
19.0715000000001
 20
421.0
 30
0.0
 11
325.0715
 21
421.0
 31
0.0
  0
LINE
  5
A6B
330
1E
100
AcDbEntity
  8
0
100
AcDbLine
 10
19.0715000000001
 20
421.0
 30
0.0
 11
325.0715
 21
421.0
 31
0.0
  0
LINE
  5
A6C
330
1E
100
AcDbEntity
  8
0
100
AcDbLine
 10
15.5315000000001
 20
419.54
 30
0.0
 11
16.5915000000001
 21
420.34
 31
0.0
  0
LINE
  5
A6D
330
1E
100
AcDbEntity
  8
0
100
AcDbLine
 10
14.7315000000001
 20
418.48
 30
0.0
 11
15.5315000000001
 21
419.54
 31
0.0
  0
LINE
  5
A6E
330
1E
100
AcDbEntity
  8
0
100
AcDbLine
 10
14.2515000000001
 20
111.7199999999999
 30
0.0
 11
14.7315000000001
 21
110.5199999999999
 31
0.0
  0
LINE
  5
A6F
330
1E
100
AcDbEntity
  8
0
100
AcDbLine
 10
14.0715000000001
 20
113.0
 30
0.0
 11
14.2515000000001
 21
111.7199999999999
 31
0.0
  0
LINE
  5
A70
330
1E
100
AcDbEntity
  8
0
100
AcDbLine
 10
14.0715000000001
 20
113.0
 30
0.0
 11
14.0715000000001
 21
284.0
 31
0.0
  0
LINE
  5
C64
330
1E
100
AcDbEntity
  8
0
100
AcDbLine
 10
325.0715
 20
284.0
 30
0.0
 11
477.0715
 21
284.0
 31
0.0
  0
LINE
  5
C65
330
1E
100
AcDbEntity
  8
0
100
AcDbLine
 10
325.0715
 20
284.0
 30
0.0
 11
325.0715
 21
421.0
 31
0.0
  0
LINE
  5
C70
330
1E
100
AcDbEntity
  8
0
100
AcDbLine
 10
325.0715
 20
418.0
 30
0.0
 11
327.0715
 21
418.0
 31
0.0
  0
LINE
  5
C71
330
1E
100
AcDbEntity
  8
0
100
AcDbLine
 10
325.0715
 20
421.0
 30
0.0
 11
325.0715
 21
284.0
 31
0.0
  0
LINE
  5
C72
330
1E
100
AcDbEntity
  8
0
100
AcDbLine
 10
327.0715
 20
286.0
 30
0.0
 11
327.0715
 21
421.0
 31
0.0
  0
LINE
  5
C73
330
1E
100
AcDbEntity
  8
0
100
AcDbLine
 10
327.0715
 20
286.0
 30
0.0
 11
477.0715
 21
286.0
 31
0.0
  0
LINE
  5
C74
330
1E
100
AcDbEntity
  8
0
100
AcDbLine
 10
327.0715
 20
421.0
 30
0.0
 11
472.0715
 21
421.0
 31
0.0
  0
LINE
  5
C75
330
1E
100
AcDbEntity
  8
0
100
AcDbLine
 10
327.0715
 20
421.0
 30
0.0
 11
327.0715
 21
286.0
 31
0.0
  0
LINE
  5
EEA
330
1E
100
AcDbEntity
  8
0
100
AcDbLine
 10
472.0715
 20
108.0
 30
0.0
 11
473.3514999999998
 21
108.18
 31
0.0
  0
LINE
  5
EEB
330
1E
100
AcDbEntity
  8
0
100
AcDbLine
 10
474.0715
 20
286.0
 30
0.0
 11
474.0715
 21
284.0
 31
0.0
  0
LINE
  5
EEC
330
1E
100
AcDbEntity
  8
0
100
AcDbLine
 10
474.0715
 20
284.0
 30
0.0
 11
474.0715
 21
286.0
 31
0.0
  0
LINE
  5
EED
330
1E
100
AcDbEntity
  8
0
100
AcDbLine
 10
474.5515
 20
108.66
 30
0.0
 11
475.6115
 21
109.46
 31
0.0
  0
LINE
  5
EEE
330
1E
100
AcDbEntity
  8
0
100
AcDbLine
 10
475.6115
 20
109.46
 30
0.0
 11
476.4115
 21
110.5199999999999
 31
0.0
  0
LINE
  5
EEF
330
1E
100
AcDbEntity
  8
0
100
AcDbLine
 10
473.3514999999998
 20
108.18
 30
0.0
 11
474.5515
 21
108.66
 31
0.0
  0
LINE
  5
EF0
330
1E
100
AcDbEntity
  8
0
100
AcDbLine
 10
476.4115
 20
110.5199999999999
 30
0.0
 11
476.8914999999998
 21
111.7199999999999
 31
0.0
  0
LINE
  5
EF1
330
1E
100
AcDbEntity
  8
0
100
AcDbLine
 10
477.0715
 20
233.0
 30
0.0
 11
479.0715
 21
233.0
 31
0.0
  0
LINE
  5
EF2
330
1E
100
AcDbEntity
  8
0
100
AcDbLine
 10
477.0715
 20
211.0
 30
0.0
 11
479.0715
 21
211.0
 31
0.0
  0
LINE
  5
EF3
330
1E
100
AcDbEntity
  8
0
100
AcDbLine
 10
477.0715
 20
401.0
 30
0.0
 11
491.0715
 21
401.0
 31
0.0
  0
LINE
  5
EF4
330
1E
100
AcDbEntity
  8
0
100
AcDbLine
 10
477.0715
 20
384.0
 30
0.0
 11
491.0715
 21
384.0
 31
0.0
  0
LINE
  5
EF5
330
1E
100
AcDbEntity
  8
0
100
AcDbLine
 10
477.0715
 20
284.0
 30
0.0
 11
477.0715
 21
113.0
 31
0.0
  0
LINE
  5
EF6
330
1E
100
AcDbEntity
  8
0
100
AcDbLine
 10
477.0715
 20
113.0
 30
0.0
 11
477.0715
 21
284.0
 31
0.0
  0
LINE
  5
EF7
330
1E
100
AcDbEntity
  8
0
100
AcDbLine
 10
476.8914999999998
 20
111.7199999999999
 30
0.0
 11
477.0715
 21
113.0
 31
0.0
  0
LINE
  5
EF8
330
1E
100
AcDbEntity
  8
0
100
AcDbLine
 10
477.0715
 20
416.0
 30
0.0
 11
477.0715
 21
286.0
 31
0.0
  0
LINE
  5
EF9
330
1E
100
AcDbEntity
  8
0
100
AcDbLine
 10
479.0715
 20
210.3089999999999
 30
0.0
 11
479.0715
 21
210.0
 31
0.0
  0
LINE
  5
EFA
330
1E
100
AcDbEntity
  8
0
100
AcDbLine
 10
479.0715
 20
210.3089999999999
 30
0.0
 11
479.0715
 21
211.0
 31
0.0
  0
LINE
  5
EFB
330
1E
100
AcDbEntity
  8
0
100
AcDbLine
 10
479.0715
 20
211.396
 30
0.0
 11
479.0715
 21
211.0
 31
0.0
  0
LINE
  5
EFC
330
1E
100
AcDbEntity
  8
0
100
AcDbLine
 10
479.0715
 20
212.4519999999999
 30
0.0
 11
479.0715
 21
211.396
 31
0.0
  0
LINE
  5
EFD
330
1E
100
AcDbEntity
  8
0
100
AcDbLine
 10
479.0715
 20
214.2119999999999
 30
0.0
 11
479.0715
 21
212.4519999999999
 31
0.0
  0
LINE
  5
EFE
330
1E
100
AcDbEntity
  8
0
100
AcDbLine
 10
479.0715
 20
216.544
 30
0.0
 11
479.0715
 21
214.2119999999999
 31
0.0
  0
LINE
  5
EFF
330
1E
100
AcDbEntity
  8
0
100
AcDbLine
 10
479.0715
 20
219.184
 30
0.0
 11
479.0715
 21
216.544
 31
0.0
  0
LINE
  5
F00
330
1E
100
AcDbEntity
  8
0
100
AcDbLine
 10
479.0715
 20
224.8159999999999
 30
0.0
 11
479.0715
 21
222.0
 31
0.0
  0
LINE
  5
F01
330
1E
100
AcDbEntity
  8
0
100
AcDbLine
 10
479.0715
 20
222.6939999999999
 30
0.0
 11
479.0715
 21
222.0
 31
0.0
  0
LINE
  5
F02
330
1E
100
AcDbEntity
  8
0
100
AcDbLine
 10
479.0715
 20
223.483
 30
0.0
 11
479.0715
 21
222.6939999999999
 31
0.0
  0
LINE
  5
F03
330
1E
100
AcDbEntity
  8
0
100
AcDbLine
 10
479.0715
 20
229.7879999999998
 30
0.0
 11
479.0715
 21
227.456
 31
0.0
  0
LINE
  5
F04
330
1E
100
AcDbEntity
  8
0
100
AcDbLine
 10
479.0715
 20
227.456
 30
0.0
 11
479.0715
 21
224.8159999999999
 31
0.0
  0
LINE
  5
F05
330
1E
100
AcDbEntity
  8
0
100
AcDbLine
 10
479.0715
 20
225.2639999999999
 30
0.0
 11
479.0715
 21
223.483
 31
0.0
  0
LINE
  5
F06
330
1E
100
AcDbEntity
  8
0
100
AcDbLine
 10
479.0715
 20
228.108
 30
0.0
 11
479.0715
 21
225.2639999999999
 31
0.0
  0
LINE
  5
F07
330
1E
100
AcDbEntity
  8
0
100
AcDbLine
 10
479.0715
 20
232.604
 30
0.0
 11
479.0715
 21
231.5479999999999
 31
0.0
  0
LINE
  5
F08
330
1E
100
AcDbEntity
  8
0
100
AcDbLine
 10
479.0715
 20
231.5479999999999
 30
0.0
 11
479.0715
 21
229.7879999999998
 31
0.0
  0
LINE
  5
F09
330
1E
100
AcDbEntity
  8
0
100
AcDbLine
 10
479.0715
 20
230.9689999999999
 30
0.0
 11
479.0715
 21
228.108
 31
0.0
  0
LINE
  5
F0A
330
1E
100
AcDbEntity
  8
0
100
AcDbLine
 10
479.0715
 20
232.9709999999999
 30
0.0
 11
479.0715
 21
230.9689999999999
 31
0.0
  0
LINE
  5
F0B
330
1E
100
AcDbEntity
  8
0
100
AcDbLine
 10
479.0715
 20
234.0
 30
0.0
 11
491.1785
 21
234.0
 31
0.0
  0
LINE
  5
F0C
330
1E
100
AcDbEntity
  8
0
100
AcDbLine
 10
479.0715
 20
234.0
 30
0.0
 11
479.0715
 21
233.6909999999999
 31
0.0
  0
LINE
  5
F0D
330
1E
100
AcDbEntity
  8
0
100
AcDbLine
 10
479.0715
 20
233.6909999999999
 30
0.0
 11
479.0715
 21
232.9709999999999
 31
0.0
  0
LINE
  5
F0E
330
1E
100
AcDbEntity
  8
0
100
AcDbLine
 10
479.0715
 20
233.6909999999999
 30
0.0
 11
479.0715
 21
234.0
 31
0.0
  0
LINE
  5
F0F
330
1E
100
AcDbEntity
  8
0
100
AcDbLine
 10
479.0715
 20
233.0
 30
0.0
 11
479.0715
 21
233.6909999999999
 31
0.0
  0
LINE
  5
F10
330
1E
100
AcDbEntity
  8
0
100
AcDbLine
 10
479.0715
 20
233.0
 30
0.0
 11
479.0715
 21
232.604
 31
0.0
  0
LINE
  5
F11
330
1E
100
AcDbEntity
  8
0
100
AcDbLine
 10
479.0715
 20
222.0
 30
0.0
 11
479.0715
 21
221.306
 31
0.0
  0
LINE
  5
F12
330
1E
100
AcDbEntity
  8
0
100
AcDbLine
 10
479.0715
 20
222.0
 30
0.0
 11
479.0715
 21
219.184
 31
0.0
  0
LINE
  5
F13
330
1E
100
AcDbEntity
  8
0
100
AcDbLine
 10
479.0715
 20
221.306
 30
0.0
 11
479.0715
 21
220.5169999999998
 31
0.0
  0
LINE
  5
F14
330
1E
100
AcDbEntity
  8
0
100
AcDbLine
 10
479.0715
 20
220.5169999999998
 30
0.0
 11
479.0715
 21
218.7359999999999
 31
0.0
  0
LINE
  5
F15
330
1E
100
AcDbEntity
  8
0
100
AcDbLine
 10
479.0715
 20
218.7359999999999
 30
0.0
 11
479.0715
 21
215.892
 31
0.0
  0
LINE
  5
F16
330
1E
100
AcDbEntity
  8
0
100
AcDbLine
 10
479.0715
 20
215.892
 30
0.0
 11
479.0715
 21
213.032
 31
0.0
  0
LINE
  5
F17
330
1E
100
AcDbEntity
  8
0
100
AcDbLine
 10
479.0715
 20
213.032
 30
0.0
 11
479.0715
 21
211.0289999999999
 31
0.0
  0
LINE
  5
F18
330
1E
100
AcDbEntity
  8
0
100
AcDbLine
 10
479.0715
 20
211.0289999999999
 30
0.0
 11
479.0715
 21
210.3089999999999
 31
0.0
  0
LINE
  5
F19
330
1E
100
AcDbEntity
  8
0
100
AcDbLine
 10
491.1785
 20
210.0
 30
0.0
 11
491.6254999999998
 21
210.0
 31
0.0
  0
LINE
  5
F1A
330
1E
100
AcDbEntity
  8
0
100
AcDbLine
 10
492.0264999999998
 20
210.0
 30
0.0
 11
492.0715
 21
210.3159999999999
 31
0.0
  0
LINE
  5
F1B
330
1E
100
AcDbEntity
  8
0
100
AcDbLine
 10
491.6254999999998
 20
210.0
 30
0.0
 11
491.9645
 21
210.0
 31
0.0
  0
LINE
  5
F1C
330
1E
100
AcDbEntity
  8
0
100
AcDbLine
 10
491.6254999999998
 20
210.0
 30
0.0
 11
491.6254999999998
 21
210.2529999999998
 31
0.0
  0
LINE
  5
F1D
330
1E
100
AcDbEntity
  8
0
100
AcDbLine
 10
491.6254999999998
 20
210.2529999999998
 30
0.0
 11
491.6254999999998
 21
210.0
 31
0.0
  0
LINE
  5
F1F
330
1E
100
AcDbEntity
  8
0
100
AcDbLine
 10
491.6254999999998
 20
210.2529999999998
 30
0.0
 11
491.6254999999998
 21
211.0289999999999
 31
0.0
  0
LINE
  5
F21
330
1E
100
AcDbEntity
  8
0
100
AcDbLine
 10
491.9094999999999
 20
213.032
 30
0.0
 11
491.9814999999998
 21
215.892
 31
0.0
  0
LINE
  5
F22
330
1E
100
AcDbEntity
  8
0
100
AcDbLine
 10
491.6254999999998
 20
211.0289999999999
 30
0.0
 11
491.9094999999999
 21
213.032
 31
0.0
  0
LINE
  5
F24
330
1E
100
AcDbEntity
  8
0
100
AcDbLine
 10
491.6254999999998
 20
211.0289999999999
 30
0.0
 11
491.6254999999998
 21
210.2529999999998
 31
0.0
  0
LINE
  5
F25
330
1E
100
AcDbEntity
  8
0
100
AcDbLine
 10
491.1785
 20
234.0
 30
0.0
 11
491.6254999999998
 21
234.0
 31
0.0
  0
LINE
  5
F26
330
1E
100
AcDbEntity
  8
0
100
AcDbLine
 10
491.1785
 20
222.6939999999999
 30
0.0
 11
491.6254999999998
 21
223.483
 31
0.0
  0
LINE
  5
F27
330
1E
100
AcDbEntity
  8
0
100
AcDbLine
 10
491.1785
 20
222.6939999999999
 30
0.0
 11
491.1785
 21
222.0
 31
0.0
  0
LINE
  5
F28
330
1E
100
AcDbEntity
  8
0
100
AcDbLine
 10
491.6254999999998
 20
223.483
 30
0.0
 11
491.8845
 21
225.2639999999999
 31
0.0
  0
LINE
  5
F2C
330
1E
100
AcDbEntity
  8
0
100
AcDbLine
 10
491.6254999999998
 20
233.747
 30
0.0
 11
491.6254999999998
 21
232.9709999999999
 31
0.0
  0
LINE
  5
F2D
330
1E
100
AcDbEntity
  8
0
100
AcDbLine
 10
491.6254999999998
 20
233.747
 30
0.0
 11
491.6254999999998
 21
234.0
 31
0.0
  0
LINE
  5
F2E
330
1E
100
AcDbEntity
  8
0
100
AcDbLine
 10
491.6254999999998
 20
234.0
 30
0.0
 11
491.9645
 21
234.0
 31
0.0
  0
LINE
  5
F2F
330
1E
100
AcDbEntity
  8
0
100
AcDbLine
 10
491.6254999999998
 20
234.0
 30
0.0
 11
491.6254999999998
 21
233.747
 31
0.0
  0
LINE
  5
F30
330
1E
100
AcDbEntity
  8
0
100
AcDbLine
 10
491.6254999999998
 20
232.9709999999999
 30
0.0
 11
491.9094999999999
 21
230.9689999999999
 31
0.0
  0
LINE
  5
F32
330
1E
100
AcDbEntity
  8
0
100
AcDbLine
 10
491.6254999999998
 20
232.9709999999999
 30
0.0
 11
491.6254999999998
 21
233.747
 31
0.0
  0
LINE
  5
F34
330
1E
100
AcDbEntity
  8
0
100
AcDbLine
 10
491.1785
 20
222.0
 30
0.0
 11
491.1785
 21
221.306
 31
0.0
  0
LINE
  5
F35
330
1E
100
AcDbEntity
  8
0
100
AcDbLine
 10
491.1785
 20
222.0
 30
0.0
 11
491.1785
 21
222.6939999999999
 31
0.0
  0
LINE
  5
F39
330
1E
100
AcDbEntity
  8
0
100
AcDbLine
 10
491.1785
 20
221.306
 30
0.0
 11
491.6254999999998
 21
220.5169999999998
 31
0.0
  0
LINE
  5
F3A
330
1E
100
AcDbEntity
  8
0
100
AcDbLine
 10
491.1785
 20
221.306
 30
0.0
 11
491.1785
 21
222.0
 31
0.0
  0
LINE
  5
F3E
330
1E
100
AcDbEntity
  8
0
100
AcDbLine
 10
491.8845
 20
225.2639999999999
 30
0.0
 11
491.9814999999998
 21
228.108
 31
0.0
  0
LINE
  5
F40
330
1E
100
AcDbEntity
  8
0
100
AcDbLine
 10
491.9645
 20
234.0
 30
0.0
 11
492.0264999999998
 21
234.0
 31
0.0
  0
LINE
  5
F41
330
1E
100
AcDbEntity
  8
0
100
AcDbLine
 10
491.9094999999999
 20
230.9689999999999
 30
0.0
 11
491.9814999999998
 21
228.108
 31
0.0
  0
LINE
  5
F42
330
1E
100
AcDbEntity
  8
0
100
AcDbLine
 10
491.6254999999998
 20
220.5169999999998
 30
0.0
 11
491.8845
 21
218.7359999999999
 31
0.0
  0
LINE
  5
F46
330
1E
100
AcDbEntity
  8
0
100
AcDbLine
 10
491.8845
 20
218.7359999999999
 30
0.0
 11
491.9814999999998
 21
215.892
 31
0.0
  0
LINE
  5
F47
330
1E
100
AcDbEntity
  8
0
100
AcDbLine
 10
492.0715
 20
212.0
 30
0.0
 11
493.4944999999999
 21
212.0
 31
0.0
  0
LINE
  5
F48
330
1E
100
AcDbEntity
  8
0
100
AcDbLine
 10
492.0715
 20
213.7259999999999
 30
0.0
 11
492.0715
 21
216.189
 31
0.0
  0
LINE
  5
F49
330
1E
100
AcDbEntity
  8
0
100
AcDbLine
 10
492.0715
 20
213.7259999999999
 30
0.0
 11
492.0715
 21
211.895
 31
0.0
  0
LINE
  5
F4A
330
1E
100
AcDbEntity
  8
0
100
AcDbLine
 10
492.0715
 20
211.895
 30
0.0
 11
492.0715
 21
213.7259999999999
 31
0.0
  0
LINE
  5
F4B
330
1E
100
AcDbEntity
  8
0
100
AcDbLine
 10
492.0715
 20
211.895
 30
0.0
 11
492.0715
 21
210.758
 31
0.0
  0
LINE
  5
F4C
330
1E
100
AcDbEntity
  8
0
100
AcDbLine
 10
492.0715
 20
232.0
 30
0.0
 11
493.4944999999999
 21
232.0
 31
0.0
  0
LINE
  5
F4D
330
1E
100
AcDbEntity
  8
0
100
AcDbLine
 10
492.0715
 20
230.274
 30
0.0
 11
492.0715
 21
227.81
 31
0.0
  0
LINE
  5
F4E
330
1E
100
AcDbEntity
  8
0
100
AcDbLine
 10
492.0715
 20
230.274
 30
0.0
 11
492.0715
 21
232.105
 31
0.0
  0
LINE
  5
F4F
330
1E
100
AcDbEntity
  8
0
100
AcDbLine
 10
492.0715
 20
227.81
 30
0.0
 11
492.0715
 21
225.0309999999998
 31
0.0
  0
LINE
  5
F50
330
1E
100
AcDbEntity
  8
0
100
AcDbLine
 10
492.0715
 20
227.81
 30
0.0
 11
492.0715
 21
230.274
 31
0.0
  0
LINE
  5
F51
330
1E
100
AcDbEntity
  8
0
100
AcDbLine
 10
492.0715
 20
232.105
 30
0.0
 11
492.0715
 21
230.274
 31
0.0
  0
LINE
  5
F52
330
1E
100
AcDbEntity
  8
0
100
AcDbLine
 10
492.0715
 20
232.105
 30
0.0
 11
492.0715
 21
233.2419999999999
 31
0.0
  0
LINE
  5
F53
330
1E
100
AcDbEntity
  8
0
100
AcDbLine
 10
492.0715
 20
233.684
 30
0.0
 11
492.0715
 21
233.2419999999999
 31
0.0
  0
LINE
  5
F54
330
1E
100
AcDbEntity
  8
0
100
AcDbLine
 10
492.0264999999998
 20
234.0
 30
0.0
 11
492.0715
 21
233.684
 31
0.0
  0
LINE
  5
F55
330
1E
100
AcDbEntity
  8
0
100
AcDbLine
 10
492.0715
 20
233.2419999999999
 30
0.0
 11
492.0715
 21
232.105
 31
0.0
  0
LINE
  5
F56
330
1E
100
AcDbEntity
  8
0
100
AcDbLine
 10
492.0715
 20
233.2419999999999
 30
0.0
 11
492.0715
 21
233.684
 31
0.0
  0
LINE
  5
F57
330
1E
100
AcDbEntity
  8
0
100
AcDbLine
 10
492.0715
 20
225.0309999999998
 30
0.0
 11
492.0715
 21
222.0
 31
0.0
  0
LINE
  5
F58
330
1E
100
AcDbEntity
  8
0
100
AcDbLine
 10
492.0715
 20
225.0309999999998
 30
0.0
 11
492.0715
 21
227.81
 31
0.0
  0
LINE
  5
F59
330
1E
100
AcDbEntity
  8
0
100
AcDbLine
 10
492.0715
 20
222.0
 30
0.0
 11
492.0715
 21
218.969
 31
0.0
  0
LINE
  5
F5A
330
1E
100
AcDbEntity
  8
0
100
AcDbLine
 10
492.0715
 20
222.0
 30
0.0
 11
492.0715
 21
225.0309999999998
 31
0.0
  0
LINE
  5
F5B
330
1E
100
AcDbEntity
  8
0
100
AcDbLine
 10
492.0715
 20
218.969
 30
0.0
 11
492.0715
 21
216.189
 31
0.0
  0
LINE
  5
F5C
330
1E
100
AcDbEntity
  8
0
100
AcDbLine
 10
492.0715
 20
218.969
 30
0.0
 11
492.0715
 21
222.0
 31
0.0
  0
LINE
  5
F5D
330
1E
100
AcDbEntity
  8
0
100
AcDbLine
 10
492.0715
 20
216.189
 30
0.0
 11
492.0715
 21
218.969
 31
0.0
  0
LINE
  5
F5E
330
1E
100
AcDbEntity
  8
0
100
AcDbLine
 10
492.0715
 20
216.189
 30
0.0
 11
492.0715
 21
213.7259999999999
 31
0.0
  0
LINE
  5
F60
330
1E
100
AcDbEntity
  8
0
100
AcDbLine
 10
492.0715
 20
210.758
 30
0.0
 11
492.0715
 21
210.3159999999999
 31
0.0
  0
LINE
  5
F61
330
1E
100
AcDbEntity
  8
0
100
AcDbLine
 10
492.0715
 20
210.758
 30
0.0
 11
492.0715
 21
211.895
 31
0.0
  0
LINE
  5
F62
330
1E
100
AcDbEntity
  8
0
100
AcDbLine
 10
493.8794999999998
 20
212.1469999999999
 30
0.0
 11
493.8794999999998
 21
212.5
 31
0.0
  0
LINE
  5
F63
330
1E
100
AcDbEntity
  8
0
100
AcDbLine
 10
493.8794999999998
 20
212.1469999999999
 30
0.0
 11
494.0714999999999
 21
212.4409999999998
 31
0.0
  0
LINE
  5
F64
330
1E
100
AcDbEntity
  8
0
100
AcDbLine
 10
493.8794999999998
 20
213.4709999999998
 30
0.0
 11
493.8794999999998
 21
212.5
 31
0.0
  0
LINE
  5
F65
330
1E
100
AcDbEntity
  8
0
100
AcDbLine
 10
493.8794999999998
 20
213.4709999999998
 30
0.0
 11
493.8794999999998
 21
215.029
 31
0.0
  0
LINE
  5
F66
330
1E
100
AcDbEntity
  8
0
100
AcDbLine
 10
493.8794999999998
 20
212.5
 30
0.0
 11
493.8794999999998
 21
212.1469999999999
 31
0.0
  0
LINE
  5
F67
330
1E
100
AcDbEntity
  8
0
100
AcDbLine
 10
493.8794999999998
 20
212.5
 30
0.0
 11
493.8794999999998
 21
213.4709999999998
 31
0.0
  0
LINE
  5
F68
330
1E
100
AcDbEntity
  8
0
100
AcDbLine
 10
493.4944999999999
 20
212.0
 30
0.0
 11
493.8794999999998
 21
212.1469999999999
 31
0.0
  0
LINE
  5
F69
330
1E
100
AcDbEntity
  8
0
100
AcDbLine
 10
493.8794999999998
 20
215.029
 30
0.0
 11
493.8794999999998
 21
217.0879999999999
 31
0.0
  0
LINE
  5
F6A
330
1E
100
AcDbEntity
  8
0
100
AcDbLine
 10
493.8794999999998
 20
215.029
 30
0.0
 11
493.8794999999998
 21
213.4709999999998
 31
0.0
  0
LINE
  5
F6B
330
1E
100
AcDbEntity
  8
0
100
AcDbLine
 10
493.8794999999998
 20
217.0879999999999
 30
0.0
 11
493.8794999999998
 21
215.029
 31
0.0
  0
LINE
  5
F6C
330
1E
100
AcDbEntity
  8
0
100
AcDbLine
 10
493.8794999999998
 20
217.0879999999999
 30
0.0
 11
493.8794999999998
 21
219.4709999999998
 31
0.0
  0
LINE
  5
F6D
330
1E
100
AcDbEntity
  8
0
100
AcDbLine
 10
494.0714999999999
 20
219.0
 30
0.0
 11
517.0715
 21
219.0
 31
0.0
  0
LINE
  5
F70
330
1E
100
AcDbEntity
  8
0
100
AcDbLine
 10
517.0715
 20
219.0
 30
0.0
 11
517.2904999999999
 21
219.1079999999999
 31
0.0
  0
LINE
  5
F71
330
1E
100
AcDbEntity
  8
0
100
AcDbLine
 10
517.2904999999999
 20
219.1079999999999
 30
0.0
 11
517.4964999999998
 21
219.396
 31
0.0
  0
LINE
  5
F72
330
1E
100
AcDbEntity
  8
0
100
AcDbLine
 10
517.4964999999998
 20
219.396
 30
0.0
 11
517.6784999999998
 21
219.8759999999999
 31
0.0
  0
LINE
  5
F73
330
1E
100
AcDbEntity
  8
0
100
AcDbLine
 10
516.6104999999999
 20
219.1079999999999
 30
0.0
 11
517.0715
 21
219.0
 31
0.0
  0
LINE
  5
F74
330
1E
100
AcDbEntity
  8
0
100
AcDbLine
 10
517.6784999999998
 20
219.8759999999999
 30
0.0
 11
517.8155
 21
220.5119999999999
 31
0.0
  0
LINE
  5
F75
330
1E
100
AcDbEntity
  8
0
100
AcDbLine
 10
517.8155
 20
220.5119999999999
 30
0.0
 11
517.8975
 21
221.232
 31
0.0
  0
LINE
  5
F76
330
1E
100
AcDbEntity
  8
0
100
AcDbLine
 10
516.1785
 20
219.396
 30
0.0
 11
516.6104999999999
 21
219.1079999999999
 31
0.0
  0
LINE
  5
F77
330
1E
100
AcDbEntity
  8
0
100
AcDbLine
 10
515.7975
 20
219.8759999999999
 30
0.0
 11
516.1785
 21
219.396
 31
0.0
  0
LINE
  5
F78
330
1E
100
AcDbEntity
  8
0
100
AcDbLine
 10
517.8975
 20
221.232
 30
0.0
 11
517.9285
 21
222.0
 31
0.0
  0
LINE
  5
F79
330
1E
100
AcDbEntity
  8
0
100
AcDbLine
 10
514.6554999999998
 20
220.5119999999999
 30
0.0
 11
515.6595
 21
220.1789999999999
 31
0.0
  0
LINE
  5
F7A
330
1E
100
AcDbEntity
  8
0
100
AcDbLine
 10
513.5035
 20
221.232
 30
0.0
 11
514.6554999999998
 21
220.5119999999999
 31
0.0
  0
LINE
  5
F7B
330
1E
100
AcDbEntity
  8
0
100
AcDbLine
 10
513.0715
 20
222.0
 30
0.0
 11
513.5035
 21
221.232
 31
0.0
  0
LINE
  5
F7C
330
1E
100
AcDbEntity
  8
0
100
AcDbLine
 10
513.0715
 20
222.0
 30
0.0
 11
513.5035
 21
222.7679999999998
 31
0.0
  0
LINE
  5
F7D
330
1E
100
AcDbEntity
  8
0
100
AcDbLine
 10
493.8794999999998
 20
219.4709999999998
 30
0.0
 11
493.8794999999998
 21
217.0879999999999
 31
0.0
  0
LINE
  5
F7E
330
1E
100
AcDbEntity
  8
0
100
AcDbLine
 10
493.8794999999998
 20
219.4709999999998
 30
0.0
 11
493.8794999999998
 21
222.0
 31
0.0
  0
LINE
  5
F7F
330
1E
100
AcDbEntity
  8
0
100
AcDbLine
 10
493.8794999999998
 20
226.912
 30
0.0
 11
493.8794999999998
 21
224.529
 31
0.0
  0
LINE
  5
F80
330
1E
100
AcDbEntity
  8
0
100
AcDbLine
 10
493.8794999999998
 20
226.912
 30
0.0
 11
493.8794999999998
 21
228.9709999999999
 31
0.0
  0
LINE
  5
F81
330
1E
100
AcDbEntity
  8
0
100
AcDbLine
 10
493.8794999999998
 20
224.529
 30
0.0
 11
493.8794999999998
 21
222.0
 31
0.0
  0
LINE
  5
F82
330
1E
100
AcDbEntity
  8
0
100
AcDbLine
 10
493.8794999999998
 20
224.529
 30
0.0
 11
493.8794999999998
 21
226.912
 31
0.0
  0
LINE
  5
F83
330
1E
100
AcDbEntity
  8
0
100
AcDbLine
 10
493.8794999999998
 20
228.9709999999999
 30
0.0
 11
493.8794999999998
 21
230.5289999999999
 31
0.0
  0
LINE
  5
F84
330
1E
100
AcDbEntity
  8
0
100
AcDbLine
 10
493.8794999999998
 20
228.9709999999999
 30
0.0
 11
493.8794999999998
 21
226.912
 31
0.0
  0
LINE
  5
F85
330
1E
100
AcDbEntity
  8
0
100
AcDbLine
 10
493.8794999999998
 20
230.5289999999999
 30
0.0
 11
493.8794999999998
 21
228.9709999999999
 31
0.0
  0
LINE
  5
F86
330
1E
100
AcDbEntity
  8
0
100
AcDbLine
 10
493.8794999999998
 20
230.5289999999999
 30
0.0
 11
493.8794999999998
 21
231.4999999999999
 31
0.0
  0
LINE
  5
F87
330
1E
100
AcDbEntity
  8
0
100
AcDbLine
 10
513.5035
 20
222.7679999999998
 30
0.0
 11
514.6554999999998
 21
223.4879999999999
 31
0.0
  0
LINE
  5
F8A
330
1E
100
AcDbEntity
  8
0
100
AcDbLine
 10
515.7975
 20
224.1239999999999
 30
0.0
 11
516.1785
 21
224.604
 31
0.0
  0
LINE
  5
F8B
330
1E
100
AcDbEntity
  8
0
100
AcDbLine
 10
514.6554999999998
 20
223.4879999999999
 30
0.0
 11
515.6595
 21
223.821
 31
0.0
  0
LINE
  5
F8C
330
1E
100
AcDbEntity
  8
0
100
AcDbLine
 10
516.6104999999999
 20
224.892
 30
0.0
 11
517.0715
 21
225.0
 31
0.0
  0
LINE
  5
F8D
330
1E
100
AcDbEntity
  8
0
100
AcDbLine
 10
516.1785
 20
224.604
 30
0.0
 11
516.6104999999999
 21
224.892
 31
0.0
  0
LINE
  5
F8E
330
1E
100
AcDbEntity
  8
0
100
AcDbLine
 10
494.0714999999999
 20
225.0
 30
0.0
 11
517.0715
 21
225.0
 31
0.0
  0
LINE
  5
F8F
330
1E
100
AcDbEntity
  8
0
100
AcDbLine
 10
517.0715
 20
225.0
 30
0.0
 11
517.2904999999999
 21
224.892
 31
0.0
  0
LINE
  5
F90
330
1E
100
AcDbEntity
  8
0
100
AcDbLine
 10
517.2904999999999
 20
224.892
 30
0.0
 11
517.4964999999998
 21
224.604
 31
0.0
  0
LINE
  5
F91
330
1E
100
AcDbEntity
  8
0
100
AcDbLine
 10
517.4964999999998
 20
224.604
 30
0.0
 11
517.6784999999998
 21
224.1239999999999
 31
0.0
  0
LINE
  5
F92
330
1E
100
AcDbEntity
  8
0
100
AcDbLine
 10
517.6784999999998
 20
224.1239999999999
 30
0.0
 11
517.8155
 21
223.4879999999999
 31
0.0
  0
LINE
  5
F93
330
1E
100
AcDbEntity
  8
0
100
AcDbLine
 10
517.8155
 20
223.4879999999999
 30
0.0
 11
517.8975
 21
222.7679999999998
 31
0.0
  0
LINE
  5
F94
330
1E
100
AcDbEntity
  8
0
100
AcDbLine
 10
517.8975
 20
222.7679999999998
 30
0.0
 11
517.9285
 21
222.0
 31
0.0
  0
LINE
  5
F95
330
1E
100
AcDbEntity
  8
0
100
AcDbLine
 10
493.8794999999998
 20
231.4999999999999
 30
0.0
 11
493.8794999999998
 21
230.5289999999999
 31
0.0
  0
LINE
  5
F96
330
1E
100
AcDbEntity
  8
0
100
AcDbLine
 10
493.8794999999998
 20
231.4999999999999
 30
0.0
 11
493.8794999999998
 21
231.8529999999999
 31
0.0
  0
LINE
  5
F97
330
1E
100
AcDbEntity
  8
0
100
AcDbLine
 10
493.8794999999998
 20
231.8529999999999
 30
0.0
 11
494.0714999999999
 21
231.5589999999999
 31
0.0
  0
LINE
  5
F98
330
1E
100
AcDbEntity
  8
0
100
AcDbLine
 10
493.8794999999998
 20
231.8529999999999
 30
0.0
 11
493.8794999999998
 21
231.4999999999999
 31
0.0
  0
LINE
  5
F99
330
1E
100
AcDbEntity
  8
0
100
AcDbLine
 10
493.4944999999999
 20
232.0
 30
0.0
 11
493.8794999999998
 21
231.8529999999999
 31
0.0
  0
LINE
  5
F9A
330
1E
100
AcDbEntity
  8
0
100
AcDbLine
 10
493.8794999999998
 20
222.0
 30
0.0
 11
493.8794999999998
 21
219.4709999999998
 31
0.0
  0
LINE
  5
F9B
330
1E
100
AcDbEntity
  8
0
100
AcDbLine
 10
493.8794999999998
 20
222.0
 30
0.0
 11
493.8794999999998
 21
224.529
 31
0.0
  0
LINE
  5
F9C
330
1E
100
AcDbEntity
  8
0
100
AcDbLine
 10
492.0715
 20
210.3159999999999
 30
0.0
 11
492.0715
 21
210.758
 31
0.0
  0
LINE
  5
F9D
330
1E
100
AcDbEntity
  8
0
100
AcDbLine
 10
491.9645
 20
210.0
 30
0.0
 11
492.0264999999998
 21
210.0
 31
0.0
  0
LINE
  5
F9E
330
1E
100
AcDbEntity
  8
0
100
AcDbLine
 10
479.0715
 20
210.0
 30
0.0
 11
491.1785
 21
210.0
 31
0.0
  0
LINE
  5
F9F
330
1E
100
AcDbEntity
  8
0
100
AcDbLine
 10
479.0715
 20
210.0
 30
0.0
 11
479.0715
 21
210.3089999999999
 31
0.0
  0
LINE
  5
FA0
330
1E
100
AcDbEntity
  8
0
100
AcDbLine
 10
491.0715
 20
401.0
 30
0.0
 11
491.0715
 21
384.0
 31
0.0
  0
LINE
  5
FA1
330
1E
100
AcDbEntity
  8
0
100
AcDbLine
 10
491.0715
 20
384.0
 30
0.0
 11
491.0715
 21
401.0
 31
0.0
  0
LINE
  5
FA2
330
1E
100
AcDbEntity
  8
0
100
AcDbLine
 10
477.0715
 20
286.0
 30
0.0
 11
477.0715
 21
416.0
 31
0.0
  0
LINE
  5
FA3
330
1E
100
AcDbEntity
  8
0
100
AcDbLine
 10
472.0715
 20
421.0
 30
0.0
 11
473.3514999999998
 21
420.8199999999998
 31
0.0
  0
LINE
  5
FA4
330
1E
100
AcDbEntity
  8
0
100
AcDbLine
 10
473.3514999999998
 20
420.8199999999998
 30
0.0
 11
474.5515
 21
420.34
 31
0.0
  0
LINE
  5
FA5
330
1E
100
AcDbEntity
  8
0
100
AcDbLine
 10
474.5515
 20
420.34
 30
0.0
 11
475.6115
 21
419.54
 31
0.0
  0
LINE
  5
FA6
330
1E
100
AcDbEntity
  8
0
100
AcDbLine
 10
475.6115
 20
419.54
 30
0.0
 11
476.4115
 21
418.48
 31
0.0
  0
LINE
  5
FA7
330
1E
100
AcDbEntity
  8
0
100
AcDbLine
 10
476.4115
 20
418.48
 30
0.0
 11
476.8914999999998
 21
417.2799999999999
 31
0.0
  0
LINE
  5
FA8
330
1E
100
AcDbEntity
  8
0
100
AcDbLine
 10
476.8914999999998
 20
417.2799999999999
 30
0.0
 11
477.0715
 21
416.0
 31
0.0
  0
LINE
  5
FB5
330
1E
100
AcDbEntity
  8
0
100
AcDbLine
 10
494.0714999999999
 20
231.5589999999999
 30
0.0
 11
494.0714999999999
 21
212.4409999999998
 31
0.0
  0
LINE
  5
103B
330
1E
100
AcDbEntity
  8
0
100
AcDbLine
 10
112.776
 20
82.35700000000001
 30
0.0
 11
116.6351000000001
 21
82.086
 31
0.0
  0
LINE
  5
103C
330
1E
100
AcDbEntity
  8
0
100
AcDbLine
 10
112.9451000000001
 20
106.0899999999999
 30
0.0
 11
116.2636
 21
106.187
 31
0.0
  0
LINE
  5
103D
330
1E
100
AcDbEntity
  8
0
100
AcDbLine
 10
113.9631
 20
106.0
 30
0.0
 11
116.8076000000001
 21
106.0
 31
0.0
  0
LINE
  5
103E
330
1E
100
AcDbEntity
  8
0
100
AcDbLine
 10
113.9631
 20
93.0899999999999
 30
0.0
 11
116.8076000000001
 21
93.18700000000001
 31
0.0
  0
LINE
  5
103F
330
1E
100
AcDbEntity
  8
0
100
AcDbLine
 10
114.6155
 20
93.0
 30
0.0
 11
117.2555
 21
93.0
 31
0.0
  0
LINE
  5
1040
330
1E
100
AcDbEntity
  8
0
100
AcDbLine
 10
113.6235
 20
89.99999999999991
 30
0.0
 11
116.7435
 21
89.99999999999991
 31
0.0
  0
LINE
  5
1041
330
1E
100
AcDbEntity
  8
0
100
AcDbLine
 10
113.6235
 20
87.0
 30
0.0
 11
116.7435
 21
87.0
 31
0.0
  0
LINE
  5
1042
330
1E
100
AcDbEntity
  8
0
100
AcDbLine
 10
113.4514
 20
86.64299999999999
 30
0.0
 11
116.6351000000001
 21
86.91399999999999
 31
0.0
  0
LINE
  5
1043
330
1E
100
AcDbEntity
  8
0
100
AcDbLine
 10
113.7988000000001
 20
87.0
 30
0.0
 11
116.7988
 21
87.0
 31
0.0
  0
LINE
  5
1044
330
1E
100
AcDbEntity
  8
0
100
AcDbLine
 10
110.6474999999999
 20
81.9999999999999
 30
0.0
 11
115.2075000000001
 21
81.9999999999999
 31
0.0
  0
LINE
  5
1045
330
1E
100
AcDbEntity
  8
0
100
AcDbLine
 10
107.0715
 20
89.99999999999991
 30
0.0
 11
107.0715
 21
87.0
 31
0.0
  0
LINE
  5
1046
330
1E
100
AcDbEntity
  8
0
100
AcDbLine
 10
107.0715
 20
87.0
 30
0.0
 11
107.0715
 21
89.99999999999991
 31
0.0
  0
LINE
  5
1047
330
1E
100
AcDbEntity
  8
0
100
AcDbLine
 10
108.7875000000001
 20
87.0
 30
0.0
 11
110.8675
 21
87.0
 31
0.0
  0
LINE
  5
1048
330
1E
100
AcDbEntity
  8
0
100
AcDbLine
 10
108.5652
 20
82.07199999999991
 30
0.0
 11
110.3897000000001
 21
82.12999999999999
 31
0.0
  0
LINE
  5
1049
330
1E
100
AcDbEntity
  8
0
100
AcDbLine
 10
108.5652
 20
86.928
 30
0.0
 11
110.3897000000001
 21
86.8699999999999
 31
0.0
  0
LINE
  5
104A
330
1E
100
AcDbEntity
  8
0
100
AcDbLine
 10
109.1624000000001
 20
87.0
 30
0.0
 11
111.1396999999999
 21
87.0
 31
0.0
  0
LINE
  5
104B
330
1E
100
AcDbEntity
  8
0
100
AcDbLine
 10
106.6195000000001
 20
81.9999999999999
 30
0.0
 11
110.6474999999999
 21
81.9999999999999
 31
0.0
  0
LINE
  5
104C
330
1E
100
AcDbEntity
  8
0
100
AcDbLine
 10
107.5395
 20
87.0
 30
0.0
 11
107.9351000000001
 21
87.0
 31
0.0
  0
LINE
  5
104D
330
1E
100
AcDbEntity
  8
0
100
AcDbLine
 10
107.5395
 20
87.0
 30
0.0
 11
108.7875000000001
 21
87.0
 31
0.0
  0
LINE
  5
104E
330
1E
100
AcDbEntity
  8
0
100
AcDbLine
 10
107.9351000000001
 20
87.0
 30
0.0
 11
109.1624000000001
 21
87.0
 31
0.0
  0
LINE
  5
104F
330
1E
100
AcDbEntity
  8
0
100
AcDbLine
 10
107.0715
 20
87.0
 30
0.0
 11
107.5395
 21
87.0
 31
0.0
  0
LINE
  5
1050
330
1E
100
AcDbEntity
  8
0
100
AcDbLine
 10
106.7507
 20
82.149
 30
0.0
 11
108.5652
 21
82.07199999999991
 31
0.0
  0
LINE
  5
1051
330
1E
100
AcDbEntity
  8
0
100
AcDbLine
 10
107.4579000000001
 20
87.0
 30
0.0
 11
107.9351000000001
 21
87.0
 31
0.0
  0
LINE
  5
1052
330
1E
100
AcDbEntity
  8
0
100
AcDbLine
 10
106.7507
 20
86.85099999999989
 30
0.0
 11
108.5652
 21
86.928
 31
0.0
  0
LINE
  5
1053
330
1E
100
AcDbEntity
  8
0
100
AcDbLine
 10
106.4351000000001
 20
86.89299999999999
 30
0.0
 11
107.4579000000001
 21
87.0
 31
0.0
  0
LINE
  5
1054
330
1E
100
AcDbEntity
  8
0
100
AcDbLine
 10
105.6453
 20
82.35700000000001
 30
0.0
 11
106.7507
 21
82.149
 31
0.0
  0
LINE
  5
1055
330
1E
100
AcDbEntity
  8
0
100
AcDbLine
 10
106.4351000000001
 20
82.107
 30
0.0
 11
107.4579000000001
 21
81.9999999999999
 31
0.0
  0
LINE
  5
1056
330
1E
100
AcDbEntity
  8
0
100
AcDbLine
 10
105.6453
 20
86.64299999999999
 30
0.0
 11
106.7507
 21
86.85099999999989
 31
0.0
  0
LINE
  5
1057
330
1E
100
AcDbEntity
  8
0
100
AcDbLine
 10
105.1766
 20
82.71399999999998
 30
0.0
 11
105.6453
 21
82.35700000000001
 31
0.0
  0
LINE
  5
1058
330
1E
100
AcDbEntity
  8
0
100
AcDbLine
 10
105.4124000000001
 20
86.64299999999999
 30
0.0
 11
106.4351000000001
 21
86.89299999999999
 31
0.0
  0
LINE
  5
1059
330
1E
100
AcDbEntity
  8
0
100
AcDbLine
 10
105.4124000000001
 20
82.35700000000001
 30
0.0
 11
106.4351000000001
 21
82.107
 31
0.0
  0
LINE
  5
105A
330
1E
100
AcDbEntity
  8
0
100
AcDbLine
 10
105.1766
 20
86.28599999999989
 30
0.0
 11
105.6453
 21
86.64299999999999
 31
0.0
  0
LINE
  5
105B
330
1E
100
AcDbEntity
  8
0
100
AcDbLine
 10
105.0715
 20
82.71399999999998
 30
0.0
 11
105.0715
 21
86.28599999999989
 31
0.0
  0
LINE
  5
105C
330
1E
100
AcDbEntity
  8
0
100
AcDbLine
 10
105.0715
 20
82.71399999999998
 30
0.0
 11
105.4124000000001
 21
82.35700000000001
 31
0.0
  0
LINE
  5
105D
330
1E
100
AcDbEntity
  8
0
100
AcDbLine
 10
105.0715
 20
82.71399999999998
 30
0.0
 11
105.1766
 21
82.71399999999998
 31
0.0
  0
LINE
  5
105E
330
1E
100
AcDbEntity
  8
0
100
AcDbLine
 10
105.0715
 20
86.28599999999989
 30
0.0
 11
105.4124000000001
 21
86.64299999999999
 31
0.0
  0
LINE
  5
105F
330
1E
100
AcDbEntity
  8
0
100
AcDbLine
 10
105.0715
 20
86.28599999999989
 30
0.0
 11
105.1766
 21
86.28599999999989
 31
0.0
  0
LINE
  5
1060
330
1E
100
AcDbEntity
  8
0
100
AcDbLine
 10
105.0715
 20
86.28599999999989
 30
0.0
 11
105.0715
 21
82.71399999999998
 31
0.0
  0
LINE
  5
1061
330
1E
100
AcDbEntity
  8
0
100
AcDbLine
 10
110.8675
 20
87.0
 30
0.0
 11
113.6235
 21
87.0
 31
0.0
  0
LINE
  5
1062
330
1E
100
AcDbEntity
  8
0
100
AcDbLine
 10
112.5524999999999
 20
82.71399999999998
 30
0.0
 11
112.5524999999999
 21
86.28599999999989
 31
0.0
  0
LINE
  5
1063
330
1E
100
AcDbEntity
  8
0
100
AcDbLine
 10
112.5524999999999
 20
86.28599999999989
 30
0.0
 11
112.5524999999999
 21
82.71399999999998
 31
0.0
  0
LINE
  5
1064
330
1E
100
AcDbEntity
  8
0
100
AcDbLine
 10
112.776
 20
86.64299999999999
 30
0.0
 11
113.4514
 21
86.64299999999999
 31
0.0
  0
LINE
  5
1065
330
1E
100
AcDbEntity
  8
0
100
AcDbLine
 10
111.6675
 20
86.64299999999999
 30
0.0
 11
112.776
 21
86.64299999999999
 31
0.0
  0
LINE
  5
1066
330
1E
100
AcDbEntity
  8
0
100
AcDbLine
 10
111.1396999999999
 20
87.0
 30
0.0
 11
113.7988000000001
 21
87.0
 31
0.0
  0
LINE
  5
1067
330
1E
100
AcDbEntity
  8
0
100
AcDbLine
 10
111.6675
 20
82.35700000000001
 30
0.0
 11
112.776
 21
82.35700000000001
 31
0.0
  0
LINE
  5
1068
330
1E
100
AcDbEntity
  8
0
100
AcDbLine
 10
110.3897000000001
 20
82.12999999999999
 30
0.0
 11
111.6675
 21
82.35700000000001
 31
0.0
  0
LINE
  5
1069
330
1E
100
AcDbEntity
  8
0
100
AcDbLine
 10
110.3897000000001
 20
86.8699999999999
 30
0.0
 11
111.6675
 21
86.64299999999999
 31
0.0
  0
LINE
  5
106A
330
1E
100
AcDbEntity
  8
0
100
AcDbLine
 10
109.6083000000001
 20
106.162
 30
0.0
 11
112.9451000000001
 21
106.0899999999999
 31
0.0
  0
LINE
  5
106B
330
1E
100
AcDbEntity
  8
0
100
AcDbLine
 10
109.0999999999999
 20
106.0
 30
0.0
 11
111.1031
 21
106.0
 31
0.0
  0
LINE
  5
106C
330
1E
100
AcDbEntity
  8
0
100
AcDbLine
 10
109.0999999999999
 20
93.44599999999998
 30
0.0
 11
111.1031
 21
93.16199999999991
 31
0.0
  0
LINE
  5
106D
330
1E
100
AcDbEntity
  8
0
100
AcDbLine
 10
109.4675
 20
93.0
 30
0.0
 11
110.5235000000001
 21
93.0
 31
0.0
  0
LINE
  5
106E
330
1E
100
AcDbEntity
  8
0
100
AcDbLine
 10
108.7875000000001
 20
89.99999999999991
 30
0.0
 11
110.8675
 21
89.99999999999991
 31
0.0
  0
LINE
  5
106F
330
1E
100
AcDbEntity
  8
0
100
AcDbLine
 10
106.0715
 20
106.8929999999999
 30
0.0
 11
107.2714000000001
 21
106.4459999999999
 31
0.0
  0
LINE
  5
1070
330
1E
100
AcDbEntity
  8
0
100
AcDbLine
 10
106.0715
 20
106.8929999999999
 30
0.0
 11
106.0715
 21
106.4459999999999
 31
0.0
  0
LINE
  5
1071
330
1E
100
AcDbEntity
  8
0
100
AcDbLine
 10
106.0715
 20
106.8929999999999
 30
0.0
 11
106.0715
 21
108.0
 31
0.0
  0
LINE
  5
1072
330
1E
100
AcDbEntity
  8
0
100
AcDbLine
 10
106.0715
 20
108.0
 30
0.0
 11
106.0715
 21
106.8929999999999
 31
0.0
  0
LINE
  5
1073
330
1E
100
AcDbEntity
  8
0
100
AcDbLine
 10
106.0715
 20
106.1069999999999
 30
0.0
 11
106.0715
 21
106.045
 31
0.0
  0
LINE
  5
1074
330
1E
100
AcDbEntity
  8
0
100
AcDbLine
 10
106.0715
 20
106.1069999999999
 30
0.0
 11
106.0715
 21
106.4459999999999
 31
0.0
  0
LINE
  5
1075
330
1E
100
AcDbEntity
  8
0
100
AcDbLine
 10
107.2714000000001
 20
106.4459999999999
 30
0.0
 11
109.6083000000001
 21
106.162
 31
0.0
  0
LINE
  5
1076
330
1E
100
AcDbEntity
  8
0
100
AcDbLine
 10
106.0715
 20
106.4459999999999
 30
0.0
 11
106.0715
 21
106.1069999999999
 31
0.0
  0
LINE
  5
1077
330
1E
100
AcDbEntity
  8
0
100
AcDbLine
 10
106.0715
 20
106.4459999999999
 30
0.0
 11
106.0715
 21
106.8929999999999
 31
0.0
  0
LINE
  5
1078
330
1E
100
AcDbEntity
  8
0
100
AcDbLine
 10
106.0715
 20
106.045
 30
0.0
 11
106.4399
 21
106.0
 31
0.0
  0
LINE
  5
1079
330
1E
100
AcDbEntity
  8
0
100
AcDbLine
 10
106.0715
 20
106.045
 30
0.0
 11
106.0715
 21
106.1069999999999
 31
0.0
  0
LINE
  5
107A
330
1E
100
AcDbEntity
  8
0
100
AcDbLine
 10
108.0715
 20
106.0
 30
0.0
 11
108.3803
 21
106.0
 31
0.0
  0
LINE
  5
107B
330
1E
100
AcDbEntity
  8
0
100
AcDbLine
 10
108.0715
 20
106.0
 30
0.0
 11
108.0715
 21
93.89299999999998
 31
0.0
  0
LINE
  5
107C
330
1E
100
AcDbEntity
  8
0
100
AcDbLine
 10
108.3803
 20
106.0
 30
0.0
 11
109.0999999999999
 21
106.0
 31
0.0
  0
LINE
  5
107D
330
1E
100
AcDbEntity
  8
0
100
AcDbLine
 10
106.4399
 20
106.0
 30
0.0
 11
106.9557000000001
 21
106.0
 31
0.0
  0
LINE
  5
107E
330
1E
100
AcDbEntity
  8
0
100
AcDbLine
 10
106.9557000000001
 20
106.0
 30
0.0
 11
108.0715
 21
106.0
 31
0.0
  0
LINE
  5
107F
330
1E
100
AcDbEntity
  8
0
100
AcDbLine
 10
108.0715
 20
93.44599999999998
 30
0.0
 11
108.0715
 21
93.89299999999998
 31
0.0
  0
LINE
  5
1080
330
1E
100
AcDbEntity
  8
0
100
AcDbLine
 10
108.0715
 20
93.44599999999998
 30
0.0
 11
108.3241000000001
 21
93.44599999999998
 31
0.0
  0
LINE
  5
1081
330
1E
100
AcDbEntity
  8
0
100
AcDbLine
 10
108.0715
 20
93.44599999999998
 30
0.0
 11
108.0715
 21
93.10699999999988
 31
0.0
  0
LINE
  5
1082
330
1E
100
AcDbEntity
  8
0
100
AcDbLine
 10
108.3241000000001
 20
93.44599999999998
 30
0.0
 11
109.0999999999999
 21
93.44599999999998
 31
0.0
  0
LINE
  5
1083
330
1E
100
AcDbEntity
  8
0
100
AcDbLine
 10
108.0715
 20
93.89299999999998
 30
0.0
 11
108.0715
 21
106.0
 31
0.0
  0
LINE
  5
1084
330
1E
100
AcDbEntity
  8
0
100
AcDbLine
 10
108.0715
 20
93.89299999999998
 30
0.0
 11
108.0715
 21
93.44599999999998
 31
0.0
  0
LINE
  5
1085
330
1E
100
AcDbEntity
  8
0
100
AcDbLine
 10
108.0715
 20
93.10699999999988
 30
0.0
 11
108.0715
 21
93.44599999999998
 31
0.0
  0
LINE
  5
1086
330
1E
100
AcDbEntity
  8
0
100
AcDbLine
 10
108.0715
 20
93.10699999999988
 30
0.0
 11
108.0715
 21
93.045
 31
0.0
  0
LINE
  5
1087
330
1E
100
AcDbEntity
  8
0
100
AcDbLine
 10
108.0715
 20
93.045
 30
0.0
 11
108.3873
 21
93.0
 31
0.0
  0
LINE
  5
1088
330
1E
100
AcDbEntity
  8
0
100
AcDbLine
 10
108.0715
 20
93.045
 30
0.0
 11
108.0715
 21
93.10699999999988
 31
0.0
  0
LINE
  5
1089
330
1E
100
AcDbEntity
  8
0
100
AcDbLine
 10
109.0715
 20
93.0
 30
0.0
 11
109.0715
 21
89.99999999999991
 31
0.0
  0
LINE
  5
108A
330
1E
100
AcDbEntity
  8
0
100
AcDbLine
 10
109.0715
 20
93.0
 30
0.0
 11
109.4675
 21
93.0
 31
0.0
  0
LINE
  5
108B
330
1E
100
AcDbEntity
  8
0
100
AcDbLine
 10
108.3873
 20
93.0
 30
0.0
 11
108.8294
 21
93.0
 31
0.0
  0
LINE
  5
108C
330
1E
100
AcDbEntity
  8
0
100
AcDbLine
 10
108.8294
 20
93.0
 30
0.0
 11
109.0715
 21
93.0
 31
0.0
  0
LINE
  5
108D
330
1E
100
AcDbEntity
  8
0
100
AcDbLine
 10
107.5395
 20
89.99999999999991
 30
0.0
 11
108.7875000000001
 21
89.99999999999991
 31
0.0
  0
LINE
  5
108E
330
1E
100
AcDbEntity
  8
0
100
AcDbLine
 10
109.0715
 20
89.99999999999991
 30
0.0
 11
109.0715
 21
93.0
 31
0.0
  0
LINE
  5
108F
330
1E
100
AcDbEntity
  8
0
100
AcDbLine
 10
107.0715
 20
89.99999999999991
 30
0.0
 11
107.5395
 21
89.99999999999991
 31
0.0
  0
LINE
  5
1090
330
1E
100
AcDbEntity
  8
0
100
AcDbLine
 10
111.1031
 20
106.0
 30
0.0
 11
113.9631
 21
106.0
 31
0.0
  0
LINE
  5
1091
330
1E
100
AcDbEntity
  8
0
100
AcDbLine
 10
110.4188999999999
 20
106.0
 30
0.0
 11
113.2924999999999
 21
106.0
 31
0.0
  0
LINE
  5
1092
330
1E
100
AcDbEntity
  8
0
100
AcDbLine
 10
111.1031
 20
93.16199999999991
 30
0.0
 11
113.9631
 21
93.0899999999999
 31
0.0
  0
LINE
  5
1093
330
1E
100
AcDbEntity
  8
0
100
AcDbLine
 10
112.2835
 20
93.0
 30
0.0
 11
114.6155
 21
93.0
 31
0.0
  0
LINE
  5
1094
330
1E
100
AcDbEntity
  8
0
100
AcDbLine
 10
110.5235000000001
 20
93.0
 30
0.0
 11
112.2835
 21
93.0
 31
0.0
  0
LINE
  5
1095
330
1E
100
AcDbEntity
  8
0
100
AcDbLine
 10
110.8675
 20
89.99999999999991
 30
0.0
 11
113.6235
 21
89.99999999999991
 31
0.0
  0
LINE
  5
1096
330
1E
100
AcDbEntity
  8
0
100
AcDbLine
 10
133.0714999999999
 20
89.99999999999991
 30
0.0
 11
133.0714999999999
 21
87.0
 31
0.0
  0
LINE
  5
1097
330
1E
100
AcDbEntity
  8
0
100
AcDbLine
 10
133.0714999999999
 20
87.0
 30
0.0
 11
133.0714999999999
 21
89.99999999999991
 31
0.0
  0
LINE
  5
1098
330
1E
100
AcDbEntity
  8
0
100
AcDbLine
 10
123.3994999999999
 20
87.0
 30
0.0
 11
126.5195
 21
87.0
 31
0.0
  0
LINE
  5
1099
330
1E
100
AcDbEntity
  8
0
100
AcDbLine
 10
123.5079
 20
86.91399999999999
 30
0.0
 11
126.6916000000001
 21
86.64299999999999
 31
0.0
  0
LINE
  5
109A
330
1E
100
AcDbEntity
  8
0
100
AcDbLine
 10
123.5079
 20
82.086
 30
0.0
 11
126.6916000000001
 21
82.35700000000001
 31
0.0
  0
LINE
  5
109B
330
1E
100
AcDbEntity
  8
0
100
AcDbLine
 10
124.9354999999999
 20
81.9999999999999
 30
0.0
 11
129.4955000000001
 21
81.9999999999999
 31
0.0
  0
LINE
  5
109C
330
1E
100
AcDbEntity
  8
0
100
AcDbLine
 10
123.3442000000001
 20
87.0
 30
0.0
 11
126.3441999999999
 21
87.0
 31
0.0
  0
LINE
  5
109D
330
1E
100
AcDbEntity
  8
0
100
AcDbLine
 10
116.7435
 20
87.0
 30
0.0
 11
120.0715000000001
 21
87.0
 31
0.0
  0
LINE
  5
109E
330
1E
100
AcDbEntity
  8
0
100
AcDbLine
 10
116.7988
 20
87.0
 30
0.0
 11
120.0715000000001
 21
87.0
 31
0.0
  0
LINE
  5
109F
330
1E
100
AcDbEntity
  8
0
100
AcDbLine
 10
116.6351000000001
 20
82.086
 30
0.0
 11
120.0715000000001
 21
82.0359999999999
 31
0.0
  0
LINE
  5
10A0
330
1E
100
AcDbEntity
  8
0
100
AcDbLine
 10
116.6351000000001
 20
86.91399999999999
 30
0.0
 11
120.0715000000001
 21
86.964
 31
0.0
  0
LINE
  5
10A1
330
1E
100
AcDbEntity
  8
0
100
AcDbLine
 10
115.2075000000001
 20
81.9999999999999
 30
0.0
 11
120.0715000000001
 21
81.9999999999999
 31
0.0
  0
LINE
  5
10A2
330
1E
100
AcDbEntity
  8
0
100
AcDbLine
 10
120.0715000000001
 20
87.0
 30
0.0
 11
123.3442000000001
 21
87.0
 31
0.0
  0
LINE
  5
10A3
330
1E
100
AcDbEntity
  8
0
100
AcDbLine
 10
120.0715000000001
 20
87.0
 30
0.0
 11
123.3994999999999
 21
87.0
 31
0.0
  0
LINE
  5
10A4
330
1E
100
AcDbEntity
  8
0
100
AcDbLine
 10
120.0715000000001
 20
82.0359999999999
 30
0.0
 11
123.5079
 21
82.086
 31
0.0
  0
LINE
  5
10A5
330
1E
100
AcDbEntity
  8
0
100
AcDbLine
 10
120.0715000000001
 20
86.964
 30
0.0
 11
123.5079
 21
86.91399999999999
 31
0.0
  0
LINE
  5
10A6
330
1E
100
AcDbEntity
  8
0
100
AcDbLine
 10
120.0715000000001
 20
81.9999999999999
 30
0.0
 11
124.9354999999999
 21
81.9999999999999
 31
0.0
  0
LINE
  5
10A7
330
1E
100
AcDbEntity
  8
0
100
AcDbLine
 10
129.2754999999999
 20
87.0
 30
0.0
 11
131.3555
 21
87.0
 31
0.0
  0
LINE
  5
10A8
330
1E
100
AcDbEntity
  8
0
100
AcDbLine
 10
129.7533
 20
82.12999999999999
 30
0.0
 11
131.5777999999999
 21
82.07199999999991
 31
0.0
  0
LINE
  5
10A9
330
1E
100
AcDbEntity
  8
0
100
AcDbLine
 10
129.7533
 20
86.8699999999999
 30
0.0
 11
131.5777999999999
 21
86.928
 31
0.0
  0
LINE
  5
10AA
330
1E
100
AcDbEntity
  8
0
100
AcDbLine
 10
129.4955000000001
 20
81.9999999999999
 30
0.0
 11
133.5235000000001
 21
81.9999999999999
 31
0.0
  0
LINE
  5
10AB
330
1E
100
AcDbEntity
  8
0
100
AcDbLine
 10
129.0032999999999
 20
87.0
 30
0.0
 11
130.9806
 21
87.0
 31
0.0
  0
LINE
  5
10AC
330
1E
100
AcDbEntity
  8
0
100
AcDbLine
 10
127.5905
 20
82.71399999999998
 30
0.0
 11
128.4755
 21
82.35700000000001
 31
0.0
  0
LINE
  5
10AD
330
1E
100
AcDbEntity
  8
0
100
AcDbLine
 10
127.5905
 20
82.71399999999998
 30
0.0
 11
127.5905
 21
82.71399999999998
 31
0.0
  0
LINE
  5
10AE
330
1E
100
AcDbEntity
  8
0
100
AcDbLine
 10
126.6916000000001
 20
82.35700000000001
 30
0.0
 11
127.5905
 21
82.71399999999998
 31
0.0
  0
LINE
  5
10AF
330
1E
100
AcDbEntity
  8
0
100
AcDbLine
 10
126.5195
 20
87.0
 30
0.0
 11
129.2754999999999
 21
87.0
 31
0.0
  0
LINE
  5
10B0
330
1E
100
AcDbEntity
  8
0
100
AcDbLine
 10
128.4755
 20
86.64299999999999
 30
0.0
 11
129.7533
 21
86.8699999999999
 31
0.0
  0
LINE
  5
10B1
330
1E
100
AcDbEntity
  8
0
100
AcDbLine
 10
126.3441999999999
 20
87.0
 30
0.0
 11
129.0032999999999
 21
87.0
 31
0.0
  0
LINE
  5
10B2
330
1E
100
AcDbEntity
  8
0
100
AcDbLine
 10
126.6916000000001
 20
86.64299999999999
 30
0.0
 11
127.5905
 21
86.28599999999989
 31
0.0
  0
LINE
  5
10B3
330
1E
100
AcDbEntity
  8
0
100
AcDbLine
 10
127.5905
 20
86.28599999999989
 30
0.0
 11
128.4755
 21
86.64299999999999
 31
0.0
  0
LINE
  5
10B4
330
1E
100
AcDbEntity
  8
0
100
AcDbLine
 10
127.5905
 20
86.28599999999989
 30
0.0
 11
127.5905
 21
82.71399999999998
 31
0.0
  0
LINE
  5
10B5
330
1E
100
AcDbEntity
  8
0
100
AcDbLine
 10
128.4755
 20
82.35700000000001
 30
0.0
 11
129.7533
 21
82.12999999999999
 31
0.0
  0
LINE
  5
10B6
330
1E
100
AcDbEntity
  8
0
100
AcDbLine
 10
127.5905
 20
82.71399999999998
 30
0.0
 11
127.5905
 21
86.28599999999989
 31
0.0
  0
LINE
  5
10B7
330
1E
100
AcDbEntity
  8
0
100
AcDbLine
 10
132.2079000000001
 20
87.0
 30
0.0
 11
132.6851
 21
87.0
 31
0.0
  0
LINE
  5
10B8
330
1E
100
AcDbEntity
  8
0
100
AcDbLine
 10
132.2079000000001
 20
87.0
 30
0.0
 11
132.6035000000001
 21
87.0
 31
0.0
  0
LINE
  5
10B9
330
1E
100
AcDbEntity
  8
0
100
AcDbLine
 10
132.6035000000001
 20
87.0
 30
0.0
 11
133.0714999999999
 21
87.0
 31
0.0
  0
LINE
  5
10BA
330
1E
100
AcDbEntity
  8
0
100
AcDbLine
 10
133.7079000000001
 20
86.89299999999999
 30
0.0
 11
134.7306000000001
 21
86.64299999999999
 31
0.0
  0
LINE
  5
10BB
330
1E
100
AcDbEntity
  8
0
100
AcDbLine
 10
132.6851
 20
87.0
 30
0.0
 11
133.7079000000001
 21
86.89299999999999
 31
0.0
  0
LINE
  5
10BC
330
1E
100
AcDbEntity
  8
0
100
AcDbLine
 10
133.3923
 20
86.85099999999989
 30
0.0
 11
134.4977
 21
86.64299999999999
 31
0.0
  0
LINE
  5
10BD
330
1E
100
AcDbEntity
  8
0
100
AcDbLine
 10
134.4977
 20
86.64299999999999
 30
0.0
 11
134.9663999999999
 21
86.28599999999989
 31
0.0
  0
LINE
  5
10BE
330
1E
100
AcDbEntity
  8
0
100
AcDbLine
 10
134.7306000000001
 20
86.64299999999999
 30
0.0
 11
135.0714999999999
 21
86.28599999999989
 31
0.0
  0
LINE
  5
10BF
330
1E
100
AcDbEntity
  8
0
100
AcDbLine
 10
133.3923
 20
82.149
 30
0.0
 11
134.4977
 21
82.35700000000001
 31
0.0
  0
LINE
  5
10C0
330
1E
100
AcDbEntity
  8
0
100
AcDbLine
 10
134.4977
 20
82.35700000000001
 30
0.0
 11
134.9663999999999
 21
82.71399999999998
 31
0.0
  0
LINE
  5
10C1
330
1E
100
AcDbEntity
  8
0
100
AcDbLine
 10
134.9663999999999
 20
86.28599999999989
 30
0.0
 11
135.0714999999999
 21
86.28599999999989
 31
0.0
  0
LINE
  5
10C2
330
1E
100
AcDbEntity
  8
0
100
AcDbLine
 10
135.0714999999999
 20
82.71399999999998
 30
0.0
 11
135.0714999999999
 21
86.28599999999989
 31
0.0
  0
LINE
  5
10C3
330
1E
100
AcDbEntity
  8
0
100
AcDbLine
 10
135.0714999999999
 20
86.28599999999989
 30
0.0
 11
135.0714999999999
 21
82.71399999999998
 31
0.0
  0
LINE
  5
10C4
330
1E
100
AcDbEntity
  8
0
100
AcDbLine
 10
134.9663999999999
 20
82.71399999999998
 30
0.0
 11
135.0714999999999
 21
82.71399999999998
 31
0.0
  0
LINE
  5
10C5
330
1E
100
AcDbEntity
  8
0
100
AcDbLine
 10
133.7079000000001
 20
82.107
 30
0.0
 11
134.7306000000001
 21
82.35700000000001
 31
0.0
  0
LINE
  5
10C6
330
1E
100
AcDbEntity
  8
0
100
AcDbLine
 10
134.7306000000001
 20
82.35700000000001
 30
0.0
 11
135.0714999999999
 21
82.71399999999998
 31
0.0
  0
LINE
  5
10C7
330
1E
100
AcDbEntity
  8
0
100
AcDbLine
 10
132.6851
 20
81.9999999999999
 30
0.0
 11
133.7079000000001
 21
82.107
 31
0.0
  0
LINE
  5
10C8
330
1E
100
AcDbEntity
  8
0
100
AcDbLine
 10
131.3555
 20
87.0
 30
0.0
 11
132.6035000000001
 21
87.0
 31
0.0
  0
LINE
  5
10C9
330
1E
100
AcDbEntity
  8
0
100
AcDbLine
 10
131.5777999999999
 20
82.07199999999991
 30
0.0
 11
133.3923
 21
82.149
 31
0.0
  0
LINE
  5
10CA
330
1E
100
AcDbEntity
  8
0
100
AcDbLine
 10
131.5777999999999
 20
86.928
 30
0.0
 11
133.3923
 21
86.85099999999989
 31
0.0
  0
LINE
  5
10CB
330
1E
100
AcDbEntity
  8
0
100
AcDbLine
 10
130.9806
 20
87.0
 30
0.0
 11
132.2079000000001
 21
87.0
 31
0.0
  0
LINE
  5
10CC
330
1E
100
AcDbEntity
  8
0
100
AcDbLine
 10
123.8794
 20
106.187
 30
0.0
 11
127.1978999999999
 21
106.0899999999999
 31
0.0
  0
LINE
  5
10CD
330
1E
100
AcDbEntity
  8
0
100
AcDbLine
 10
123.3354
 20
106.0
 30
0.0
 11
126.1798000000001
 21
106.0
 31
0.0
  0
LINE
  5
10CE
330
1E
100
AcDbEntity
  8
0
100
AcDbLine
 10
123.6083
 20
106.0
 30
0.0
 11
126.8503999999999
 21
106.0
 31
0.0
  0
LINE
  5
10CF
330
1E
100
AcDbEntity
  8
0
100
AcDbLine
 10
123.3354
 20
93.18700000000001
 30
0.0
 11
126.1798000000001
 21
93.0899999999999
 31
0.0
  0
LINE
  5
10D0
330
1E
100
AcDbEntity
  8
0
100
AcDbLine
 10
122.8875000000001
 20
93.0
 30
0.0
 11
125.5275
 21
93.0
 31
0.0
  0
LINE
  5
10D1
330
1E
100
AcDbEntity
  8
0
100
AcDbLine
 10
123.103
 20
93.0
 30
0.0
 11
125.882
 21
93.0
 31
0.0
  0
LINE
  5
10D2
330
1E
100
AcDbEntity
  8
0
100
AcDbLine
 10
123.3994999999999
 20
89.99999999999991
 30
0.0
 11
126.5195
 21
89.99999999999991
 31
0.0
  0
LINE
  5
10D3
330
1E
100
AcDbEntity
  8
0
100
AcDbLine
 10
118.3412000000001
 20
106.4459999999999
 30
0.0
 11
120.0715000000001
 21
106.4459999999999
 31
0.0
  0
LINE
  5
10D4
330
1E
100
AcDbEntity
  8
0
100
AcDbLine
 10
119.3777
 20
106.0
 30
0.0
 11
120.0715000000001
 21
106.0
 31
0.0
  0
LINE
  5
10D5
330
1E
100
AcDbEntity
  8
0
100
AcDbLine
 10
118.5884000000001
 20
93.44599999999998
 30
0.0
 11
120.0715000000001
 21
93.44599999999998
 31
0.0
  0
LINE
  5
10D6
330
1E
100
AcDbEntity
  8
0
100
AcDbLine
 10
117.2555
 20
93.0
 30
0.0
 11
120.0715000000001
 21
93.0
 31
0.0
  0
LINE
  5
10D7
330
1E
100
AcDbEntity
  8
0
100
AcDbLine
 10
116.7435
 20
89.99999999999991
 30
0.0
 11
120.0715000000001
 21
89.99999999999991
 31
0.0
  0
LINE
  5
10D8
330
1E
100
AcDbEntity
  8
0
100
AcDbLine
 10
116.2636
 20
106.187
 30
0.0
 11
118.3412000000001
 21
106.4459999999999
 31
0.0
  0
LINE
  5
10D9
330
1E
100
AcDbEntity
  8
0
100
AcDbLine
 10
116.8076000000001
 20
106.0
 30
0.0
 11
118.5884000000001
 21
106.0
 31
0.0
  0
LINE
  5
10DA
330
1E
100
AcDbEntity
  8
0
100
AcDbLine
 10
118.5884000000001
 20
106.0
 30
0.0
 11
119.3777
 21
106.0
 31
0.0
  0
LINE
  5
10DB
330
1E
100
AcDbEntity
  8
0
100
AcDbLine
 10
116.8076000000001
 20
93.18700000000001
 30
0.0
 11
118.5884000000001
 21
93.44599999999998
 31
0.0
  0
LINE
  5
10DC
330
1E
100
AcDbEntity
  8
0
100
AcDbLine
 10
121.8018
 20
106.4459999999999
 30
0.0
 11
123.8794
 21
106.187
 31
0.0
  0
LINE
  5
10DD
330
1E
100
AcDbEntity
  8
0
100
AcDbLine
 10
120.0715000000001
 20
106.4459999999999
 30
0.0
 11
121.8018
 21
106.4459999999999
 31
0.0
  0
LINE
  5
10DE
330
1E
100
AcDbEntity
  8
0
100
AcDbLine
 10
121.5546
 20
106.0
 30
0.0
 11
123.6083
 21
106.0
 31
0.0
  0
LINE
  5
10DF
330
1E
100
AcDbEntity
  8
0
100
AcDbLine
 10
121.5546
 20
106.0
 30
0.0
 11
123.3354
 21
106.0
 31
0.0
  0
LINE
  5
10E0
330
1E
100
AcDbEntity
  8
0
100
AcDbLine
 10
120.7653
 20
106.0
 30
0.0
 11
121.5546
 21
106.0
 31
0.0
  0
LINE
  5
10E1
330
1E
100
AcDbEntity
  8
0
100
AcDbLine
 10
120.0715000000001
 20
106.0
 30
0.0
 11
120.7653
 21
106.0
 31
0.0
  0
LINE
  5
10E2
330
1E
100
AcDbEntity
  8
0
100
AcDbLine
 10
120.0715000000001
 20
93.44599999999998
 30
0.0
 11
121.5546
 21
93.44599999999998
 31
0.0
  0
LINE
  5
10E3
330
1E
100
AcDbEntity
  8
0
100
AcDbLine
 10
121.5546
 20
93.44599999999998
 30
0.0
 11
123.3354
 21
93.18700000000001
 31
0.0
  0
LINE
  5
10E4
330
1E
100
AcDbEntity
  8
0
100
AcDbLine
 10
120.0715000000001
 20
93.0
 30
0.0
 11
123.103
 21
93.0
 31
0.0
  0
LINE
  5
10E5
330
1E
100
AcDbEntity
  8
0
100
AcDbLine
 10
120.0715000000001
 20
93.0
 30
0.0
 11
122.8875000000001
 21
93.0
 31
0.0
  0
LINE
  5
10E6
330
1E
100
AcDbEntity
  8
0
100
AcDbLine
 10
120.0715000000001
 20
89.99999999999991
 30
0.0
 11
123.3994999999999
 21
89.99999999999991
 31
0.0
  0
LINE
  5
10E7
330
1E
100
AcDbEntity
  8
0
100
AcDbLine
 10
127.1978999999999
 20
106.0899999999999
 30
0.0
 11
130.5346999999999
 21
106.162
 31
0.0
  0
LINE
  5
10E8
330
1E
100
AcDbEntity
  8
0
100
AcDbLine
 10
129.0399999999999
 20
106.0
 30
0.0
 11
131.0429999999999
 21
106.0
 31
0.0
  0
LINE
  5
10E9
330
1E
100
AcDbEntity
  8
0
100
AcDbLine
 10
129.7240999999999
 20
106.0
 30
0.0
 11
131.0429999999999
 21
106.0
 31
0.0
  0
LINE
  5
10EA
330
1E
100
AcDbEntity
  8
0
100
AcDbLine
 10
129.0399999999999
 20
93.16199999999991
 30
0.0
 11
131.0429999999999
 21
93.44599999999998
 31
0.0
  0
LINE
  5
10EB
330
1E
100
AcDbEntity
  8
0
100
AcDbLine
 10
129.6195000000001
 20
93.0
 30
0.0
 11
130.6755000000001
 21
93.0
 31
0.0
  0
LINE
  5
10EC
330
1E
100
AcDbEntity
  8
0
100
AcDbLine
 10
129.2754999999999
 20
89.99999999999991
 30
0.0
 11
131.3555
 21
89.99999999999991
 31
0.0
  0
LINE
  5
10ED
330
1E
100
AcDbEntity
  8
0
100
AcDbLine
 10
126.1798000000001
 20
106.0
 30
0.0
 11
129.0399999999999
 21
106.0
 31
0.0
  0
LINE
  5
10EE
330
1E
100
AcDbEntity
  8
0
100
AcDbLine
 10
126.1798000000001
 20
93.0899999999999
 30
0.0
 11
129.0399999999999
 21
93.16199999999991
 31
0.0
  0
LINE
  5
10EF
330
1E
100
AcDbEntity
  8
0
100
AcDbLine
 10
125.5275
 20
93.0
 30
0.0
 11
127.8595000000001
 21
93.0
 31
0.0
  0
LINE
  5
10F0
330
1E
100
AcDbEntity
  8
0
100
AcDbLine
 10
127.8595000000001
 20
93.0
 30
0.0
 11
129.6195000000001
 21
93.0
 31
0.0
  0
LINE
  5
10F1
330
1E
100
AcDbEntity
  8
0
100
AcDbLine
 10
126.5195
 20
89.99999999999991
 30
0.0
 11
129.2754999999999
 21
89.99999999999991
 31
0.0
  0
LINE
  5
10F2
330
1E
100
AcDbEntity
  8
0
100
AcDbLine
 10
134.0714999999999
 20
108.0
 30
0.0
 11
134.0714999999999
 21
106.8929999999999
 31
0.0
  0
LINE
  5
10F3
330
1E
100
AcDbEntity
  8
0
100
AcDbLine
 10
134.0714999999999
 20
106.8929999999999
 30
0.0
 11
134.0714999999999
 21
108.0
 31
0.0
  0
LINE
  5
10F4
330
1E
100
AcDbEntity
  8
0
100
AcDbLine
 10
134.0714999999999
 20
106.8929999999999
 30
0.0
 11
134.0714999999999
 21
106.4459999999999
 31
0.0
  0
LINE
  5
10F7
330
1E
100
AcDbEntity
  8
0
100
AcDbLine
 10
132.8716
 20
106.4459999999999
 30
0.0
 11
133.7768
 21
106.4459999999999
 31
0.0
  0
LINE
  5
10F9
330
1E
100
AcDbEntity
  8
0
100
AcDbLine
 10
130.5346999999999
 20
106.162
 30
0.0
 11
132.8716
 21
106.4459999999999
 31
0.0
  0
LINE
  5
10FA
330
1E
100
AcDbEntity
  8
0
100
AcDbLine
 10
134.0714999999999
 20
106.1069999999999
 30
0.0
 11
134.0714999999999
 21
106.4459999999999
 31
0.0
  0
LINE
  5
10FB
330
1E
100
AcDbEntity
  8
0
100
AcDbLine
 10
134.0714999999999
 20
106.1069999999999
 30
0.0
 11
134.0714999999999
 21
106.045
 31
0.0
  0
LINE
  5
10FC
330
1E
100
AcDbEntity
  8
0
100
AcDbLine
 10
134.0714999999999
 20
106.4459999999999
 30
0.0
 11
134.0714999999999
 21
106.8929999999999
 31
0.0
  0
LINE
  5
10FD
330
1E
100
AcDbEntity
  8
0
100
AcDbLine
 10
134.0714999999999
 20
106.4459999999999
 30
0.0
 11
134.0714999999999
 21
106.1069999999999
 31
0.0
  0
LINE
  5
1101
330
1E
100
AcDbEntity
  8
0
100
AcDbLine
 10
133.7768
 20
106.4459999999999
 30
0.0
 11
134.0714999999999
 21
106.4459999999999
 31
0.0
  0
LINE
  5
1102
330
1E
100
AcDbEntity
  8
0
100
AcDbLine
 10
134.0714999999999
 20
106.045
 30
0.0
 11
134.0714999999999
 21
106.1069999999999
 31
0.0
  0
LINE
  5
1103
330
1E
100
AcDbEntity
  8
0
100
AcDbLine
 10
131.0429999999999
 20
106.0
 30
0.0
 11
131.7627000000001
 21
106.0
 31
0.0
  0
LINE
  5
1104
330
1E
100
AcDbEntity
  8
0
100
AcDbLine
 10
132.0714999999999
 20
106.0
 30
0.0
 11
133.1873000000001
 21
106.0
 31
0.0
  0
LINE
  5
1105
330
1E
100
AcDbEntity
  8
0
100
AcDbLine
 10
132.0714999999999
 20
106.0
 30
0.0
 11
132.0714999999999
 21
93.89299999999998
 31
0.0
  0
LINE
  5
1106
330
1E
100
AcDbEntity
  8
0
100
AcDbLine
 10
131.7627000000001
 20
106.0
 30
0.0
 11
132.0714999999999
 21
106.0
 31
0.0
  0
LINE
  5
1107
330
1E
100
AcDbEntity
  8
0
100
AcDbLine
 10
133.1873000000001
 20
106.0
 30
0.0
 11
133.7031
 21
106.0
 31
0.0
  0
LINE
  5
1108
330
1E
100
AcDbEntity
  8
0
100
AcDbLine
 10
133.7031
 20
106.0
 30
0.0
 11
134.0714999999999
 21
106.045
 31
0.0
  0
LINE
  5
1109
330
1E
100
AcDbEntity
  8
0
100
AcDbLine
 10
132.0714999999999
 20
93.89299999999998
 30
0.0
 11
132.0714999999999
 21
93.44599999999998
 31
0.0
  0
LINE
  5
110A
330
1E
100
AcDbEntity
  8
0
100
AcDbLine
 10
132.0714999999999
 20
93.89299999999998
 30
0.0
 11
132.0714999999999
 21
106.0
 31
0.0
  0
LINE
  5
110B
330
1E
100
AcDbEntity
  8
0
100
AcDbLine
 10
131.0429999999999
 20
93.44599999999998
 30
0.0
 11
131.8189
 21
93.44599999999998
 31
0.0
  0
LINE
  5
110C
330
1E
100
AcDbEntity
  8
0
100
AcDbLine
 10
132.0714999999999
 20
93.44599999999998
 30
0.0
 11
132.0714999999999
 21
93.10699999999988
 31
0.0
  0
LINE
  5
110D
330
1E
100
AcDbEntity
  8
0
100
AcDbLine
 10
132.0714999999999
 20
93.44599999999998
 30
0.0
 11
132.0714999999999
 21
93.89299999999998
 31
0.0
  0
LINE
  5
110E
330
1E
100
AcDbEntity
  8
0
100
AcDbLine
 10
131.8189
 20
93.44599999999998
 30
0.0
 11
132.0714999999999
 21
93.44599999999998
 31
0.0
  0
LINE
  5
110F
330
1E
100
AcDbEntity
  8
0
100
AcDbLine
 10
132.0714999999999
 20
93.10699999999988
 30
0.0
 11
132.0714999999999
 21
93.44599999999998
 31
0.0
  0
LINE
  5
1110
330
1E
100
AcDbEntity
  8
0
100
AcDbLine
 10
132.0714999999999
 20
93.10699999999988
 30
0.0
 11
132.0714999999999
 21
93.045
 31
0.0
  0
LINE
  5
1111
330
1E
100
AcDbEntity
  8
0
100
AcDbLine
 10
132.0714999999999
 20
93.045
 30
0.0
 11
132.0714999999999
 21
93.10699999999988
 31
0.0
  0
LINE
  5
1112
330
1E
100
AcDbEntity
  8
0
100
AcDbLine
 10
131.0714999999999
 20
93.0
 30
0.0
 11
131.3136
 21
93.0
 31
0.0
  0
LINE
  5
1113
330
1E
100
AcDbEntity
  8
0
100
AcDbLine
 10
131.0714999999999
 20
93.0
 30
0.0
 11
131.0714999999999
 21
89.99999999999991
 31
0.0
  0
LINE
  5
1114
330
1E
100
AcDbEntity
  8
0
100
AcDbLine
 10
130.6755000000001
 20
93.0
 30
0.0
 11
131.0714999999999
 21
93.0
 31
0.0
  0
LINE
  5
1115
330
1E
100
AcDbEntity
  8
0
100
AcDbLine
 10
130.1767999999999
 20
93.0
 30
0.0
 11
131.3136
 21
93.0
 31
0.0
  0
LINE
  5
1116
330
1E
100
AcDbEntity
  8
0
100
AcDbLine
 10
131.7556999999999
 20
93.0
 30
0.0
 11
132.0714999999999
 21
93.045
 31
0.0
  0
LINE
  5
1117
330
1E
100
AcDbEntity
  8
0
100
AcDbLine
 10
131.3136
 20
93.0
 30
0.0
 11
131.7556999999999
 21
93.0
 31
0.0
  0
LINE
  5
1118
330
1E
100
AcDbEntity
  8
0
100
AcDbLine
 10
131.3555
 20
89.99999999999991
 30
0.0
 11
132.6035000000001
 21
89.99999999999991
 31
0.0
  0
LINE
  5
1119
330
1E
100
AcDbEntity
  8
0
100
AcDbLine
 10
132.6035000000001
 20
89.99999999999991
 30
0.0
 11
133.0714999999999
 21
89.99999999999991
 31
0.0
  0
LINE
  5
111A
330
1E
100
AcDbEntity
  8
0
100
AcDbLine
 10
131.0714999999999
 20
89.99999999999991
 30
0.0
 11
131.0714999999999
 21
93.0
 31
0.0
  0
LINE
  5
111B
330
1E
100
AcDbEntity
  8
0
100
AcDbLine
 10
226.8076000000001
 20
106.0
 30
0.0
 11
228.5884000000001
 21
106.0
 31
0.0
  0
LINE
  5
111C
330
1E
100
AcDbEntity
  8
0
100
AcDbLine
 10
226.2636
 20
106.187
 30
0.0
 11
228.3412000000001
 21
106.4459999999999
 31
0.0
  0
LINE
  5
111D
330
1E
100
AcDbEntity
  8
0
100
AcDbLine
 10
216.9557000000001
 20
106.0
 30
0.0
 11
218.0715000000001
 21
106.0
 31
0.0
  0
LINE
  5
111E
330
1E
100
AcDbEntity
  8
0
100
AcDbLine
 10
216.0715000000001
 20
106.8929999999999
 30
0.0
 11
217.2714
 21
106.4459999999999
 31
0.0
  0
LINE
  5
111F
330
1E
100
AcDbEntity
  8
0
100
AcDbLine
 10
216.4399000000001
 20
106.0
 30
0.0
 11
216.9557000000001
 21
106.0
 31
0.0
  0
LINE
  5
1120
330
1E
100
AcDbEntity
  8
0
100
AcDbLine
 10
216.0715000000001
 20
106.045
 30
0.0
 11
216.0715000000001
 21
106.1069999999999
 31
0.0
  0
LINE
  5
1121
330
1E
100
AcDbEntity
  8
0
100
AcDbLine
 10
216.0715000000001
 20
106.045
 30
0.0
 11
216.4399000000001
 21
106.0
 31
0.0
  0
LINE
  5
1122
330
1E
100
AcDbEntity
  8
0
100
AcDbLine
 10
216.0715000000001
 20
106.4459999999999
 30
0.0
 11
216.0715000000001
 21
106.8929999999999
 31
0.0
  0
LINE
  5
1123
330
1E
100
AcDbEntity
  8
0
100
AcDbLine
 10
216.0715000000001
 20
106.4459999999999
 30
0.0
 11
216.0715000000001
 21
106.1069999999999
 31
0.0
  0
LINE
  5
1124
330
1E
100
AcDbEntity
  8
0
100
AcDbLine
 10
216.0715000000001
 20
106.1069999999999
 30
0.0
 11
216.0715000000001
 21
106.4459999999999
 31
0.0
  0
LINE
  5
1125
330
1E
100
AcDbEntity
  8
0
100
AcDbLine
 10
216.0715000000001
 20
106.1069999999999
 30
0.0
 11
216.0715000000001
 21
106.045
 31
0.0
  0
LINE
  5
1126
330
1E
100
AcDbEntity
  8
0
100
AcDbLine
 10
216.0715000000001
 20
108.0
 30
0.0
 11
216.0715000000001
 21
106.8929999999999
 31
0.0
  0
LINE
  5
1127
330
1E
100
AcDbEntity
  8
0
100
AcDbLine
 10
216.0715000000001
 20
106.8929999999999
 30
0.0
 11
216.0715000000001
 21
108.0
 31
0.0
  0
LINE
  5
1128
330
1E
100
AcDbEntity
  8
0
100
AcDbLine
 10
216.0715000000001
 20
106.8929999999999
 30
0.0
 11
216.0715000000001
 21
106.4459999999999
 31
0.0
  0
LINE
  5
1129
330
1E
100
AcDbEntity
  8
0
100
AcDbLine
 10
220.4188999999999
 20
106.0
 30
0.0
 11
223.2924999999999
 21
106.0
 31
0.0
  0
LINE
  5
112A
330
1E
100
AcDbEntity
  8
0
100
AcDbLine
 10
221.1031000000001
 20
106.0
 30
0.0
 11
223.9631000000001
 21
106.0
 31
0.0
  0
LINE
  5
112B
330
1E
100
AcDbEntity
  8
0
100
AcDbLine
 10
219.6083000000001
 20
106.162
 30
0.0
 11
222.9451
 21
106.0899999999999
 31
0.0
  0
LINE
  5
112C
330
1E
100
AcDbEntity
  8
0
100
AcDbLine
 10
218.0715000000001
 20
93.89299999999998
 30
0.0
 11
218.0715000000001
 21
106.0
 31
0.0
  0
LINE
  5
112D
330
1E
100
AcDbEntity
  8
0
100
AcDbLine
 10
218.3803000000001
 20
106.0
 30
0.0
 11
219.0999999999999
 21
106.0
 31
0.0
  0
LINE
  5
112E
330
1E
100
AcDbEntity
  8
0
100
AcDbLine
 10
218.0715000000001
 20
106.0
 30
0.0
 11
218.0715000000001
 21
93.89299999999998
 31
0.0
  0
LINE
  5
112F
330
1E
100
AcDbEntity
  8
0
100
AcDbLine
 10
218.0715000000001
 20
106.0
 30
0.0
 11
218.3803000000001
 21
106.0
 31
0.0
  0
LINE
  5
1130
330
1E
100
AcDbEntity
  8
0
100
AcDbLine
 10
217.2714
 20
106.4459999999999
 30
0.0
 11
219.6083000000001
 21
106.162
 31
0.0
  0
LINE
  5
1131
330
1E
100
AcDbEntity
  8
0
100
AcDbLine
 10
219.0999999999999
 20
106.0
 30
0.0
 11
221.1031000000001
 21
106.0
 31
0.0
  0
LINE
  5
1132
330
1E
100
AcDbEntity
  8
0
100
AcDbLine
 10
223.9631000000001
 20
106.0
 30
0.0
 11
226.8076000000001
 21
106.0
 31
0.0
  0
LINE
  5
1133
330
1E
100
AcDbEntity
  8
0
100
AcDbLine
 10
222.9451
 20
106.0899999999999
 30
0.0
 11
226.2636
 21
106.187
 31
0.0
  0
LINE
  5
1134
330
1E
100
AcDbEntity
  8
0
100
AcDbLine
 10
236.1798000000001
 20
106.0
 30
0.0
 11
239.04
 21
106.0
 31
0.0
  0
LINE
  5
1135
330
1E
100
AcDbEntity
  8
0
100
AcDbLine
 10
237.1979
 20
106.0899999999999
 30
0.0
 11
240.5347000000001
 21
106.162
 31
0.0
  0
LINE
  5
1136
330
1E
100
AcDbEntity
  8
0
100
AcDbLine
 10
231.5546000000001
 20
106.0
 30
0.0
 11
233.3354000000001
 21
106.0
 31
0.0
  0
LINE
  5
1137
330
1E
100
AcDbEntity
  8
0
100
AcDbLine
 10
231.5546000000001
 20
106.0
 30
0.0
 11
233.6083000000001
 21
106.0
 31
0.0
  0
LINE
  5
1138
330
1E
100
AcDbEntity
  8
0
100
AcDbLine
 10
231.8018000000001
 20
106.4459999999999
 30
0.0
 11
233.8794
 21
106.187
 31
0.0
  0
LINE
  5
1139
330
1E
100
AcDbEntity
  8
0
100
AcDbLine
 10
230.0715000000001
 20
106.0
 30
0.0
 11
230.7653000000001
 21
106.0
 31
0.0
  0
LINE
  5
113A
330
1E
100
AcDbEntity
  8
0
100
AcDbLine
 10
230.7653000000001
 20
106.0
 30
0.0
 11
231.5546000000001
 21
106.0
 31
0.0
  0
LINE
  5
113B
330
1E
100
AcDbEntity
  8
0
100
AcDbLine
 10
230.0715000000001
 20
106.4459999999999
 30
0.0
 11
231.8018000000001
 21
106.4459999999999
 31
0.0
  0
LINE
  5
113C
330
1E
100
AcDbEntity
  8
0
100
AcDbLine
 10
228.5884000000001
 20
106.0
 30
0.0
 11
229.3776999999999
 21
106.0
 31
0.0
  0
LINE
  5
113D
330
1E
100
AcDbEntity
  8
0
100
AcDbLine
 10
229.3776999999999
 20
106.0
 30
0.0
 11
230.0715000000001
 21
106.0
 31
0.0
  0
LINE
  5
113E
330
1E
100
AcDbEntity
  8
0
100
AcDbLine
 10
228.3412000000001
 20
106.4459999999999
 30
0.0
 11
230.0715000000001
 21
106.4459999999999
 31
0.0
  0
LINE
  5
113F
330
1E
100
AcDbEntity
  8
0
100
AcDbLine
 10
233.6083000000001
 20
106.0
 30
0.0
 11
236.8504000000001
 21
106.0
 31
0.0
  0
LINE
  5
1140
330
1E
100
AcDbEntity
  8
0
100
AcDbLine
 10
233.3354000000001
 20
106.0
 30
0.0
 11
236.1798000000001
 21
106.0
 31
0.0
  0
LINE
  5
1141
330
1E
100
AcDbEntity
  8
0
100
AcDbLine
 10
233.8794
 20
106.187
 30
0.0
 11
237.1979
 21
106.0899999999999
 31
0.0
  0
LINE
  5
1142
330
1E
100
AcDbEntity
  8
0
100
AcDbLine
 10
242.0714999999999
 20
106.0
 30
0.0
 11
243.1873000000001
 21
106.0
 31
0.0
  0
LINE
  5
1143
330
1E
100
AcDbEntity
  8
0
100
AcDbLine
 10
240.5347000000001
 20
106.162
 30
0.0
 11
242.8716
 21
106.4459999999999
 31
0.0
  0
LINE
  5
1144
330
1E
100
AcDbEntity
  8
0
100
AcDbLine
 10
242.0714999999999
 20
93.89299999999998
 30
0.0
 11
242.0714999999999
 21
106.0
 31
0.0
  0
LINE
  5
1145
330
1E
100
AcDbEntity
  8
0
100
AcDbLine
 10
241.7627000000001
 20
106.0
 30
0.0
 11
242.0714999999999
 21
106.0
 31
0.0
  0
LINE
  5
1146
330
1E
100
AcDbEntity
  8
0
100
AcDbLine
 10
242.0714999999999
 20
106.0
 30
0.0
 11
242.0714999999999
 21
93.89299999999998
 31
0.0
  0
LINE
  5
1147
330
1E
100
AcDbEntity
  8
0
100
AcDbLine
 10
241.0430000000001
 20
106.0
 30
0.0
 11
241.7627000000001
 21
106.0
 31
0.0
  0
LINE
  5
1148
330
1E
100
AcDbEntity
  8
0
100
AcDbLine
 10
239.7241
 20
106.0
 30
0.0
 11
241.0430000000001
 21
106.0
 31
0.0
  0
LINE
  5
1149
330
1E
100
AcDbEntity
  8
0
100
AcDbLine
 10
239.04
 20
106.0
 30
0.0
 11
241.0430000000001
 21
106.0
 31
0.0
  0
LINE
  5
114A
330
1E
100
AcDbEntity
  8
0
100
AcDbLine
 10
243.7031000000001
 20
106.0
 30
0.0
 11
244.0714999999999
 21
106.045
 31
0.0
  0
LINE
  5
114B
330
1E
100
AcDbEntity
  8
0
100
AcDbLine
 10
243.1873000000001
 20
106.0
 30
0.0
 11
243.7031000000001
 21
106.0
 31
0.0
  0
LINE
  5
114C
330
1E
100
AcDbEntity
  8
0
100
AcDbLine
 10
244.0714999999999
 20
106.045
 30
0.0
 11
244.0714999999999
 21
106.1069999999999
 31
0.0
  0
LINE
  5
114D
330
1E
100
AcDbEntity
  8
0
100
AcDbLine
 10
243.7768000000001
 20
106.4459999999999
 30
0.0
 11
244.0714999999999
 21
106.4459999999999
 31
0.0
  0
LINE
  5
1151
330
1E
100
AcDbEntity
  8
0
100
AcDbLine
 10
244.0714999999999
 20
106.4459999999999
 30
0.0
 11
244.0714999999999
 21
106.1069999999999
 31
0.0
  0
LINE
  5
1152
330
1E
100
AcDbEntity
  8
0
100
AcDbLine
 10
244.0714999999999
 20
106.4459999999999
 30
0.0
 11
244.0714999999999
 21
106.8929999999999
 31
0.0
  0
LINE
  5
1153
330
1E
100
AcDbEntity
  8
0
100
AcDbLine
 10
244.0714999999999
 20
106.1069999999999
 30
0.0
 11
244.0714999999999
 21
106.045
 31
0.0
  0
LINE
  5
1154
330
1E
100
AcDbEntity
  8
0
100
AcDbLine
 10
244.0714999999999
 20
106.1069999999999
 30
0.0
 11
244.0714999999999
 21
106.4459999999999
 31
0.0
  0
LINE
  5
1156
330
1E
100
AcDbEntity
  8
0
100
AcDbLine
 10
242.8716
 20
106.4459999999999
 30
0.0
 11
243.7768000000001
 21
106.4459999999999
 31
0.0
  0
LINE
  5
1159
330
1E
100
AcDbEntity
  8
0
100
AcDbLine
 10
244.0714999999999
 20
106.8929999999999
 30
0.0
 11
244.0714999999999
 21
106.4459999999999
 31
0.0
  0
LINE
  5
115A
330
1E
100
AcDbEntity
  8
0
100
AcDbLine
 10
244.0714999999999
 20
106.8929999999999
 30
0.0
 11
244.0714999999999
 21
108.0
 31
0.0
  0
LINE
  5
115B
330
1E
100
AcDbEntity
  8
0
100
AcDbLine
 10
244.0714999999999
 20
108.0
 30
0.0
 11
244.0714999999999
 21
106.8929999999999
 31
0.0
  0
LINE
  5
115C
330
1E
100
AcDbEntity
  8
0
100
AcDbLine
 10
226.8076000000001
 20
93.18700000000001
 30
0.0
 11
228.5884000000001
 21
93.44599999999998
 31
0.0
  0
LINE
  5
115D
330
1E
100
AcDbEntity
  8
0
100
AcDbLine
 10
226.7434999999998
 20
89.99999999999991
 30
0.0
 11
230.0715000000001
 21
89.99999999999991
 31
0.0
  0
LINE
  5
115E
330
1E
100
AcDbEntity
  8
0
100
AcDbLine
 10
227.2555
 20
93.0
 30
0.0
 11
230.0715000000001
 21
93.0
 31
0.0
  0
LINE
  5
115F
330
1E
100
AcDbEntity
  8
0
100
AcDbLine
 10
225.2075
 20
81.9999999999999
 30
0.0
 11
230.0715000000001
 21
81.9999999999999
 31
0.0
  0
LINE
  5
1160
330
1E
100
AcDbEntity
  8
0
100
AcDbLine
 10
226.6350999999999
 20
86.91399999999999
 30
0.0
 11
230.0715000000001
 21
86.964
 31
0.0
  0
LINE
  5
1161
330
1E
100
AcDbEntity
  8
0
100
AcDbLine
 10
226.6350999999999
 20
82.086
 30
0.0
 11
230.0715000000001
 21
82.0359999999999
 31
0.0
  0
LINE
  5
1162
330
1E
100
AcDbEntity
  8
0
100
AcDbLine
 10
226.7987999999999
 20
87.0
 30
0.0
 11
230.0715000000001
 21
87.0
 31
0.0
  0
LINE
  5
1163
330
1E
100
AcDbEntity
  8
0
100
AcDbLine
 10
226.7434999999998
 20
87.0
 30
0.0
 11
230.0715000000001
 21
87.0
 31
0.0
  0
LINE
  5
1164
330
1E
100
AcDbEntity
  8
0
100
AcDbLine
 10
217.0714999999999
 20
87.0
 30
0.0
 11
217.0714999999999
 21
89.99999999999991
 31
0.0
  0
LINE
  5
1165
330
1E
100
AcDbEntity
  8
0
100
AcDbLine
 10
217.0714999999999
 20
89.99999999999991
 30
0.0
 11
217.0714999999999
 21
87.0
 31
0.0
  0
LINE
  5
1166
330
1E
100
AcDbEntity
  8
0
100
AcDbLine
 10
216.4350999999999
 20
82.107
 30
0.0
 11
217.4579
 21
81.9999999999999
 31
0.0
  0
LINE
  5
1167
330
1E
100
AcDbEntity
  8
0
100
AcDbLine
 10
216.4350999999999
 20
86.89299999999999
 30
0.0
 11
217.4579
 21
87.0
 31
0.0
  0
LINE
  5
1168
330
1E
100
AcDbEntity
  8
0
100
AcDbLine
 10
216.7507
 20
86.85099999999989
 30
0.0
 11
218.5652000000001
 21
86.928
 31
0.0
  0
LINE
  5
1169
330
1E
100
AcDbEntity
  8
0
100
AcDbLine
 10
216.7507
 20
82.149
 30
0.0
 11
218.5652000000001
 21
82.07199999999991
 31
0.0
  0
LINE
  5
116A
330
1E
100
AcDbEntity
  8
0
100
AcDbLine
 10
217.0714999999999
 20
87.0
 30
0.0
 11
217.5394999999999
 21
87.0
 31
0.0
  0
LINE
  5
116B
330
1E
100
AcDbEntity
  8
0
100
AcDbLine
 10
216.6195
 20
81.9999999999999
 30
0.0
 11
220.6475000000001
 21
81.9999999999999
 31
0.0
  0
LINE
  5
116C
330
1E
100
AcDbEntity
  8
0
100
AcDbLine
 10
215.0715000000001
 20
86.28599999999989
 30
0.0
 11
215.0715000000001
 21
82.71399999999998
 31
0.0
  0
LINE
  5
116D
330
1E
100
AcDbEntity
  8
0
100
AcDbLine
 10
215.0715000000001
 20
86.28599999999989
 30
0.0
 11
215.1766000000001
 21
86.28599999999989
 31
0.0
  0
LINE
  5
116E
330
1E
100
AcDbEntity
  8
0
100
AcDbLine
 10
215.0715000000001
 20
86.28599999999989
 30
0.0
 11
215.4124000000001
 21
86.64299999999999
 31
0.0
  0
LINE
  5
116F
330
1E
100
AcDbEntity
  8
0
100
AcDbLine
 10
215.0715000000001
 20
82.71399999999998
 30
0.0
 11
215.1766000000001
 21
82.71399999999998
 31
0.0
  0
LINE
  5
1170
330
1E
100
AcDbEntity
  8
0
100
AcDbLine
 10
215.0715000000001
 20
82.71399999999998
 30
0.0
 11
215.4124000000001
 21
82.35700000000001
 31
0.0
  0
LINE
  5
1171
330
1E
100
AcDbEntity
  8
0
100
AcDbLine
 10
215.0715000000001
 20
82.71399999999998
 30
0.0
 11
215.0715000000001
 21
86.28599999999989
 31
0.0
  0
LINE
  5
1172
330
1E
100
AcDbEntity
  8
0
100
AcDbLine
 10
215.1766000000001
 20
86.28599999999989
 30
0.0
 11
215.6453000000001
 21
86.64299999999999
 31
0.0
  0
LINE
  5
1173
330
1E
100
AcDbEntity
  8
0
100
AcDbLine
 10
215.4124000000001
 20
82.35700000000001
 30
0.0
 11
216.4350999999999
 21
82.107
 31
0.0
  0
LINE
  5
1174
330
1E
100
AcDbEntity
  8
0
100
AcDbLine
 10
215.4124000000001
 20
86.64299999999999
 30
0.0
 11
216.4350999999999
 21
86.89299999999999
 31
0.0
  0
LINE
  5
1175
330
1E
100
AcDbEntity
  8
0
100
AcDbLine
 10
215.1766000000001
 20
82.71399999999998
 30
0.0
 11
215.6453000000001
 21
82.35700000000001
 31
0.0
  0
LINE
  5
1176
330
1E
100
AcDbEntity
  8
0
100
AcDbLine
 10
215.6453000000001
 20
86.64299999999999
 30
0.0
 11
216.7507
 21
86.85099999999989
 31
0.0
  0
LINE
  5
1177
330
1E
100
AcDbEntity
  8
0
100
AcDbLine
 10
215.6453000000001
 20
82.35700000000001
 30
0.0
 11
216.7507
 21
82.149
 31
0.0
  0
LINE
  5
1178
330
1E
100
AcDbEntity
  8
0
100
AcDbLine
 10
221.6674999999999
 20
82.35700000000001
 30
0.0
 11
222.7759999999999
 21
82.35700000000001
 31
0.0
  0
LINE
  5
1179
330
1E
100
AcDbEntity
  8
0
100
AcDbLine
 10
221.1397000000001
 20
87.0
 30
0.0
 11
223.7988
 21
87.0
 31
0.0
  0
LINE
  5
117A
330
1E
100
AcDbEntity
  8
0
100
AcDbLine
 10
221.6674999999999
 20
86.64299999999999
 30
0.0
 11
222.7759999999999
 21
86.64299999999999
 31
0.0
  0
LINE
  5
117B
330
1E
100
AcDbEntity
  8
0
100
AcDbLine
 10
220.8674999999999
 20
87.0
 30
0.0
 11
223.6235000000001
 21
87.0
 31
0.0
  0
LINE
  5
117C
330
1E
100
AcDbEntity
  8
0
100
AcDbLine
 10
220.6475000000001
 20
81.9999999999999
 30
0.0
 11
225.2075
 21
81.9999999999999
 31
0.0
  0
LINE
  5
117D
330
1E
100
AcDbEntity
  8
0
100
AcDbLine
 10
220.3896999999999
 20
86.8699999999999
 30
0.0
 11
221.6674999999999
 21
86.64299999999999
 31
0.0
  0
LINE
  5
117E
330
1E
100
AcDbEntity
  8
0
100
AcDbLine
 10
220.3896999999999
 20
82.12999999999999
 30
0.0
 11
221.6674999999999
 21
82.35700000000001
 31
0.0
  0
LINE
  5
117F
330
1E
100
AcDbEntity
  8
0
100
AcDbLine
 10
217.4579
 20
87.0
 30
0.0
 11
217.9351
 21
87.0
 31
0.0
  0
LINE
  5
1180
330
1E
100
AcDbEntity
  8
0
100
AcDbLine
 10
217.9351
 20
87.0
 30
0.0
 11
219.1624
 21
87.0
 31
0.0
  0
LINE
  5
1181
330
1E
100
AcDbEntity
  8
0
100
AcDbLine
 10
217.5394999999999
 20
87.0
 30
0.0
 11
218.7875
 21
87.0
 31
0.0
  0
LINE
  5
1182
330
1E
100
AcDbEntity
  8
0
100
AcDbLine
 10
217.5394999999999
 20
87.0
 30
0.0
 11
217.9351
 21
87.0
 31
0.0
  0
LINE
  5
1183
330
1E
100
AcDbEntity
  8
0
100
AcDbLine
 10
219.1624
 20
87.0
 30
0.0
 11
221.1397000000001
 21
87.0
 31
0.0
  0
LINE
  5
1184
330
1E
100
AcDbEntity
  8
0
100
AcDbLine
 10
218.5652000000001
 20
86.928
 30
0.0
 11
220.3896999999999
 21
86.8699999999999
 31
0.0
  0
LINE
  5
1185
330
1E
100
AcDbEntity
  8
0
100
AcDbLine
 10
218.5652000000001
 20
82.07199999999991
 30
0.0
 11
220.3896999999999
 21
82.12999999999999
 31
0.0
  0
LINE
  5
1186
330
1E
100
AcDbEntity
  8
0
100
AcDbLine
 10
218.7875
 20
87.0
 30
0.0
 11
220.8674999999999
 21
87.0
 31
0.0
  0
LINE
  5
1187
330
1E
100
AcDbEntity
  8
0
100
AcDbLine
 10
222.7759999999999
 20
86.64299999999999
 30
0.0
 11
223.4514
 21
86.64299999999999
 31
0.0
  0
LINE
  5
1188
330
1E
100
AcDbEntity
  8
0
100
AcDbLine
 10
222.5525000000001
 20
86.28599999999989
 30
0.0
 11
222.5525000000001
 21
82.71399999999998
 31
0.0
  0
LINE
  5
1189
330
1E
100
AcDbEntity
  8
0
100
AcDbLine
 10
222.5525000000001
 20
82.71399999999998
 30
0.0
 11
222.5525000000001
 21
86.28599999999989
 31
0.0
  0
LINE
  5
118A
330
1E
100
AcDbEntity
  8
0
100
AcDbLine
 10
223.7988
 20
87.0
 30
0.0
 11
226.7987999999999
 21
87.0
 31
0.0
  0
LINE
  5
118B
330
1E
100
AcDbEntity
  8
0
100
AcDbLine
 10
223.4514
 20
86.64299999999999
 30
0.0
 11
226.6350999999999
 21
86.91399999999999
 31
0.0
  0
LINE
  5
118C
330
1E
100
AcDbEntity
  8
0
100
AcDbLine
 10
223.6235000000001
 20
87.0
 30
0.0
 11
226.7434999999998
 21
87.0
 31
0.0
  0
LINE
  5
118D
330
1E
100
AcDbEntity
  8
0
100
AcDbLine
 10
222.7759999999999
 20
82.35700000000001
 30
0.0
 11
226.6350999999999
 21
82.086
 31
0.0
  0
LINE
  5
118E
330
1E
100
AcDbEntity
  8
0
100
AcDbLine
 10
217.0714999999999
 20
89.99999999999991
 30
0.0
 11
217.5394999999999
 21
89.99999999999991
 31
0.0
  0
LINE
  5
118F
330
1E
100
AcDbEntity
  8
0
100
AcDbLine
 10
220.8674999999999
 20
89.99999999999991
 30
0.0
 11
223.6235000000001
 21
89.99999999999991
 31
0.0
  0
LINE
  5
1190
330
1E
100
AcDbEntity
  8
0
100
AcDbLine
 10
222.2834999999999
 20
93.0
 30
0.0
 11
224.6155000000001
 21
93.0
 31
0.0
  0
LINE
  5
1191
330
1E
100
AcDbEntity
  8
0
100
AcDbLine
 10
221.1031000000001
 20
93.16199999999991
 30
0.0
 11
223.9631000000001
 21
93.0899999999999
 31
0.0
  0
LINE
  5
1192
330
1E
100
AcDbEntity
  8
0
100
AcDbLine
 10
220.5235
 20
93.0
 30
0.0
 11
222.2834999999999
 21
93.0
 31
0.0
  0
LINE
  5
1193
330
1E
100
AcDbEntity
  8
0
100
AcDbLine
 10
219.0714999999999
 20
89.99999999999991
 30
0.0
 11
219.0714999999999
 21
93.0
 31
0.0
  0
LINE
  5
1194
330
1E
100
AcDbEntity
  8
0
100
AcDbLine
 10
217.5394999999999
 20
89.99999999999991
 30
0.0
 11
218.7875
 21
89.99999999999991
 31
0.0
  0
LINE
  5
1195
330
1E
100
AcDbEntity
  8
0
100
AcDbLine
 10
218.8293999999999
 20
93.0
 30
0.0
 11
219.0714999999999
 21
93.0
 31
0.0
  0
LINE
  5
1196
330
1E
100
AcDbEntity
  8
0
100
AcDbLine
 10
218.3873000000001
 20
93.0
 30
0.0
 11
218.8293999999999
 21
93.0
 31
0.0
  0
LINE
  5
1197
330
1E
100
AcDbEntity
  8
0
100
AcDbLine
 10
219.0714999999999
 20
93.0
 30
0.0
 11
219.4675000000001
 21
93.0
 31
0.0
  0
LINE
  5
1198
330
1E
100
AcDbEntity
  8
0
100
AcDbLine
 10
219.0714999999999
 20
93.0
 30
0.0
 11
219.0714999999999
 21
89.99999999999991
 31
0.0
  0
LINE
  5
1199
330
1E
100
AcDbEntity
  8
0
100
AcDbLine
 10
218.0715000000001
 20
93.045
 30
0.0
 11
218.0715000000001
 21
93.10699999999988
 31
0.0
  0
LINE
  5
119A
330
1E
100
AcDbEntity
  8
0
100
AcDbLine
 10
218.0715000000001
 20
93.045
 30
0.0
 11
218.3873000000001
 21
93.0
 31
0.0
  0
LINE
  5
119B
330
1E
100
AcDbEntity
  8
0
100
AcDbLine
 10
218.0715000000001
 20
93.10699999999988
 30
0.0
 11
218.0715000000001
 21
93.045
 31
0.0
  0
LINE
  5
119C
330
1E
100
AcDbEntity
  8
0
100
AcDbLine
 10
218.0715000000001
 20
93.10699999999988
 30
0.0
 11
218.0715000000001
 21
93.44599999999998
 31
0.0
  0
LINE
  5
119D
330
1E
100
AcDbEntity
  8
0
100
AcDbLine
 10
218.0715000000001
 20
93.89299999999998
 30
0.0
 11
218.0715000000001
 21
93.44599999999998
 31
0.0
  0
LINE
  5
119E
330
1E
100
AcDbEntity
  8
0
100
AcDbLine
 10
218.3241000000001
 20
93.44599999999998
 30
0.0
 11
219.0999999999999
 21
93.44599999999998
 31
0.0
  0
LINE
  5
119F
330
1E
100
AcDbEntity
  8
0
100
AcDbLine
 10
218.0715000000001
 20
93.44599999999998
 30
0.0
 11
218.0715000000001
 21
93.10699999999988
 31
0.0
  0
LINE
  5
11A0
330
1E
100
AcDbEntity
  8
0
100
AcDbLine
 10
218.0715000000001
 20
93.44599999999998
 30
0.0
 11
218.3241000000001
 21
93.44599999999998
 31
0.0
  0
LINE
  5
11A1
330
1E
100
AcDbEntity
  8
0
100
AcDbLine
 10
218.0715000000001
 20
93.44599999999998
 30
0.0
 11
218.0715000000001
 21
93.89299999999998
 31
0.0
  0
LINE
  5
11A2
330
1E
100
AcDbEntity
  8
0
100
AcDbLine
 10
218.7875
 20
89.99999999999991
 30
0.0
 11
220.8674999999999
 21
89.99999999999991
 31
0.0
  0
LINE
  5
11A3
330
1E
100
AcDbEntity
  8
0
100
AcDbLine
 10
219.4675000000001
 20
93.0
 30
0.0
 11
220.5235
 21
93.0
 31
0.0
  0
LINE
  5
11A4
330
1E
100
AcDbEntity
  8
0
100
AcDbLine
 10
219.0999999999999
 20
93.44599999999998
 30
0.0
 11
221.1031000000001
 21
93.16199999999991
 31
0.0
  0
LINE
  5
11A5
330
1E
100
AcDbEntity
  8
0
100
AcDbLine
 10
223.6235000000001
 20
89.99999999999991
 30
0.0
 11
226.7434999999998
 21
89.99999999999991
 31
0.0
  0
LINE
  5
11A6
330
1E
100
AcDbEntity
  8
0
100
AcDbLine
 10
224.6155000000001
 20
93.0
 30
0.0
 11
227.2555
 21
93.0
 31
0.0
  0
LINE
  5
11A7
330
1E
100
AcDbEntity
  8
0
100
AcDbLine
 10
223.9631000000001
 20
93.0899999999999
 30
0.0
 11
226.8076000000001
 21
93.18700000000001
 31
0.0
  0
LINE
  5
11A8
330
1E
100
AcDbEntity
  8
0
100
AcDbLine
 10
243.0715000000001
 20
87.0
 30
0.0
 11
243.0715000000001
 21
89.99999999999991
 31
0.0
  0
LINE
  5
11A9
330
1E
100
AcDbEntity
  8
0
100
AcDbLine
 10
243.0715000000001
 20
89.99999999999991
 30
0.0
 11
243.0715000000001
 21
87.0
 31
0.0
  0
LINE
  5
11AA
330
1E
100
AcDbEntity
  8
0
100
AcDbLine
 10
236.6916000000001
 20
86.64299999999999
 30
0.0
 11
237.5904999999999
 21
86.28599999999989
 31
0.0
  0
LINE
  5
11AB
330
1E
100
AcDbEntity
  8
0
100
AcDbLine
 10
236.3442
 20
87.0
 30
0.0
 11
239.0032999999999
 21
87.0
 31
0.0
  0
LINE
  5
11AC
330
1E
100
AcDbEntity
  8
0
100
AcDbLine
 10
236.5195000000001
 20
87.0
 30
0.0
 11
239.2755
 21
87.0
 31
0.0
  0
LINE
  5
11AD
330
1E
100
AcDbEntity
  8
0
100
AcDbLine
 10
236.6916000000001
 20
82.35700000000001
 30
0.0
 11
237.5904999999999
 21
82.71399999999998
 31
0.0
  0
LINE
  5
11AE
330
1E
100
AcDbEntity
  8
0
100
AcDbLine
 10
234.9355
 20
81.9999999999999
 30
0.0
 11
239.4955000000001
 21
81.9999999999999
 31
0.0
  0
LINE
  5
11AF
330
1E
100
AcDbEntity
  8
0
100
AcDbLine
 10
230.0715000000001
 20
81.9999999999999
 30
0.0
 11
234.9355
 21
81.9999999999999
 31
0.0
  0
LINE
  5
11B0
330
1E
100
AcDbEntity
  8
0
100
AcDbLine
 10
230.0715000000001
 20
86.964
 30
0.0
 11
233.5078999999999
 21
86.91399999999999
 31
0.0
  0
LINE
  5
11B1
330
1E
100
AcDbEntity
  8
0
100
AcDbLine
 10
230.0715000000001
 20
82.0359999999999
 30
0.0
 11
233.5078999999999
 21
82.086
 31
0.0
  0
LINE
  5
11B2
330
1E
100
AcDbEntity
  8
0
100
AcDbLine
 10
230.0715000000001
 20
87.0
 30
0.0
 11
233.3995000000001
 21
87.0
 31
0.0
  0
LINE
  5
11B3
330
1E
100
AcDbEntity
  8
0
100
AcDbLine
 10
230.0715000000001
 20
87.0
 30
0.0
 11
233.3442000000001
 21
87.0
 31
0.0
  0
LINE
  5
11B4
330
1E
100
AcDbEntity
  8
0
100
AcDbLine
 10
233.3442000000001
 20
87.0
 30
0.0
 11
236.3442
 21
87.0
 31
0.0
  0
LINE
  5
11B5
330
1E
100
AcDbEntity
  8
0
100
AcDbLine
 10
233.5078999999999
 20
82.086
 30
0.0
 11
236.6916000000001
 21
82.35700000000001
 31
0.0
  0
LINE
  5
11B6
330
1E
100
AcDbEntity
  8
0
100
AcDbLine
 10
233.5078999999999
 20
86.91399999999999
 30
0.0
 11
236.6916000000001
 21
86.64299999999999
 31
0.0
  0
LINE
  5
11B7
330
1E
100
AcDbEntity
  8
0
100
AcDbLine
 10
233.3995000000001
 20
87.0
 30
0.0
 11
236.5195000000001
 21
87.0
 31
0.0
  0
LINE
  5
11B8
330
1E
100
AcDbEntity
  8
0
100
AcDbLine
 10
241.5777999999999
 20
86.928
 30
0.0
 11
243.3923
 21
86.85099999999989
 31
0.0
  0
LINE
  5
11B9
330
1E
100
AcDbEntity
  8
0
100
AcDbLine
 10
241.5777999999999
 20
82.07199999999991
 30
0.0
 11
243.3923
 21
82.149
 31
0.0
  0
LINE
  5
11BA
330
1E
100
AcDbEntity
  8
0
100
AcDbLine
 10
241.3555000000001
 20
87.0
 30
0.0
 11
242.6035000000001
 21
87.0
 31
0.0
  0
LINE
  5
11BB
330
1E
100
AcDbEntity
  8
0
100
AcDbLine
 10
242.2079
 20
87.0
 30
0.0
 11
242.6035000000001
 21
87.0
 31
0.0
  0
LINE
  5
11BC
330
1E
100
AcDbEntity
  8
0
100
AcDbLine
 10
242.2079
 20
87.0
 30
0.0
 11
242.6851
 21
87.0
 31
0.0
  0
LINE
  5
11BD
330
1E
100
AcDbEntity
  8
0
100
AcDbLine
 10
239.4955000000001
 20
81.9999999999999
 30
0.0
 11
243.5235
 21
81.9999999999999
 31
0.0
  0
LINE
  5
11BE
330
1E
100
AcDbEntity
  8
0
100
AcDbLine
 10
240.9806000000001
 20
87.0
 30
0.0
 11
242.2079
 21
87.0
 31
0.0
  0
LINE
  5
11BF
330
1E
100
AcDbEntity
  8
0
100
AcDbLine
 10
237.5904999999999
 20
82.71399999999998
 30
0.0
 11
237.5904999999999
 21
86.28599999999989
 31
0.0
  0
LINE
  5
11C0
330
1E
100
AcDbEntity
  8
0
100
AcDbLine
 10
238.4755000000001
 20
82.35700000000001
 30
0.0
 11
239.7533000000001
 21
82.12999999999999
 31
0.0
  0
LINE
  5
11C1
330
1E
100
AcDbEntity
  8
0
100
AcDbLine
 10
237.5904999999999
 20
86.28599999999989
 30
0.0
 11
237.5904999999999
 21
82.71399999999998
 31
0.0
  0
LINE
  5
11C2
330
1E
100
AcDbEntity
  8
0
100
AcDbLine
 10
237.5904999999999
 20
86.28599999999989
 30
0.0
 11
238.4755000000001
 21
86.64299999999999
 31
0.0
  0
LINE
  5
11C3
330
1E
100
AcDbEntity
  8
0
100
AcDbLine
 10
238.4755000000001
 20
86.64299999999999
 30
0.0
 11
239.7533000000001
 21
86.8699999999999
 31
0.0
  0
LINE
  5
11C4
330
1E
100
AcDbEntity
  8
0
100
AcDbLine
 10
237.5904999999999
 20
82.71399999999998
 30
0.0
 11
237.5904999999999
 21
82.71399999999998
 31
0.0
  0
LINE
  5
11C5
330
1E
100
AcDbEntity
  8
0
100
AcDbLine
 10
237.5904999999999
 20
82.71399999999998
 30
0.0
 11
238.4755000000001
 21
82.35700000000001
 31
0.0
  0
LINE
  5
11C6
330
1E
100
AcDbEntity
  8
0
100
AcDbLine
 10
239.0032999999999
 20
87.0
 30
0.0
 11
240.9806000000001
 21
87.0
 31
0.0
  0
LINE
  5
11C7
330
1E
100
AcDbEntity
  8
0
100
AcDbLine
 10
239.7533000000001
 20
86.8699999999999
 30
0.0
 11
241.5777999999999
 21
86.928
 31
0.0
  0
LINE
  5
11C8
330
1E
100
AcDbEntity
  8
0
100
AcDbLine
 10
239.7533000000001
 20
82.12999999999999
 30
0.0
 11
241.5777999999999
 21
82.07199999999991
 31
0.0
  0
LINE
  5
11C9
330
1E
100
AcDbEntity
  8
0
100
AcDbLine
 10
239.2755
 20
87.0
 30
0.0
 11
241.3555000000001
 21
87.0
 31
0.0
  0
LINE
  5
11CA
330
1E
100
AcDbEntity
  8
0
100
AcDbLine
 10
242.6851
 20
81.9999999999999
 30
0.0
 11
243.7079000000001
 21
82.107
 31
0.0
  0
LINE
  5
11CB
330
1E
100
AcDbEntity
  8
0
100
AcDbLine
 10
243.7079000000001
 20
82.107
 30
0.0
 11
244.7306000000001
 21
82.35700000000001
 31
0.0
  0
LINE
  5
11CC
330
1E
100
AcDbEntity
  8
0
100
AcDbLine
 10
243.3923
 20
82.149
 30
0.0
 11
244.4977000000001
 21
82.35700000000001
 31
0.0
  0
LINE
  5
11CD
330
1E
100
AcDbEntity
  8
0
100
AcDbLine
 10
243.3923
 20
86.85099999999989
 30
0.0
 11
244.4977000000001
 21
86.64299999999999
 31
0.0
  0
LINE
  5
11CE
330
1E
100
AcDbEntity
  8
0
100
AcDbLine
 10
242.6851
 20
87.0
 30
0.0
 11
243.7079000000001
 21
86.89299999999999
 31
0.0
  0
LINE
  5
11CF
330
1E
100
AcDbEntity
  8
0
100
AcDbLine
 10
243.7079000000001
 20
86.89299999999999
 30
0.0
 11
244.7306000000001
 21
86.64299999999999
 31
0.0
  0
LINE
  5
11D0
330
1E
100
AcDbEntity
  8
0
100
AcDbLine
 10
242.6035000000001
 20
87.0
 30
0.0
 11
243.0715000000001
 21
87.0
 31
0.0
  0
LINE
  5
11D1
330
1E
100
AcDbEntity
  8
0
100
AcDbLine
 10
236.5195000000001
 20
89.99999999999991
 30
0.0
 11
239.2755
 21
89.99999999999991
 31
0.0
  0
LINE
  5
11D2
330
1E
100
AcDbEntity
  8
0
100
AcDbLine
 10
235.5275000000001
 20
93.0
 30
0.0
 11
237.8595
 21
93.0
 31
0.0
  0
LINE
  5
11D3
330
1E
100
AcDbEntity
  8
0
100
AcDbLine
 10
236.1798000000001
 20
93.0899999999999
 30
0.0
 11
239.04
 21
93.16199999999991
 31
0.0
  0
LINE
  5
11D4
330
1E
100
AcDbEntity
  8
0
100
AcDbLine
 10
230.0715000000001
 20
89.99999999999991
 30
0.0
 11
233.3995000000001
 21
89.99999999999991
 31
0.0
  0
LINE
  5
11D5
330
1E
100
AcDbEntity
  8
0
100
AcDbLine
 10
230.0715000000001
 20
93.0
 30
0.0
 11
232.8875
 21
93.0
 31
0.0
  0
LINE
  5
11D6
330
1E
100
AcDbEntity
  8
0
100
AcDbLine
 10
230.0715000000001
 20
93.0
 30
0.0
 11
233.1030000000001
 21
93.0
 31
0.0
  0
LINE
  5
11D7
330
1E
100
AcDbEntity
  8
0
100
AcDbLine
 10
231.5546000000001
 20
93.44599999999998
 30
0.0
 11
233.3354000000001
 21
93.18700000000001
 31
0.0
  0
LINE
  5
11D8
330
1E
100
AcDbEntity
  8
0
100
AcDbLine
 10
230.0715000000001
 20
93.44599999999998
 30
0.0
 11
231.5546000000001
 21
93.44599999999998
 31
0.0
  0
LINE
  5
11D9
330
1E
100
AcDbEntity
  8
0
100
AcDbLine
 10
228.5884000000001
 20
93.44599999999998
 30
0.0
 11
230.0715000000001
 21
93.44599999999998
 31
0.0
  0
LINE
  5
11DA
330
1E
100
AcDbEntity
  8
0
100
AcDbLine
 10
233.3995000000001
 20
89.99999999999991
 30
0.0
 11
236.5195000000001
 21
89.99999999999991
 31
0.0
  0
LINE
  5
11DB
330
1E
100
AcDbEntity
  8
0
100
AcDbLine
 10
233.1030000000001
 20
93.0
 30
0.0
 11
235.8820000000001
 21
93.0
 31
0.0
  0
LINE
  5
11DC
330
1E
100
AcDbEntity
  8
0
100
AcDbLine
 10
232.8875
 20
93.0
 30
0.0
 11
235.5275000000001
 21
93.0
 31
0.0
  0
LINE
  5
11DD
330
1E
100
AcDbEntity
  8
0
100
AcDbLine
 10
233.3354000000001
 20
93.18700000000001
 30
0.0
 11
236.1798000000001
 21
93.0899999999999
 31
0.0
  0
LINE
  5
11DE
330
1E
100
AcDbEntity
  8
0
100
AcDbLine
 10
241.3555000000001
 20
89.99999999999991
 30
0.0
 11
242.6035000000001
 21
89.99999999999991
 31
0.0
  0
LINE
  5
11DF
330
1E
100
AcDbEntity
  8
0
100
AcDbLine
 10
241.0715000000001
 20
89.99999999999991
 30
0.0
 11
241.0715000000001
 21
93.0
 31
0.0
  0
LINE
  5
11E0
330
1E
100
AcDbEntity
  8
0
100
AcDbLine
 10
241.3136000000001
 20
93.0
 30
0.0
 11
241.7557000000001
 21
93.0
 31
0.0
  0
LINE
  5
11E1
330
1E
100
AcDbEntity
  8
0
100
AcDbLine
 10
241.7557000000001
 20
93.0
 30
0.0
 11
242.0714999999999
 21
93.045
 31
0.0
  0
LINE
  5
11E2
330
1E
100
AcDbEntity
  8
0
100
AcDbLine
 10
240.1768
 20
93.0
 30
0.0
 11
241.3136000000001
 21
93.0
 31
0.0
  0
LINE
  5
11E3
330
1E
100
AcDbEntity
  8
0
100
AcDbLine
 10
240.6755000000001
 20
93.0
 30
0.0
 11
241.0715000000001
 21
93.0
 31
0.0
  0
LINE
  5
11E4
330
1E
100
AcDbEntity
  8
0
100
AcDbLine
 10
241.0715000000001
 20
93.0
 30
0.0
 11
241.0715000000001
 21
89.99999999999991
 31
0.0
  0
LINE
  5
11E5
330
1E
100
AcDbEntity
  8
0
100
AcDbLine
 10
241.0715000000001
 20
93.0
 30
0.0
 11
241.3136000000001
 21
93.0
 31
0.0
  0
LINE
  5
11E6
330
1E
100
AcDbEntity
  8
0
100
AcDbLine
 10
242.0714999999999
 20
93.045
 30
0.0
 11
242.0714999999999
 21
93.10699999999988
 31
0.0
  0
LINE
  5
11E7
330
1E
100
AcDbEntity
  8
0
100
AcDbLine
 10
242.0714999999999
 20
93.10699999999988
 30
0.0
 11
242.0714999999999
 21
93.045
 31
0.0
  0
LINE
  5
11E8
330
1E
100
AcDbEntity
  8
0
100
AcDbLine
 10
242.0714999999999
 20
93.10699999999988
 30
0.0
 11
242.0714999999999
 21
93.44599999999998
 31
0.0
  0
LINE
  5
11E9
330
1E
100
AcDbEntity
  8
0
100
AcDbLine
 10
241.8189000000001
 20
93.44599999999998
 30
0.0
 11
242.0714999999999
 21
93.44599999999998
 31
0.0
  0
LINE
  5
11EA
330
1E
100
AcDbEntity
  8
0
100
AcDbLine
 10
242.0714999999999
 20
93.44599999999998
 30
0.0
 11
242.0714999999999
 21
93.89299999999998
 31
0.0
  0
LINE
  5
11EB
330
1E
100
AcDbEntity
  8
0
100
AcDbLine
 10
242.0714999999999
 20
93.44599999999998
 30
0.0
 11
242.0714999999999
 21
93.10699999999988
 31
0.0
  0
LINE
  5
11EC
330
1E
100
AcDbEntity
  8
0
100
AcDbLine
 10
241.0430000000001
 20
93.44599999999998
 30
0.0
 11
241.8189000000001
 21
93.44599999999998
 31
0.0
  0
LINE
  5
11ED
330
1E
100
AcDbEntity
  8
0
100
AcDbLine
 10
242.0714999999999
 20
93.89299999999998
 30
0.0
 11
242.0714999999999
 21
93.44599999999998
 31
0.0
  0
LINE
  5
11EE
330
1E
100
AcDbEntity
  8
0
100
AcDbLine
 10
237.8595
 20
93.0
 30
0.0
 11
239.6195
 21
93.0
 31
0.0
  0
LINE
  5
11EF
330
1E
100
AcDbEntity
  8
0
100
AcDbLine
 10
239.2755
 20
89.99999999999991
 30
0.0
 11
241.3555000000001
 21
89.99999999999991
 31
0.0
  0
LINE
  5
11F0
330
1E
100
AcDbEntity
  8
0
100
AcDbLine
 10
239.6195
 20
93.0
 30
0.0
 11
240.6755000000001
 21
93.0
 31
0.0
  0
LINE
  5
11F1
330
1E
100
AcDbEntity
  8
0
100
AcDbLine
 10
239.04
 20
93.16199999999991
 30
0.0
 11
241.0430000000001
 21
93.44599999999998
 31
0.0
  0
LINE
  5
11F2
330
1E
100
AcDbEntity
  8
0
100
AcDbLine
 10
242.6035000000001
 20
89.99999999999991
 30
0.0
 11
243.0715000000001
 21
89.99999999999991
 31
0.0
  0
LINE
  5
11F3
330
1E
100
AcDbEntity
  8
0
100
AcDbLine
 10
244.7306000000001
 20
82.35700000000001
 30
0.0
 11
245.0715000000001
 21
82.71399999999998
 31
0.0
  0
LINE
  5
11F4
330
1E
100
AcDbEntity
  8
0
100
AcDbLine
 10
244.9663999999999
 20
82.71399999999998
 30
0.0
 11
245.0715000000001
 21
82.71399999999998
 31
0.0
  0
LINE
  5
11F5
330
1E
100
AcDbEntity
  8
0
100
AcDbLine
 10
245.0715000000001
 20
86.28599999999989
 30
0.0
 11
245.0715000000001
 21
82.71399999999998
 31
0.0
  0
LINE
  5
11F6
330
1E
100
AcDbEntity
  8
0
100
AcDbLine
 10
245.0715000000001
 20
82.71399999999998
 30
0.0
 11
245.0715000000001
 21
86.28599999999989
 31
0.0
  0
LINE
  5
11F7
330
1E
100
AcDbEntity
  8
0
100
AcDbLine
 10
244.9663999999999
 20
86.28599999999989
 30
0.0
 11
245.0715000000001
 21
86.28599999999989
 31
0.0
  0
LINE
  5
11F8
330
1E
100
AcDbEntity
  8
0
100
AcDbLine
 10
244.4977000000001
 20
82.35700000000001
 30
0.0
 11
244.9663999999999
 21
82.71399999999998
 31
0.0
  0
LINE
  5
11F9
330
1E
100
AcDbEntity
  8
0
100
AcDbLine
 10
244.7306000000001
 20
86.64299999999999
 30
0.0
 11
245.0715000000001
 21
86.28599999999989
 31
0.0
  0
LINE
  5
11FA
330
1E
100
AcDbEntity
  8
0
100
AcDbLine
 10
244.4977000000001
 20
86.64299999999999
 30
0.0
 11
244.9663999999999
 21
86.28599999999989
 31
0.0
  0
LINE
  5
11FB
330
1E
100
AcDbEntity
  8
0
100
AcDbLine
 10
263.2714
 20
106.4459999999999
 30
0.0
 11
265.6083000000001
 21
106.162
 31
0.0
  0
LINE
  5
11FC
330
1E
100
AcDbEntity
  8
0
100
AcDbLine
 10
264.3803000000001
 20
106.0
 30
0.0
 11
265.1
 21
106.0
 31
0.0
  0
LINE
  5
11FD
330
1E
100
AcDbEntity
  8
0
100
AcDbLine
 10
264.0715000000001
 20
106.0
 30
0.0
 11
264.3803000000001
 21
106.0
 31
0.0
  0
LINE
  5
11FE
330
1E
100
AcDbEntity
  8
0
100
AcDbLine
 10
264.0715000000001
 20
106.0
 30
0.0
 11
264.0715000000001
 21
93.89299999999998
 31
0.0
  0
LINE
  5
11FF
330
1E
100
AcDbEntity
  8
0
100
AcDbLine
 10
264.0715000000001
 20
93.89299999999998
 30
0.0
 11
264.0715000000001
 21
106.0
 31
0.0
  0
LINE
  5
1200
330
1E
100
AcDbEntity
  8
0
100
AcDbLine
 10
262.0715000000001
 20
106.8929999999999
 30
0.0
 11
262.0715000000001
 21
106.4459999999999
 31
0.0
  0
LINE
  5
1201
330
1E
100
AcDbEntity
  8
0
100
AcDbLine
 10
262.0715000000001
 20
106.8929999999999
 30
0.0
 11
262.0715000000001
 21
108.0
 31
0.0
  0
LINE
  5
1202
330
1E
100
AcDbEntity
  8
0
100
AcDbLine
 10
262.0715000000001
 20
108.0
 30
0.0
 11
262.0715000000001
 21
106.8929999999999
 31
0.0
  0
LINE
  5
1203
330
1E
100
AcDbEntity
  8
0
100
AcDbLine
 10
262.0715000000001
 20
106.1069999999999
 30
0.0
 11
262.0715000000001
 21
106.045
 31
0.0
  0
LINE
  5
1204
330
1E
100
AcDbEntity
  8
0
100
AcDbLine
 10
262.0715000000001
 20
106.1069999999999
 30
0.0
 11
262.0715000000001
 21
106.4459999999999
 31
0.0
  0
LINE
  5
1205
330
1E
100
AcDbEntity
  8
0
100
AcDbLine
 10
262.0715000000001
 20
106.4459999999999
 30
0.0
 11
262.0715000000001
 21
106.1069999999999
 31
0.0
  0
LINE
  5
1206
330
1E
100
AcDbEntity
  8
0
100
AcDbLine
 10
262.0715000000001
 20
106.4459999999999
 30
0.0
 11
262.0715000000001
 21
106.8929999999999
 31
0.0
  0
LINE
  5
1207
330
1E
100
AcDbEntity
  8
0
100
AcDbLine
 10
262.0715000000001
 20
106.045
 30
0.0
 11
262.4399
 21
106.0
 31
0.0
  0
LINE
  5
1208
330
1E
100
AcDbEntity
  8
0
100
AcDbLine
 10
262.0715000000001
 20
106.045
 30
0.0
 11
262.0715000000001
 21
106.1069999999999
 31
0.0
  0
LINE
  5
1209
330
1E
100
AcDbEntity
  8
0
100
AcDbLine
 10
262.4399
 20
106.0
 30
0.0
 11
262.9557000000001
 21
106.0
 31
0.0
  0
LINE
  5
120A
330
1E
100
AcDbEntity
  8
0
100
AcDbLine
 10
262.0715000000001
 20
106.8929999999999
 30
0.0
 11
263.2714
 21
106.4459999999999
 31
0.0
  0
LINE
  5
120B
330
1E
100
AcDbEntity
  8
0
100
AcDbLine
 10
262.9557000000001
 20
106.0
 30
0.0
 11
264.0715000000001
 21
106.0
 31
0.0
  0
LINE
  5
120C
330
1E
100
AcDbEntity
  8
0
100
AcDbLine
 10
283.1979
 20
106.0899999999999
 30
0.0
 11
286.5347000000001
 21
106.162
 31
0.0
  0
LINE
  5
120D
330
1E
100
AcDbEntity
  8
0
100
AcDbLine
 10
282.1798000000001
 20
106.0
 30
0.0
 11
285.04
 21
106.0
 31
0.0
  0
LINE
  5
120E
330
1E
100
AcDbEntity
  8
0
100
AcDbLine
 10
274.3412
 20
106.4459999999999
 30
0.0
 11
276.0715000000001
 21
106.4459999999999
 31
0.0
  0
LINE
  5
120F
330
1E
100
AcDbEntity
  8
0
100
AcDbLine
 10
274.5884000000001
 20
106.0
 30
0.0
 11
275.3777000000001
 21
106.0
 31
0.0
  0
LINE
  5
1210
330
1E
100
AcDbEntity
  8
0
100
AcDbLine
 10
268.9451
 20
106.0899999999999
 30
0.0
 11
272.2636
 21
106.187
 31
0.0
  0
LINE
  5
1211
330
1E
100
AcDbEntity
  8
0
100
AcDbLine
 10
267.1031000000001
 20
106.0
 30
0.0
 11
269.9631000000001
 21
106.0
 31
0.0
  0
LINE
  5
1212
330
1E
100
AcDbEntity
  8
0
100
AcDbLine
 10
265.1
 20
106.0
 30
0.0
 11
267.1031000000001
 21
106.0
 31
0.0
  0
LINE
  5
1213
330
1E
100
AcDbEntity
  8
0
100
AcDbLine
 10
265.6083000000001
 20
106.162
 30
0.0
 11
268.9451
 21
106.0899999999999
 31
0.0
  0
LINE
  5
1214
330
1E
100
AcDbEntity
  8
0
100
AcDbLine
 10
266.4189000000001
 20
106.0
 30
0.0
 11
269.2925
 21
106.0
 31
0.0
  0
LINE
  5
1215
330
1E
100
AcDbEntity
  8
0
100
AcDbLine
 10
269.9631000000001
 20
106.0
 30
0.0
 11
272.8076000000001
 21
106.0
 31
0.0
  0
LINE
  5
1216
330
1E
100
AcDbEntity
  8
0
100
AcDbLine
 10
272.2636
 20
106.187
 30
0.0
 11
274.3412
 21
106.4459999999999
 31
0.0
  0
LINE
  5
1217
330
1E
100
AcDbEntity
  8
0
100
AcDbLine
 10
272.8076000000001
 20
106.0
 30
0.0
 11
274.5884000000001
 21
106.0
 31
0.0
  0
LINE
  5
1218
330
1E
100
AcDbEntity
  8
0
100
AcDbLine
 10
279.3354000000001
 20
106.0
 30
0.0
 11
282.1798000000001
 21
106.0
 31
0.0
  0
LINE
  5
1219
330
1E
100
AcDbEntity
  8
0
100
AcDbLine
 10
279.6083000000001
 20
106.0
 30
0.0
 11
282.8503999999999
 21
106.0
 31
0.0
  0
LINE
  5
121A
330
1E
100
AcDbEntity
  8
0
100
AcDbLine
 10
277.8018
 20
106.4459999999999
 30
0.0
 11
279.8794
 21
106.187
 31
0.0
  0
LINE
  5
121B
330
1E
100
AcDbEntity
  8
0
100
AcDbLine
 10
275.3777000000001
 20
106.0
 30
0.0
 11
276.0715000000001
 21
106.0
 31
0.0
  0
LINE
  5
121C
330
1E
100
AcDbEntity
  8
0
100
AcDbLine
 10
276.0715000000001
 20
106.4459999999999
 30
0.0
 11
277.8018
 21
106.4459999999999
 31
0.0
  0
LINE
  5
121D
330
1E
100
AcDbEntity
  8
0
100
AcDbLine
 10
276.7653000000001
 20
106.0
 30
0.0
 11
277.5546000000001
 21
106.0
 31
0.0
  0
LINE
  5
121E
330
1E
100
AcDbEntity
  8
0
100
AcDbLine
 10
276.0715000000001
 20
106.0
 30
0.0
 11
276.7653000000001
 21
106.0
 31
0.0
  0
LINE
  5
121F
330
1E
100
AcDbEntity
  8
0
100
AcDbLine
 10
277.5546000000001
 20
106.0
 30
0.0
 11
279.6083000000001
 21
106.0
 31
0.0
  0
LINE
  5
1220
330
1E
100
AcDbEntity
  8
0
100
AcDbLine
 10
277.5546000000001
 20
106.0
 30
0.0
 11
279.3354000000001
 21
106.0
 31
0.0
  0
LINE
  5
1221
330
1E
100
AcDbEntity
  8
0
100
AcDbLine
 10
279.8794
 20
106.187
 30
0.0
 11
283.1979
 21
106.0899999999999
 31
0.0
  0
LINE
  5
1225
330
1E
100
AcDbEntity
  8
0
100
AcDbLine
 10
289.7768000000001
 20
106.4459999999999
 30
0.0
 11
290.0715000000001
 21
106.4459999999999
 31
0.0
  0
LINE
  5
1226
330
1E
100
AcDbEntity
  8
0
100
AcDbLine
 10
289.7031
 20
106.0
 30
0.0
 11
290.0715000000001
 21
106.045
 31
0.0
  0
LINE
  5
1227
330
1E
100
AcDbEntity
  8
0
100
AcDbLine
 10
288.8716000000001
 20
106.4459999999999
 30
0.0
 11
289.7768000000001
 21
106.4459999999999
 31
0.0
  0
LINE
  5
122B
330
1E
100
AcDbEntity
  8
0
100
AcDbLine
 10
289.1873000000001
 20
106.0
 30
0.0
 11
289.7031
 21
106.0
 31
0.0
  0
LINE
  5
122C
330
1E
100
AcDbEntity
  8
0
100
AcDbLine
 10
285.04
 20
106.0
 30
0.0
 11
287.0430000000001
 21
106.0
 31
0.0
  0
LINE
  5
122D
330
1E
100
AcDbEntity
  8
0
100
AcDbLine
 10
285.7241000000001
 20
106.0
 30
0.0
 11
287.0430000000001
 21
106.0
 31
0.0
  0
LINE
  5
122E
330
1E
100
AcDbEntity
  8
0
100
AcDbLine
 10
287.0430000000001
 20
106.0
 30
0.0
 11
287.7627000000001
 21
106.0
 31
0.0
  0
LINE
  5
122F
330
1E
100
AcDbEntity
  8
0
100
AcDbLine
 10
288.0715000000001
 20
106.0
 30
0.0
 11
288.0715000000001
 21
93.89299999999998
 31
0.0
  0
LINE
  5
1230
330
1E
100
AcDbEntity
  8
0
100
AcDbLine
 10
287.7627000000001
 20
106.0
 30
0.0
 11
288.0715000000001
 21
106.0
 31
0.0
  0
LINE
  5
1231
330
1E
100
AcDbEntity
  8
0
100
AcDbLine
 10
288.0715000000001
 20
93.89299999999998
 30
0.0
 11
288.0715000000001
 21
106.0
 31
0.0
  0
LINE
  5
1232
330
1E
100
AcDbEntity
  8
0
100
AcDbLine
 10
286.5347000000001
 20
106.162
 30
0.0
 11
288.8716000000001
 21
106.4459999999999
 31
0.0
  0
LINE
  5
1233
330
1E
100
AcDbEntity
  8
0
100
AcDbLine
 10
288.0715000000001
 20
106.0
 30
0.0
 11
289.1873000000001
 21
106.0
 31
0.0
  0
LINE
  5
1234
330
1E
100
AcDbEntity
  8
0
100
AcDbLine
 10
290.0715000000001
 20
108.0
 30
0.0
 11
290.0715000000001
 21
106.8929999999999
 31
0.0
  0
LINE
  5
1235
330
1E
100
AcDbEntity
  8
0
100
AcDbLine
 10
290.0715000000001
 20
106.8929999999999
 30
0.0
 11
290.0715000000001
 21
108.0
 31
0.0
  0
LINE
  5
1236
330
1E
100
AcDbEntity
  8
0
100
AcDbLine
 10
290.0715000000001
 20
106.8929999999999
 30
0.0
 11
290.0715000000001
 21
106.4459999999999
 31
0.0
  0
LINE
  5
1237
330
1E
100
AcDbEntity
  8
0
100
AcDbLine
 10
290.0715000000001
 20
106.1069999999999
 30
0.0
 11
290.0715000000001
 21
106.4459999999999
 31
0.0
  0
LINE
  5
1238
330
1E
100
AcDbEntity
  8
0
100
AcDbLine
 10
290.0715000000001
 20
106.1069999999999
 30
0.0
 11
290.0715000000001
 21
106.045
 31
0.0
  0
LINE
  5
1239
330
1E
100
AcDbEntity
  8
0
100
AcDbLine
 10
290.0715000000001
 20
106.4459999999999
 30
0.0
 11
290.0715000000001
 21
106.8929999999999
 31
0.0
  0
LINE
  5
123A
330
1E
100
AcDbEntity
  8
0
100
AcDbLine
 10
290.0715000000001
 20
106.4459999999999
 30
0.0
 11
290.0715000000001
 21
106.1069999999999
 31
0.0
  0
LINE
  5
123B
330
1E
100
AcDbEntity
  8
0
100
AcDbLine
 10
290.0715000000001
 20
106.045
 30
0.0
 11
290.0715000000001
 21
106.1069999999999
 31
0.0
  0
LINE
  5
123C
330
1E
100
AcDbEntity
  8
0
100
AcDbLine
 10
264.3241000000001
 20
93.44599999999998
 30
0.0
 11
265.1
 21
93.44599999999998
 31
0.0
  0
LINE
  5
123D
330
1E
100
AcDbEntity
  8
0
100
AcDbLine
 10
264.3873000000001
 20
93.0
 30
0.0
 11
264.8294
 21
93.0
 31
0.0
  0
LINE
  5
123E
330
1E
100
AcDbEntity
  8
0
100
AcDbLine
 10
263.5394999999999
 20
89.99999999999991
 30
0.0
 11
264.7875
 21
89.99999999999991
 31
0.0
  0
LINE
  5
123F
330
1E
100
AcDbEntity
  8
0
100
AcDbLine
 10
263.5394999999999
 20
87.0
 30
0.0
 11
264.7875
 21
87.0
 31
0.0
  0
LINE
  5
1240
330
1E
100
AcDbEntity
  8
0
100
AcDbLine
 10
263.9351
 20
87.0
 30
0.0
 11
265.1624000000001
 21
87.0
 31
0.0
  0
LINE
  5
1241
330
1E
100
AcDbEntity
  8
0
100
AcDbLine
 10
262.7507
 20
86.85099999999989
 30
0.0
 11
264.5652000000001
 21
86.928
 31
0.0
  0
LINE
  5
1242
330
1E
100
AcDbEntity
  8
0
100
AcDbLine
 10
263.0715000000001
 20
89.99999999999991
 30
0.0
 11
263.0715000000001
 21
87.0
 31
0.0
  0
LINE
  5
1243
330
1E
100
AcDbEntity
  8
0
100
AcDbLine
 10
263.0715000000001
 20
87.0
 30
0.0
 11
263.0715000000001
 21
89.99999999999991
 31
0.0
  0
LINE
  5
1244
330
1E
100
AcDbEntity
  8
0
100
AcDbLine
 10
263.5394999999999
 20
87.0
 30
0.0
 11
263.9351
 21
87.0
 31
0.0
  0
LINE
  5
1245
330
1E
100
AcDbEntity
  8
0
100
AcDbLine
 10
263.4579000000001
 20
87.0
 30
0.0
 11
263.9351
 21
87.0
 31
0.0
  0
LINE
  5
1246
330
1E
100
AcDbEntity
  8
0
100
AcDbLine
 10
261.6453
 20
86.64299999999999
 30
0.0
 11
262.7507
 21
86.85099999999989
 31
0.0
  0
LINE
  5
1247
330
1E
100
AcDbEntity
  8
0
100
AcDbLine
 10
261.4124000000001
 20
86.64299999999999
 30
0.0
 11
262.4350999999999
 21
86.89299999999999
 31
0.0
  0
LINE
  5
1248
330
1E
100
AcDbEntity
  8
0
100
AcDbLine
 10
261.1766000000001
 20
86.28599999999989
 30
0.0
 11
261.6453
 21
86.64299999999999
 31
0.0
  0
LINE
  5
1249
330
1E
100
AcDbEntity
  8
0
100
AcDbLine
 10
261.0715000000001
 20
82.71399999999998
 30
0.0
 11
261.0715000000001
 21
86.28599999999989
 31
0.0
  0
LINE
  5
124A
330
1E
100
AcDbEntity
  8
0
100
AcDbLine
 10
261.0715000000001
 20
86.28599999999989
 30
0.0
 11
261.4124000000001
 21
86.64299999999999
 31
0.0
  0
LINE
  5
124B
330
1E
100
AcDbEntity
  8
0
100
AcDbLine
 10
261.0715000000001
 20
86.28599999999989
 30
0.0
 11
261.1766000000001
 21
86.28599999999989
 31
0.0
  0
LINE
  5
124C
330
1E
100
AcDbEntity
  8
0
100
AcDbLine
 10
261.0715000000001
 20
86.28599999999989
 30
0.0
 11
261.0715000000001
 21
82.71399999999998
 31
0.0
  0
LINE
  5
124D
330
1E
100
AcDbEntity
  8
0
100
AcDbLine
 10
263.0715000000001
 20
87.0
 30
0.0
 11
263.5394999999999
 21
87.0
 31
0.0
  0
LINE
  5
124E
330
1E
100
AcDbEntity
  8
0
100
AcDbLine
 10
262.4350999999999
 20
86.89299999999999
 30
0.0
 11
263.4579000000001
 21
87.0
 31
0.0
  0
LINE
  5
124F
330
1E
100
AcDbEntity
  8
0
100
AcDbLine
 10
264.0715000000001
 20
93.44599999999998
 30
0.0
 11
264.0715000000001
 21
93.89299999999998
 31
0.0
  0
LINE
  5
1250
330
1E
100
AcDbEntity
  8
0
100
AcDbLine
 10
264.0715000000001
 20
93.44599999999998
 30
0.0
 11
264.3241000000001
 21
93.44599999999998
 31
0.0
  0
LINE
  5
1251
330
1E
100
AcDbEntity
  8
0
100
AcDbLine
 10
264.0715000000001
 20
93.44599999999998
 30
0.0
 11
264.0715000000001
 21
93.10699999999988
 31
0.0
  0
LINE
  5
1252
330
1E
100
AcDbEntity
  8
0
100
AcDbLine
 10
264.0715000000001
 20
93.89299999999998
 30
0.0
 11
264.0715000000001
 21
93.44599999999998
 31
0.0
  0
LINE
  5
1253
330
1E
100
AcDbEntity
  8
0
100
AcDbLine
 10
264.0715000000001
 20
93.10699999999988
 30
0.0
 11
264.0715000000001
 21
93.44599999999998
 31
0.0
  0
LINE
  5
1254
330
1E
100
AcDbEntity
  8
0
100
AcDbLine
 10
264.0715000000001
 20
93.10699999999988
 30
0.0
 11
264.0715000000001
 21
93.045
 31
0.0
  0
LINE
  5
1255
330
1E
100
AcDbEntity
  8
0
100
AcDbLine
 10
264.0715000000001
 20
93.045
 30
0.0
 11
264.3873000000001
 21
93.0
 31
0.0
  0
LINE
  5
1256
330
1E
100
AcDbEntity
  8
0
100
AcDbLine
 10
264.0715000000001
 20
93.045
 30
0.0
 11
264.0715000000001
 21
93.10699999999988
 31
0.0
  0
LINE
  5
1257
330
1E
100
AcDbEntity
  8
0
100
AcDbLine
 10
263.0715000000001
 20
89.99999999999991
 30
0.0
 11
263.5394999999999
 21
89.99999999999991
 31
0.0
  0
LINE
  5
1258
330
1E
100
AcDbEntity
  8
0
100
AcDbLine
 10
283.8595000000001
 20
93.0
 30
0.0
 11
285.6195000000001
 21
93.0
 31
0.0
  0
LINE
  5
1259
330
1E
100
AcDbEntity
  8
0
100
AcDbLine
 10
282.1798000000001
 20
93.0899999999999
 30
0.0
 11
285.04
 21
93.16199999999991
 31
0.0
  0
LINE
  5
125A
330
1E
100
AcDbEntity
  8
0
100
AcDbLine
 10
282.5195000000001
 20
89.99999999999991
 30
0.0
 11
285.2755000000001
 21
89.99999999999991
 31
0.0
  0
LINE
  5
125B
330
1E
100
AcDbEntity
  8
0
100
AcDbLine
 10
284.4755000000001
 20
86.64299999999999
 30
0.0
 11
285.7533
 21
86.8699999999999
 31
0.0
  0
LINE
  5
125C
330
1E
100
AcDbEntity
  8
0
100
AcDbLine
 10
282.5195000000001
 20
87.0
 30
0.0
 11
285.2755000000001
 21
87.0
 31
0.0
  0
LINE
  5
125D
330
1E
100
AcDbEntity
  8
0
100
AcDbLine
 10
282.3442
 20
87.0
 30
0.0
 11
285.0033
 21
87.0
 31
0.0
  0
LINE
  5
125E
330
1E
100
AcDbEntity
  8
0
100
AcDbLine
 10
272.7434999999999
 20
87.0
 30
0.0
 11
276.0715000000001
 21
87.0
 31
0.0
  0
LINE
  5
125F
330
1E
100
AcDbEntity
  8
0
100
AcDbLine
 10
272.7988
 20
87.0
 30
0.0
 11
276.0715000000001
 21
87.0
 31
0.0
  0
LINE
  5
1260
330
1E
100
AcDbEntity
  8
0
100
AcDbLine
 10
272.6351
 20
86.91399999999999
 30
0.0
 11
276.0715000000001
 21
86.964
 31
0.0
  0
LINE
  5
1261
330
1E
100
AcDbEntity
  8
0
100
AcDbLine
 10
269.4513999999999
 20
86.64299999999999
 30
0.0
 11
272.6351
 21
86.91399999999999
 31
0.0
  0
LINE
  5
1262
330
1E
100
AcDbEntity
  8
0
100
AcDbLine
 10
266.8674999999999
 20
87.0
 30
0.0
 11
269.6235000000001
 21
87.0
 31
0.0
  0
LINE
  5
1263
330
1E
100
AcDbEntity
  8
0
100
AcDbLine
 10
267.1397
 20
87.0
 30
0.0
 11
269.7988
 21
87.0
 31
0.0
  0
LINE
  5
1264
330
1E
100
AcDbEntity
  8
0
100
AcDbLine
 10
268.5525000000001
 20
82.71399999999998
 30
0.0
 11
268.5525000000001
 21
86.28599999999989
 31
0.0
  0
LINE
  5
1265
330
1E
100
AcDbEntity
  8
0
100
AcDbLine
 10
268.5525000000001
 20
86.28599999999989
 30
0.0
 11
268.5525000000001
 21
82.71399999999998
 31
0.0
  0
LINE
  5
1266
330
1E
100
AcDbEntity
  8
0
100
AcDbLine
 10
268.776
 20
86.64299999999999
 30
0.0
 11
269.4513999999999
 21
86.64299999999999
 31
0.0
  0
LINE
  5
1267
330
1E
100
AcDbEntity
  8
0
100
AcDbLine
 10
264.7875
 20
87.0
 30
0.0
 11
266.8674999999999
 21
87.0
 31
0.0
  0
LINE
  5
1268
330
1E
100
AcDbEntity
  8
0
100
AcDbLine
 10
264.5652000000001
 20
86.928
 30
0.0
 11
266.3896999999999
 21
86.8699999999999
 31
0.0
  0
LINE
  5
1269
330
1E
100
AcDbEntity
  8
0
100
AcDbLine
 10
265.1624000000001
 20
87.0
 30
0.0
 11
267.1397
 21
87.0
 31
0.0
  0
LINE
  5
126A
330
1E
100
AcDbEntity
  8
0
100
AcDbLine
 10
266.3896999999999
 20
86.8699999999999
 30
0.0
 11
267.6675
 21
86.64299999999999
 31
0.0
  0
LINE
  5
126B
330
1E
100
AcDbEntity
  8
0
100
AcDbLine
 10
267.6675
 20
86.64299999999999
 30
0.0
 11
268.776
 21
86.64299999999999
 31
0.0
  0
LINE
  5
126C
330
1E
100
AcDbEntity
  8
0
100
AcDbLine
 10
269.6235000000001
 20
87.0
 30
0.0
 11
272.7434999999999
 21
87.0
 31
0.0
  0
LINE
  5
126D
330
1E
100
AcDbEntity
  8
0
100
AcDbLine
 10
269.7988
 20
87.0
 30
0.0
 11
272.7988
 21
87.0
 31
0.0
  0
LINE
  5
126E
330
1E
100
AcDbEntity
  8
0
100
AcDbLine
 10
279.3995000000001
 20
87.0
 30
0.0
 11
282.5195000000001
 21
87.0
 31
0.0
  0
LINE
  5
126F
330
1E
100
AcDbEntity
  8
0
100
AcDbLine
 10
279.5079
 20
86.91399999999999
 30
0.0
 11
282.6916000000001
 21
86.64299999999999
 31
0.0
  0
LINE
  5
1270
330
1E
100
AcDbEntity
  8
0
100
AcDbLine
 10
279.3442000000001
 20
87.0
 30
0.0
 11
282.3442
 21
87.0
 31
0.0
  0
LINE
  5
1271
330
1E
100
AcDbEntity
  8
0
100
AcDbLine
 10
276.0715000000001
 20
87.0
 30
0.0
 11
279.3442000000001
 21
87.0
 31
0.0
  0
LINE
  5
1272
330
1E
100
AcDbEntity
  8
0
100
AcDbLine
 10
276.0715000000001
 20
87.0
 30
0.0
 11
279.3995000000001
 21
87.0
 31
0.0
  0
LINE
  5
1273
330
1E
100
AcDbEntity
  8
0
100
AcDbLine
 10
276.0715000000001
 20
86.964
 30
0.0
 11
279.5079
 21
86.91399999999999
 31
0.0
  0
LINE
  5
1274
330
1E
100
AcDbEntity
  8
0
100
AcDbLine
 10
283.5905
 20
86.28599999999989
 30
0.0
 11
284.4755000000001
 21
86.64299999999999
 31
0.0
  0
LINE
  5
1275
330
1E
100
AcDbEntity
  8
0
100
AcDbLine
 10
283.5905
 20
86.28599999999989
 30
0.0
 11
283.5905
 21
82.71399999999998
 31
0.0
  0
LINE
  5
1276
330
1E
100
AcDbEntity
  8
0
100
AcDbLine
 10
283.5905
 20
82.71399999999998
 30
0.0
 11
283.5905
 21
86.28599999999989
 31
0.0
  0
LINE
  5
1277
330
1E
100
AcDbEntity
  8
0
100
AcDbLine
 10
282.6916000000001
 20
86.64299999999999
 30
0.0
 11
283.5905
 21
86.28599999999989
 31
0.0
  0
LINE
  5
1278
330
1E
100
AcDbEntity
  8
0
100
AcDbLine
 10
274.5884000000001
 20
93.44599999999998
 30
0.0
 11
276.0715000000001
 21
93.44599999999998
 31
0.0
  0
LINE
  5
1279
330
1E
100
AcDbEntity
  8
0
100
AcDbLine
 10
273.2555
 20
93.0
 30
0.0
 11
276.0715000000001
 21
93.0
 31
0.0
  0
LINE
  5
127A
330
1E
100
AcDbEntity
  8
0
100
AcDbLine
 10
272.7434999999999
 20
89.99999999999991
 30
0.0
 11
276.0715000000001
 21
89.99999999999991
 31
0.0
  0
LINE
  5
127B
330
1E
100
AcDbEntity
  8
0
100
AcDbLine
 10
267.1031000000001
 20
93.16199999999991
 30
0.0
 11
269.9631000000001
 21
93.0899999999999
 31
0.0
  0
LINE
  5
127C
330
1E
100
AcDbEntity
  8
0
100
AcDbLine
 10
268.2835000000001
 20
93.0
 30
0.0
 11
270.6155000000001
 21
93.0
 31
0.0
  0
LINE
  5
127D
330
1E
100
AcDbEntity
  8
0
100
AcDbLine
 10
266.8674999999999
 20
89.99999999999991
 30
0.0
 11
269.6235000000001
 21
89.99999999999991
 31
0.0
  0
LINE
  5
127E
330
1E
100
AcDbEntity
  8
0
100
AcDbLine
 10
265.1
 20
93.44599999999998
 30
0.0
 11
267.1031000000001
 21
93.16199999999991
 31
0.0
  0
LINE
  5
127F
330
1E
100
AcDbEntity
  8
0
100
AcDbLine
 10
265.4675000000001
 20
93.0
 30
0.0
 11
266.5235000000001
 21
93.0
 31
0.0
  0
LINE
  5
1280
330
1E
100
AcDbEntity
  8
0
100
AcDbLine
 10
264.7875
 20
89.99999999999991
 30
0.0
 11
266.8674999999999
 21
89.99999999999991
 31
0.0
  0
LINE
  5
1281
330
1E
100
AcDbEntity
  8
0
100
AcDbLine
 10
265.0715000000001
 20
93.0
 30
0.0
 11
265.0715000000001
 21
89.99999999999991
 31
0.0
  0
LINE
  5
1282
330
1E
100
AcDbEntity
  8
0
100
AcDbLine
 10
265.0715000000001
 20
93.0
 30
0.0
 11
265.4675000000001
 21
93.0
 31
0.0
  0
LINE
  5
1283
330
1E
100
AcDbEntity
  8
0
100
AcDbLine
 10
264.8294
 20
93.0
 30
0.0
 11
265.0715000000001
 21
93.0
 31
0.0
  0
LINE
  5
1284
330
1E
100
AcDbEntity
  8
0
100
AcDbLine
 10
265.0715000000001
 20
89.99999999999991
 30
0.0
 11
265.0715000000001
 21
93.0
 31
0.0
  0
LINE
  5
1285
330
1E
100
AcDbEntity
  8
0
100
AcDbLine
 10
266.5235000000001
 20
93.0
 30
0.0
 11
268.2835000000001
 21
93.0
 31
0.0
  0
LINE
  5
1286
330
1E
100
AcDbEntity
  8
0
100
AcDbLine
 10
269.9631000000001
 20
93.0899999999999
 30
0.0
 11
272.8076000000001
 21
93.18700000000001
 31
0.0
  0
LINE
  5
1287
330
1E
100
AcDbEntity
  8
0
100
AcDbLine
 10
270.6155000000001
 20
93.0
 30
0.0
 11
273.2555
 21
93.0
 31
0.0
  0
LINE
  5
1288
330
1E
100
AcDbEntity
  8
0
100
AcDbLine
 10
269.6235000000001
 20
89.99999999999991
 30
0.0
 11
272.7434999999999
 21
89.99999999999991
 31
0.0
  0
LINE
  5
1289
330
1E
100
AcDbEntity
  8
0
100
AcDbLine
 10
272.8076000000001
 20
93.18700000000001
 30
0.0
 11
274.5884000000001
 21
93.44599999999998
 31
0.0
  0
LINE
  5
128A
330
1E
100
AcDbEntity
  8
0
100
AcDbLine
 10
279.3354000000001
 20
93.18700000000001
 30
0.0
 11
282.1798000000001
 21
93.0899999999999
 31
0.0
  0
LINE
  5
128B
330
1E
100
AcDbEntity
  8
0
100
AcDbLine
 10
278.8874999999999
 20
93.0
 30
0.0
 11
281.5275000000001
 21
93.0
 31
0.0
  0
LINE
  5
128C
330
1E
100
AcDbEntity
  8
0
100
AcDbLine
 10
279.103
 20
93.0
 30
0.0
 11
281.882
 21
93.0
 31
0.0
  0
LINE
  5
128D
330
1E
100
AcDbEntity
  8
0
100
AcDbLine
 10
279.3995000000001
 20
89.99999999999991
 30
0.0
 11
282.5195000000001
 21
89.99999999999991
 31
0.0
  0
LINE
  5
128E
330
1E
100
AcDbEntity
  8
0
100
AcDbLine
 10
276.0715000000001
 20
93.44599999999998
 30
0.0
 11
277.5546000000001
 21
93.44599999999998
 31
0.0
  0
LINE
  5
128F
330
1E
100
AcDbEntity
  8
0
100
AcDbLine
 10
277.5546000000001
 20
93.44599999999998
 30
0.0
 11
279.3354000000001
 21
93.18700000000001
 31
0.0
  0
LINE
  5
1290
330
1E
100
AcDbEntity
  8
0
100
AcDbLine
 10
276.0715000000001
 20
93.0
 30
0.0
 11
279.103
 21
93.0
 31
0.0
  0
LINE
  5
1291
330
1E
100
AcDbEntity
  8
0
100
AcDbLine
 10
276.0715000000001
 20
93.0
 30
0.0
 11
278.8874999999999
 21
93.0
 31
0.0
  0
LINE
  5
1292
330
1E
100
AcDbEntity
  8
0
100
AcDbLine
 10
276.0715000000001
 20
89.99999999999991
 30
0.0
 11
279.3995000000001
 21
89.99999999999991
 31
0.0
  0
LINE
  5
1293
330
1E
100
AcDbEntity
  8
0
100
AcDbLine
 10
281.5275000000001
 20
93.0
 30
0.0
 11
283.8595000000001
 21
93.0
 31
0.0
  0
LINE
  5
1294
330
1E
100
AcDbEntity
  8
0
100
AcDbLine
 10
289.0715000000001
 20
89.99999999999991
 30
0.0
 11
289.0715000000001
 21
87.0
 31
0.0
  0
LINE
  5
1295
330
1E
100
AcDbEntity
  8
0
100
AcDbLine
 10
289.0715000000001
 20
87.0
 30
0.0
 11
289.0715000000001
 21
89.99999999999991
 31
0.0
  0
LINE
  5
1296
330
1E
100
AcDbEntity
  8
0
100
AcDbLine
 10
289.7079000000001
 20
86.89299999999999
 30
0.0
 11
290.7306000000001
 21
86.64299999999999
 31
0.0
  0
LINE
  5
1297
330
1E
100
AcDbEntity
  8
0
100
AcDbLine
 10
289.3923
 20
86.85099999999989
 30
0.0
 11
290.4977000000001
 21
86.64299999999999
 31
0.0
  0
LINE
  5
1298
330
1E
100
AcDbEntity
  8
0
100
AcDbLine
 10
288.6035000000001
 20
87.0
 30
0.0
 11
289.0715000000001
 21
87.0
 31
0.0
  0
LINE
  5
1299
330
1E
100
AcDbEntity
  8
0
100
AcDbLine
 10
288.6850999999999
 20
87.0
 30
0.0
 11
289.7079000000001
 21
86.89299999999999
 31
0.0
  0
LINE
  5
129A
330
1E
100
AcDbEntity
  8
0
100
AcDbLine
 10
285.2755000000001
 20
87.0
 30
0.0
 11
287.3555000000001
 21
87.0
 31
0.0
  0
LINE
  5
129B
330
1E
100
AcDbEntity
  8
0
100
AcDbLine
 10
285.7533
 20
86.8699999999999
 30
0.0
 11
287.5778
 21
86.928
 31
0.0
  0
LINE
  5
129C
330
1E
100
AcDbEntity
  8
0
100
AcDbLine
 10
285.0033
 20
87.0
 30
0.0
 11
286.9806
 21
87.0
 31
0.0
  0
LINE
  5
129D
330
1E
100
AcDbEntity
  8
0
100
AcDbLine
 10
286.9806
 20
87.0
 30
0.0
 11
288.2079
 21
87.0
 31
0.0
  0
LINE
  5
129E
330
1E
100
AcDbEntity
  8
0
100
AcDbLine
 10
288.2079
 20
87.0
 30
0.0
 11
288.6850999999999
 21
87.0
 31
0.0
  0
LINE
  5
129F
330
1E
100
AcDbEntity
  8
0
100
AcDbLine
 10
288.2079
 20
87.0
 30
0.0
 11
288.6035000000001
 21
87.0
 31
0.0
  0
LINE
  5
12A0
330
1E
100
AcDbEntity
  8
0
100
AcDbLine
 10
287.3555000000001
 20
87.0
 30
0.0
 11
288.6035000000001
 21
87.0
 31
0.0
  0
LINE
  5
12A1
330
1E
100
AcDbEntity
  8
0
100
AcDbLine
 10
287.5778
 20
86.928
 30
0.0
 11
289.3923
 21
86.85099999999989
 31
0.0
  0
LINE
  5
12A2
330
1E
100
AcDbEntity
  8
0
100
AcDbLine
 10
290.4977000000001
 20
86.64299999999999
 30
0.0
 11
290.9664
 21
86.28599999999989
 31
0.0
  0
LINE
  5
12A3
330
1E
100
AcDbEntity
  8
0
100
AcDbLine
 10
290.7306000000001
 20
86.64299999999999
 30
0.0
 11
291.0715000000001
 21
86.28599999999989
 31
0.0
  0
LINE
  5
12A4
330
1E
100
AcDbEntity
  8
0
100
AcDbLine
 10
290.9664
 20
86.28599999999989
 30
0.0
 11
291.0715000000001
 21
86.28599999999989
 31
0.0
  0
LINE
  5
12A5
330
1E
100
AcDbEntity
  8
0
100
AcDbLine
 10
291.0715000000001
 20
82.71399999999998
 30
0.0
 11
291.0715000000001
 21
86.28599999999989
 31
0.0
  0
LINE
  5
12A6
330
1E
100
AcDbEntity
  8
0
100
AcDbLine
 10
291.0715000000001
 20
86.28599999999989
 30
0.0
 11
291.0715000000001
 21
82.71399999999998
 31
0.0
  0
LINE
  5
12A7
330
1E
100
AcDbEntity
  8
0
100
AcDbLine
 10
288.6035000000001
 20
89.99999999999991
 30
0.0
 11
289.0715000000001
 21
89.99999999999991
 31
0.0
  0
LINE
  5
12A8
330
1E
100
AcDbEntity
  8
0
100
AcDbLine
 10
285.04
 20
93.16199999999991
 30
0.0
 11
287.0430000000001
 21
93.44599999999998
 31
0.0
  0
LINE
  5
12A9
330
1E
100
AcDbEntity
  8
0
100
AcDbLine
 10
285.6195000000001
 20
93.0
 30
0.0
 11
286.6755000000001
 21
93.0
 31
0.0
  0
LINE
  5
12AA
330
1E
100
AcDbEntity
  8
0
100
AcDbLine
 10
285.2755000000001
 20
89.99999999999991
 30
0.0
 11
287.3555000000001
 21
89.99999999999991
 31
0.0
  0
LINE
  5
12AB
330
1E
100
AcDbEntity
  8
0
100
AcDbLine
 10
288.0715000000001
 20
93.89299999999998
 30
0.0
 11
288.0715000000001
 21
93.44599999999998
 31
0.0
  0
LINE
  5
12AC
330
1E
100
AcDbEntity
  8
0
100
AcDbLine
 10
287.0430000000001
 20
93.44599999999998
 30
0.0
 11
287.8189000000001
 21
93.44599999999998
 31
0.0
  0
LINE
  5
12AD
330
1E
100
AcDbEntity
  8
0
100
AcDbLine
 10
288.0715000000001
 20
93.44599999999998
 30
0.0
 11
288.0715000000001
 21
93.10699999999988
 31
0.0
  0
LINE
  5
12AE
330
1E
100
AcDbEntity
  8
0
100
AcDbLine
 10
288.0715000000001
 20
93.44599999999998
 30
0.0
 11
288.0715000000001
 21
93.89299999999998
 31
0.0
  0
LINE
  5
12AF
330
1E
100
AcDbEntity
  8
0
100
AcDbLine
 10
287.8189000000001
 20
93.44599999999998
 30
0.0
 11
288.0715000000001
 21
93.44599999999998
 31
0.0
  0
LINE
  5
12B0
330
1E
100
AcDbEntity
  8
0
100
AcDbLine
 10
288.0715000000001
 20
93.10699999999988
 30
0.0
 11
288.0715000000001
 21
93.44599999999998
 31
0.0
  0
LINE
  5
12B1
330
1E
100
AcDbEntity
  8
0
100
AcDbLine
 10
288.0715000000001
 20
93.10699999999988
 30
0.0
 11
288.0715000000001
 21
93.045
 31
0.0
  0
LINE
  5
12B2
330
1E
100
AcDbEntity
  8
0
100
AcDbLine
 10
288.0715000000001
 20
93.045
 30
0.0
 11
288.0715000000001
 21
93.10699999999988
 31
0.0
  0
LINE
  5
12B3
330
1E
100
AcDbEntity
  8
0
100
AcDbLine
 10
287.0715000000001
 20
93.0
 30
0.0
 11
287.3136
 21
93.0
 31
0.0
  0
LINE
  5
12B4
330
1E
100
AcDbEntity
  8
0
100
AcDbLine
 10
287.0715000000001
 20
93.0
 30
0.0
 11
287.0715000000001
 21
89.99999999999991
 31
0.0
  0
LINE
  5
12B5
330
1E
100
AcDbEntity
  8
0
100
AcDbLine
 10
286.6755000000001
 20
93.0
 30
0.0
 11
287.0715000000001
 21
93.0
 31
0.0
  0
LINE
  5
12B6
330
1E
100
AcDbEntity
  8
0
100
AcDbLine
 10
286.1768
 20
93.0
 30
0.0
 11
287.3136
 21
93.0
 31
0.0
  0
LINE
  5
12B7
330
1E
100
AcDbEntity
  8
0
100
AcDbLine
 10
287.7557000000001
 20
93.0
 30
0.0
 11
288.0715000000001
 21
93.045
 31
0.0
  0
LINE
  5
12B8
330
1E
100
AcDbEntity
  8
0
100
AcDbLine
 10
287.3136
 20
93.0
 30
0.0
 11
287.7557000000001
 21
93.0
 31
0.0
  0
LINE
  5
12B9
330
1E
100
AcDbEntity
  8
0
100
AcDbLine
 10
287.0715000000001
 20
89.99999999999991
 30
0.0
 11
287.0715000000001
 21
93.0
 31
0.0
  0
LINE
  5
12BA
330
1E
100
AcDbEntity
  8
0
100
AcDbLine
 10
287.3555000000001
 20
89.99999999999991
 30
0.0
 11
288.6035000000001
 21
89.99999999999991
 31
0.0
  0
LINE
  5
12BB
330
1E
100
AcDbEntity
  8
0
100
AcDbLine
 10
262.6195
 20
81.9999999999999
 30
0.0
 11
266.6475000000001
 21
81.9999999999999
 31
0.0
  0
LINE
  5
12BC
330
1E
100
AcDbEntity
  8
0
100
AcDbLine
 10
262.7507
 20
82.149
 30
0.0
 11
264.5652000000001
 21
82.07199999999991
 31
0.0
  0
LINE
  5
12BD
330
1E
100
AcDbEntity
  8
0
100
AcDbLine
 10
261.6453
 20
82.35700000000001
 30
0.0
 11
262.7507
 21
82.149
 31
0.0
  0
LINE
  5
12BE
330
1E
100
AcDbEntity
  8
0
100
AcDbLine
 10
261.1766000000001
 20
82.71399999999998
 30
0.0
 11
261.6453
 21
82.35700000000001
 31
0.0
  0
LINE
  5
12BF
330
1E
100
AcDbEntity
  8
0
100
AcDbLine
 10
261.4124000000001
 20
82.35700000000001
 30
0.0
 11
262.4350999999999
 21
82.107
 31
0.0
  0
LINE
  5
12C0
330
1E
100
AcDbEntity
  8
0
100
AcDbLine
 10
261.0715000000001
 20
82.71399999999998
 30
0.0
 11
261.4124000000001
 21
82.35700000000001
 31
0.0
  0
LINE
  5
12C1
330
1E
100
AcDbEntity
  8
0
100
AcDbLine
 10
261.0715000000001
 20
82.71399999999998
 30
0.0
 11
261.1766000000001
 21
82.71399999999998
 31
0.0
  0
LINE
  5
12C2
330
1E
100
AcDbEntity
  8
0
100
AcDbLine
 10
262.4350999999999
 20
82.107
 30
0.0
 11
263.4579000000001
 21
81.9999999999999
 31
0.0
  0
LINE
  5
12C6
330
1E
100
AcDbEntity
  8
0
100
AcDbLine
 10
272.6351
 20
82.086
 30
0.0
 11
276.0715000000001
 21
82.0359999999999
 31
0.0
  0
LINE
  5
12C7
330
1E
100
AcDbEntity
  8
0
100
AcDbLine
 10
271.2075
 20
81.9999999999999
 30
0.0
 11
276.0715000000001
 21
81.9999999999999
 31
0.0
  0
LINE
  5
12C8
330
1E
100
AcDbEntity
  8
0
100
AcDbLine
 10
268.776
 20
82.35700000000001
 30
0.0
 11
272.6351
 21
82.086
 31
0.0
  0
LINE
  5
12C9
330
1E
100
AcDbEntity
  8
0
100
AcDbLine
 10
266.6475000000001
 20
81.9999999999999
 30
0.0
 11
271.2075
 21
81.9999999999999
 31
0.0
  0
LINE
  5
12CA
330
1E
100
AcDbEntity
  8
0
100
AcDbLine
 10
264.5652000000001
 20
82.07199999999991
 30
0.0
 11
266.3896999999999
 21
82.12999999999999
 31
0.0
  0
LINE
  5
12CB
330
1E
100
AcDbEntity
  8
0
100
AcDbLine
 10
266.3896999999999
 20
82.12999999999999
 30
0.0
 11
267.6675
 21
82.35700000000001
 31
0.0
  0
LINE
  5
12CC
330
1E
100
AcDbEntity
  8
0
100
AcDbLine
 10
267.6675
 20
82.35700000000001
 30
0.0
 11
268.776
 21
82.35700000000001
 31
0.0
  0
LINE
  5
12CD
330
1E
100
AcDbEntity
  8
0
100
AcDbLine
 10
284.4755000000001
 20
82.35700000000001
 30
0.0
 11
285.7533
 21
82.12999999999999
 31
0.0
  0
LINE
  5
12CE
330
1E
100
AcDbEntity
  8
0
100
AcDbLine
 10
280.9355
 20
81.9999999999999
 30
0.0
 11
285.4955000000001
 21
81.9999999999999
 31
0.0
  0
LINE
  5
12CF
330
1E
100
AcDbEntity
  8
0
100
AcDbLine
 10
279.5079
 20
82.086
 30
0.0
 11
282.6916000000001
 21
82.35700000000001
 31
0.0
  0
LINE
  5
12D0
330
1E
100
AcDbEntity
  8
0
100
AcDbLine
 10
276.0715000000001
 20
81.9999999999999
 30
0.0
 11
280.9355
 21
81.9999999999999
 31
0.0
  0
LINE
  5
12D1
330
1E
100
AcDbEntity
  8
0
100
AcDbLine
 10
276.0715000000001
 20
82.0359999999999
 30
0.0
 11
279.5079
 21
82.086
 31
0.0
  0
LINE
  5
12D2
330
1E
100
AcDbEntity
  8
0
100
AcDbLine
 10
283.5905
 20
82.71399999999998
 30
0.0
 11
284.4755000000001
 21
82.35700000000001
 31
0.0
  0
LINE
  5
12D3
330
1E
100
AcDbEntity
  8
0
100
AcDbLine
 10
283.5905
 20
82.71399999999998
 30
0.0
 11
283.5905
 21
82.71399999999998
 31
0.0
  0
LINE
  5
12D4
330
1E
100
AcDbEntity
  8
0
100
AcDbLine
 10
282.6916000000001
 20
82.35700000000001
 30
0.0
 11
283.5905
 21
82.71399999999998
 31
0.0
  0
LINE
  5
12D5
330
1E
100
AcDbEntity
  8
0
100
AcDbLine
 10
289.3923
 20
82.149
 30
0.0
 11
290.4977000000001
 21
82.35700000000001
 31
0.0
  0
LINE
  5
12D6
330
1E
100
AcDbEntity
  8
0
100
AcDbLine
 10
289.7079000000001
 20
82.107
 30
0.0
 11
290.7306000000001
 21
82.35700000000001
 31
0.0
  0
LINE
  5
12D8
330
1E
100
AcDbEntity
  8
0
100
AcDbLine
 10
288.6850999999999
 20
81.9999999999999
 30
0.0
 11
289.7079000000001
 21
82.107
 31
0.0
  0
LINE
  5
12D9
330
1E
100
AcDbEntity
  8
0
100
AcDbLine
 10
285.7533
 20
82.12999999999999
 30
0.0
 11
287.5778
 21
82.07199999999991
 31
0.0
  0
LINE
  5
12DA
330
1E
100
AcDbEntity
  8
0
100
AcDbLine
 10
285.4955000000001
 20
81.9999999999999
 30
0.0
 11
289.5235000000001
 21
81.9999999999999
 31
0.0
  0
LINE
  5
12DB
330
1E
100
AcDbEntity
  8
0
100
AcDbLine
 10
287.5778
 20
82.07199999999991
 30
0.0
 11
289.3923
 21
82.149
 31
0.0
  0
LINE
  5
12DC
330
1E
100
AcDbEntity
  8
0
100
AcDbLine
 10
290.4977000000001
 20
82.35700000000001
 30
0.0
 11
290.9664
 21
82.71399999999998
 31
0.0
  0
LINE
  5
12DD
330
1E
100
AcDbEntity
  8
0
100
AcDbLine
 10
290.9664
 20
82.71399999999998
 30
0.0
 11
291.0715000000001
 21
82.71399999999998
 31
0.0
  0
LINE
  5
12DE
330
1E
100
AcDbEntity
  8
0
100
AcDbLine
 10
290.7306000000001
 20
82.35700000000001
 30
0.0
 11
291.0715000000001
 21
82.71399999999998
 31
0.0
  0
LINE
  5
12E2
330
1E
100
AcDbEntity
  8
0
100
AcDbLine
 10
323.5546000000001
 20
106.0
 30
0.0
 11
325.3354000000001
 21
106.0
 31
0.0
  0
LINE
  5
12E3
330
1E
100
AcDbEntity
  8
0
100
AcDbLine
 10
323.5546000000001
 20
106.0
 30
0.0
 11
325.6083000000001
 21
106.0
 31
0.0
  0
LINE
  5
12E4
330
1E
100
AcDbEntity
  8
0
100
AcDbLine
 10
323.8018
 20
106.4459999999999
 30
0.0
 11
325.8793999999999
 21
106.187
 31
0.0
  0
LINE
  5
12E5
330
1E
100
AcDbEntity
  8
0
100
AcDbLine
 10
312.4189000000001
 20
106.0
 30
0.0
 11
315.2925
 21
106.0
 31
0.0
  0
LINE
  5
12E6
330
1E
100
AcDbEntity
  8
0
100
AcDbLine
 10
313.1031000000001
 20
106.0
 30
0.0
 11
315.9631
 21
106.0
 31
0.0
  0
LINE
  5
12E7
330
1E
100
AcDbEntity
  8
0
100
AcDbLine
 10
314.9451
 20
106.0899999999999
 30
0.0
 11
318.2636000000001
 21
106.187
 31
0.0
  0
LINE
  5
12E8
330
1E
100
AcDbEntity
  8
0
100
AcDbLine
 10
308.9556999999999
 20
106.0
 30
0.0
 11
310.0715000000001
 21
106.0
 31
0.0
  0
LINE
  5
12E9
330
1E
100
AcDbEntity
  8
0
100
AcDbLine
 10
309.2714
 20
106.4459999999999
 30
0.0
 11
311.6083000000001
 21
106.162
 31
0.0
  0
LINE
  5
12EA
330
1E
100
AcDbEntity
  8
0
100
AcDbLine
 10
308.0715000000001
 20
106.8929999999999
 30
0.0
 11
309.2714
 21
106.4459999999999
 31
0.0
  0
LINE
  5
12EB
330
1E
100
AcDbEntity
  8
0
100
AcDbLine
 10
308.4399
 20
106.0
 30
0.0
 11
308.9556999999999
 21
106.0
 31
0.0
  0
LINE
  5
12EC
330
1E
100
AcDbEntity
  8
0
100
AcDbLine
 10
308.0715000000001
 20
106.045
 30
0.0
 11
308.0715000000001
 21
106.1069999999999
 31
0.0
  0
LINE
  5
12ED
330
1E
100
AcDbEntity
  8
0
100
AcDbLine
 10
308.0715000000001
 20
106.045
 30
0.0
 11
308.4399
 21
106.0
 31
0.0
  0
LINE
  5
12EE
330
1E
100
AcDbEntity
  8
0
100
AcDbLine
 10
308.0715000000001
 20
106.4459999999999
 30
0.0
 11
308.0715000000001
 21
106.8929999999999
 31
0.0
  0
LINE
  5
12EF
330
1E
100
AcDbEntity
  8
0
100
AcDbLine
 10
308.0715000000001
 20
106.4459999999999
 30
0.0
 11
308.0715000000001
 21
106.1069999999999
 31
0.0
  0
LINE
  5
12F0
330
1E
100
AcDbEntity
  8
0
100
AcDbLine
 10
308.0715000000001
 20
106.1069999999999
 30
0.0
 11
308.0715000000001
 21
106.4459999999999
 31
0.0
  0
LINE
  5
12F1
330
1E
100
AcDbEntity
  8
0
100
AcDbLine
 10
308.0715000000001
 20
106.1069999999999
 30
0.0
 11
308.0715000000001
 21
106.045
 31
0.0
  0
LINE
  5
12F2
330
1E
100
AcDbEntity
  8
0
100
AcDbLine
 10
308.0715000000001
 20
108.0
 30
0.0
 11
308.0715000000001
 21
106.8929999999999
 31
0.0
  0
LINE
  5
12F3
330
1E
100
AcDbEntity
  8
0
100
AcDbLine
 10
308.0715000000001
 20
106.8929999999999
 30
0.0
 11
308.0715000000001
 21
108.0
 31
0.0
  0
LINE
  5
12F4
330
1E
100
AcDbEntity
  8
0
100
AcDbLine
 10
308.0715000000001
 20
106.8929999999999
 30
0.0
 11
308.0715000000001
 21
106.4459999999999
 31
0.0
  0
LINE
  5
12F5
330
1E
100
AcDbEntity
  8
0
100
AcDbLine
 10
311.6083000000001
 20
106.162
 30
0.0
 11
314.9451
 21
106.0899999999999
 31
0.0
  0
LINE
  5
12F6
330
1E
100
AcDbEntity
  8
0
100
AcDbLine
 10
311.1
 20
106.0
 30
0.0
 11
313.1031000000001
 21
106.0
 31
0.0
  0
LINE
  5
12F7
330
1E
100
AcDbEntity
  8
0
100
AcDbLine
 10
310.0715000000001
 20
93.89299999999998
 30
0.0
 11
310.0715000000001
 21
106.0
 31
0.0
  0
LINE
  5
12F8
330
1E
100
AcDbEntity
  8
0
100
AcDbLine
 10
310.0715000000001
 20
106.0
 30
0.0
 11
310.0715000000001
 21
93.89299999999998
 31
0.0
  0
LINE
  5
12F9
330
1E
100
AcDbEntity
  8
0
100
AcDbLine
 10
310.0715000000001
 20
106.0
 30
0.0
 11
310.3802999999999
 21
106.0
 31
0.0
  0
LINE
  5
12FA
330
1E
100
AcDbEntity
  8
0
100
AcDbLine
 10
310.3802999999999
 20
106.0
 30
0.0
 11
311.1
 21
106.0
 31
0.0
  0
LINE
  5
12FB
330
1E
100
AcDbEntity
  8
0
100
AcDbLine
 10
318.8076000000001
 20
106.0
 30
0.0
 11
320.5884000000001
 21
106.0
 31
0.0
  0
LINE
  5
12FC
330
1E
100
AcDbEntity
  8
0
100
AcDbLine
 10
318.2636000000001
 20
106.187
 30
0.0
 11
320.3412
 21
106.4459999999999
 31
0.0
  0
LINE
  5
12FD
330
1E
100
AcDbEntity
  8
0
100
AcDbLine
 10
315.9631
 20
106.0
 30
0.0
 11
318.8076000000001
 21
106.0
 31
0.0
  0
LINE
  5
12FE
330
1E
100
AcDbEntity
  8
0
100
AcDbLine
 10
322.0715000000001
 20
106.0
 30
0.0
 11
322.7653
 21
106.0
 31
0.0
  0
LINE
  5
12FF
330
1E
100
AcDbEntity
  8
0
100
AcDbLine
 10
322.7653
 20
106.0
 30
0.0
 11
323.5546000000001
 21
106.0
 31
0.0
  0
LINE
  5
1300
330
1E
100
AcDbEntity
  8
0
100
AcDbLine
 10
322.0715000000001
 20
106.4459999999999
 30
0.0
 11
323.8018
 21
106.4459999999999
 31
0.0
  0
LINE
  5
1301
330
1E
100
AcDbEntity
  8
0
100
AcDbLine
 10
321.3777000000001
 20
106.0
 30
0.0
 11
322.0715000000001
 21
106.0
 31
0.0
  0
LINE
  5
1302
330
1E
100
AcDbEntity
  8
0
100
AcDbLine
 10
320.5884000000001
 20
106.0
 30
0.0
 11
321.3777000000001
 21
106.0
 31
0.0
  0
LINE
  5
1303
330
1E
100
AcDbEntity
  8
0
100
AcDbLine
 10
320.3412
 20
106.4459999999999
 30
0.0
 11
322.0715000000001
 21
106.4459999999999
 31
0.0
  0
LINE
  5
1304
330
1E
100
AcDbEntity
  8
0
100
AcDbLine
 10
335.1873000000001
 20
106.0
 30
0.0
 11
335.7031
 21
106.0
 31
0.0
  0
LINE
  5
1307
330
1E
100
AcDbEntity
  8
0
100
AcDbLine
 10
334.8716000000001
 20
106.4459999999999
 30
0.0
 11
335.7768
 21
106.4459999999999
 31
0.0
  0
LINE
  5
1309
330
1E
100
AcDbEntity
  8
0
100
AcDbLine
 10
328.1798000000001
 20
106.0
 30
0.0
 11
331.04
 21
106.0
 31
0.0
  0
LINE
  5
130A
330
1E
100
AcDbEntity
  8
0
100
AcDbLine
 10
329.1978999999999
 20
106.0899999999999
 30
0.0
 11
332.5347000000001
 21
106.162
 31
0.0
  0
LINE
  5
130B
330
1E
100
AcDbEntity
  8
0
100
AcDbLine
 10
325.8793999999999
 20
106.187
 30
0.0
 11
329.1978999999999
 21
106.0899999999999
 31
0.0
  0
LINE
  5
130C
330
1E
100
AcDbEntity
  8
0
100
AcDbLine
 10
325.6083000000001
 20
106.0
 30
0.0
 11
328.8503999999999
 21
106.0
 31
0.0
  0
LINE
  5
130D
330
1E
100
AcDbEntity
  8
0
100
AcDbLine
 10
325.3354000000001
 20
106.0
 30
0.0
 11
328.1798000000001
 21
106.0
 31
0.0
  0
LINE
  5
130E
330
1E
100
AcDbEntity
  8
0
100
AcDbLine
 10
334.0715000000001
 20
106.0
 30
0.0
 11
335.1873000000001
 21
106.0
 31
0.0
  0
LINE
  5
130F
330
1E
100
AcDbEntity
  8
0
100
AcDbLine
 10
332.5347000000001
 20
106.162
 30
0.0
 11
334.8716000000001
 21
106.4459999999999
 31
0.0
  0
LINE
  5
1310
330
1E
100
AcDbEntity
  8
0
100
AcDbLine
 10
334.0715000000001
 20
93.89299999999998
 30
0.0
 11
334.0715000000001
 21
106.0
 31
0.0
  0
LINE
  5
1311
330
1E
100
AcDbEntity
  8
0
100
AcDbLine
 10
333.7627000000001
 20
106.0
 30
0.0
 11
334.0715000000001
 21
106.0
 31
0.0
  0
LINE
  5
1312
330
1E
100
AcDbEntity
  8
0
100
AcDbLine
 10
334.0715000000001
 20
106.0
 30
0.0
 11
334.0715000000001
 21
93.89299999999998
 31
0.0
  0
LINE
  5
1313
330
1E
100
AcDbEntity
  8
0
100
AcDbLine
 10
333.0430000000001
 20
106.0
 30
0.0
 11
333.7627000000001
 21
106.0
 31
0.0
  0
LINE
  5
1314
330
1E
100
AcDbEntity
  8
0
100
AcDbLine
 10
331.7241
 20
106.0
 30
0.0
 11
333.0430000000001
 21
106.0
 31
0.0
  0
LINE
  5
1315
330
1E
100
AcDbEntity
  8
0
100
AcDbLine
 10
331.04
 20
106.0
 30
0.0
 11
333.0430000000001
 21
106.0
 31
0.0
  0
LINE
  5
1317
330
1E
100
AcDbEntity
  8
0
100
AcDbLine
 10
336.0715000000001
 20
106.045
 30
0.0
 11
336.0715000000001
 21
106.1069999999999
 31
0.0
  0
LINE
  5
1318
330
1E
100
AcDbEntity
  8
0
100
AcDbLine
 10
336.0715000000001
 20
106.4459999999999
 30
0.0
 11
336.0715000000001
 21
106.1069999999999
 31
0.0
  0
LINE
  5
1319
330
1E
100
AcDbEntity
  8
0
100
AcDbLine
 10
336.0715000000001
 20
106.4459999999999
 30
0.0
 11
336.0715000000001
 21
106.8929999999999
 31
0.0
  0
LINE
  5
131A
330
1E
100
AcDbEntity
  8
0
100
AcDbLine
 10
336.0715000000001
 20
106.1069999999999
 30
0.0
 11
336.0715000000001
 21
106.045
 31
0.0
  0
LINE
  5
131B
330
1E
100
AcDbEntity
  8
0
100
AcDbLine
 10
336.0715000000001
 20
106.1069999999999
 30
0.0
 11
336.0715000000001
 21
106.4459999999999
 31
0.0
  0
LINE
  5
131C
330
1E
100
AcDbEntity
  8
0
100
AcDbLine
 10
336.0715000000001
 20
106.8929999999999
 30
0.0
 11
336.0715000000001
 21
106.4459999999999
 31
0.0
  0
LINE
  5
131D
330
1E
100
AcDbEntity
  8
0
100
AcDbLine
 10
336.0715000000001
 20
106.8929999999999
 30
0.0
 11
336.0715000000001
 21
108.0
 31
0.0
  0
LINE
  5
131E
330
1E
100
AcDbEntity
  8
0
100
AcDbLine
 10
336.0715000000001
 20
108.0
 30
0.0
 11
336.0715000000001
 21
106.8929999999999
 31
0.0
  0
LINE
  5
131F
330
1E
100
AcDbEntity
  8
0
100
AcDbLine
 10
335.7031
 20
106.0
 30
0.0
 11
336.0715000000001
 21
106.045
 31
0.0
  0
LINE
  5
1320
330
1E
100
AcDbEntity
  8
0
100
AcDbLine
 10
335.7768
 20
106.4459999999999
 30
0.0
 11
336.0715000000001
 21
106.4459999999999
 31
0.0
  0
LINE
  5
1323
330
1E
100
AcDbEntity
  8
0
100
AcDbLine
 10
322.0715000000001
 20
82.0359999999999
 30
0.0
 11
325.5079
 21
82.086
 31
0.0
  0
LINE
  5
1324
330
1E
100
AcDbEntity
  8
0
100
AcDbLine
 10
322.0715000000001
 20
81.9999999999999
 30
0.0
 11
326.9355
 21
81.9999999999999
 31
0.0
  0
LINE
  5
1325
330
1E
100
AcDbEntity
  8
0
100
AcDbLine
 10
322.0715000000001
 20
89.99999999999991
 30
0.0
 11
325.3995000000001
 21
89.99999999999991
 31
0.0
  0
LINE
  5
1326
330
1E
100
AcDbEntity
  8
0
100
AcDbLine
 10
323.5546000000001
 20
93.44599999999998
 30
0.0
 11
325.3354000000001
 21
93.18700000000001
 31
0.0
  0
LINE
  5
1327
330
1E
100
AcDbEntity
  8
0
100
AcDbLine
 10
325.103
 20
93.0
 30
0.0
 11
327.882
 21
93.0
 31
0.0
  0
LINE
  5
1328
330
1E
100
AcDbEntity
  8
0
100
AcDbLine
 10
324.8875000000001
 20
93.0
 30
0.0
 11
327.5275000000001
 21
93.0
 31
0.0
  0
LINE
  5
1329
330
1E
100
AcDbEntity
  8
0
100
AcDbLine
 10
322.0715000000001
 20
86.964
 30
0.0
 11
325.5079
 21
86.91399999999999
 31
0.0
  0
LINE
  5
132A
330
1E
100
AcDbEntity
  8
0
100
AcDbLine
 10
322.0715000000001
 20
87.0
 30
0.0
 11
325.3995000000001
 21
87.0
 31
0.0
  0
LINE
  5
132B
330
1E
100
AcDbEntity
  8
0
100
AcDbLine
 10
322.0715000000001
 20
87.0
 30
0.0
 11
325.3442000000001
 21
87.0
 31
0.0
  0
LINE
  5
132C
330
1E
100
AcDbEntity
  8
0
100
AcDbLine
 10
309.0715000000001
 20
87.0
 30
0.0
 11
309.0715000000001
 21
89.99999999999991
 31
0.0
  0
LINE
  5
132D
330
1E
100
AcDbEntity
  8
0
100
AcDbLine
 10
309.0715000000001
 20
89.99999999999991
 30
0.0
 11
309.0715000000001
 21
87.0
 31
0.0
  0
LINE
  5
132E
330
1E
100
AcDbEntity
  8
0
100
AcDbLine
 10
312.6475000000001
 20
81.9999999999999
 30
0.0
 11
317.2074999999999
 21
81.9999999999999
 31
0.0
  0
LINE
  5
132F
330
1E
100
AcDbEntity
  8
0
100
AcDbLine
 10
314.776
 20
82.35700000000001
 30
0.0
 11
318.6351000000001
 21
82.086
 31
0.0
  0
LINE
  5
1330
330
1E
100
AcDbEntity
  8
0
100
AcDbLine
 10
314.776
 20
86.64299999999999
 30
0.0
 11
315.4513999999999
 21
86.64299999999999
 31
0.0
  0
LINE
  5
1331
330
1E
100
AcDbEntity
  8
0
100
AcDbLine
 10
313.1397
 20
87.0
 30
0.0
 11
315.7988
 21
87.0
 31
0.0
  0
LINE
  5
1332
330
1E
100
AcDbEntity
  8
0
100
AcDbLine
 10
312.8675
 20
87.0
 30
0.0
 11
315.6235000000001
 21
87.0
 31
0.0
  0
LINE
  5
1333
330
1E
100
AcDbEntity
  8
0
100
AcDbLine
 10
308.7507000000001
 20
82.149
 30
0.0
 11
310.5652000000001
 21
82.07199999999991
 31
0.0
  0
LINE
  5
1334
330
1E
100
AcDbEntity
  8
0
100
AcDbLine
 10
308.6195
 20
81.9999999999999
 30
0.0
 11
312.6475000000001
 21
81.9999999999999
 31
0.0
  0
LINE
  5
1335
330
1E
100
AcDbEntity
  8
0
100
AcDbLine
 10
308.7507000000001
 20
86.85099999999989
 30
0.0
 11
310.5652000000001
 21
86.928
 31
0.0
  0
LINE
  5
1336
330
1E
100
AcDbEntity
  8
0
100
AcDbLine
 10
309.9350999999999
 20
87.0
 30
0.0
 11
311.1624000000001
 21
87.0
 31
0.0
  0
LINE
  5
1337
330
1E
100
AcDbEntity
  8
0
100
AcDbLine
 10
309.5394999999999
 20
87.0
 30
0.0
 11
310.7875
 21
87.0
 31
0.0
  0
LINE
  5
133B
330
1E
100
AcDbEntity
  8
0
100
AcDbLine
 10
308.4351000000001
 20
82.107
 30
0.0
 11
309.4579000000001
 21
81.9999999999999
 31
0.0
  0
LINE
  5
133C
330
1E
100
AcDbEntity
  8
0
100
AcDbLine
 10
307.0715000000001
 20
82.71399999999998
 30
0.0
 11
307.1766000000001
 21
82.71399999999998
 31
0.0
  0
LINE
  5
133D
330
1E
100
AcDbEntity
  8
0
100
AcDbLine
 10
307.0715000000001
 20
82.71399999999998
 30
0.0
 11
307.4124000000001
 21
82.35700000000001
 31
0.0
  0
LINE
  5
133E
330
1E
100
AcDbEntity
  8
0
100
AcDbLine
 10
307.4124000000001
 20
82.35700000000001
 30
0.0
 11
308.4351000000001
 21
82.107
 31
0.0
  0
LINE
  5
133F
330
1E
100
AcDbEntity
  8
0
100
AcDbLine
 10
307.1766000000001
 20
82.71399999999998
 30
0.0
 11
307.6453
 21
82.35700000000001
 31
0.0
  0
LINE
  5
1340
330
1E
100
AcDbEntity
  8
0
100
AcDbLine
 10
307.6453
 20
82.35700000000001
 30
0.0
 11
308.7507000000001
 21
82.149
 31
0.0
  0
LINE
  5
1341
330
1E
100
AcDbEntity
  8
0
100
AcDbLine
 10
308.4351000000001
 20
86.89299999999999
 30
0.0
 11
309.4579000000001
 21
87.0
 31
0.0
  0
LINE
  5
1342
330
1E
100
AcDbEntity
  8
0
100
AcDbLine
 10
309.0715000000001
 20
87.0
 30
0.0
 11
309.5394999999999
 21
87.0
 31
0.0
  0
LINE
  5
1343
330
1E
100
AcDbEntity
  8
0
100
AcDbLine
 10
307.0715000000001
 20
86.28599999999989
 30
0.0
 11
307.0715000000001
 21
82.71399999999998
 31
0.0
  0
LINE
  5
1344
330
1E
100
AcDbEntity
  8
0
100
AcDbLine
 10
307.0715000000001
 20
86.28599999999989
 30
0.0
 11
307.1766000000001
 21
86.28599999999989
 31
0.0
  0
LINE
  5
1345
330
1E
100
AcDbEntity
  8
0
100
AcDbLine
 10
307.0715000000001
 20
86.28599999999989
 30
0.0
 11
307.4124000000001
 21
86.64299999999999
 31
0.0
  0
LINE
  5
1346
330
1E
100
AcDbEntity
  8
0
100
AcDbLine
 10
307.0715000000001
 20
82.71399999999998
 30
0.0
 11
307.0715000000001
 21
86.28599999999989
 31
0.0
  0
LINE
  5
1347
330
1E
100
AcDbEntity
  8
0
100
AcDbLine
 10
307.1766000000001
 20
86.28599999999989
 30
0.0
 11
307.6453
 21
86.64299999999999
 31
0.0
  0
LINE
  5
1348
330
1E
100
AcDbEntity
  8
0
100
AcDbLine
 10
307.4124000000001
 20
86.64299999999999
 30
0.0
 11
308.4351000000001
 21
86.89299999999999
 31
0.0
  0
LINE
  5
1349
330
1E
100
AcDbEntity
  8
0
100
AcDbLine
 10
307.6453
 20
86.64299999999999
 30
0.0
 11
308.7507000000001
 21
86.85099999999989
 31
0.0
  0
LINE
  5
134A
330
1E
100
AcDbEntity
  8
0
100
AcDbLine
 10
309.4579000000001
 20
87.0
 30
0.0
 11
309.9350999999999
 21
87.0
 31
0.0
  0
LINE
  5
134B
330
1E
100
AcDbEntity
  8
0
100
AcDbLine
 10
309.5394999999999
 20
87.0
 30
0.0
 11
309.9350999999999
 21
87.0
 31
0.0
  0
LINE
  5
134C
330
1E
100
AcDbEntity
  8
0
100
AcDbLine
 10
313.6675
 20
82.35700000000001
 30
0.0
 11
314.776
 21
82.35700000000001
 31
0.0
  0
LINE
  5
134D
330
1E
100
AcDbEntity
  8
0
100
AcDbLine
 10
312.3896999999999
 20
82.12999999999999
 30
0.0
 11
313.6675
 21
82.35700000000001
 31
0.0
  0
LINE
  5
134E
330
1E
100
AcDbEntity
  8
0
100
AcDbLine
 10
310.5652000000001
 20
82.07199999999991
 30
0.0
 11
312.3896999999999
 21
82.12999999999999
 31
0.0
  0
LINE
  5
134F
330
1E
100
AcDbEntity
  8
0
100
AcDbLine
 10
313.6675
 20
86.64299999999999
 30
0.0
 11
314.776
 21
86.64299999999999
 31
0.0
  0
LINE
  5
1350
330
1E
100
AcDbEntity
  8
0
100
AcDbLine
 10
312.3896999999999
 20
86.8699999999999
 30
0.0
 11
313.6675
 21
86.64299999999999
 31
0.0
  0
LINE
  5
1351
330
1E
100
AcDbEntity
  8
0
100
AcDbLine
 10
311.1624000000001
 20
87.0
 30
0.0
 11
313.1397
 21
87.0
 31
0.0
  0
LINE
  5
1352
330
1E
100
AcDbEntity
  8
0
100
AcDbLine
 10
310.5652000000001
 20
86.928
 30
0.0
 11
312.3896999999999
 21
86.8699999999999
 31
0.0
  0
LINE
  5
1353
330
1E
100
AcDbEntity
  8
0
100
AcDbLine
 10
310.7875
 20
87.0
 30
0.0
 11
312.8675
 21
87.0
 31
0.0
  0
LINE
  5
1354
330
1E
100
AcDbEntity
  8
0
100
AcDbLine
 10
314.5525000000001
 20
86.28599999999989
 30
0.0
 11
314.5525000000001
 21
82.71399999999998
 31
0.0
  0
LINE
  5
1355
330
1E
100
AcDbEntity
  8
0
100
AcDbLine
 10
314.5525000000001
 20
82.71399999999998
 30
0.0
 11
314.5525000000001
 21
86.28599999999989
 31
0.0
  0
LINE
  5
1356
330
1E
100
AcDbEntity
  8
0
100
AcDbLine
 10
317.2074999999999
 20
81.9999999999999
 30
0.0
 11
322.0715000000001
 21
81.9999999999999
 31
0.0
  0
LINE
  5
1357
330
1E
100
AcDbEntity
  8
0
100
AcDbLine
 10
318.6351000000001
 20
82.086
 30
0.0
 11
322.0715000000001
 21
82.0359999999999
 31
0.0
  0
LINE
  5
1358
330
1E
100
AcDbEntity
  8
0
100
AcDbLine
 10
318.6351000000001
 20
86.91399999999999
 30
0.0
 11
322.0715000000001
 21
86.964
 31
0.0
  0
LINE
  5
1359
330
1E
100
AcDbEntity
  8
0
100
AcDbLine
 10
318.7988
 20
87.0
 30
0.0
 11
322.0715000000001
 21
87.0
 31
0.0
  0
LINE
  5
135A
330
1E
100
AcDbEntity
  8
0
100
AcDbLine
 10
318.7434999999999
 20
87.0
 30
0.0
 11
322.0715000000001
 21
87.0
 31
0.0
  0
LINE
  5
135B
330
1E
100
AcDbEntity
  8
0
100
AcDbLine
 10
315.7988
 20
87.0
 30
0.0
 11
318.7988
 21
87.0
 31
0.0
  0
LINE
  5
135C
330
1E
100
AcDbEntity
  8
0
100
AcDbLine
 10
315.6235000000001
 20
87.0
 30
0.0
 11
318.7434999999999
 21
87.0
 31
0.0
  0
LINE
  5
135D
330
1E
100
AcDbEntity
  8
0
100
AcDbLine
 10
315.4513999999999
 20
86.64299999999999
 30
0.0
 11
318.6351000000001
 21
86.91399999999999
 31
0.0
  0
LINE
  5
135E
330
1E
100
AcDbEntity
  8
0
100
AcDbLine
 10
312.8675
 20
89.99999999999991
 30
0.0
 11
315.6235000000001
 21
89.99999999999991
 31
0.0
  0
LINE
  5
135F
330
1E
100
AcDbEntity
  8
0
100
AcDbLine
 10
314.2835000000001
 20
93.0
 30
0.0
 11
316.6155000000001
 21
93.0
 31
0.0
  0
LINE
  5
1360
330
1E
100
AcDbEntity
  8
0
100
AcDbLine
 10
313.1031000000001
 20
93.16199999999991
 30
0.0
 11
315.9631
 21
93.0899999999999
 31
0.0
  0
LINE
  5
1361
330
1E
100
AcDbEntity
  8
0
100
AcDbLine
 10
309.5394999999999
 20
89.99999999999991
 30
0.0
 11
310.7875
 21
89.99999999999991
 31
0.0
  0
LINE
  5
1362
330
1E
100
AcDbEntity
  8
0
100
AcDbLine
 10
309.0715000000001
 20
89.99999999999991
 30
0.0
 11
309.5394999999999
 21
89.99999999999991
 31
0.0
  0
LINE
  5
1363
330
1E
100
AcDbEntity
  8
0
100
AcDbLine
 10
312.5235000000001
 20
93.0
 30
0.0
 11
314.2835000000001
 21
93.0
 31
0.0
  0
LINE
  5
1364
330
1E
100
AcDbEntity
  8
0
100
AcDbLine
 10
311.0715000000001
 20
89.99999999999991
 30
0.0
 11
311.0715000000001
 21
93.0
 31
0.0
  0
LINE
  5
1365
330
1E
100
AcDbEntity
  8
0
100
AcDbLine
 10
310.8294
 20
93.0
 30
0.0
 11
311.0715000000001
 21
93.0
 31
0.0
  0
LINE
  5
1366
330
1E
100
AcDbEntity
  8
0
100
AcDbLine
 10
311.0715000000001
 20
93.0
 30
0.0
 11
311.4674999999999
 21
93.0
 31
0.0
  0
LINE
  5
1367
330
1E
100
AcDbEntity
  8
0
100
AcDbLine
 10
311.0715000000001
 20
93.0
 30
0.0
 11
311.0715000000001
 21
89.99999999999991
 31
0.0
  0
LINE
  5
1368
330
1E
100
AcDbEntity
  8
0
100
AcDbLine
 10
310.7875
 20
89.99999999999991
 30
0.0
 11
312.8675
 21
89.99999999999991
 31
0.0
  0
LINE
  5
1369
330
1E
100
AcDbEntity
  8
0
100
AcDbLine
 10
311.4674999999999
 20
93.0
 30
0.0
 11
312.5235000000001
 21
93.0
 31
0.0
  0
LINE
  5
136A
330
1E
100
AcDbEntity
  8
0
100
AcDbLine
 10
311.1
 20
93.44599999999998
 30
0.0
 11
313.1031000000001
 21
93.16199999999991
 31
0.0
  0
LINE
  5
136B
330
1E
100
AcDbEntity
  8
0
100
AcDbLine
 10
310.0715000000001
 20
93.045
 30
0.0
 11
310.0715000000001
 21
93.10699999999988
 31
0.0
  0
LINE
  5
136C
330
1E
100
AcDbEntity
  8
0
100
AcDbLine
 10
310.0715000000001
 20
93.045
 30
0.0
 11
310.3873
 21
93.0
 31
0.0
  0
LINE
  5
136D
330
1E
100
AcDbEntity
  8
0
100
AcDbLine
 10
310.0715000000001
 20
93.10699999999988
 30
0.0
 11
310.0715000000001
 21
93.045
 31
0.0
  0
LINE
  5
136E
330
1E
100
AcDbEntity
  8
0
100
AcDbLine
 10
310.0715000000001
 20
93.10699999999988
 30
0.0
 11
310.0715000000001
 21
93.44599999999998
 31
0.0
  0
LINE
  5
136F
330
1E
100
AcDbEntity
  8
0
100
AcDbLine
 10
310.0715000000001
 20
93.89299999999998
 30
0.0
 11
310.0715000000001
 21
93.44599999999998
 31
0.0
  0
LINE
  5
1370
330
1E
100
AcDbEntity
  8
0
100
AcDbLine
 10
310.0715000000001
 20
93.44599999999998
 30
0.0
 11
310.0715000000001
 21
93.10699999999988
 31
0.0
  0
LINE
  5
1371
330
1E
100
AcDbEntity
  8
0
100
AcDbLine
 10
310.0715000000001
 20
93.44599999999998
 30
0.0
 11
310.3241000000001
 21
93.44599999999998
 31
0.0
  0
LINE
  5
1372
330
1E
100
AcDbEntity
  8
0
100
AcDbLine
 10
310.0715000000001
 20
93.44599999999998
 30
0.0
 11
310.0715000000001
 21
93.89299999999998
 31
0.0
  0
LINE
  5
1373
330
1E
100
AcDbEntity
  8
0
100
AcDbLine
 10
310.3873
 20
93.0
 30
0.0
 11
310.8294
 21
93.0
 31
0.0
  0
LINE
  5
1374
330
1E
100
AcDbEntity
  8
0
100
AcDbLine
 10
310.3241000000001
 20
93.44599999999998
 30
0.0
 11
311.1
 21
93.44599999999998
 31
0.0
  0
LINE
  5
1375
330
1E
100
AcDbEntity
  8
0
100
AcDbLine
 10
318.8076000000001
 20
93.18700000000001
 30
0.0
 11
320.5884000000001
 21
93.44599999999998
 31
0.0
  0
LINE
  5
1376
330
1E
100
AcDbEntity
  8
0
100
AcDbLine
 10
318.7434999999999
 20
89.99999999999991
 30
0.0
 11
322.0715000000001
 21
89.99999999999991
 31
0.0
  0
LINE
  5
1377
330
1E
100
AcDbEntity
  8
0
100
AcDbLine
 10
319.2555
 20
93.0
 30
0.0
 11
322.0715000000001
 21
93.0
 31
0.0
  0
LINE
  5
1378
330
1E
100
AcDbEntity
  8
0
100
AcDbLine
 10
315.6235000000001
 20
89.99999999999991
 30
0.0
 11
318.7434999999999
 21
89.99999999999991
 31
0.0
  0
LINE
  5
1379
330
1E
100
AcDbEntity
  8
0
100
AcDbLine
 10
316.6155000000001
 20
93.0
 30
0.0
 11
319.2555
 21
93.0
 31
0.0
  0
LINE
  5
137A
330
1E
100
AcDbEntity
  8
0
100
AcDbLine
 10
315.9631
 20
93.0899999999999
 30
0.0
 11
318.8076000000001
 21
93.18700000000001
 31
0.0
  0
LINE
  5
137B
330
1E
100
AcDbEntity
  8
0
100
AcDbLine
 10
322.0715000000001
 20
93.0
 30
0.0
 11
324.8875000000001
 21
93.0
 31
0.0
  0
LINE
  5
137C
330
1E
100
AcDbEntity
  8
0
100
AcDbLine
 10
322.0715000000001
 20
93.0
 30
0.0
 11
325.103
 21
93.0
 31
0.0
  0
LINE
  5
137D
330
1E
100
AcDbEntity
  8
0
100
AcDbLine
 10
322.0715000000001
 20
93.44599999999998
 30
0.0
 11
323.5546000000001
 21
93.44599999999998
 31
0.0
  0
LINE
  5
137E
330
1E
100
AcDbEntity
  8
0
100
AcDbLine
 10
320.5884000000001
 20
93.44599999999998
 30
0.0
 11
322.0715000000001
 21
93.44599999999998
 31
0.0
  0
LINE
  5
137F
330
1E
100
AcDbEntity
  8
0
100
AcDbLine
 10
335.0715000000001
 20
87.0
 30
0.0
 11
335.0715000000001
 21
89.99999999999991
 31
0.0
  0
LINE
  5
1380
330
1E
100
AcDbEntity
  8
0
100
AcDbLine
 10
335.0715000000001
 20
89.99999999999991
 30
0.0
 11
335.0715000000001
 21
87.0
 31
0.0
  0
LINE
  5
1381
330
1E
100
AcDbEntity
  8
0
100
AcDbLine
 10
333.5778
 20
82.07199999999991
 30
0.0
 11
335.3922999999999
 21
82.149
 31
0.0
  0
LINE
  5
1382
330
1E
100
AcDbEntity
  8
0
100
AcDbLine
 10
331.4955000000001
 20
81.9999999999999
 30
0.0
 11
335.5235000000001
 21
81.9999999999999
 31
0.0
  0
LINE
  5
1383
330
1E
100
AcDbEntity
  8
0
100
AcDbLine
 10
334.6851
 20
81.9999999999999
 30
0.0
 11
335.7079000000001
 21
82.107
 31
0.0
  0
LINE
  5
1385
330
1E
100
AcDbEntity
  8
0
100
AcDbLine
 10
333.5778
 20
86.928
 30
0.0
 11
335.3922999999999
 21
86.85099999999989
 31
0.0
  0
LINE
  5
1386
330
1E
100
AcDbEntity
  8
0
100
AcDbLine
 10
334.6851
 20
87.0
 30
0.0
 11
335.7079000000001
 21
86.89299999999999
 31
0.0
  0
LINE
  5
1387
330
1E
100
AcDbEntity
  8
0
100
AcDbLine
 10
329.5905
 20
82.71399999999998
 30
0.0
 11
330.4755000000001
 21
82.35700000000001
 31
0.0
  0
LINE
  5
1388
330
1E
100
AcDbEntity
  8
0
100
AcDbLine
 10
326.9355
 20
81.9999999999999
 30
0.0
 11
331.4955000000001
 21
81.9999999999999
 31
0.0
  0
LINE
  5
1389
330
1E
100
AcDbEntity
  8
0
100
AcDbLine
 10
329.5905
 20
86.28599999999989
 30
0.0
 11
330.4755000000001
 21
86.64299999999999
 31
0.0
  0
LINE
  5
138A
330
1E
100
AcDbEntity
  8
0
100
AcDbLine
 10
328.3441999999999
 20
87.0
 30
0.0
 11
331.0033
 21
87.0
 31
0.0
  0
LINE
  5
138B
330
1E
100
AcDbEntity
  8
0
100
AcDbLine
 10
328.5195000000001
 20
87.0
 30
0.0
 11
331.2755000000001
 21
87.0
 31
0.0
  0
LINE
  5
138C
330
1E
100
AcDbEntity
  8
0
100
AcDbLine
 10
328.6916000000001
 20
82.35700000000001
 30
0.0
 11
329.5905
 21
82.71399999999998
 31
0.0
  0
LINE
  5
138D
330
1E
100
AcDbEntity
  8
0
100
AcDbLine
 10
329.5905
 20
82.71399999999998
 30
0.0
 11
329.5905
 21
82.71399999999998
 31
0.0
  0
LINE
  5
138E
330
1E
100
AcDbEntity
  8
0
100
AcDbLine
 10
325.5079
 20
82.086
 30
0.0
 11
328.6916000000001
 21
82.35700000000001
 31
0.0
  0
LINE
  5
138F
330
1E
100
AcDbEntity
  8
0
100
AcDbLine
 10
328.6916000000001
 20
86.64299999999999
 30
0.0
 11
329.5905
 21
86.28599999999989
 31
0.0
  0
LINE
  5
1390
330
1E
100
AcDbEntity
  8
0
100
AcDbLine
 10
329.5905
 20
82.71399999999998
 30
0.0
 11
329.5905
 21
86.28599999999989
 31
0.0
  0
LINE
  5
1391
330
1E
100
AcDbEntity
  8
0
100
AcDbLine
 10
329.5905
 20
86.28599999999989
 30
0.0
 11
329.5905
 21
82.71399999999998
 31
0.0
  0
LINE
  5
1392
330
1E
100
AcDbEntity
  8
0
100
AcDbLine
 10
325.3442000000001
 20
87.0
 30
0.0
 11
328.3441999999999
 21
87.0
 31
0.0
  0
LINE
  5
1393
330
1E
100
AcDbEntity
  8
0
100
AcDbLine
 10
325.5079
 20
86.91399999999999
 30
0.0
 11
328.6916000000001
 21
86.64299999999999
 31
0.0
  0
LINE
  5
1394
330
1E
100
AcDbEntity
  8
0
100
AcDbLine
 10
325.3995000000001
 20
87.0
 30
0.0
 11
328.5195000000001
 21
87.0
 31
0.0
  0
LINE
  5
1395
330
1E
100
AcDbEntity
  8
0
100
AcDbLine
 10
331.7533
 20
82.12999999999999
 30
0.0
 11
333.5778
 21
82.07199999999991
 31
0.0
  0
LINE
  5
1396
330
1E
100
AcDbEntity
  8
0
100
AcDbLine
 10
330.4755000000001
 20
82.35700000000001
 30
0.0
 11
331.7533
 21
82.12999999999999
 31
0.0
  0
LINE
  5
1397
330
1E
100
AcDbEntity
  8
0
100
AcDbLine
 10
333.3555000000001
 20
87.0
 30
0.0
 11
334.6035
 21
87.0
 31
0.0
  0
LINE
  5
1398
330
1E
100
AcDbEntity
  8
0
100
AcDbLine
 10
334.2079000000001
 20
87.0
 30
0.0
 11
334.6035
 21
87.0
 31
0.0
  0
LINE
  5
1399
330
1E
100
AcDbEntity
  8
0
100
AcDbLine
 10
334.2079000000001
 20
87.0
 30
0.0
 11
334.6851
 21
87.0
 31
0.0
  0
LINE
  5
139A
330
1E
100
AcDbEntity
  8
0
100
AcDbLine
 10
332.9806
 20
87.0
 30
0.0
 11
334.2079000000001
 21
87.0
 31
0.0
  0
LINE
  5
139B
330
1E
100
AcDbEntity
  8
0
100
AcDbLine
 10
331.0033
 20
87.0
 30
0.0
 11
332.9806
 21
87.0
 31
0.0
  0
LINE
  5
139C
330
1E
100
AcDbEntity
  8
0
100
AcDbLine
 10
331.7533
 20
86.8699999999999
 30
0.0
 11
333.5778
 21
86.928
 31
0.0
  0
LINE
  5
139D
330
1E
100
AcDbEntity
  8
0
100
AcDbLine
 10
331.2755000000001
 20
87.0
 30
0.0
 11
333.3555000000001
 21
87.0
 31
0.0
  0
LINE
  5
139E
330
1E
100
AcDbEntity
  8
0
100
AcDbLine
 10
334.6035
 20
87.0
 30
0.0
 11
335.0715000000001
 21
87.0
 31
0.0
  0
LINE
  5
139F
330
1E
100
AcDbEntity
  8
0
100
AcDbLine
 10
330.4755000000001
 20
86.64299999999999
 30
0.0
 11
331.7533
 21
86.8699999999999
 31
0.0
  0
LINE
  5
13A3
330
1E
100
AcDbEntity
  8
0
100
AcDbLine
 10
336.7306000000001
 20
82.35700000000001
 30
0.0
 11
337.0715000000001
 21
82.71399999999998
 31
0.0
  0
LINE
  5
13A4
330
1E
100
AcDbEntity
  8
0
100
AcDbLine
 10
336.9664
 20
82.71399999999998
 30
0.0
 11
337.0715000000001
 21
82.71399999999998
 31
0.0
  0
LINE
  5
13A5
330
1E
100
AcDbEntity
  8
0
100
AcDbLine
 10
336.4977000000001
 20
82.35700000000001
 30
0.0
 11
336.9664
 21
82.71399999999998
 31
0.0
  0
LINE
  5
13A6
330
1E
100
AcDbEntity
  8
0
100
AcDbLine
 10
335.7079000000001
 20
82.107
 30
0.0
 11
336.7306000000001
 21
82.35700000000001
 31
0.0
  0
LINE
  5
13A7
330
1E
100
AcDbEntity
  8
0
100
AcDbLine
 10
335.3922999999999
 20
82.149
 30
0.0
 11
336.4977000000001
 21
82.35700000000001
 31
0.0
  0
LINE
  5
13A8
330
1E
100
AcDbEntity
  8
0
100
AcDbLine
 10
337.0715000000001
 20
86.28599999999989
 30
0.0
 11
337.0715000000001
 21
82.71399999999998
 31
0.0
  0
LINE
  5
13A9
330
1E
100
AcDbEntity
  8
0
100
AcDbLine
 10
337.0715000000001
 20
82.71399999999998
 30
0.0
 11
337.0715000000001
 21
86.28599999999989
 31
0.0
  0
LINE
  5
13AA
330
1E
100
AcDbEntity
  8
0
100
AcDbLine
 10
336.9664
 20
86.28599999999989
 30
0.0
 11
337.0715000000001
 21
86.28599999999989
 31
0.0
  0
LINE
  5
13AB
330
1E
100
AcDbEntity
  8
0
100
AcDbLine
 10
336.7306000000001
 20
86.64299999999999
 30
0.0
 11
337.0715000000001
 21
86.28599999999989
 31
0.0
  0
LINE
  5
13AC
330
1E
100
AcDbEntity
  8
0
100
AcDbLine
 10
336.4977000000001
 20
86.64299999999999
 30
0.0
 11
336.9664
 21
86.28599999999989
 31
0.0
  0
LINE
  5
13AD
330
1E
100
AcDbEntity
  8
0
100
AcDbLine
 10
335.3922999999999
 20
86.85099999999989
 30
0.0
 11
336.4977000000001
 21
86.64299999999999
 31
0.0
  0
LINE
  5
13AE
330
1E
100
AcDbEntity
  8
0
100
AcDbLine
 10
335.7079000000001
 20
86.89299999999999
 30
0.0
 11
336.7306000000001
 21
86.64299999999999
 31
0.0
  0
LINE
  5
13AF
330
1E
100
AcDbEntity
  8
0
100
AcDbLine
 10
328.5195000000001
 20
89.99999999999991
 30
0.0
 11
331.2755000000001
 21
89.99999999999991
 31
0.0
  0
LINE
  5
13B0
330
1E
100
AcDbEntity
  8
0
100
AcDbLine
 10
328.1798000000001
 20
93.0899999999999
 30
0.0
 11
331.04
 21
93.16199999999991
 31
0.0
  0
LINE
  5
13B1
330
1E
100
AcDbEntity
  8
0
100
AcDbLine
 10
329.8595000000001
 20
93.0
 30
0.0
 11
331.6195
 21
93.0
 31
0.0
  0
LINE
  5
13B2
330
1E
100
AcDbEntity
  8
0
100
AcDbLine
 10
327.5275000000001
 20
93.0
 30
0.0
 11
329.8595000000001
 21
93.0
 31
0.0
  0
LINE
  5
13B3
330
1E
100
AcDbEntity
  8
0
100
AcDbLine
 10
325.3995000000001
 20
89.99999999999991
 30
0.0
 11
328.5195000000001
 21
89.99999999999991
 31
0.0
  0
LINE
  5
13B4
330
1E
100
AcDbEntity
  8
0
100
AcDbLine
 10
325.3354000000001
 20
93.18700000000001
 30
0.0
 11
328.1798000000001
 21
93.0899999999999
 31
0.0
  0
LINE
  5
13B5
330
1E
100
AcDbEntity
  8
0
100
AcDbLine
 10
333.3555000000001
 20
89.99999999999991
 30
0.0
 11
334.6035
 21
89.99999999999991
 31
0.0
  0
LINE
  5
13B6
330
1E
100
AcDbEntity
  8
0
100
AcDbLine
 10
333.0715000000001
 20
89.99999999999991
 30
0.0
 11
333.0715000000001
 21
93.0
 31
0.0
  0
LINE
  5
13B7
330
1E
100
AcDbEntity
  8
0
100
AcDbLine
 10
333.3136
 20
93.0
 30
0.0
 11
333.7557000000001
 21
93.0
 31
0.0
  0
LINE
  5
13B8
330
1E
100
AcDbEntity
  8
0
100
AcDbLine
 10
333.7557000000001
 20
93.0
 30
0.0
 11
334.0715000000001
 21
93.045
 31
0.0
  0
LINE
  5
13B9
330
1E
100
AcDbEntity
  8
0
100
AcDbLine
 10
332.1768
 20
93.0
 30
0.0
 11
333.3136
 21
93.0
 31
0.0
  0
LINE
  5
13BA
330
1E
100
AcDbEntity
  8
0
100
AcDbLine
 10
332.6755000000001
 20
93.0
 30
0.0
 11
333.0715000000001
 21
93.0
 31
0.0
  0
LINE
  5
13BB
330
1E
100
AcDbEntity
  8
0
100
AcDbLine
 10
333.0715000000001
 20
93.0
 30
0.0
 11
333.0715000000001
 21
89.99999999999991
 31
0.0
  0
LINE
  5
13BC
330
1E
100
AcDbEntity
  8
0
100
AcDbLine
 10
333.0715000000001
 20
93.0
 30
0.0
 11
333.3136
 21
93.0
 31
0.0
  0
LINE
  5
13BD
330
1E
100
AcDbEntity
  8
0
100
AcDbLine
 10
334.0715000000001
 20
93.045
 30
0.0
 11
334.0715000000001
 21
93.10699999999988
 31
0.0
  0
LINE
  5
13BE
330
1E
100
AcDbEntity
  8
0
100
AcDbLine
 10
334.0715000000001
 20
93.10699999999988
 30
0.0
 11
334.0715000000001
 21
93.045
 31
0.0
  0
LINE
  5
13BF
330
1E
100
AcDbEntity
  8
0
100
AcDbLine
 10
334.0715000000001
 20
93.10699999999988
 30
0.0
 11
334.0715000000001
 21
93.44599999999998
 31
0.0
  0
LINE
  5
13C0
330
1E
100
AcDbEntity
  8
0
100
AcDbLine
 10
333.8189000000001
 20
93.44599999999998
 30
0.0
 11
334.0715000000001
 21
93.44599999999998
 31
0.0
  0
LINE
  5
13C1
330
1E
100
AcDbEntity
  8
0
100
AcDbLine
 10
334.0715000000001
 20
93.44599999999998
 30
0.0
 11
334.0715000000001
 21
93.89299999999998
 31
0.0
  0
LINE
  5
13C2
330
1E
100
AcDbEntity
  8
0
100
AcDbLine
 10
334.0715000000001
 20
93.44599999999998
 30
0.0
 11
334.0715000000001
 21
93.10699999999988
 31
0.0
  0
LINE
  5
13C3
330
1E
100
AcDbEntity
  8
0
100
AcDbLine
 10
333.0430000000001
 20
93.44599999999998
 30
0.0
 11
333.8189000000001
 21
93.44599999999998
 31
0.0
  0
LINE
  5
13C4
330
1E
100
AcDbEntity
  8
0
100
AcDbLine
 10
334.0715000000001
 20
93.89299999999998
 30
0.0
 11
334.0715000000001
 21
93.44599999999998
 31
0.0
  0
LINE
  5
13C5
330
1E
100
AcDbEntity
  8
0
100
AcDbLine
 10
331.2755000000001
 20
89.99999999999991
 30
0.0
 11
333.3555000000001
 21
89.99999999999991
 31
0.0
  0
LINE
  5
13C6
330
1E
100
AcDbEntity
  8
0
100
AcDbLine
 10
331.6195
 20
93.0
 30
0.0
 11
332.6755000000001
 21
93.0
 31
0.0
  0
LINE
  5
13C7
330
1E
100
AcDbEntity
  8
0
100
AcDbLine
 10
331.04
 20
93.16199999999991
 30
0.0
 11
333.0430000000001
 21
93.44599999999998
 31
0.0
  0
LINE
  5
13C8
330
1E
100
AcDbEntity
  8
0
100
AcDbLine
 10
334.6035
 20
89.99999999999991
 30
0.0
 11
335.0715000000001
 21
89.99999999999991
 31
0.0
  0
LINE
  5
13C9
330
1E
100
AcDbEntity
  8
0
100
AcDbLine
 10
364.2636000000001
 20
106.187
 30
0.0
 11
366.3412000000001
 21
106.4459999999999
 31
0.0
  0
LINE
  5
13CA
330
1E
100
AcDbEntity
  8
0
100
AcDbLine
 10
364.8075999999999
 20
106.0
 30
0.0
 11
366.5884000000001
 21
106.0
 31
0.0
  0
LINE
  5
13CB
330
1E
100
AcDbEntity
  8
0
100
AcDbLine
 10
355.2714
 20
106.4459999999999
 30
0.0
 11
357.6083000000001
 21
106.162
 31
0.0
  0
LINE
  5
13CC
330
1E
100
AcDbEntity
  8
0
100
AcDbLine
 10
354.9557
 20
106.0
 30
0.0
 11
356.0715000000001
 21
106.0
 31
0.0
  0
LINE
  5
13CD
330
1E
100
AcDbEntity
  8
0
100
AcDbLine
 10
354.0715000000001
 20
106.8929999999999
 30
0.0
 11
354.0715000000001
 21
106.4459999999999
 31
0.0
  0
LINE
  5
13CE
330
1E
100
AcDbEntity
  8
0
100
AcDbLine
 10
354.0715000000001
 20
106.1069999999999
 30
0.0
 11
354.0715000000001
 21
106.045
 31
0.0
  0
LINE
  5
13CF
330
1E
100
AcDbEntity
  8
0
100
AcDbLine
 10
354.0715000000001
 20
106.1069999999999
 30
0.0
 11
354.0715000000001
 21
106.4459999999999
 31
0.0
  0
LINE
  5
13D0
330
1E
100
AcDbEntity
  8
0
100
AcDbLine
 10
354.0715000000001
 20
106.4459999999999
 30
0.0
 11
354.0715000000001
 21
106.1069999999999
 31
0.0
  0
LINE
  5
13D1
330
1E
100
AcDbEntity
  8
0
100
AcDbLine
 10
354.0715000000001
 20
106.4459999999999
 30
0.0
 11
354.0715000000001
 21
106.8929999999999
 31
0.0
  0
LINE
  5
13D2
330
1E
100
AcDbEntity
  8
0
100
AcDbLine
 10
354.0715000000001
 20
106.045
 30
0.0
 11
354.4399
 21
106.0
 31
0.0
  0
LINE
  5
13D3
330
1E
100
AcDbEntity
  8
0
100
AcDbLine
 10
354.0715000000001
 20
106.045
 30
0.0
 11
354.0715000000001
 21
106.1069999999999
 31
0.0
  0
LINE
  5
13D4
330
1E
100
AcDbEntity
  8
0
100
AcDbLine
 10
354.4399
 20
106.0
 30
0.0
 11
354.9557
 21
106.0
 31
0.0
  0
LINE
  5
13D5
330
1E
100
AcDbEntity
  8
0
100
AcDbLine
 10
354.0715000000001
 20
106.8929999999999
 30
0.0
 11
355.2714
 21
106.4459999999999
 31
0.0
  0
LINE
  5
13D6
330
1E
100
AcDbEntity
  8
0
100
AcDbLine
 10
357.6083000000001
 20
106.162
 30
0.0
 11
360.9451
 21
106.0899999999999
 31
0.0
  0
LINE
  5
13D7
330
1E
100
AcDbEntity
  8
0
100
AcDbLine
 10
359.1031
 20
106.0
 30
0.0
 11
361.9631000000001
 21
106.0
 31
0.0
  0
LINE
  5
13D8
330
1E
100
AcDbEntity
  8
0
100
AcDbLine
 10
358.4189000000001
 20
106.0
 30
0.0
 11
361.2925
 21
106.0
 31
0.0
  0
LINE
  5
13D9
330
1E
100
AcDbEntity
  8
0
100
AcDbLine
 10
356.3803
 20
106.0
 30
0.0
 11
357.1000000000001
 21
106.0
 31
0.0
  0
LINE
  5
13DA
330
1E
100
AcDbEntity
  8
0
100
AcDbLine
 10
356.0715000000001
 20
106.0
 30
0.0
 11
356.3803
 21
106.0
 31
0.0
  0
LINE
  5
13DB
330
1E
100
AcDbEntity
  8
0
100
AcDbLine
 10
356.0715000000001
 20
106.0
 30
0.0
 11
356.0715000000001
 21
93.89299999999998
 31
0.0
  0
LINE
  5
13DC
330
1E
100
AcDbEntity
  8
0
100
AcDbLine
 10
356.0715000000001
 20
93.89299999999998
 30
0.0
 11
356.0715000000001
 21
106.0
 31
0.0
  0
LINE
  5
13DD
330
1E
100
AcDbEntity
  8
0
100
AcDbLine
 10
357.1000000000001
 20
106.0
 30
0.0
 11
359.1031
 21
106.0
 31
0.0
  0
LINE
  5
13DE
330
1E
100
AcDbEntity
  8
0
100
AcDbLine
 10
361.9631000000001
 20
106.0
 30
0.0
 11
364.8075999999999
 21
106.0
 31
0.0
  0
LINE
  5
13DF
330
1E
100
AcDbEntity
  8
0
100
AcDbLine
 10
360.9451
 20
106.0899999999999
 30
0.0
 11
364.2636000000001
 21
106.187
 31
0.0
  0
LINE
  5
13E0
330
1E
100
AcDbEntity
  8
0
100
AcDbLine
 10
375.1978999999999
 20
106.0899999999999
 30
0.0
 11
378.5347000000001
 21
106.162
 31
0.0
  0
LINE
  5
13E1
330
1E
100
AcDbEntity
  8
0
100
AcDbLine
 10
374.1798000000001
 20
106.0
 30
0.0
 11
377.04
 21
106.0
 31
0.0
  0
LINE
  5
13E2
330
1E
100
AcDbEntity
  8
0
100
AcDbLine
 10
369.8018
 20
106.4459999999999
 30
0.0
 11
371.8793999999999
 21
106.187
 31
0.0
  0
LINE
  5
13E3
330
1E
100
AcDbEntity
  8
0
100
AcDbLine
 10
369.5546000000001
 20
106.0
 30
0.0
 11
371.6083000000001
 21
106.0
 31
0.0
  0
LINE
  5
13E4
330
1E
100
AcDbEntity
  8
0
100
AcDbLine
 10
369.5546000000001
 20
106.0
 30
0.0
 11
371.3354000000001
 21
106.0
 31
0.0
  0
LINE
  5
13E5
330
1E
100
AcDbEntity
  8
0
100
AcDbLine
 10
366.3412000000001
 20
106.4459999999999
 30
0.0
 11
368.0715000000001
 21
106.4459999999999
 31
0.0
  0
LINE
  5
13E6
330
1E
100
AcDbEntity
  8
0
100
AcDbLine
 10
366.5884000000001
 20
106.0
 30
0.0
 11
367.3777000000001
 21
106.0
 31
0.0
  0
LINE
  5
13E7
330
1E
100
AcDbEntity
  8
0
100
AcDbLine
 10
367.3777000000001
 20
106.0
 30
0.0
 11
368.0715000000001
 21
106.0
 31
0.0
  0
LINE
  5
13E8
330
1E
100
AcDbEntity
  8
0
100
AcDbLine
 10
368.0715000000001
 20
106.4459999999999
 30
0.0
 11
369.8018
 21
106.4459999999999
 31
0.0
  0
LINE
  5
13E9
330
1E
100
AcDbEntity
  8
0
100
AcDbLine
 10
368.7653
 20
106.0
 30
0.0
 11
369.5546000000001
 21
106.0
 31
0.0
  0
LINE
  5
13EA
330
1E
100
AcDbEntity
  8
0
100
AcDbLine
 10
368.0715000000001
 20
106.0
 30
0.0
 11
368.7653
 21
106.0
 31
0.0
  0
LINE
  5
13EB
330
1E
100
AcDbEntity
  8
0
100
AcDbLine
 10
371.3354000000001
 20
106.0
 30
0.0
 11
374.1798000000001
 21
106.0
 31
0.0
  0
LINE
  5
13EC
330
1E
100
AcDbEntity
  8
0
100
AcDbLine
 10
371.6083000000001
 20
106.0
 30
0.0
 11
374.8504
 21
106.0
 31
0.0
  0
LINE
  5
13ED
330
1E
100
AcDbEntity
  8
0
100
AcDbLine
 10
371.8793999999999
 20
106.187
 30
0.0
 11
375.1978999999999
 21
106.0899999999999
 31
0.0
  0
LINE
  5
13EF
330
1E
100
AcDbEntity
  8
0
100
AcDbLine
 10
378.5347000000001
 20
106.162
 30
0.0
 11
380.8716000000001
 21
106.4459999999999
 31
0.0
  0
LINE
  5
13F0
330
1E
100
AcDbEntity
  8
0
100
AcDbLine
 10
380.0715000000001
 20
106.0
 30
0.0
 11
381.1873000000001
 21
106.0
 31
0.0
  0
LINE
  5
13F2
330
1E
100
AcDbEntity
  8
0
100
AcDbLine
 10
377.04
 20
106.0
 30
0.0
 11
379.0430000000001
 21
106.0
 31
0.0
  0
LINE
  5
13F3
330
1E
100
AcDbEntity
  8
0
100
AcDbLine
 10
377.7241
 20
106.0
 30
0.0
 11
379.0430000000001
 21
106.0
 31
0.0
  0
LINE
  5
13F4
330
1E
100
AcDbEntity
  8
0
100
AcDbLine
 10
379.0430000000001
 20
106.0
 30
0.0
 11
379.7627000000001
 21
106.0
 31
0.0
  0
LINE
  5
13F5
330
1E
100
AcDbEntity
  8
0
100
AcDbLine
 10
380.0715000000001
 20
106.0
 30
0.0
 11
380.0715000000001
 21
93.89299999999998
 31
0.0
  0
LINE
  5
13F6
330
1E
100
AcDbEntity
  8
0
100
AcDbLine
 10
379.7627000000001
 20
106.0
 30
0.0
 11
380.0715000000001
 21
106.0
 31
0.0
  0
LINE
  5
13F7
330
1E
100
AcDbEntity
  8
0
100
AcDbLine
 10
380.0715000000001
 20
93.89299999999998
 30
0.0
 11
380.0715000000001
 21
106.0
 31
0.0
  0
LINE
  5
13F9
330
1E
100
AcDbEntity
  8
0
100
AcDbLine
 10
381.7768
 20
106.4459999999999
 30
0.0
 11
382.0715000000001
 21
106.4459999999999
 31
0.0
  0
LINE
  5
13FA
330
1E
100
AcDbEntity
  8
0
100
AcDbLine
 10
381.7031
 20
106.0
 30
0.0
 11
382.0715000000001
 21
106.045
 31
0.0
  0
LINE
  5
13FB
330
1E
100
AcDbEntity
  8
0
100
AcDbLine
 10
382.0715000000001
 20
106.8929999999999
 30
0.0
 11
382.0715000000001
 21
106.4459999999999
 31
0.0
  0
LINE
  5
13FC
330
1E
100
AcDbEntity
  8
0
100
AcDbLine
 10
382.0715000000001
 20
106.1069999999999
 30
0.0
 11
382.0715000000001
 21
106.4459999999999
 31
0.0
  0
LINE
  5
13FD
330
1E
100
AcDbEntity
  8
0
100
AcDbLine
 10
382.0715000000001
 20
106.1069999999999
 30
0.0
 11
382.0715000000001
 21
106.045
 31
0.0
  0
LINE
  5
13FE
330
1E
100
AcDbEntity
  8
0
100
AcDbLine
 10
382.0715000000001
 20
106.4459999999999
 30
0.0
 11
382.0715000000001
 21
106.8929999999999
 31
0.0
  0
LINE
  5
13FF
330
1E
100
AcDbEntity
  8
0
100
AcDbLine
 10
382.0715000000001
 20
106.4459999999999
 30
0.0
 11
382.0715000000001
 21
106.1069999999999
 31
0.0
  0
LINE
  5
1400
330
1E
100
AcDbEntity
  8
0
100
AcDbLine
 10
382.0715000000001
 20
106.045
 30
0.0
 11
382.0715000000001
 21
106.1069999999999
 31
0.0
  0
LINE
  5
1402
330
1E
100
AcDbEntity
  8
0
100
AcDbLine
 10
380.8716000000001
 20
106.4459999999999
 30
0.0
 11
381.7768
 21
106.4459999999999
 31
0.0
  0
LINE
  5
1404
330
1E
100
AcDbEntity
  8
0
100
AcDbLine
 10
381.1873000000001
 20
106.0
 30
0.0
 11
381.7031
 21
106.0
 31
0.0
  0
LINE
  5
1405
330
1E
100
AcDbEntity
  8
0
100
AcDbLine
 10
365.2554999999999
 20
93.0
 30
0.0
 11
368.0715000000001
 21
93.0
 31
0.0
  0
LINE
  5
1406
330
1E
100
AcDbEntity
  8
0
100
AcDbLine
 10
364.7434999999999
 20
89.99999999999991
 30
0.0
 11
368.0715000000001
 21
89.99999999999991
 31
0.0
  0
LINE
  5
1407
330
1E
100
AcDbEntity
  8
0
100
AcDbLine
 10
364.8075999999999
 20
93.18700000000001
 30
0.0
 11
366.5884000000001
 21
93.44599999999998
 31
0.0
  0
LINE
  5
1408
330
1E
100
AcDbEntity
  8
0
100
AcDbLine
 10
364.7434999999999
 20
87.0
 30
0.0
 11
368.0715000000001
 21
87.0
 31
0.0
  0
LINE
  5
1409
330
1E
100
AcDbEntity
  8
0
100
AcDbLine
 10
364.7988000000001
 20
87.0
 30
0.0
 11
368.0715000000001
 21
87.0
 31
0.0
  0
LINE
  5
140A
330
1E
100
AcDbEntity
  8
0
100
AcDbLine
 10
364.6351000000001
 20
86.91399999999999
 30
0.0
 11
368.0715000000001
 21
86.964
 31
0.0
  0
LINE
  5
140B
330
1E
100
AcDbEntity
  8
0
100
AcDbLine
 10
364.6351000000001
 20
82.086
 30
0.0
 11
368.0715000000001
 21
82.0359999999999
 31
0.0
  0
LINE
  5
140C
330
1E
100
AcDbEntity
  8
0
100
AcDbLine
 10
363.2074999999999
 20
81.9999999999999
 30
0.0
 11
368.0715000000001
 21
81.9999999999999
 31
0.0
  0
LINE
  5
140D
330
1E
100
AcDbEntity
  8
0
100
AcDbLine
 10
355.0715000000001
 20
89.99999999999991
 30
0.0
 11
355.0715000000001
 21
87.0
 31
0.0
  0
LINE
  5
140E
330
1E
100
AcDbEntity
  8
0
100
AcDbLine
 10
355.0715000000001
 20
87.0
 30
0.0
 11
355.0715000000001
 21
89.99999999999991
 31
0.0
  0
LINE
  5
140F
330
1E
100
AcDbEntity
  8
0
100
AcDbLine
 10
355.5394999999999
 20
87.0
 30
0.0
 11
355.9350999999999
 21
87.0
 31
0.0
  0
LINE
  5
1410
330
1E
100
AcDbEntity
  8
0
100
AcDbLine
 10
355.4579000000001
 20
87.0
 30
0.0
 11
355.9350999999999
 21
87.0
 31
0.0
  0
LINE
  5
1411
330
1E
100
AcDbEntity
  8
0
100
AcDbLine
 10
355.5394999999999
 20
87.0
 30
0.0
 11
356.7875
 21
87.0
 31
0.0
  0
LINE
  5
1412
330
1E
100
AcDbEntity
  8
0
100
AcDbLine
 10
354.7507000000001
 20
86.85099999999989
 30
0.0
 11
356.5652000000001
 21
86.928
 31
0.0
  0
LINE
  5
1413
330
1E
100
AcDbEntity
  8
0
100
AcDbLine
 10
354.6195
 20
81.9999999999999
 30
0.0
 11
358.6475
 21
81.9999999999999
 31
0.0
  0
LINE
  5
1414
330
1E
100
AcDbEntity
  8
0
100
AcDbLine
 10
354.7507000000001
 20
82.149
 30
0.0
 11
356.5652000000001
 21
82.07199999999991
 31
0.0
  0
LINE
  5
1415
330
1E
100
AcDbEntity
  8
0
100
AcDbLine
 10
353.6453
 20
86.64299999999999
 30
0.0
 11
354.7507000000001
 21
86.85099999999989
 31
0.0
  0
LINE
  5
1416
330
1E
100
AcDbEntity
  8
0
100
AcDbLine
 10
353.4124000000001
 20
86.64299999999999
 30
0.0
 11
354.4351000000001
 21
86.89299999999999
 31
0.0
  0
LINE
  5
1417
330
1E
100
AcDbEntity
  8
0
100
AcDbLine
 10
353.1766000000001
 20
86.28599999999989
 30
0.0
 11
353.6453
 21
86.64299999999999
 31
0.0
  0
LINE
  5
1418
330
1E
100
AcDbEntity
  8
0
100
AcDbLine
 10
353.0715000000001
 20
82.71399999999998
 30
0.0
 11
353.0715000000001
 21
86.28599999999989
 31
0.0
  0
LINE
  5
1419
330
1E
100
AcDbEntity
  8
0
100
AcDbLine
 10
353.0715000000001
 20
86.28599999999989
 30
0.0
 11
353.4124000000001
 21
86.64299999999999
 31
0.0
  0
LINE
  5
141A
330
1E
100
AcDbEntity
  8
0
100
AcDbLine
 10
353.0715000000001
 20
86.28599999999989
 30
0.0
 11
353.1766000000001
 21
86.28599999999989
 31
0.0
  0
LINE
  5
141B
330
1E
100
AcDbEntity
  8
0
100
AcDbLine
 10
353.0715000000001
 20
86.28599999999989
 30
0.0
 11
353.0715000000001
 21
82.71399999999998
 31
0.0
  0
LINE
  5
141C
330
1E
100
AcDbEntity
  8
0
100
AcDbLine
 10
355.0715000000001
 20
87.0
 30
0.0
 11
355.5394999999999
 21
87.0
 31
0.0
  0
LINE
  5
141D
330
1E
100
AcDbEntity
  8
0
100
AcDbLine
 10
354.4351000000001
 20
86.89299999999999
 30
0.0
 11
355.4579000000001
 21
87.0
 31
0.0
  0
LINE
  5
141E
330
1E
100
AcDbEntity
  8
0
100
AcDbLine
 10
353.6453
 20
82.35700000000001
 30
0.0
 11
354.7507000000001
 21
82.149
 31
0.0
  0
LINE
  5
141F
330
1E
100
AcDbEntity
  8
0
100
AcDbLine
 10
353.1766000000001
 20
82.71399999999998
 30
0.0
 11
353.6453
 21
82.35700000000001
 31
0.0
  0
LINE
  5
1420
330
1E
100
AcDbEntity
  8
0
100
AcDbLine
 10
353.4124000000001
 20
82.35700000000001
 30
0.0
 11
354.4351000000001
 21
82.107
 31
0.0
  0
LINE
  5
1421
330
1E
100
AcDbEntity
  8
0
100
AcDbLine
 10
353.0715000000001
 20
82.71399999999998
 30
0.0
 11
353.4124000000001
 21
82.35700000000001
 31
0.0
  0
LINE
  5
1422
330
1E
100
AcDbEntity
  8
0
100
AcDbLine
 10
353.0715000000001
 20
82.71399999999998
 30
0.0
 11
353.1766000000001
 21
82.71399999999998
 31
0.0
  0
LINE
  5
1423
330
1E
100
AcDbEntity
  8
0
100
AcDbLine
 10
354.4351000000001
 20
82.107
 30
0.0
 11
355.4579000000001
 21
81.9999999999999
 31
0.0
  0
LINE
  5
1427
330
1E
100
AcDbEntity
  8
0
100
AcDbLine
 10
359.6675
 20
86.64299999999999
 30
0.0
 11
360.776
 21
86.64299999999999
 31
0.0
  0
LINE
  5
1428
330
1E
100
AcDbEntity
  8
0
100
AcDbLine
 10
359.6675
 20
82.35700000000001
 30
0.0
 11
360.776
 21
82.35700000000001
 31
0.0
  0
LINE
  5
1429
330
1E
100
AcDbEntity
  8
0
100
AcDbLine
 10
358.8675
 20
87.0
 30
0.0
 11
361.6234999999999
 21
87.0
 31
0.0
  0
LINE
  5
142A
330
1E
100
AcDbEntity
  8
0
100
AcDbLine
 10
359.1397
 20
87.0
 30
0.0
 11
361.7988
 21
87.0
 31
0.0
  0
LINE
  5
142B
330
1E
100
AcDbEntity
  8
0
100
AcDbLine
 10
358.6475
 20
81.9999999999999
 30
0.0
 11
363.2074999999999
 21
81.9999999999999
 31
0.0
  0
LINE
  5
142C
330
1E
100
AcDbEntity
  8
0
100
AcDbLine
 10
360.5525000000001
 20
82.71399999999998
 30
0.0
 11
360.5525000000001
 21
86.28599999999989
 31
0.0
  0
LINE
  5
142D
330
1E
100
AcDbEntity
  8
0
100
AcDbLine
 10
360.5525000000001
 20
86.28599999999989
 30
0.0
 11
360.5525000000001
 21
82.71399999999998
 31
0.0
  0
LINE
  5
142E
330
1E
100
AcDbEntity
  8
0
100
AcDbLine
 10
356.7875
 20
87.0
 30
0.0
 11
358.8675
 21
87.0
 31
0.0
  0
LINE
  5
142F
330
1E
100
AcDbEntity
  8
0
100
AcDbLine
 10
356.5652000000001
 20
86.928
 30
0.0
 11
358.3897
 21
86.8699999999999
 31
0.0
  0
LINE
  5
1430
330
1E
100
AcDbEntity
  8
0
100
AcDbLine
 10
357.1624000000001
 20
87.0
 30
0.0
 11
359.1397
 21
87.0
 31
0.0
  0
LINE
  5
1431
330
1E
100
AcDbEntity
  8
0
100
AcDbLine
 10
358.3897
 20
86.8699999999999
 30
0.0
 11
359.6675
 21
86.64299999999999
 31
0.0
  0
LINE
  5
1432
330
1E
100
AcDbEntity
  8
0
100
AcDbLine
 10
356.5652000000001
 20
82.07199999999991
 30
0.0
 11
358.3897
 21
82.12999999999999
 31
0.0
  0
LINE
  5
1433
330
1E
100
AcDbEntity
  8
0
100
AcDbLine
 10
358.3897
 20
82.12999999999999
 30
0.0
 11
359.6675
 21
82.35700000000001
 31
0.0
  0
LINE
  5
1434
330
1E
100
AcDbEntity
  8
0
100
AcDbLine
 10
355.9350999999999
 20
87.0
 30
0.0
 11
357.1624000000001
 21
87.0
 31
0.0
  0
LINE
  5
1435
330
1E
100
AcDbEntity
  8
0
100
AcDbLine
 10
361.4513999999999
 20
86.64299999999999
 30
0.0
 11
364.6351000000001
 21
86.91399999999999
 31
0.0
  0
LINE
  5
1436
330
1E
100
AcDbEntity
  8
0
100
AcDbLine
 10
361.6234999999999
 20
87.0
 30
0.0
 11
364.7434999999999
 21
87.0
 31
0.0
  0
LINE
  5
1437
330
1E
100
AcDbEntity
  8
0
100
AcDbLine
 10
361.7988
 20
87.0
 30
0.0
 11
364.7988000000001
 21
87.0
 31
0.0
  0
LINE
  5
1438
330
1E
100
AcDbEntity
  8
0
100
AcDbLine
 10
360.776
 20
86.64299999999999
 30
0.0
 11
361.4513999999999
 21
86.64299999999999
 31
0.0
  0
LINE
  5
1439
330
1E
100
AcDbEntity
  8
0
100
AcDbLine
 10
360.776
 20
82.35700000000001
 30
0.0
 11
364.6351000000001
 21
82.086
 31
0.0
  0
LINE
  5
143A
330
1E
100
AcDbEntity
  8
0
100
AcDbLine
 10
355.5394999999999
 20
89.99999999999991
 30
0.0
 11
356.7875
 21
89.99999999999991
 31
0.0
  0
LINE
  5
143B
330
1E
100
AcDbEntity
  8
0
100
AcDbLine
 10
355.0715000000001
 20
89.99999999999991
 30
0.0
 11
355.5394999999999
 21
89.99999999999991
 31
0.0
  0
LINE
  5
143C
330
1E
100
AcDbEntity
  8
0
100
AcDbLine
 10
359.1031
 20
93.16199999999991
 30
0.0
 11
361.9631000000001
 21
93.0899999999999
 31
0.0
  0
LINE
  5
143D
330
1E
100
AcDbEntity
  8
0
100
AcDbLine
 10
360.2835000000001
 20
93.0
 30
0.0
 11
362.6155000000001
 21
93.0
 31
0.0
  0
LINE
  5
143E
330
1E
100
AcDbEntity
  8
0
100
AcDbLine
 10
358.8675
 20
89.99999999999991
 30
0.0
 11
361.6234999999999
 21
89.99999999999991
 31
0.0
  0
LINE
  5
143F
330
1E
100
AcDbEntity
  8
0
100
AcDbLine
 10
356.3241
 20
93.44599999999998
 30
0.0
 11
357.1000000000001
 21
93.44599999999998
 31
0.0
  0
LINE
  5
1440
330
1E
100
AcDbEntity
  8
0
100
AcDbLine
 10
356.3873
 20
93.0
 30
0.0
 11
356.8294
 21
93.0
 31
0.0
  0
LINE
  5
1441
330
1E
100
AcDbEntity
  8
0
100
AcDbLine
 10
356.0715000000001
 20
93.44599999999998
 30
0.0
 11
356.0715000000001
 21
93.89299999999998
 31
0.0
  0
LINE
  5
1442
330
1E
100
AcDbEntity
  8
0
100
AcDbLine
 10
356.0715000000001
 20
93.44599999999998
 30
0.0
 11
356.3241
 21
93.44599999999998
 31
0.0
  0
LINE
  5
1443
330
1E
100
AcDbEntity
  8
0
100
AcDbLine
 10
356.0715000000001
 20
93.44599999999998
 30
0.0
 11
356.0715000000001
 21
93.10699999999988
 31
0.0
  0
LINE
  5
1444
330
1E
100
AcDbEntity
  8
0
100
AcDbLine
 10
356.0715000000001
 20
93.89299999999998
 30
0.0
 11
356.0715000000001
 21
93.44599999999998
 31
0.0
  0
LINE
  5
1445
330
1E
100
AcDbEntity
  8
0
100
AcDbLine
 10
356.0715000000001
 20
93.10699999999988
 30
0.0
 11
356.0715000000001
 21
93.44599999999998
 31
0.0
  0
LINE
  5
1446
330
1E
100
AcDbEntity
  8
0
100
AcDbLine
 10
356.0715000000001
 20
93.10699999999988
 30
0.0
 11
356.0715000000001
 21
93.045
 31
0.0
  0
LINE
  5
1447
330
1E
100
AcDbEntity
  8
0
100
AcDbLine
 10
356.0715000000001
 20
93.045
 30
0.0
 11
356.3873
 21
93.0
 31
0.0
  0
LINE
  5
1448
330
1E
100
AcDbEntity
  8
0
100
AcDbLine
 10
356.0715000000001
 20
93.045
 30
0.0
 11
356.0715000000001
 21
93.10699999999988
 31
0.0
  0
LINE
  5
1449
330
1E
100
AcDbEntity
  8
0
100
AcDbLine
 10
357.1000000000001
 20
93.44599999999998
 30
0.0
 11
359.1031
 21
93.16199999999991
 31
0.0
  0
LINE
  5
144A
330
1E
100
AcDbEntity
  8
0
100
AcDbLine
 10
357.4674999999999
 20
93.0
 30
0.0
 11
358.5235000000001
 21
93.0
 31
0.0
  0
LINE
  5
144B
330
1E
100
AcDbEntity
  8
0
100
AcDbLine
 10
356.7875
 20
89.99999999999991
 30
0.0
 11
358.8675
 21
89.99999999999991
 31
0.0
  0
LINE
  5
144C
330
1E
100
AcDbEntity
  8
0
100
AcDbLine
 10
357.0715000000001
 20
93.0
 30
0.0
 11
357.0715000000001
 21
89.99999999999991
 31
0.0
  0
LINE
  5
144D
330
1E
100
AcDbEntity
  8
0
100
AcDbLine
 10
357.0715000000001
 20
93.0
 30
0.0
 11
357.4674999999999
 21
93.0
 31
0.0
  0
LINE
  5
144E
330
1E
100
AcDbEntity
  8
0
100
AcDbLine
 10
356.8294
 20
93.0
 30
0.0
 11
357.0715000000001
 21
93.0
 31
0.0
  0
LINE
  5
144F
330
1E
100
AcDbEntity
  8
0
100
AcDbLine
 10
357.0715000000001
 20
89.99999999999991
 30
0.0
 11
357.0715000000001
 21
93.0
 31
0.0
  0
LINE
  5
1450
330
1E
100
AcDbEntity
  8
0
100
AcDbLine
 10
358.5235000000001
 20
93.0
 30
0.0
 11
360.2835000000001
 21
93.0
 31
0.0
  0
LINE
  5
1451
330
1E
100
AcDbEntity
  8
0
100
AcDbLine
 10
361.9631000000001
 20
93.0899999999999
 30
0.0
 11
364.8075999999999
 21
93.18700000000001
 31
0.0
  0
LINE
  5
1452
330
1E
100
AcDbEntity
  8
0
100
AcDbLine
 10
362.6155000000001
 20
93.0
 30
0.0
 11
365.2554999999999
 21
93.0
 31
0.0
  0
LINE
  5
1453
330
1E
100
AcDbEntity
  8
0
100
AcDbLine
 10
361.6234999999999
 20
89.99999999999991
 30
0.0
 11
364.7434999999999
 21
89.99999999999991
 31
0.0
  0
LINE
  5
1454
330
1E
100
AcDbEntity
  8
0
100
AcDbLine
 10
381.0715000000001
 20
89.99999999999991
 30
0.0
 11
381.0715000000001
 21
87.0
 31
0.0
  0
LINE
  5
1455
330
1E
100
AcDbEntity
  8
0
100
AcDbLine
 10
381.0715000000001
 20
87.0
 30
0.0
 11
381.0715000000001
 21
89.99999999999991
 31
0.0
  0
LINE
  5
1456
330
1E
100
AcDbEntity
  8
0
100
AcDbLine
 10
374.5195000000001
 20
87.0
 30
0.0
 11
377.2755
 21
87.0
 31
0.0
  0
LINE
  5
1457
330
1E
100
AcDbEntity
  8
0
100
AcDbLine
 10
374.3441999999999
 20
87.0
 30
0.0
 11
377.0033000000001
 21
87.0
 31
0.0
  0
LINE
  5
1458
330
1E
100
AcDbEntity
  8
0
100
AcDbLine
 10
375.5905
 20
86.28599999999989
 30
0.0
 11
376.4755000000001
 21
86.64299999999999
 31
0.0
  0
LINE
  5
1459
330
1E
100
AcDbEntity
  8
0
100
AcDbLine
 10
372.9355000000001
 20
81.9999999999999
 30
0.0
 11
377.4955000000001
 21
81.9999999999999
 31
0.0
  0
LINE
  5
145A
330
1E
100
AcDbEntity
  8
0
100
AcDbLine
 10
375.5905
 20
82.71399999999998
 30
0.0
 11
376.4755000000001
 21
82.35700000000001
 31
0.0
  0
LINE
  5
145B
330
1E
100
AcDbEntity
  8
0
100
AcDbLine
 10
368.0715000000001
 20
87.0
 30
0.0
 11
371.3442000000001
 21
87.0
 31
0.0
  0
LINE
  5
145C
330
1E
100
AcDbEntity
  8
0
100
AcDbLine
 10
368.0715000000001
 20
87.0
 30
0.0
 11
371.3995000000001
 21
87.0
 31
0.0
  0
LINE
  5
145D
330
1E
100
AcDbEntity
  8
0
100
AcDbLine
 10
368.0715000000001
 20
86.964
 30
0.0
 11
371.5079
 21
86.91399999999999
 31
0.0
  0
LINE
  5
145E
330
1E
100
AcDbEntity
  8
0
100
AcDbLine
 10
368.0715000000001
 20
81.9999999999999
 30
0.0
 11
372.9355000000001
 21
81.9999999999999
 31
0.0
  0
LINE
  5
145F
330
1E
100
AcDbEntity
  8
0
100
AcDbLine
 10
368.0715000000001
 20
82.0359999999999
 30
0.0
 11
371.5079
 21
82.086
 31
0.0
  0
LINE
  5
1460
330
1E
100
AcDbEntity
  8
0
100
AcDbLine
 10
371.3995000000001
 20
87.0
 30
0.0
 11
374.5195000000001
 21
87.0
 31
0.0
  0
LINE
  5
1461
330
1E
100
AcDbEntity
  8
0
100
AcDbLine
 10
371.5079
 20
86.91399999999999
 30
0.0
 11
374.6916000000001
 21
86.64299999999999
 31
0.0
  0
LINE
  5
1462
330
1E
100
AcDbEntity
  8
0
100
AcDbLine
 10
371.3442000000001
 20
87.0
 30
0.0
 11
374.3441999999999
 21
87.0
 31
0.0
  0
LINE
  5
1463
330
1E
100
AcDbEntity
  8
0
100
AcDbLine
 10
375.5905
 20
86.28599999999989
 30
0.0
 11
375.5905
 21
82.71399999999998
 31
0.0
  0
LINE
  5
1464
330
1E
100
AcDbEntity
  8
0
100
AcDbLine
 10
375.5905
 20
82.71399999999998
 30
0.0
 11
375.5905
 21
86.28599999999989
 31
0.0
  0
LINE
  5
1465
330
1E
100
AcDbEntity
  8
0
100
AcDbLine
 10
374.6916000000001
 20
86.64299999999999
 30
0.0
 11
375.5905
 21
86.28599999999989
 31
0.0
  0
LINE
  5
1466
330
1E
100
AcDbEntity
  8
0
100
AcDbLine
 10
371.5079
 20
82.086
 30
0.0
 11
374.6916000000001
 21
82.35700000000001
 31
0.0
  0
LINE
  5
1467
330
1E
100
AcDbEntity
  8
0
100
AcDbLine
 10
375.5905
 20
82.71399999999998
 30
0.0
 11
375.5905
 21
82.71399999999998
 31
0.0
  0
LINE
  5
1468
330
1E
100
AcDbEntity
  8
0
100
AcDbLine
 10
374.6916000000001
 20
82.35700000000001
 30
0.0
 11
375.5905
 21
82.71399999999998
 31
0.0
  0
LINE
  5
1469
330
1E
100
AcDbEntity
  8
0
100
AcDbLine
 10
380.6035000000001
 20
87.0
 30
0.0
 11
381.0715000000001
 21
87.0
 31
0.0
  0
LINE
  5
146A
330
1E
100
AcDbEntity
  8
0
100
AcDbLine
 10
380.6850999999999
 20
87.0
 30
0.0
 11
381.7079000000001
 21
86.89299999999999
 31
0.0
  0
LINE
  5
146B
330
1E
100
AcDbEntity
  8
0
100
AcDbLine
 10
379.5778
 20
86.928
 30
0.0
 11
381.3922999999999
 21
86.85099999999989
 31
0.0
  0
LINE
  5
146C
330
1E
100
AcDbEntity
  8
0
100
AcDbLine
 10
380.6850999999999
 20
81.9999999999999
 30
0.0
 11
381.7079000000001
 21
82.107
 31
0.0
  0
LINE
  5
146D
330
1E
100
AcDbEntity
  8
0
100
AcDbLine
 10
377.4955000000001
 20
81.9999999999999
 30
0.0
 11
381.5235000000001
 21
81.9999999999999
 31
0.0
  0
LINE
  5
146E
330
1E
100
AcDbEntity
  8
0
100
AcDbLine
 10
379.5778
 20
82.07199999999991
 30
0.0
 11
381.3922999999999
 21
82.149
 31
0.0
  0
LINE
  5
146F
330
1E
100
AcDbEntity
  8
0
100
AcDbLine
 10
376.4755000000001
 20
86.64299999999999
 30
0.0
 11
377.7533
 21
86.8699999999999
 31
0.0
  0
LINE
  5
1470
330
1E
100
AcDbEntity
  8
0
100
AcDbLine
 10
377.2755
 20
87.0
 30
0.0
 11
379.3555000000001
 21
87.0
 31
0.0
  0
LINE
  5
1471
330
1E
100
AcDbEntity
  8
0
100
AcDbLine
 10
377.7533
 20
86.8699999999999
 30
0.0
 11
379.5778
 21
86.928
 31
0.0
  0
LINE
  5
1472
330
1E
100
AcDbEntity
  8
0
100
AcDbLine
 10
377.0033000000001
 20
87.0
 30
0.0
 11
378.9806
 21
87.0
 31
0.0
  0
LINE
  5
1473
330
1E
100
AcDbEntity
  8
0
100
AcDbLine
 10
378.9806
 20
87.0
 30
0.0
 11
380.2079000000001
 21
87.0
 31
0.0
  0
LINE
  5
1474
330
1E
100
AcDbEntity
  8
0
100
AcDbLine
 10
380.2079000000001
 20
87.0
 30
0.0
 11
380.6850999999999
 21
87.0
 31
0.0
  0
LINE
  5
1475
330
1E
100
AcDbEntity
  8
0
100
AcDbLine
 10
380.2079000000001
 20
87.0
 30
0.0
 11
380.6035000000001
 21
87.0
 31
0.0
  0
LINE
  5
1476
330
1E
100
AcDbEntity
  8
0
100
AcDbLine
 10
379.3555000000001
 20
87.0
 30
0.0
 11
380.6035000000001
 21
87.0
 31
0.0
  0
LINE
  5
1477
330
1E
100
AcDbEntity
  8
0
100
AcDbLine
 10
376.4755000000001
 20
82.35700000000001
 30
0.0
 11
377.7533
 21
82.12999999999999
 31
0.0
  0
LINE
  5
1478
330
1E
100
AcDbEntity
  8
0
100
AcDbLine
 10
377.7533
 20
82.12999999999999
 30
0.0
 11
379.5778
 21
82.07199999999991
 31
0.0
  0
LINE
  5
1479
330
1E
100
AcDbEntity
  8
0
100
AcDbLine
 10
381.7079000000001
 20
86.89299999999999
 30
0.0
 11
382.7306
 21
86.64299999999999
 31
0.0
  0
LINE
  5
147A
330
1E
100
AcDbEntity
  8
0
100
AcDbLine
 10
381.3922999999999
 20
86.85099999999989
 30
0.0
 11
382.4977000000001
 21
86.64299999999999
 31
0.0
  0
LINE
  5
147B
330
1E
100
AcDbEntity
  8
0
100
AcDbLine
 10
382.4977000000001
 20
86.64299999999999
 30
0.0
 11
382.9664000000001
 21
86.28599999999989
 31
0.0
  0
LINE
  5
147C
330
1E
100
AcDbEntity
  8
0
100
AcDbLine
 10
382.7306
 20
86.64299999999999
 30
0.0
 11
383.0715000000001
 21
86.28599999999989
 31
0.0
  0
LINE
  5
147D
330
1E
100
AcDbEntity
  8
0
100
AcDbLine
 10
382.9664000000001
 20
86.28599999999989
 30
0.0
 11
383.0715000000001
 21
86.28599999999989
 31
0.0
  0
LINE
  5
147E
330
1E
100
AcDbEntity
  8
0
100
AcDbLine
 10
383.0715000000001
 20
82.71399999999998
 30
0.0
 11
383.0715000000001
 21
86.28599999999989
 31
0.0
  0
LINE
  5
147F
330
1E
100
AcDbEntity
  8
0
100
AcDbLine
 10
383.0715000000001
 20
86.28599999999989
 30
0.0
 11
383.0715000000001
 21
82.71399999999998
 31
0.0
  0
LINE
  5
1480
330
1E
100
AcDbEntity
  8
0
100
AcDbLine
 10
381.3922999999999
 20
82.149
 30
0.0
 11
382.4977000000001
 21
82.35700000000001
 31
0.0
  0
LINE
  5
1481
330
1E
100
AcDbEntity
  8
0
100
AcDbLine
 10
381.7079000000001
 20
82.107
 30
0.0
 11
382.7306
 21
82.35700000000001
 31
0.0
  0
LINE
  5
1482
330
1E
100
AcDbEntity
  8
0
100
AcDbLine
 10
382.4977000000001
 20
82.35700000000001
 30
0.0
 11
382.9664000000001
 21
82.71399999999998
 31
0.0
  0
LINE
  5
1483
330
1E
100
AcDbEntity
  8
0
100
AcDbLine
 10
382.9664000000001
 20
82.71399999999998
 30
0.0
 11
383.0715000000001
 21
82.71399999999998
 31
0.0
  0
LINE
  5
1484
330
1E
100
AcDbEntity
  8
0
100
AcDbLine
 10
382.7306
 20
82.35700000000001
 30
0.0
 11
383.0715000000001
 21
82.71399999999998
 31
0.0
  0
LINE
  5
1489
330
1E
100
AcDbEntity
  8
0
100
AcDbLine
 10
373.5275000000001
 20
93.0
 30
0.0
 11
375.8595000000001
 21
93.0
 31
0.0
  0
LINE
  5
148A
330
1E
100
AcDbEntity
  8
0
100
AcDbLine
 10
374.1798000000001
 20
93.0899999999999
 30
0.0
 11
377.04
 21
93.16199999999991
 31
0.0
  0
LINE
  5
148B
330
1E
100
AcDbEntity
  8
0
100
AcDbLine
 10
374.5195000000001
 20
89.99999999999991
 30
0.0
 11
377.2755
 21
89.99999999999991
 31
0.0
  0
LINE
  5
148C
330
1E
100
AcDbEntity
  8
0
100
AcDbLine
 10
368.0715000000001
 20
93.0
 30
0.0
 11
371.103
 21
93.0
 31
0.0
  0
LINE
  5
148D
330
1E
100
AcDbEntity
  8
0
100
AcDbLine
 10
368.0715000000001
 20
93.0
 30
0.0
 11
370.8875000000001
 21
93.0
 31
0.0
  0
LINE
  5
148E
330
1E
100
AcDbEntity
  8
0
100
AcDbLine
 10
369.5546000000001
 20
93.44599999999998
 30
0.0
 11
371.3354000000001
 21
93.18700000000001
 31
0.0
  0
LINE
  5
148F
330
1E
100
AcDbEntity
  8
0
100
AcDbLine
 10
368.0715000000001
 20
89.99999999999991
 30
0.0
 11
371.3995000000001
 21
89.99999999999991
 31
0.0
  0
LINE
  5
1490
330
1E
100
AcDbEntity
  8
0
100
AcDbLine
 10
366.5884000000001
 20
93.44599999999998
 30
0.0
 11
368.0715000000001
 21
93.44599999999998
 31
0.0
  0
LINE
  5
1491
330
1E
100
AcDbEntity
  8
0
100
AcDbLine
 10
368.0715000000001
 20
93.44599999999998
 30
0.0
 11
369.5546000000001
 21
93.44599999999998
 31
0.0
  0
LINE
  5
1492
330
1E
100
AcDbEntity
  8
0
100
AcDbLine
 10
371.3354000000001
 20
93.18700000000001
 30
0.0
 11
374.1798000000001
 21
93.0899999999999
 31
0.0
  0
LINE
  5
1493
330
1E
100
AcDbEntity
  8
0
100
AcDbLine
 10
371.3995000000001
 20
89.99999999999991
 30
0.0
 11
374.5195000000001
 21
89.99999999999991
 31
0.0
  0
LINE
  5
1494
330
1E
100
AcDbEntity
  8
0
100
AcDbLine
 10
370.8875000000001
 20
93.0
 30
0.0
 11
373.5275000000001
 21
93.0
 31
0.0
  0
LINE
  5
1495
330
1E
100
AcDbEntity
  8
0
100
AcDbLine
 10
371.103
 20
93.0
 30
0.0
 11
373.882
 21
93.0
 31
0.0
  0
LINE
  5
1496
330
1E
100
AcDbEntity
  8
0
100
AcDbLine
 10
380.6035000000001
 20
89.99999999999991
 30
0.0
 11
381.0715000000001
 21
89.99999999999991
 31
0.0
  0
LINE
  5
1497
330
1E
100
AcDbEntity
  8
0
100
AcDbLine
 10
377.04
 20
93.16199999999991
 30
0.0
 11
379.0430000000001
 21
93.44599999999998
 31
0.0
  0
LINE
  5
1498
330
1E
100
AcDbEntity
  8
0
100
AcDbLine
 10
377.6195
 20
93.0
 30
0.0
 11
378.6755000000001
 21
93.0
 31
0.0
  0
LINE
  5
1499
330
1E
100
AcDbEntity
  8
0
100
AcDbLine
 10
377.2755
 20
89.99999999999991
 30
0.0
 11
379.3555000000001
 21
89.99999999999991
 31
0.0
  0
LINE
  5
149A
330
1E
100
AcDbEntity
  8
0
100
AcDbLine
 10
380.0715000000001
 20
93.89299999999998
 30
0.0
 11
380.0715000000001
 21
93.44599999999998
 31
0.0
  0
LINE
  5
149B
330
1E
100
AcDbEntity
  8
0
100
AcDbLine
 10
379.0430000000001
 20
93.44599999999998
 30
0.0
 11
379.8189000000001
 21
93.44599999999998
 31
0.0
  0
LINE
  5
149C
330
1E
100
AcDbEntity
  8
0
100
AcDbLine
 10
380.0715000000001
 20
93.44599999999998
 30
0.0
 11
380.0715000000001
 21
93.10699999999988
 31
0.0
  0
LINE
  5
149D
330
1E
100
AcDbEntity
  8
0
100
AcDbLine
 10
380.0715000000001
 20
93.44599999999998
 30
0.0
 11
380.0715000000001
 21
93.89299999999998
 31
0.0
  0
LINE
  5
149E
330
1E
100
AcDbEntity
  8
0
100
AcDbLine
 10
379.8189000000001
 20
93.44599999999998
 30
0.0
 11
380.0715000000001
 21
93.44599999999998
 31
0.0
  0
LINE
  5
149F
330
1E
100
AcDbEntity
  8
0
100
AcDbLine
 10
380.0715000000001
 20
93.10699999999988
 30
0.0
 11
380.0715000000001
 21
93.44599999999998
 31
0.0
  0
LINE
  5
14A0
330
1E
100
AcDbEntity
  8
0
100
AcDbLine
 10
380.0715000000001
 20
93.10699999999988
 30
0.0
 11
380.0715000000001
 21
93.045
 31
0.0
  0
LINE
  5
14A1
330
1E
100
AcDbEntity
  8
0
100
AcDbLine
 10
380.0715000000001
 20
93.045
 30
0.0
 11
380.0715000000001
 21
93.10699999999988
 31
0.0
  0
LINE
  5
14A2
330
1E
100
AcDbEntity
  8
0
100
AcDbLine
 10
379.0715000000001
 20
93.0
 30
0.0
 11
379.3136
 21
93.0
 31
0.0
  0
LINE
  5
14A3
330
1E
100
AcDbEntity
  8
0
100
AcDbLine
 10
379.0715000000001
 20
93.0
 30
0.0
 11
379.0715000000001
 21
89.99999999999991
 31
0.0
  0
LINE
  5
14A4
330
1E
100
AcDbEntity
  8
0
100
AcDbLine
 10
378.6755000000001
 20
93.0
 30
0.0
 11
379.0715000000001
 21
93.0
 31
0.0
  0
LINE
  5
14A5
330
1E
100
AcDbEntity
  8
0
100
AcDbLine
 10
378.1768
 20
93.0
 30
0.0
 11
379.3136
 21
93.0
 31
0.0
  0
LINE
  5
14A6
330
1E
100
AcDbEntity
  8
0
100
AcDbLine
 10
379.7557000000001
 20
93.0
 30
0.0
 11
380.0715000000001
 21
93.045
 31
0.0
  0
LINE
  5
14A7
330
1E
100
AcDbEntity
  8
0
100
AcDbLine
 10
379.3136
 20
93.0
 30
0.0
 11
379.7557000000001
 21
93.0
 31
0.0
  0
LINE
  5
14A8
330
1E
100
AcDbEntity
  8
0
100
AcDbLine
 10
379.0715000000001
 20
89.99999999999991
 30
0.0
 11
379.0715000000001
 21
93.0
 31
0.0
  0
LINE
  5
14A9
330
1E
100
AcDbEntity
  8
0
100
AcDbLine
 10
379.3555000000001
 20
89.99999999999991
 30
0.0
 11
380.6035000000001
 21
89.99999999999991
 31
0.0
  0
LINE
  5
14AA
330
1E
100
AcDbEntity
  8
0
100
AcDbLine
 10
375.8595000000001
 20
93.0
 30
0.0
 11
377.6195
 21
93.0
 31
0.0
  0
LINE
  5
14AB
330
1E
100
AcDbEntity
  8
0
100
AcDbLine
 10
382.0715000000001
 20
108.0
 30
0.0
 11
382.0715000000001
 21
106.8929999999999
 31
0.0
  0
LINE
  5
14AC
330
1E
100
AcDbEntity
  8
0
100
AcDbLine
 10
354.0715000000001
 20
106.8929999999999
 30
0.0
 11
354.0715000000001
 21
108.0
 31
0.0
  0
LINE
  5
14AD
330
1E
100
AcDbEntity
  8
0
100
AcDbLine
 10
426.0715000000001
 20
106.0
 30
0.0
 11
427.1873000000001
 21
106.0
 31
0.0
  0
LINE
  5
14AE
330
1E
100
AcDbEntity
  8
0
100
AcDbLine
 10
424.5346999999999
 20
106.162
 30
0.0
 11
426.8716000000001
 21
106.4459999999999
 31
0.0
  0
LINE
  5
14AF
330
1E
100
AcDbEntity
  8
0
100
AcDbLine
 10
404.4189000000001
 20
106.0
 30
0.0
 11
407.2925
 21
106.0
 31
0.0
  0
LINE
  5
14B0
330
1E
100
AcDbEntity
  8
0
100
AcDbLine
 10
405.1031
 20
106.0
 30
0.0
 11
407.9631
 21
106.0
 31
0.0
  0
LINE
  5
14B1
330
1E
100
AcDbEntity
  8
0
100
AcDbLine
 10
403.6083000000001
 20
106.162
 30
0.0
 11
406.9450999999999
 21
106.0899999999999
 31
0.0
  0
LINE
  5
14B2
330
1E
100
AcDbEntity
  8
0
100
AcDbLine
 10
400.0715000000001
 20
106.8929999999999
 30
0.0
 11
401.2714
 21
106.4459999999999
 31
0.0
  0
LINE
  5
14B3
330
1E
100
AcDbEntity
  8
0
100
AcDbLine
 10
400.9557
 20
106.0
 30
0.0
 11
402.0715
 21
106.0
 31
0.0
  0
LINE
  5
14B4
330
1E
100
AcDbEntity
  8
0
100
AcDbLine
 10
400.0715000000001
 20
106.8929999999999
 30
0.0
 11
400.0715000000001
 21
108.0
 31
0.0
  0
LINE
  5
14B5
330
1E
100
AcDbEntity
  8
0
100
AcDbLine
 10
400.4399000000001
 20
106.0
 30
0.0
 11
400.9557
 21
106.0
 31
0.0
  0
LINE
  5
14B6
330
1E
100
AcDbEntity
  8
0
100
AcDbLine
 10
400.0715000000001
 20
106.045
 30
0.0
 11
400.0715000000001
 21
106.1069999999999
 31
0.0
  0
LINE
  5
14B7
330
1E
100
AcDbEntity
  8
0
100
AcDbLine
 10
400.0715000000001
 20
106.045
 30
0.0
 11
400.4399000000001
 21
106.0
 31
0.0
  0
LINE
  5
14B8
330
1E
100
AcDbEntity
  8
0
100
AcDbLine
 10
400.0715000000001
 20
106.4459999999999
 30
0.0
 11
400.0715000000001
 21
106.8929999999999
 31
0.0
  0
LINE
  5
14B9
330
1E
100
AcDbEntity
  8
0
100
AcDbLine
 10
400.0715000000001
 20
106.4459999999999
 30
0.0
 11
400.0715000000001
 21
106.1069999999999
 31
0.0
  0
LINE
  5
14BA
330
1E
100
AcDbEntity
  8
0
100
AcDbLine
 10
400.0715000000001
 20
106.1069999999999
 30
0.0
 11
400.0715000000001
 21
106.4459999999999
 31
0.0
  0
LINE
  5
14BB
330
1E
100
AcDbEntity
  8
0
100
AcDbLine
 10
400.0715000000001
 20
106.1069999999999
 30
0.0
 11
400.0715000000001
 21
106.045
 31
0.0
  0
LINE
  5
14BC
330
1E
100
AcDbEntity
  8
0
100
AcDbLine
 10
400.0715000000001
 20
106.8929999999999
 30
0.0
 11
400.0715000000001
 21
106.4459999999999
 31
0.0
  0
LINE
  5
14BD
330
1E
100
AcDbEntity
  8
0
100
AcDbLine
 10
403.1
 20
106.0
 30
0.0
 11
405.1031
 21
106.0
 31
0.0
  0
LINE
  5
14BE
330
1E
100
AcDbEntity
  8
0
100
AcDbLine
 10
402.0715
 20
93.89299999999998
 30
0.0
 11
402.0715
 21
106.0
 31
0.0
  0
LINE
  5
14BF
330
1E
100
AcDbEntity
  8
0
100
AcDbLine
 10
402.0715
 20
106.0
 30
0.0
 11
402.0715
 21
93.89299999999998
 31
0.0
  0
LINE
  5
14C0
330
1E
100
AcDbEntity
  8
0
100
AcDbLine
 10
402.0715
 20
106.0
 30
0.0
 11
402.3803
 21
106.0
 31
0.0
  0
LINE
  5
14C1
330
1E
100
AcDbEntity
  8
0
100
AcDbLine
 10
402.3803
 20
106.0
 30
0.0
 11
403.1
 21
106.0
 31
0.0
  0
LINE
  5
14C2
330
1E
100
AcDbEntity
  8
0
100
AcDbLine
 10
401.2714
 20
106.4459999999999
 30
0.0
 11
403.6083000000001
 21
106.162
 31
0.0
  0
LINE
  5
14C3
330
1E
100
AcDbEntity
  8
0
100
AcDbLine
 10
415.5546000000001
 20
106.0
 30
0.0
 11
417.3354000000001
 21
106.0
 31
0.0
  0
LINE
  5
14C4
330
1E
100
AcDbEntity
  8
0
100
AcDbLine
 10
415.5546000000001
 20
106.0
 30
0.0
 11
417.6083000000001
 21
106.0
 31
0.0
  0
LINE
  5
14C5
330
1E
100
AcDbEntity
  8
0
100
AcDbLine
 10
415.8018000000001
 20
106.4459999999999
 30
0.0
 11
417.8793999999999
 21
106.187
 31
0.0
  0
LINE
  5
14C6
330
1E
100
AcDbEntity
  8
0
100
AcDbLine
 10
410.8076000000001
 20
106.0
 30
0.0
 11
412.5884
 21
106.0
 31
0.0
  0
LINE
  5
14C7
330
1E
100
AcDbEntity
  8
0
100
AcDbLine
 10
410.2636000000001
 20
106.187
 30
0.0
 11
412.3412
 21
106.4459999999999
 31
0.0
  0
LINE
  5
14C8
330
1E
100
AcDbEntity
  8
0
100
AcDbLine
 10
406.9450999999999
 20
106.0899999999999
 30
0.0
 11
410.2636000000001
 21
106.187
 31
0.0
  0
LINE
  5
14C9
330
1E
100
AcDbEntity
  8
0
100
AcDbLine
 10
407.9631
 20
106.0
 30
0.0
 11
410.8076000000001
 21
106.0
 31
0.0
  0
LINE
  5
14CA
330
1E
100
AcDbEntity
  8
0
100
AcDbLine
 10
414.0715000000001
 20
106.0
 30
0.0
 11
414.7653
 21
106.0
 31
0.0
  0
LINE
  5
14CB
330
1E
100
AcDbEntity
  8
0
100
AcDbLine
 10
414.7653
 20
106.0
 30
0.0
 11
415.5546000000001
 21
106.0
 31
0.0
  0
LINE
  5
14CC
330
1E
100
AcDbEntity
  8
0
100
AcDbLine
 10
414.0715000000001
 20
106.4459999999999
 30
0.0
 11
415.8018000000001
 21
106.4459999999999
 31
0.0
  0
LINE
  5
14CD
330
1E
100
AcDbEntity
  8
0
100
AcDbLine
 10
413.3777000000001
 20
106.0
 30
0.0
 11
414.0715000000001
 21
106.0
 31
0.0
  0
LINE
  5
14CE
330
1E
100
AcDbEntity
  8
0
100
AcDbLine
 10
412.5884
 20
106.0
 30
0.0
 11
413.3777000000001
 21
106.0
 31
0.0
  0
LINE
  5
14CF
330
1E
100
AcDbEntity
  8
0
100
AcDbLine
 10
412.3412
 20
106.4459999999999
 30
0.0
 11
414.0715000000001
 21
106.4459999999999
 31
0.0
  0
LINE
  5
14D0
330
1E
100
AcDbEntity
  8
0
100
AcDbLine
 10
420.1798000000001
 20
106.0
 30
0.0
 11
423.0400000000001
 21
106.0
 31
0.0
  0
LINE
  5
14D1
330
1E
100
AcDbEntity
  8
0
100
AcDbLine
 10
421.1979
 20
106.0899999999999
 30
0.0
 11
424.5346999999999
 21
106.162
 31
0.0
  0
LINE
  5
14D2
330
1E
100
AcDbEntity
  8
0
100
AcDbLine
 10
417.8793999999999
 20
106.187
 30
0.0
 11
421.1979
 21
106.0899999999999
 31
0.0
  0
LINE
  5
14D3
330
1E
100
AcDbEntity
  8
0
100
AcDbLine
 10
417.6083000000001
 20
106.0
 30
0.0
 11
420.8504000000001
 21
106.0
 31
0.0
  0
LINE
  5
14D4
330
1E
100
AcDbEntity
  8
0
100
AcDbLine
 10
417.3354000000001
 20
106.0
 30
0.0
 11
420.1798000000001
 21
106.0
 31
0.0
  0
LINE
  5
14D5
330
1E
100
AcDbEntity
  8
0
100
AcDbLine
 10
426.0715000000001
 20
93.89299999999998
 30
0.0
 11
426.0715000000001
 21
106.0
 31
0.0
  0
LINE
  5
14D6
330
1E
100
AcDbEntity
  8
0
100
AcDbLine
 10
425.7627000000001
 20
106.0
 30
0.0
 11
426.0715000000001
 21
106.0
 31
0.0
  0
LINE
  5
14D7
330
1E
100
AcDbEntity
  8
0
100
AcDbLine
 10
426.0715000000001
 20
106.0
 30
0.0
 11
426.0715000000001
 21
93.89299999999998
 31
0.0
  0
LINE
  5
14D8
330
1E
100
AcDbEntity
  8
0
100
AcDbLine
 10
425.0430000000001
 20
106.0
 30
0.0
 11
425.7627000000001
 21
106.0
 31
0.0
  0
LINE
  5
14D9
330
1E
100
AcDbEntity
  8
0
100
AcDbLine
 10
423.7241
 20
106.0
 30
0.0
 11
425.0430000000001
 21
106.0
 31
0.0
  0
LINE
  5
14DA
330
1E
100
AcDbEntity
  8
0
100
AcDbLine
 10
423.0400000000001
 20
106.0
 30
0.0
 11
425.0430000000001
 21
106.0
 31
0.0
  0
LINE
  5
14DB
330
1E
100
AcDbEntity
  8
0
100
AcDbLine
 10
428.0715000000001
 20
108.0
 30
0.0
 11
428.0715000000001
 21
106.8929999999999
 31
0.0
  0
LINE
  5
14DC
330
1E
100
AcDbEntity
  8
0
100
AcDbLine
 10
427.1873000000001
 20
106.0
 30
0.0
 11
427.7031
 21
106.0
 31
0.0
  0
LINE
  5
14DE
330
1E
100
AcDbEntity
  8
0
100
AcDbLine
 10
426.8716000000001
 20
106.4459999999999
 30
0.0
 11
427.7768
 21
106.4459999999999
 31
0.0
  0
LINE
  5
14E0
330
1E
100
AcDbEntity
  8
0
100
AcDbLine
 10
428.0715000000001
 20
106.045
 30
0.0
 11
428.0715000000001
 21
106.1069999999999
 31
0.0
  0
LINE
  5
14E1
330
1E
100
AcDbEntity
  8
0
100
AcDbLine
 10
428.0715000000001
 20
106.4459999999999
 30
0.0
 11
428.0715000000001
 21
106.1069999999999
 31
0.0
  0
LINE
  5
14E2
330
1E
100
AcDbEntity
  8
0
100
AcDbLine
 10
428.0715000000001
 20
106.4459999999999
 30
0.0
 11
428.0715000000001
 21
106.8929999999999
 31
0.0
  0
LINE
  5
14E3
330
1E
100
AcDbEntity
  8
0
100
AcDbLine
 10
428.0715000000001
 20
106.1069999999999
 30
0.0
 11
428.0715000000001
 21
106.045
 31
0.0
  0
LINE
  5
14E4
330
1E
100
AcDbEntity
  8
0
100
AcDbLine
 10
428.0715000000001
 20
106.1069999999999
 30
0.0
 11
428.0715000000001
 21
106.4459999999999
 31
0.0
  0
LINE
  5
14E5
330
1E
100
AcDbEntity
  8
0
100
AcDbLine
 10
428.0715000000001
 20
106.8929999999999
 30
0.0
 11
428.0715000000001
 21
106.4459999999999
 31
0.0
  0
LINE
  5
14E6
330
1E
100
AcDbEntity
  8
0
100
AcDbLine
 10
427.7031
 20
106.0
 30
0.0
 11
428.0715000000001
 21
106.045
 31
0.0
  0
LINE
  5
14E7
330
1E
100
AcDbEntity
  8
0
100
AcDbLine
 10
427.7768
 20
106.4459999999999
 30
0.0
 11
428.0715000000001
 21
106.4459999999999
 31
0.0
  0
LINE
  5
14EB
330
1E
100
AcDbEntity
  8
0
100
AcDbLine
 10
425.3555000000001
 20
89.99999999999991
 30
0.0
 11
426.6035000000001
 21
89.99999999999991
 31
0.0
  0
LINE
  5
14EC
330
1E
100
AcDbEntity
  8
0
100
AcDbLine
 10
425.3555000000001
 20
87.0
 30
0.0
 11
426.6035000000001
 21
87.0
 31
0.0
  0
LINE
  5
14ED
330
1E
100
AcDbEntity
  8
0
100
AcDbLine
 10
426.2078999999999
 20
87.0
 30
0.0
 11
426.6035000000001
 21
87.0
 31
0.0
  0
LINE
  5
14EE
330
1E
100
AcDbEntity
  8
0
100
AcDbLine
 10
426.2078999999999
 20
87.0
 30
0.0
 11
426.6850999999999
 21
87.0
 31
0.0
  0
LINE
  5
14EF
330
1E
100
AcDbEntity
  8
0
100
AcDbLine
 10
425.5778000000001
 20
82.07199999999991
 30
0.0
 11
427.3922999999999
 21
82.149
 31
0.0
  0
LINE
  5
14F0
330
1E
100
AcDbEntity
  8
0
100
AcDbLine
 10
423.4955000000001
 20
81.9999999999999
 30
0.0
 11
427.5235000000001
 21
81.9999999999999
 31
0.0
  0
LINE
  5
14F1
330
1E
100
AcDbEntity
  8
0
100
AcDbLine
 10
425.5778000000001
 20
86.928
 30
0.0
 11
427.3922999999999
 21
86.85099999999989
 31
0.0
  0
LINE
  5
14F2
330
1E
100
AcDbEntity
  8
0
100
AcDbLine
 10
404.5235000000001
 20
93.0
 30
0.0
 11
406.2835000000001
 21
93.0
 31
0.0
  0
LINE
  5
14F3
330
1E
100
AcDbEntity
  8
0
100
AcDbLine
 10
404.8675000000001
 20
89.99999999999991
 30
0.0
 11
407.6235000000001
 21
89.99999999999991
 31
0.0
  0
LINE
  5
14F4
330
1E
100
AcDbEntity
  8
0
100
AcDbLine
 10
405.1031
 20
93.16199999999991
 30
0.0
 11
407.9631
 21
93.0899999999999
 31
0.0
  0
LINE
  5
14F5
330
1E
100
AcDbEntity
  8
0
100
AcDbLine
 10
404.6475
 20
81.9999999999999
 30
0.0
 11
409.2075000000001
 21
81.9999999999999
 31
0.0
  0
LINE
  5
14F6
330
1E
100
AcDbEntity
  8
0
100
AcDbLine
 10
405.1396999999999
 20
87.0
 30
0.0
 11
407.7988000000001
 21
87.0
 31
0.0
  0
LINE
  5
14F7
330
1E
100
AcDbEntity
  8
0
100
AcDbLine
 10
404.8675000000001
 20
87.0
 30
0.0
 11
407.6235000000001
 21
87.0
 31
0.0
  0
LINE
  5
14F8
330
1E
100
AcDbEntity
  8
0
100
AcDbLine
 10
405.6675000000001
 20
82.35700000000001
 30
0.0
 11
406.7759999999999
 21
82.35700000000001
 31
0.0
  0
LINE
  5
14F9
330
1E
100
AcDbEntity
  8
0
100
AcDbLine
 10
405.6675000000001
 20
86.64299999999999
 30
0.0
 11
406.7759999999999
 21
86.64299999999999
 31
0.0
  0
LINE
  5
14FA
330
1E
100
AcDbEntity
  8
0
100
AcDbLine
 10
401.0715000000001
 20
87.0
 30
0.0
 11
401.0715000000001
 21
89.99999999999991
 31
0.0
  0
LINE
  5
14FB
330
1E
100
AcDbEntity
  8
0
100
AcDbLine
 10
401.0715000000001
 20
89.99999999999991
 30
0.0
 11
401.0715000000001
 21
87.0
 31
0.0
  0
LINE
  5
14FC
330
1E
100
AcDbEntity
  8
0
100
AcDbLine
 10
400.4350999999999
 20
82.107
 30
0.0
 11
401.4579000000001
 21
81.9999999999999
 31
0.0
  0
LINE
  5
14FD
330
1E
100
AcDbEntity
  8
0
100
AcDbLine
 10
400.4350999999999
 20
86.89299999999999
 30
0.0
 11
401.4579000000001
 21
87.0
 31
0.0
  0
LINE
  5
14FE
330
1E
100
AcDbEntity
  8
0
100
AcDbLine
 10
400.7507000000001
 20
82.149
 30
0.0
 11
402.5652
 21
82.07199999999991
 31
0.0
  0
LINE
  5
14FF
330
1E
100
AcDbEntity
  8
0
100
AcDbLine
 10
400.6195
 20
81.9999999999999
 30
0.0
 11
404.6475
 21
81.9999999999999
 31
0.0
  0
LINE
  5
1500
330
1E
100
AcDbEntity
  8
0
100
AcDbLine
 10
400.7507000000001
 20
86.85099999999989
 30
0.0
 11
402.5652
 21
86.928
 31
0.0
  0
LINE
  5
1504
330
1E
100
AcDbEntity
  8
0
100
AcDbLine
 10
399.0715000000001
 20
82.71399999999998
 30
0.0
 11
399.1766000000001
 21
82.71399999999998
 31
0.0
  0
LINE
  5
1505
330
1E
100
AcDbEntity
  8
0
100
AcDbLine
 10
399.0715000000001
 20
82.71399999999998
 30
0.0
 11
399.4124000000001
 21
82.35700000000001
 31
0.0
  0
LINE
  5
1506
330
1E
100
AcDbEntity
  8
0
100
AcDbLine
 10
399.4124000000001
 20
82.35700000000001
 30
0.0
 11
400.4350999999999
 21
82.107
 31
0.0
  0
LINE
  5
1507
330
1E
100
AcDbEntity
  8
0
100
AcDbLine
 10
399.1766000000001
 20
82.71399999999998
 30
0.0
 11
399.6453
 21
82.35700000000001
 31
0.0
  0
LINE
  5
1508
330
1E
100
AcDbEntity
  8
0
100
AcDbLine
 10
399.6453
 20
82.35700000000001
 30
0.0
 11
400.7507000000001
 21
82.149
 31
0.0
  0
LINE
  5
1509
330
1E
100
AcDbEntity
  8
0
100
AcDbLine
 10
399.0715000000001
 20
86.28599999999989
 30
0.0
 11
399.0715000000001
 21
82.71399999999998
 31
0.0
  0
LINE
  5
150A
330
1E
100
AcDbEntity
  8
0
100
AcDbLine
 10
399.0715000000001
 20
86.28599999999989
 30
0.0
 11
399.1766000000001
 21
86.28599999999989
 31
0.0
  0
LINE
  5
150B
330
1E
100
AcDbEntity
  8
0
100
AcDbLine
 10
399.0715000000001
 20
86.28599999999989
 30
0.0
 11
399.4124000000001
 21
86.64299999999999
 31
0.0
  0
LINE
  5
150C
330
1E
100
AcDbEntity
  8
0
100
AcDbLine
 10
399.0715000000001
 20
82.71399999999998
 30
0.0
 11
399.0715000000001
 21
86.28599999999989
 31
0.0
  0
LINE
  5
150D
330
1E
100
AcDbEntity
  8
0
100
AcDbLine
 10
399.1766000000001
 20
86.28599999999989
 30
0.0
 11
399.6453
 21
86.64299999999999
 31
0.0
  0
LINE
  5
150E
330
1E
100
AcDbEntity
  8
0
100
AcDbLine
 10
399.4124000000001
 20
86.64299999999999
 30
0.0
 11
400.4350999999999
 21
86.89299999999999
 31
0.0
  0
LINE
  5
150F
330
1E
100
AcDbEntity
  8
0
100
AcDbLine
 10
399.6453
 20
86.64299999999999
 30
0.0
 11
400.7507000000001
 21
86.85099999999989
 31
0.0
  0
LINE
  5
1510
330
1E
100
AcDbEntity
  8
0
100
AcDbLine
 10
401.9351000000001
 20
87.0
 30
0.0
 11
403.1623999999999
 21
87.0
 31
0.0
  0
LINE
  5
1511
330
1E
100
AcDbEntity
  8
0
100
AcDbLine
 10
404.3897
 20
82.12999999999999
 30
0.0
 11
405.6675000000001
 21
82.35700000000001
 31
0.0
  0
LINE
  5
1512
330
1E
100
AcDbEntity
  8
0
100
AcDbLine
 10
402.5652
 20
82.07199999999991
 30
0.0
 11
404.3897
 21
82.12999999999999
 31
0.0
  0
LINE
  5
1513
330
1E
100
AcDbEntity
  8
0
100
AcDbLine
 10
404.3897
 20
86.8699999999999
 30
0.0
 11
405.6675000000001
 21
86.64299999999999
 31
0.0
  0
LINE
  5
1514
330
1E
100
AcDbEntity
  8
0
100
AcDbLine
 10
403.1623999999999
 20
87.0
 30
0.0
 11
405.1396999999999
 21
87.0
 31
0.0
  0
LINE
  5
1515
330
1E
100
AcDbEntity
  8
0
100
AcDbLine
 10
402.5652
 20
86.928
 30
0.0
 11
404.3897
 21
86.8699999999999
 31
0.0
  0
LINE
  5
1516
330
1E
100
AcDbEntity
  8
0
100
AcDbLine
 10
402.7874999999999
 20
87.0
 30
0.0
 11
404.8675000000001
 21
87.0
 31
0.0
  0
LINE
  5
1517
330
1E
100
AcDbEntity
  8
0
100
AcDbLine
 10
401.0715000000001
 20
87.0
 30
0.0
 11
401.5394999999999
 21
87.0
 31
0.0
  0
LINE
  5
1518
330
1E
100
AcDbEntity
  8
0
100
AcDbLine
 10
401.5394999999999
 20
87.0
 30
0.0
 11
402.7874999999999
 21
87.0
 31
0.0
  0
LINE
  5
1519
330
1E
100
AcDbEntity
  8
0
100
AcDbLine
 10
401.4579000000001
 20
87.0
 30
0.0
 11
401.9351000000001
 21
87.0
 31
0.0
  0
LINE
  5
151A
330
1E
100
AcDbEntity
  8
0
100
AcDbLine
 10
401.5394999999999
 20
87.0
 30
0.0
 11
401.9351000000001
 21
87.0
 31
0.0
  0
LINE
  5
151B
330
1E
100
AcDbEntity
  8
0
100
AcDbLine
 10
403.0715000000001
 20
89.99999999999991
 30
0.0
 11
403.0715000000001
 21
93.0
 31
0.0
  0
LINE
  5
151C
330
1E
100
AcDbEntity
  8
0
100
AcDbLine
 10
402.8294
 20
93.0
 30
0.0
 11
403.0715000000001
 21
93.0
 31
0.0
  0
LINE
  5
151D
330
1E
100
AcDbEntity
  8
0
100
AcDbLine
 10
403.0715000000001
 20
93.0
 30
0.0
 11
403.4675
 21
93.0
 31
0.0
  0
LINE
  5
151E
330
1E
100
AcDbEntity
  8
0
100
AcDbLine
 10
403.0715000000001
 20
93.0
 30
0.0
 11
403.0715000000001
 21
89.99999999999991
 31
0.0
  0
LINE
  5
151F
330
1E
100
AcDbEntity
  8
0
100
AcDbLine
 10
402.7874999999999
 20
89.99999999999991
 30
0.0
 11
404.8675000000001
 21
89.99999999999991
 31
0.0
  0
LINE
  5
1520
330
1E
100
AcDbEntity
  8
0
100
AcDbLine
 10
403.4675
 20
93.0
 30
0.0
 11
404.5235000000001
 21
93.0
 31
0.0
  0
LINE
  5
1521
330
1E
100
AcDbEntity
  8
0
100
AcDbLine
 10
403.1
 20
93.44599999999998
 30
0.0
 11
405.1031
 21
93.16199999999991
 31
0.0
  0
LINE
  5
1522
330
1E
100
AcDbEntity
  8
0
100
AcDbLine
 10
402.0715
 20
93.045
 30
0.0
 11
402.0715
 21
93.10699999999988
 31
0.0
  0
LINE
  5
1523
330
1E
100
AcDbEntity
  8
0
100
AcDbLine
 10
402.0715
 20
93.045
 30
0.0
 11
402.3873
 21
93.0
 31
0.0
  0
LINE
  5
1524
330
1E
100
AcDbEntity
  8
0
100
AcDbLine
 10
402.0715
 20
93.10699999999988
 30
0.0
 11
402.0715
 21
93.045
 31
0.0
  0
LINE
  5
1525
330
1E
100
AcDbEntity
  8
0
100
AcDbLine
 10
402.0715
 20
93.10699999999988
 30
0.0
 11
402.0715
 21
93.44599999999998
 31
0.0
  0
LINE
  5
1526
330
1E
100
AcDbEntity
  8
0
100
AcDbLine
 10
402.0715
 20
93.89299999999998
 30
0.0
 11
402.0715
 21
93.44599999999998
 31
0.0
  0
LINE
  5
1527
330
1E
100
AcDbEntity
  8
0
100
AcDbLine
 10
402.0715
 20
93.44599999999998
 30
0.0
 11
402.0715
 21
93.10699999999988
 31
0.0
  0
LINE
  5
1528
330
1E
100
AcDbEntity
  8
0
100
AcDbLine
 10
402.0715
 20
93.44599999999998
 30
0.0
 11
402.3241000000001
 21
93.44599999999998
 31
0.0
  0
LINE
  5
1529
330
1E
100
AcDbEntity
  8
0
100
AcDbLine
 10
402.0715
 20
93.44599999999998
 30
0.0
 11
402.0715
 21
93.89299999999998
 31
0.0
  0
LINE
  5
152A
330
1E
100
AcDbEntity
  8
0
100
AcDbLine
 10
402.3873
 20
93.0
 30
0.0
 11
402.8294
 21
93.0
 31
0.0
  0
LINE
  5
152B
330
1E
100
AcDbEntity
  8
0
100
AcDbLine
 10
402.3241000000001
 20
93.44599999999998
 30
0.0
 11
403.1
 21
93.44599999999998
 31
0.0
  0
LINE
  5
152C
330
1E
100
AcDbEntity
  8
0
100
AcDbLine
 10
401.0715000000001
 20
89.99999999999991
 30
0.0
 11
401.5394999999999
 21
89.99999999999991
 31
0.0
  0
LINE
  5
152D
330
1E
100
AcDbEntity
  8
0
100
AcDbLine
 10
401.5394999999999
 20
89.99999999999991
 30
0.0
 11
402.7874999999999
 21
89.99999999999991
 31
0.0
  0
LINE
  5
152E
330
1E
100
AcDbEntity
  8
0
100
AcDbLine
 10
414.0715000000001
 20
82.0359999999999
 30
0.0
 11
417.5079000000001
 21
82.086
 31
0.0
  0
LINE
  5
152F
330
1E
100
AcDbEntity
  8
0
100
AcDbLine
 10
414.0715000000001
 20
81.9999999999999
 30
0.0
 11
418.9354999999999
 21
81.9999999999999
 31
0.0
  0
LINE
  5
1530
330
1E
100
AcDbEntity
  8
0
100
AcDbLine
 10
414.0715000000001
 20
86.964
 30
0.0
 11
417.5079000000001
 21
86.91399999999999
 31
0.0
  0
LINE
  5
1531
330
1E
100
AcDbEntity
  8
0
100
AcDbLine
 10
414.0715000000001
 20
87.0
 30
0.0
 11
417.3995000000001
 21
87.0
 31
0.0
  0
LINE
  5
1532
330
1E
100
AcDbEntity
  8
0
100
AcDbLine
 10
414.0715000000001
 20
87.0
 30
0.0
 11
417.3442000000001
 21
87.0
 31
0.0
  0
LINE
  5
1533
330
1E
100
AcDbEntity
  8
0
100
AcDbLine
 10
409.2075000000001
 20
81.9999999999999
 30
0.0
 11
414.0715000000001
 21
81.9999999999999
 31
0.0
  0
LINE
  5
1534
330
1E
100
AcDbEntity
  8
0
100
AcDbLine
 10
410.6351
 20
82.086
 30
0.0
 11
414.0715000000001
 21
82.0359999999999
 31
0.0
  0
LINE
  5
1535
330
1E
100
AcDbEntity
  8
0
100
AcDbLine
 10
410.6351
 20
86.91399999999999
 30
0.0
 11
414.0715000000001
 21
86.964
 31
0.0
  0
LINE
  5
1536
330
1E
100
AcDbEntity
  8
0
100
AcDbLine
 10
410.7988
 20
87.0
 30
0.0
 11
414.0715000000001
 21
87.0
 31
0.0
  0
LINE
  5
1537
330
1E
100
AcDbEntity
  8
0
100
AcDbLine
 10
410.7434999999999
 20
87.0
 30
0.0
 11
414.0715000000001
 21
87.0
 31
0.0
  0
LINE
  5
1538
330
1E
100
AcDbEntity
  8
0
100
AcDbLine
 10
406.7759999999999
 20
82.35700000000001
 30
0.0
 11
410.6351
 21
82.086
 31
0.0
  0
LINE
  5
1539
330
1E
100
AcDbEntity
  8
0
100
AcDbLine
 10
406.7759999999999
 20
86.64299999999999
 30
0.0
 11
407.4513999999999
 21
86.64299999999999
 31
0.0
  0
LINE
  5
153A
330
1E
100
AcDbEntity
  8
0
100
AcDbLine
 10
407.7988000000001
 20
87.0
 30
0.0
 11
410.7988
 21
87.0
 31
0.0
  0
LINE
  5
153B
330
1E
100
AcDbEntity
  8
0
100
AcDbLine
 10
407.6235000000001
 20
87.0
 30
0.0
 11
410.7434999999999
 21
87.0
 31
0.0
  0
LINE
  5
153C
330
1E
100
AcDbEntity
  8
0
100
AcDbLine
 10
407.4513999999999
 20
86.64299999999999
 30
0.0
 11
410.6351
 21
86.91399999999999
 31
0.0
  0
LINE
  5
153D
330
1E
100
AcDbEntity
  8
0
100
AcDbLine
 10
406.5525
 20
86.28599999999989
 30
0.0
 11
406.5525
 21
82.71399999999998
 31
0.0
  0
LINE
  5
153E
330
1E
100
AcDbEntity
  8
0
100
AcDbLine
 10
406.5525
 20
82.71399999999998
 30
0.0
 11
406.5525
 21
86.28599999999989
 31
0.0
  0
LINE
  5
153F
330
1E
100
AcDbEntity
  8
0
100
AcDbLine
 10
420.6916000000001
 20
82.35700000000001
 30
0.0
 11
421.5905000000001
 21
82.71399999999998
 31
0.0
  0
LINE
  5
1540
330
1E
100
AcDbEntity
  8
0
100
AcDbLine
 10
420.6916000000001
 20
86.64299999999999
 30
0.0
 11
421.5905000000001
 21
86.28599999999989
 31
0.0
  0
LINE
  5
1541
330
1E
100
AcDbEntity
  8
0
100
AcDbLine
 10
418.9354999999999
 20
81.9999999999999
 30
0.0
 11
423.4955000000001
 21
81.9999999999999
 31
0.0
  0
LINE
  5
1542
330
1E
100
AcDbEntity
  8
0
100
AcDbLine
 10
420.3441999999999
 20
87.0
 30
0.0
 11
423.0033
 21
87.0
 31
0.0
  0
LINE
  5
1543
330
1E
100
AcDbEntity
  8
0
100
AcDbLine
 10
420.5195000000001
 20
87.0
 30
0.0
 11
423.2755
 21
87.0
 31
0.0
  0
LINE
  5
1544
330
1E
100
AcDbEntity
  8
0
100
AcDbLine
 10
417.5079000000001
 20
82.086
 30
0.0
 11
420.6916000000001
 21
82.35700000000001
 31
0.0
  0
LINE
  5
1545
330
1E
100
AcDbEntity
  8
0
100
AcDbLine
 10
417.3442000000001
 20
87.0
 30
0.0
 11
420.3441999999999
 21
87.0
 31
0.0
  0
LINE
  5
1546
330
1E
100
AcDbEntity
  8
0
100
AcDbLine
 10
417.5079000000001
 20
86.91399999999999
 30
0.0
 11
420.6916000000001
 21
86.64299999999999
 31
0.0
  0
LINE
  5
1547
330
1E
100
AcDbEntity
  8
0
100
AcDbLine
 10
417.3995000000001
 20
87.0
 30
0.0
 11
420.5195000000001
 21
87.0
 31
0.0
  0
LINE
  5
1548
330
1E
100
AcDbEntity
  8
0
100
AcDbLine
 10
423.7532999999999
 20
82.12999999999999
 30
0.0
 11
425.5778000000001
 21
82.07199999999991
 31
0.0
  0
LINE
  5
1549
330
1E
100
AcDbEntity
  8
0
100
AcDbLine
 10
422.4755
 20
82.35700000000001
 30
0.0
 11
423.7532999999999
 21
82.12999999999999
 31
0.0
  0
LINE
  5
154A
330
1E
100
AcDbEntity
  8
0
100
AcDbLine
 10
424.9806000000001
 20
87.0
 30
0.0
 11
426.2078999999999
 21
87.0
 31
0.0
  0
LINE
  5
154B
330
1E
100
AcDbEntity
  8
0
100
AcDbLine
 10
423.0033
 20
87.0
 30
0.0
 11
424.9806000000001
 21
87.0
 31
0.0
  0
LINE
  5
154C
330
1E
100
AcDbEntity
  8
0
100
AcDbLine
 10
423.7532999999999
 20
86.8699999999999
 30
0.0
 11
425.5778000000001
 21
86.928
 31
0.0
  0
LINE
  5
154D
330
1E
100
AcDbEntity
  8
0
100
AcDbLine
 10
423.2755
 20
87.0
 30
0.0
 11
425.3555000000001
 21
87.0
 31
0.0
  0
LINE
  5
154E
330
1E
100
AcDbEntity
  8
0
100
AcDbLine
 10
422.4755
 20
86.64299999999999
 30
0.0
 11
423.7532999999999
 21
86.8699999999999
 31
0.0
  0
LINE
  5
154F
330
1E
100
AcDbEntity
  8
0
100
AcDbLine
 10
421.5905000000001
 20
82.71399999999998
 30
0.0
 11
421.5905000000001
 21
82.71399999999998
 31
0.0
  0
LINE
  5
1550
330
1E
100
AcDbEntity
  8
0
100
AcDbLine
 10
421.5905000000001
 20
82.71399999999998
 30
0.0
 11
421.5905000000001
 21
86.28599999999989
 31
0.0
  0
LINE
  5
1551
330
1E
100
AcDbEntity
  8
0
100
AcDbLine
 10
421.5905000000001
 20
86.28599999999989
 30
0.0
 11
421.5905000000001
 21
82.71399999999998
 31
0.0
  0
LINE
  5
1552
330
1E
100
AcDbEntity
  8
0
100
AcDbLine
 10
421.5905000000001
 20
82.71399999999998
 30
0.0
 11
422.4755
 21
82.35700000000001
 31
0.0
  0
LINE
  5
1553
330
1E
100
AcDbEntity
  8
0
100
AcDbLine
 10
421.5905000000001
 20
86.28599999999989
 30
0.0
 11
422.4755
 21
86.64299999999999
 31
0.0
  0
LINE
  5
1554
330
1E
100
AcDbEntity
  8
0
100
AcDbLine
 10
414.0715000000001
 20
89.99999999999991
 30
0.0
 11
417.3995000000001
 21
89.99999999999991
 31
0.0
  0
LINE
  5
1555
330
1E
100
AcDbEntity
  8
0
100
AcDbLine
 10
415.5546000000001
 20
93.44599999999998
 30
0.0
 11
417.3354000000001
 21
93.18700000000001
 31
0.0
  0
LINE
  5
1556
330
1E
100
AcDbEntity
  8
0
100
AcDbLine
 10
414.0715000000001
 20
93.0
 30
0.0
 11
416.8874999999999
 21
93.0
 31
0.0
  0
LINE
  5
1557
330
1E
100
AcDbEntity
  8
0
100
AcDbLine
 10
414.0715000000001
 20
93.0
 30
0.0
 11
417.103
 21
93.0
 31
0.0
  0
LINE
  5
1558
330
1E
100
AcDbEntity
  8
0
100
AcDbLine
 10
408.6155000000001
 20
93.0
 30
0.0
 11
411.2555000000001
 21
93.0
 31
0.0
  0
LINE
  5
1559
330
1E
100
AcDbEntity
  8
0
100
AcDbLine
 10
410.8076000000001
 20
93.18700000000001
 30
0.0
 11
412.5884
 21
93.44599999999998
 31
0.0
  0
LINE
  5
155A
330
1E
100
AcDbEntity
  8
0
100
AcDbLine
 10
410.7434999999999
 20
89.99999999999991
 30
0.0
 11
414.0715000000001
 21
89.99999999999991
 31
0.0
  0
LINE
  5
155B
330
1E
100
AcDbEntity
  8
0
100
AcDbLine
 10
407.6235000000001
 20
89.99999999999991
 30
0.0
 11
410.7434999999999
 21
89.99999999999991
 31
0.0
  0
LINE
  5
155C
330
1E
100
AcDbEntity
  8
0
100
AcDbLine
 10
407.9631
 20
93.0899999999999
 30
0.0
 11
410.8076000000001
 21
93.18700000000001
 31
0.0
  0
LINE
  5
155D
330
1E
100
AcDbEntity
  8
0
100
AcDbLine
 10
406.2835000000001
 20
93.0
 30
0.0
 11
408.6155000000001
 21
93.0
 31
0.0
  0
LINE
  5
155E
330
1E
100
AcDbEntity
  8
0
100
AcDbLine
 10
414.0715000000001
 20
93.44599999999998
 30
0.0
 11
415.5546000000001
 21
93.44599999999998
 31
0.0
  0
LINE
  5
155F
330
1E
100
AcDbEntity
  8
0
100
AcDbLine
 10
412.5884
 20
93.44599999999998
 30
0.0
 11
414.0715000000001
 21
93.44599999999998
 31
0.0
  0
LINE
  5
1560
330
1E
100
AcDbEntity
  8
0
100
AcDbLine
 10
411.2555000000001
 20
93.0
 30
0.0
 11
414.0715000000001
 21
93.0
 31
0.0
  0
LINE
  5
1561
330
1E
100
AcDbEntity
  8
0
100
AcDbLine
 10
420.5195000000001
 20
89.99999999999991
 30
0.0
 11
423.2755
 21
89.99999999999991
 31
0.0
  0
LINE
  5
1562
330
1E
100
AcDbEntity
  8
0
100
AcDbLine
 10
420.1798000000001
 20
93.0899999999999
 30
0.0
 11
423.0400000000001
 21
93.16199999999991
 31
0.0
  0
LINE
  5
1563
330
1E
100
AcDbEntity
  8
0
100
AcDbLine
 10
419.5274999999999
 20
93.0
 30
0.0
 11
421.8595
 21
93.0
 31
0.0
  0
LINE
  5
1564
330
1E
100
AcDbEntity
  8
0
100
AcDbLine
 10
417.103
 20
93.0
 30
0.0
 11
419.882
 21
93.0
 31
0.0
  0
LINE
  5
1565
330
1E
100
AcDbEntity
  8
0
100
AcDbLine
 10
416.8874999999999
 20
93.0
 30
0.0
 11
419.5274999999999
 21
93.0
 31
0.0
  0
LINE
  5
1566
330
1E
100
AcDbEntity
  8
0
100
AcDbLine
 10
417.3995000000001
 20
89.99999999999991
 30
0.0
 11
420.5195000000001
 21
89.99999999999991
 31
0.0
  0
LINE
  5
1567
330
1E
100
AcDbEntity
  8
0
100
AcDbLine
 10
417.3354000000001
 20
93.18700000000001
 30
0.0
 11
420.1798000000001
 21
93.0899999999999
 31
0.0
  0
LINE
  5
1568
330
1E
100
AcDbEntity
  8
0
100
AcDbLine
 10
421.8595
 20
93.0
 30
0.0
 11
423.6195
 21
93.0
 31
0.0
  0
LINE
  5
1569
330
1E
100
AcDbEntity
  8
0
100
AcDbLine
 10
425.0715000000001
 20
89.99999999999991
 30
0.0
 11
425.0715000000001
 21
93.0
 31
0.0
  0
LINE
  5
156A
330
1E
100
AcDbEntity
  8
0
100
AcDbLine
 10
425.3136
 20
93.0
 30
0.0
 11
425.7557000000001
 21
93.0
 31
0.0
  0
LINE
  5
156B
330
1E
100
AcDbEntity
  8
0
100
AcDbLine
 10
425.7557000000001
 20
93.0
 30
0.0
 11
426.0715000000001
 21
93.045
 31
0.0
  0
LINE
  5
156C
330
1E
100
AcDbEntity
  8
0
100
AcDbLine
 10
424.1768
 20
93.0
 30
0.0
 11
425.3136
 21
93.0
 31
0.0
  0
LINE
  5
156D
330
1E
100
AcDbEntity
  8
0
100
AcDbLine
 10
424.6755000000001
 20
93.0
 30
0.0
 11
425.0715000000001
 21
93.0
 31
0.0
  0
LINE
  5
156E
330
1E
100
AcDbEntity
  8
0
100
AcDbLine
 10
425.0715000000001
 20
93.0
 30
0.0
 11
425.0715000000001
 21
89.99999999999991
 31
0.0
  0
LINE
  5
156F
330
1E
100
AcDbEntity
  8
0
100
AcDbLine
 10
425.0715000000001
 20
93.0
 30
0.0
 11
425.3136
 21
93.0
 31
0.0
  0
LINE
  5
1570
330
1E
100
AcDbEntity
  8
0
100
AcDbLine
 10
426.0715000000001
 20
93.045
 30
0.0
 11
426.0715000000001
 21
93.10699999999988
 31
0.0
  0
LINE
  5
1571
330
1E
100
AcDbEntity
  8
0
100
AcDbLine
 10
426.0715000000001
 20
93.10699999999988
 30
0.0
 11
426.0715000000001
 21
93.045
 31
0.0
  0
LINE
  5
1572
330
1E
100
AcDbEntity
  8
0
100
AcDbLine
 10
426.0715000000001
 20
93.10699999999988
 30
0.0
 11
426.0715000000001
 21
93.44599999999998
 31
0.0
  0
LINE
  5
1573
330
1E
100
AcDbEntity
  8
0
100
AcDbLine
 10
425.8188999999999
 20
93.44599999999998
 30
0.0
 11
426.0715000000001
 21
93.44599999999998
 31
0.0
  0
LINE
  5
1574
330
1E
100
AcDbEntity
  8
0
100
AcDbLine
 10
426.0715000000001
 20
93.44599999999998
 30
0.0
 11
426.0715000000001
 21
93.89299999999998
 31
0.0
  0
LINE
  5
1575
330
1E
100
AcDbEntity
  8
0
100
AcDbLine
 10
426.0715000000001
 20
93.44599999999998
 30
0.0
 11
426.0715000000001
 21
93.10699999999988
 31
0.0
  0
LINE
  5
1576
330
1E
100
AcDbEntity
  8
0
100
AcDbLine
 10
425.0430000000001
 20
93.44599999999998
 30
0.0
 11
425.8188999999999
 21
93.44599999999998
 31
0.0
  0
LINE
  5
1577
330
1E
100
AcDbEntity
  8
0
100
AcDbLine
 10
426.0715000000001
 20
93.89299999999998
 30
0.0
 11
426.0715000000001
 21
93.44599999999998
 31
0.0
  0
LINE
  5
1578
330
1E
100
AcDbEntity
  8
0
100
AcDbLine
 10
423.2755
 20
89.99999999999991
 30
0.0
 11
425.3555000000001
 21
89.99999999999991
 31
0.0
  0
LINE
  5
1579
330
1E
100
AcDbEntity
  8
0
100
AcDbLine
 10
423.6195
 20
93.0
 30
0.0
 11
424.6755000000001
 21
93.0
 31
0.0
  0
LINE
  5
157A
330
1E
100
AcDbEntity
  8
0
100
AcDbLine
 10
423.0400000000001
 20
93.16199999999991
 30
0.0
 11
425.0430000000001
 21
93.44599999999998
 31
0.0
  0
LINE
  5
157B
330
1E
100
AcDbEntity
  8
0
100
AcDbLine
 10
427.0715000000001
 20
87.0
 30
0.0
 11
427.0715000000001
 21
89.99999999999991
 31
0.0
  0
LINE
  5
157C
330
1E
100
AcDbEntity
  8
0
100
AcDbLine
 10
427.0715000000001
 20
89.99999999999991
 30
0.0
 11
427.0715000000001
 21
87.0
 31
0.0
  0
LINE
  5
1581
330
1E
100
AcDbEntity
  8
0
100
AcDbLine
 10
428.7306
 20
82.35700000000001
 30
0.0
 11
429.0715000000001
 21
82.71399999999998
 31
0.0
  0
LINE
  5
1582
330
1E
100
AcDbEntity
  8
0
100
AcDbLine
 10
428.9664000000001
 20
82.71399999999998
 30
0.0
 11
429.0715000000001
 21
82.71399999999998
 31
0.0
  0
LINE
  5
1583
330
1E
100
AcDbEntity
  8
0
100
AcDbLine
 10
428.4977000000001
 20
82.35700000000001
 30
0.0
 11
428.9664000000001
 21
82.71399999999998
 31
0.0
  0
LINE
  5
1584
330
1E
100
AcDbEntity
  8
0
100
AcDbLine
 10
427.7079000000001
 20
82.107
 30
0.0
 11
428.7306
 21
82.35700000000001
 31
0.0
  0
LINE
  5
1585
330
1E
100
AcDbEntity
  8
0
100
AcDbLine
 10
427.3922999999999
 20
82.149
 30
0.0
 11
428.4977000000001
 21
82.35700000000001
 31
0.0
  0
LINE
  5
1586
330
1E
100
AcDbEntity
  8
0
100
AcDbLine
 10
429.0715000000001
 20
86.28599999999989
 30
0.0
 11
429.0715000000001
 21
82.71399999999998
 31
0.0
  0
LINE
  5
1587
330
1E
100
AcDbEntity
  8
0
100
AcDbLine
 10
429.0715000000001
 20
82.71399999999998
 30
0.0
 11
429.0715000000001
 21
86.28599999999989
 31
0.0
  0
LINE
  5
1588
330
1E
100
AcDbEntity
  8
0
100
AcDbLine
 10
428.9664000000001
 20
86.28599999999989
 30
0.0
 11
429.0715000000001
 21
86.28599999999989
 31
0.0
  0
LINE
  5
1589
330
1E
100
AcDbEntity
  8
0
100
AcDbLine
 10
428.7306
 20
86.64299999999999
 30
0.0
 11
429.0715000000001
 21
86.28599999999989
 31
0.0
  0
LINE
  5
158A
330
1E
100
AcDbEntity
  8
0
100
AcDbLine
 10
428.4977000000001
 20
86.64299999999999
 30
0.0
 11
428.9664000000001
 21
86.28599999999989
 31
0.0
  0
LINE
  5
158B
330
1E
100
AcDbEntity
  8
0
100
AcDbLine
 10
427.3922999999999
 20
86.85099999999989
 30
0.0
 11
428.4977000000001
 21
86.64299999999999
 31
0.0
  0
LINE
  5
158C
330
1E
100
AcDbEntity
  8
0
100
AcDbLine
 10
427.7079000000001
 20
86.89299999999999
 30
0.0
 11
428.7306
 21
86.64299999999999
 31
0.0
  0
LINE
  5
158D
330
1E
100
AcDbEntity
  8
0
100
AcDbLine
 10
426.6850999999999
 20
81.9999999999999
 30
0.0
 11
427.7079000000001
 21
82.107
 31
0.0
  0
LINE
  5
158E
330
1E
100
AcDbEntity
  8
0
100
AcDbLine
 10
426.6850999999999
 20
87.0
 30
0.0
 11
427.7079000000001
 21
86.89299999999999
 31
0.0
  0
LINE
  5
158F
330
1E
100
AcDbEntity
  8
0
100
AcDbLine
 10
426.6035000000001
 20
87.0
 30
0.0
 11
427.0715000000001
 21
87.0
 31
0.0
  0
LINE
  5
1590
330
1E
100
AcDbEntity
  8
0
100
AcDbLine
 10
426.6035000000001
 20
89.99999999999991
 30
0.0
 11
427.0715000000001
 21
89.99999999999991
 31
0.0
  0
ENDSEC
  0
SECTION
  2
OBJECTS
  0
DICTIONARY
  5
C
330
0
100
AcDbDictionary
281
     1
  3
ACAD_GROUP
350
D
  3
ACAD_LAYOUT
350
19
  3
ACAD_MLINESTYLE
350
16
  3
ACAD_PLOTSETTINGS
350
18
  3
ACAD_PLOTSTYLENAME
350
E
  3
ACAD_TABLESTYLE
350
169A
  3
ACDBVARIABLEDICTIONARY
350
1591
  0
DICTIONARY
  5
D
102
{ACAD_REACTORS
330
C
102
}
330
C
100
AcDbDictionary
281
     1
  0
DICTIONARY
  5
19
102
{ACAD_REACTORS
330
C
102
}
330
C
100
AcDbDictionary
281
     1
  3
Layout1
350
1697
  3
Model
350
1696
  0
DICTIONARY
  5
16
102
{ACAD_REACTORS
330
C
102
}
330
C
100
AcDbDictionary
281
     1
  3
STANDARD
350
17
  0
DICTIONARY
  5
18
102
{ACAD_REACTORS
330
C
102
}
330
C
100
AcDbDictionary
281
     1
  0
ACDBDICTIONARYWDFLT
  5
E
102
{ACAD_REACTORS
330
C
102
}
330
C
100
AcDbDictionary
281
     1
  3
Normal
350
F
100
AcDbDictionaryWithDefault
340
F
  0
DICTIONARY
  5
169A
102
{ACAD_REACTORS
330
C
102
}
330
C
100
AcDbDictionary
281
     1
  0
DICTIONARY
  5
1591
102
{ACAD_REACTORS
330
C
102
}
330
C
100
AcDbDictionary
281
     1
  3
DIMASSOC
350
1592
  0
LAYOUT
  5
1697
102
{ACAD_REACTORS
330
19
102
}
330
19
100
AcDbPlotSettings
  1

  2
none_device
  4

  6

 40
0.0
 41
0.0
 42
0.0
 43
0.0
 44
0.0
 45
0.0
 46
0.0
 47
0.0
 48
0.0
 49
0.0
140
0.0
141
0.0
142
1.0
143
1.0
 70
   688
 72
     0
 73
     0
 74
     5
  7

 75
    16
147
1.0
148
0.0
149
0.0
100
AcDbLayout
  1
Layout1
 70
     1
 71
     1
 10
0.0
 20
0.0
 11
12.0
 21
9.0
 12
0.0
 22
0.0
 32
0.0
 14
1.000000000000000E+20
 24
1.000000000000000E+20
 34
1.000000000000000E+20
 15
-1.000000000000000E+20
 25
-1.000000000000000E+20
 35
-1.000000000000000E+20
146
0.0
 13
0.0
 23
0.0
 33
0.0
 16
1.0
 26
0.0
 36
0.0
 17
0.0
 27
1.0
 37
0.0
 76
     0
330
1A
  0
LAYOUT
  5
1696
102
{ACAD_REACTORS
330
19
102
}
330
19
100
AcDbPlotSettings
  1

  2
none_device
  4

  6

 40
0.0
 41
0.0
 42
0.0
 43
0.0
 44
0.0
 45
0.0
 46
0.0
 47
0.0
 48
0.0
 49
0.0
140
0.0
141
0.0
142
1.0
143
1.0
 70
   688
 72
     0
 73
     0
 74
     5
  7

 75
    16
147
1.0
148
0.0
149
0.0
100
AcDbLayout
  1
Model
 70
     1
 71
     0
 10
0.0
 20
0.0
 11
0.0
 21
0.0
 12
0.0
 22
0.0
 32
0.0
 14
0.0
 24
0.0
 34
0.0
 15
0.0
 25
0.0
 35
0.0
146
0.0
 13
0.0
 23
0.0
 33
0.0
 16
1.0
 26
0.0
 36
0.0
 17
0.0
 27
1.0
 37
0.0
 76
     0
330
1E
  0
MLINESTYLE
  5
17
102
{ACAD_REACTORS
330
16
102
}
330
16
100
AcDbMlineStyle
  2
STANDARD
 70
     0
  3

 62
   256
 51
90.0
 52
90.0
 71
     2
 49
0.5
 62
   256
  6
BYLAYER
 49
-0.5
 62
   256
  6
BYLAYER
  0
ACDBPLACEHOLDER
  5
F
102
{ACAD_REACTORS
330
E
102
}
330
E
  0
DICTIONARYVAR
  5
1592
102
{ACAD_REACTORS
330
1591
102
}
330
1591
100
DictionaryVariables
280
     0
  1
1
  0
ENDSEC
  0
EOF
