  0
SECTION
  2
HEADER
  9
$ACADVER
  1
AC1015
  9
$ACADMAINTVER
 70
    13
  9
$DWGCODEPAGE
  3
ANSI_1252
  9
$INSBASE
 10
0.0
 20
0.0
 30
0.0
  9
$EXTMIN
 10
0.0
 20
0.0
 30
0.0
  9
$EXTMAX
 10
765.0
 20
79.0
 30
0.0
  9
$LIMMIN
 10
0.0
 20
0.0
  9
$LIMMAX
 10
12.0
 20
9.0
  9
$ORTHOMODE
 70
     0
  9
$REGENMODE
 70
     1
  9
$FILLMODE
 70
     1
  9
$QTEXTMODE
 70
     0
  9
$MIRRTEXT
 70
     1
  9
$LTSCALE
 40
1.0
  9
$ATTMODE
 70
     1
  9
$TEXTSIZE
 40
0.2
  9
$TRACEWID
 40
0.05
  9
$TEXTSTYLE
  7
Standard
  9
$CLAYER
  8
0
  9
$CELTYPE
  6
Continuous
  9
$CECOLOR
 62
   256
  9
$CELTSCALE
 40
1.0
  9
$DISPSILH
 70
     0
  9
$DIMSCALE
 40
1.0
  9
$DIMASZ
 40
0.18
  9
$DIMEXO
 40
0.0625
  9
$DIMDLI
 40
0.38
  9
$DIMRND
 40
0.0
  9
$DIMDLE
 40
0.0
  9
$DIMEXE
 40
0.18
  9
$DIMTP
 40
0.0
  9
$DIMTM
 40
0.0
  9
$DIMTXT
 40
0.18
  9
$DIMCEN
 40
0.09
  9
$DIMTSZ
 40
0.0
  9
$DIMTOL
 70
     0
  9
$DIMLIM
 70
     0
  9
$DIMTIH
 70
     1
  9
$DIMTOH
 70
     1
  9
$DIMSE1
 70
     0
  9
$DIMSE2
 70
     0
  9
$DIMTAD
 70
     0
  9
$DIMZIN
 70
     0
  9
$DIMBLK
  1

  9
$DIMASO
 70
     1
  9
$DIMSHO
 70
     1
  9
$DIMPOST
  1

  9
$DIMAPOST
  1

  9
$DIMALT
 70
     0
  9
$DIMALTD
 70
     2
  9
$DIMALTF
 40
25.4
  9
$DIMLFAC
 40
1.0
  9
$DIMTOFL
 70
     0
  9
$DIMTVP
 40
0.0
  9
$DIMTIX
 70
     0
  9
$DIMSOXD
 70
     0
  9
$DIMSAH
 70
     0
  9
$DIMBLK1
  1

  9
$DIMBLK2
  1

  9
$DIMSTYLE
  2
Standard
  9
$DIMCLRD
 70
     0
  9
$DIMCLRE
 70
     0
  9
$DIMCLRT
 70
     0
  9
$DIMTFAC
 40
1.0
  9
$DIMGAP
 40
0.09
  9
$DIMJUST
 70
     0
  9
$DIMSD1
 70
     0
  9
$DIMSD2
 70
     0
  9
$DIMTOLJ
 70
     1
  9
$DIMTZIN
 70
     0
  9
$DIMALTZ
 70
     0
  9
$DIMALTTZ
 70
     0
  9
$DIMUPT
 70
     0
  9
$DIMDEC
 70
     4
  9
$DIMTDEC
 70
     4
  9
$DIMALTU
 70
     2
  9
$DIMALTTD
 70
     2
  9
$DIMTXSTY
  7
Standard
  9
$DIMAUNIT
 70
     0
  9
$DIMADEC
 70
     0
  9
$DIMALTRND
 40
0.0
  9
$DIMAZIN
 70
     0
  9
$DIMDSEP
 70
    46
  9
$DIMATFIT
 70
     3
  9
$DIMFRAC
 70
     0
  9
$DIMLDRBLK
  1

  9
$DIMLUNIT
 70
     2
  9
$DIMLWD
 70
    -2
  9
$DIMLWE
 70
    -2
  9
$DIMTMOVE
 70
     0
  9
$LUNITS
 70
     2
  9
$LUPREC
 70
     4
  9
$SKETCHINC
 40
0.1
  9
$FILLETRAD
 40
0.0
  9
$AUNITS
 70
     0
  9
$AUPREC
 70
     0
  9
$MENU
  1
.
  9
$ELEVATION
 40
0.0
  9
$PELEVATION
 40
0.0
  9
$THICKNESS
 40
0.0
  9
$LIMCHECK
 70
     0
  9
$CHAMFERA
 40
0.0
  9
$CHAMFERB
 40
0.0
  9
$CHAMFERC
 40
0.0
  9
$CHAMFERD
 40
0.0
  9
$SKPOLY
 70
     0
  9
$TDCREATE
 40
2454906.873045960
  9
$TDUCREATE
 40
2454906.831379294
  9
$TDUPDATE
 40
2454906.874795636
  9
$TDUUPDATE
 40
2454906.833128970
  9
$TDINDWG
 40
0.0017496759
  9
$TDUSRTIMER
 40
0.0017496759
  9
$USRTIMER
 70
     1
  9
$ANGBASE
 50
0.0
  9
$ANGDIR
 70
     0
  9
$PDMODE
 70
     0
  9
$PDSIZE
 40
0.0
  9
$PLINEWID
 40
0.0
  9
$SPLFRAME
 70
     0
  9
$SPLINETYPE
 70
     6
  9
$SPLINESEGS
 70
     8
  9
$HANDSEED
  5
3ED
  9
$SURFTAB1
 70
     6
  9
$SURFTAB2
 70
     6
  9
$SURFTYPE
 70
     6
  9
$SURFU
 70
     6
  9
$SURFV
 70
     6
  9
$UCSBASE
  2

  9
$UCSNAME
  2

  9
$UCSORG
 10
0.0
 20
0.0
 30
0.0
  9
$UCSXDIR
 10
1.0
 20
0.0
 30
0.0
  9
$UCSYDIR
 10
0.0
 20
1.0
 30
0.0
  9
$UCSORTHOREF
  2

  9
$UCSORTHOVIEW
 70
     1
  9
$UCSORGTOP
 10
0.0
 20
0.0
 30
0.0
  9
$UCSORGBOTTOM
 10
0.0
 20
0.0
 30
0.0
  9
$UCSORGLEFT
 10
0.0
 20
0.0
 30
0.0
  9
$UCSORGRIGHT
 10
0.0
 20
0.0
 30
0.0
  9
$UCSORGFRONT
 10
0.0
 20
0.0
 30
0.0
  9
$UCSORGBACK
 10
0.0
 20
0.0
 30
0.0
  9
$PUCSBASE
  2

  9
$PUCSNAME
  2

  9
$PUCSORG
 10
0.0
 20
0.0
 30
0.0
  9
$PUCSXDIR
 10
1.0
 20
0.0
 30
0.0
  9
$PUCSYDIR
 10
0.0
 20
1.0
 30
0.0
  9
$PUCSORTHOREF
  2

  9
$PUCSORTHOVIEW
 70
     0
  9
$PUCSORGTOP
 10
0.0
 20
0.0
 30
0.0
  9
$PUCSORGBOTTOM
 10
0.0
 20
0.0
 30
0.0
  9
$PUCSORGLEFT
 10
0.0
 20
0.0
 30
0.0
  9
$PUCSORGRIGHT
 10
0.0
 20
0.0
 30
0.0
  9
$PUCSORGFRONT
 10
0.0
 20
0.0
 30
0.0
  9
$PUCSORGBACK
 10
0.0
 20
0.0
 30
0.0
  9
$USERI1
 70
     0
  9
$USERI2
 70
     0
  9
$USERI3
 70
     0
  9
$USERI4
 70
     0
  9
$USERI5
 70
     0
  9
$USERR1
 40
0.0
  9
$USERR2
 40
0.0
  9
$USERR3
 40
0.0
  9
$USERR4
 40
0.0
  9
$USERR5
 40
0.0
  9
$WORLDVIEW
 70
     1
  9
$SHADEDGE
 70
     3
  9
$SHADEDIF
 70
    70
  9
$TILEMODE
 70
     1
  9
$MAXACTVP
 70
    64
  9
$PINSBASE
 10
0.0
 20
0.0
 30
0.0
  9
$PLIMCHECK
 70
     0
  9
$PEXTMIN
 10
1.000000000000000E+20
 20
1.000000000000000E+20
 30
1.000000000000000E+20
  9
$PEXTMAX
 10
-1.000000000000000E+20
 20
-1.000000000000000E+20
 30
-1.000000000000000E+20
  9
$PLIMMIN
 10
0.0
 20
0.0
  9
$PLIMMAX
 10
12.0
 20
9.0
  9
$UNITMODE
 70
     0
  9
$VISRETAIN
 70
     1
  9
$PLINEGEN
 70
     0
  9
$PSLTSCALE
 70
     1
  9
$TREEDEPTH
 70
  3020
  9
$CMLSTYLE
  2
Standard
  9
$CMLJUST
 70
     0
  9
$CMLSCALE
 40
1.0
  9
$PROXYGRAPHICS
 70
     1
  9
$MEASUREMENT
 70
     0
  9
$CELWEIGHT
370
    -1
  9
$ENDCAPS
280
     0
  9
$JOINSTYLE
280
     0
  9
$LWDISPLAY
290
     0
  9
$INSUNITS
 70
     0
  9
$HYPERLINKBASE
  1

  9
$STYLESHEET
  1

  9
$XEDIT
290
     1
  9
$CEPSNTYPE
380
     0
  9
$PSTYLEMODE
290
     1
  9
$FINGERPRINTGUID
  2
{917AE8D1-E413-41B9-B455-DFAB329E569C}
  9
$VERSIONGUID
  2
{1D706E29-BE16-4FFE-8E6E-76712F05A77E}
  9
$EXTNAMES
290
     1
  9
$PSVPSCALE
 40
0.0
  9
$OLESTARTUP
290
     0
  0
ENDSEC
  0
SECTION
  2
CLASSES
  0
CLASS
  1
ACDBDICTIONARYWDFLT
  2
AcDbDictionaryWithDefault
  3
AutoCAD 2000
 90
        0
280
     0
281
     0
  0
CLASS
  1
ACDBPLACEHOLDER
  2
AcDbPlaceHolder
  3
AutoCAD 2000
 90
        0
280
     0
281
     0
  0
CLASS
  1
LAYOUT
  2
AcDbLayout
  3
AutoCAD 2000
 90
        0
280
     0
281
     0
  0
CLASS
  1
DICTIONARYVAR
  2
AcDbDictionaryVar
  3
AutoCAD 2000
 90
        0
280
     0
281
     0
  0
ENDSEC
  0
SECTION
  2
TABLES
  0
TABLE
  2
VPORT
  5
8
330
0
100
AcDbSymbolTable
 70
     2
  0
VPORT
  5
3EC
330
8
100
AcDbSymbolTableRecord
100
AcDbViewportTableRecord
  2
*Active
 70
     0
 10
0.0
 20
0.0
 11
1.0
 21
1.0
 12
382.5
 22
39.5
 13
0.0
 23
0.0
 14
1.0
 24
1.0
 15
0.0
 25
0.0
 16
0.0
 26
0.0
 36
1.0
 17
0.0
 27
0.0
 37
0.0
 40
389.8905834859988
 41
1.968387776606954
 42
50.0
 43
0.0
 44
0.0
 50
0.0
 51
0.0
 71
     0
 72
   100
 73
     1
 74
     3
 75
     0
 76
     0
 77
     0
 78
     0
281
     0
 65
     1
110
0.0
120
0.0
130
0.0
111
1.0
121
0.0
131
0.0
112
0.0
122
1.0
132
0.0
 79
     1
146
0.0
  0
ENDTAB
  0
TABLE
  2
LTYPE
  5
5
330
0
100
AcDbSymbolTable
 70
     1
  0
LTYPE
  5
13
330
5
100
AcDbSymbolTableRecord
100
AcDbLinetypeTableRecord
  2
ByBlock
 70
     0
  3

 72
    65
 73
     0
 40
0.0
  0
LTYPE
  5
14
330
5
100
AcDbSymbolTableRecord
100
AcDbLinetypeTableRecord
  2
ByLayer
 70
     0
  3

 72
    65
 73
     0
 40
0.0
  0
LTYPE
  5
15
330
5
100
AcDbSymbolTableRecord
100
AcDbLinetypeTableRecord
  2
Continuous
 70
     0
  3
Solid line
 72
    65
 73
     0
 40
0.0
  0
ENDTAB
  0
TABLE
  2
LAYER
  5
2
330
0
100
AcDbSymbolTable
 70
     1
  0
LAYER
  5
10
330
2
100
AcDbSymbolTableRecord
100
AcDbLayerTableRecord
  2
0
 70
     0
 62
     7
  6
Continuous
370
    -3
390
F
  0
ENDTAB
  0
TABLE
  2
STYLE
  5
3
330
0
100
AcDbSymbolTable
 70
     1
  0
STYLE
  5
11
330
3
100
AcDbSymbolTableRecord
100
AcDbTextStyleTableRecord
  2
Standard
 70
     0
 40
0.0
 41
1.0
 50
0.0
 71
     0
 42
0.2
  3
txt
  4

  0
ENDTAB
  0
TABLE
  2
VIEW
  5
6
330
0
100
AcDbSymbolTable
 70
     0
  0
ENDTAB
  0
TABLE
  2
UCS
  5
7
330
0
100
AcDbSymbolTable
 70
     0
  0
ENDTAB
  0
TABLE
  2
APPID
  5
9
330
0
100
AcDbSymbolTable
 70
     1
  0
APPID
  5
12
330
9
100
AcDbSymbolTableRecord
100
AcDbRegAppTableRecord
  2
ACAD
 70
     0
  0
ENDTAB
  0
TABLE
  2
DIMSTYLE
  5
A
330
0
100
AcDbSymbolTable
 70
     1
100
AcDbDimStyleTable
 71
     0
  0
DIMSTYLE
105
2B2
330
A
100
AcDbSymbolTableRecord
100
AcDbDimStyleTableRecord
  2
Standard
 70
     0
340
11
  0
ENDTAB
  0
TABLE
  2
BLOCK_RECORD
  5
1
330
0
100
AcDbSymbolTable
 70
     0
  0
BLOCK_RECORD
  5
1E
330
1
100
AcDbSymbolTableRecord
100
AcDbBlockTableRecord
  2
*Model_Space
340
21
  0
BLOCK_RECORD
  5
1A
330
1
100
AcDbSymbolTableRecord
100
AcDbBlockTableRecord
  2
*Paper_Space
340
1D
  0
ENDTAB
  0
ENDSEC
  0
SECTION
  2
BLOCKS
  0
BLOCK
  5
1F
330
1E
100
AcDbEntity
  8
0
100
AcDbBlockBegin
  2
*Model_Space
 70
     0
 10
0.0
 20
0.0
 30
0.0
  3
*Model_Space
  1

  0
ENDBLK
  5
20
330
1E
100
AcDbEntity
  8
0
100
AcDbBlockEnd
  0
BLOCK
  5
1B
330
1A
100
AcDbEntity
 67
     1
  8
0
100
AcDbBlockBegin
  2
*Paper_Space
 70
     0
 10
0.0
 20
0.0
 30
0.0
  3
*Paper_Space
  1

  0
ENDBLK
  5
1C
330
1A
100
AcDbEntity
 67
     1
  8
0
100
AcDbBlockEnd
  0
ENDSEC
  0
SECTION
  2
ENTITIES
  0
LINE
  5
22
330
1E
100
AcDbEntity
  8
0
100
AcDbLine
 10
1.01412
 20
27.0
 30
0.0
 11
382.5
 21
27.0
 31
0.0
  0
LINE
  5
23
330
1E
100
AcDbEntity
  8
0
100
AcDbLine
 10
1.014119999999989
 20
27.0
 30
0.0
 11
382.5
 21
27.0
 31
0.0
  0
LINE
  5
24
330
1E
100
AcDbEntity
  8
0
100
AcDbLine
 10
0.0
 20
30.82209999999999
 30
0.0
 11
0.0
 21
29.8338
 31
0.0
  0
LINE
  5
25
330
1E
100
AcDbEntity
  8
0
100
AcDbLine
 10
0.0
 20
30.82209999999999
 30
0.0
 11
0.0
 21
32.3971
 31
0.0
  0
LINE
  5
26
330
1E
100
AcDbEntity
  8
0
100
AcDbLine
 10
0.0
 20
29.8338
 30
0.0
 11
0.0
 21
29.4632
 31
0.0
  0
LINE
  5
27
330
1E
100
AcDbEntity
  8
0
100
AcDbLine
 10
0.0
 20
29.8338
 30
0.0
 11
0.0
 21
30.82209999999999
 31
0.0
  0
LINE
  5
28
330
1E
100
AcDbEntity
  8
0
100
AcDbLine
 10
0.0
 20
29.4632
 30
0.0
 11
0.134615
 21
29.1544
 31
0.0
  0
LINE
  5
29
330
1E
100
AcDbEntity
  8
0
100
AcDbLine
 10
0.0
 20
29.4632
 30
0.0
 11
0.0
 21
29.8338
 31
0.0
  0
LINE
  5
2A
330
1E
100
AcDbEntity
  8
0
100
AcDbLine
 10
0.0
 20
32.3971
 30
0.0
 11
0.0
 21
34.4971
 31
0.0
  0
LINE
  5
2B
330
1E
100
AcDbEntity
  8
0
100
AcDbLine
 10
0.0
 20
32.3971
 30
0.0
 11
0.0
 21
30.82209999999999
 31
0.0
  0
LINE
  5
2C
330
1E
100
AcDbEntity
  8
0
100
AcDbLine
 10
0.0
 20
34.4971
 30
0.0
 11
0.0
 21
32.3971
 31
0.0
  0
LINE
  5
2D
330
1E
100
AcDbEntity
  8
0
100
AcDbLine
 10
0.0
 20
34.4971
 30
0.0
 11
0.0
 21
36.9059
 31
0.0
  0
LINE
  5
2E
330
1E
100
AcDbEntity
  8
0
100
AcDbLine
 10
0.0
 20
44.50289999999999
 30
0.0
 11
0.0
 21
42.0941
 31
0.0
  0
LINE
  5
2F
330
1E
100
AcDbEntity
  8
0
100
AcDbLine
 10
0.0
 20
44.50289999999999
 30
0.0
 11
0.0
 21
46.60289999999999
 31
0.0
  0
LINE
  5
30
330
1E
100
AcDbEntity
  8
0
100
AcDbLine
 10
0.0
 20
42.0941
 30
0.0
 11
0.0
 21
39.5
 31
0.0
  0
LINE
  5
31
330
1E
100
AcDbEntity
  8
0
100
AcDbLine
 10
0.0
 20
42.0941
 30
0.0
 11
0.0
 21
44.50289999999999
 31
0.0
  0
LINE
  5
32
330
1E
100
AcDbEntity
  8
0
100
AcDbLine
 10
0.0
 20
46.60289999999999
 30
0.0
 11
0.0
 21
48.1779
 31
0.0
  0
LINE
  5
33
330
1E
100
AcDbEntity
  8
0
100
AcDbLine
 10
0.0
 20
46.60289999999999
 30
0.0
 11
0.0
 21
44.50289999999999
 31
0.0
  0
LINE
  5
34
330
1E
100
AcDbEntity
  8
0
100
AcDbLine
 10
0.0
 20
48.1779
 30
0.0
 11
0.0
 21
46.60289999999999
 31
0.0
  0
LINE
  5
35
330
1E
100
AcDbEntity
  8
0
100
AcDbLine
 10
0.0
 20
48.1779
 30
0.0
 11
0.0
 21
49.1662
 31
0.0
  0
LINE
  5
36
330
1E
100
AcDbEntity
  8
0
100
AcDbLine
 10
0.0
 20
49.1662
 30
0.0
 11
0.0
 21
48.1779
 31
0.0
  0
LINE
  5
37
330
1E
100
AcDbEntity
  8
0
100
AcDbLine
 10
0.0
 20
49.1662
 30
0.0
 11
0.0
 21
49.5368
 31
0.0
  0
LINE
  5
38
330
1E
100
AcDbEntity
  8
0
100
AcDbLine
 10
0.0
 20
49.5368
 30
0.0
 11
0.134615
 21
49.8456
 31
0.0
  0
LINE
  5
39
330
1E
100
AcDbEntity
  8
0
100
AcDbLine
 10
0.0
 20
49.5368
 30
0.0
 11
0.0
 21
49.1662
 31
0.0
  0
LINE
  5
3A
330
1E
100
AcDbEntity
  8
0
100
AcDbLine
 10
0.0
 20
36.9059
 30
0.0
 11
0.0
 21
34.4971
 31
0.0
  0
LINE
  5
3B
330
1E
100
AcDbEntity
  8
0
100
AcDbLine
 10
0.0
 20
36.9059
 30
0.0
 11
0.0
 21
39.5
 31
0.0
  0
LINE
  5
3C
330
1E
100
AcDbEntity
  8
0
100
AcDbLine
 10
0.5
 20
27.9926
 30
0.0
 11
0.5
 21
27.5515
 31
0.0
  0
LINE
  5
3D
330
1E
100
AcDbEntity
  8
0
100
AcDbLine
 10
0.5
 20
27.9926
 30
0.0
 11
0.5
 21
29.1691
 31
0.0
  0
LINE
  5
3E
330
1E
100
AcDbEntity
  8
0
100
AcDbLine
 10
0.6713750000000001
 20
28.8382
 30
0.0
 11
0.6713750000000001
 21
27.625
 31
0.0
  0
LINE
  5
3F
330
1E
100
AcDbEntity
  8
0
100
AcDbLine
 10
0.6713750000000001
 20
28.8382
 30
0.0
 11
0.6713750000000001
 21
30.7868
 31
0.0
  0
LINE
  5
40
330
1E
100
AcDbEntity
  8
0
100
AcDbLine
 10
0.6713750000000001
 20
27.625
 30
0.0
 11
0.6713750000000001
 21
27.1838
 31
0.0
  0
LINE
  5
41
330
1E
100
AcDbEntity
  8
0
100
AcDbLine
 10
0.6713750000000001
 20
27.625
 30
0.0
 11
0.6713750000000001
 21
28.8382
 31
0.0
  0
LINE
  5
42
330
1E
100
AcDbEntity
  8
0
100
AcDbLine
 10
0.5
 20
27.5515
 30
0.0
 11
0.6713750000000001
 21
27.1838
 31
0.0
  0
LINE
  5
43
330
1E
100
AcDbEntity
  8
0
100
AcDbLine
 10
0.5
 20
27.5515
 30
0.0
 11
0.5
 21
27.9926
 31
0.0
  0
LINE
  5
44
330
1E
100
AcDbEntity
  8
0
100
AcDbLine
 10
0.6713750000000001
 20
27.1838
 30
0.0
 11
1.01412
 21
27.0
 31
0.0
  0
LINE
  5
45
330
1E
100
AcDbEntity
  8
0
100
AcDbLine
 10
0.6713750000000001
 20
27.1838
 30
0.0
 11
0.6713750000000001
 21
27.625
 31
0.0
  0
LINE
  5
46
330
1E
100
AcDbEntity
  8
0
100
AcDbLine
 10
0.134615
 20
44.6574
 30
0.0
 11
0.134615
 21
46.8191
 31
0.0
  0
LINE
  5
47
330
1E
100
AcDbEntity
  8
0
100
AcDbLine
 10
0.134615
 20
44.6574
 30
0.0
 11
0.134615
 21
42.1559
 31
0.0
  0
LINE
  5
48
330
1E
100
AcDbEntity
  8
0
100
AcDbLine
 10
0.134615
 20
42.1559
 30
0.0
 11
0.134615
 21
44.6574
 31
0.0
  0
LINE
  5
49
330
1E
100
AcDbEntity
  8
0
100
AcDbLine
 10
0.134615
 20
42.1559
 30
0.0
 11
0.134615
 21
39.5
 31
0.0
  0
LINE
  5
4A
330
1E
100
AcDbEntity
  8
0
100
AcDbLine
 10
0.134615
 20
46.8191
 30
0.0
 11
0.134615
 21
48.4559
 31
0.0
  0
LINE
  5
4B
330
1E
100
AcDbEntity
  8
0
100
AcDbLine
 10
0.134615
 20
46.8191
 30
0.0
 11
0.134615
 21
44.6574
 31
0.0
  0
LINE
  5
4C
330
1E
100
AcDbEntity
  8
0
100
AcDbLine
 10
0.134615
 20
48.4559
 30
0.0
 11
0.134615
 21
49.475
 31
0.0
  0
LINE
  5
4D
330
1E
100
AcDbEntity
  8
0
100
AcDbLine
 10
0.134615
 20
48.4559
 30
0.0
 11
0.134615
 21
46.8191
 31
0.0
  0
LINE
  5
4E
330
1E
100
AcDbEntity
  8
0
100
AcDbLine
 10
0.134615
 20
49.8456
 30
0.0
 11
0.403846
 21
50.0
 31
0.0
  0
LINE
  5
4F
330
1E
100
AcDbEntity
  8
0
100
AcDbLine
 10
0.134615
 20
49.8456
 30
0.0
 11
0.134615
 21
49.475
 31
0.0
  0
LINE
  5
50
330
1E
100
AcDbEntity
  8
0
100
AcDbLine
 10
0.134615
 20
49.475
 30
0.0
 11
0.134615
 21
49.8456
 31
0.0
  0
LINE
  5
51
330
1E
100
AcDbEntity
  8
0
100
AcDbLine
 10
0.134615
 20
49.475
 30
0.0
 11
0.134615
 21
48.4559
 31
0.0
  0
LINE
  5
52
330
1E
100
AcDbEntity
  8
0
100
AcDbLine
 10
0.134615
 20
39.5
 30
0.0
 11
0.134615
 21
36.84409999999999
 31
0.0
  0
LINE
  5
53
330
1E
100
AcDbEntity
  8
0
100
AcDbLine
 10
0.134615
 20
39.5
 30
0.0
 11
0.134615
 21
42.1559
 31
0.0
  0
LINE
  5
54
330
1E
100
AcDbEntity
  8
0
100
AcDbLine
 10
0.134615
 20
34.3427
 30
0.0
 11
0.134615
 21
36.84409999999999
 31
0.0
  0
LINE
  5
55
330
1E
100
AcDbEntity
  8
0
100
AcDbLine
 10
0.134615
 20
34.3427
 30
0.0
 11
0.134615
 21
32.1809
 31
0.0
  0
LINE
  5
56
330
1E
100
AcDbEntity
  8
0
100
AcDbLine
 10
0.134615
 20
36.84409999999999
 30
0.0
 11
0.134615
 21
39.5
 31
0.0
  0
LINE
  5
57
330
1E
100
AcDbEntity
  8
0
100
AcDbLine
 10
0.134615
 20
36.84409999999999
 30
0.0
 11
0.134615
 21
34.3427
 31
0.0
  0
LINE
  5
58
330
1E
100
AcDbEntity
  8
0
100
AcDbLine
 10
0.134615
 20
32.1809
 30
0.0
 11
0.134615
 21
30.5441
 31
0.0
  0
LINE
  5
59
330
1E
100
AcDbEntity
  8
0
100
AcDbLine
 10
0.134615
 20
32.1809
 30
0.0
 11
0.134615
 21
34.3427
 31
0.0
  0
LINE
  5
5A
330
1E
100
AcDbEntity
  8
0
100
AcDbLine
 10
0.134615
 20
30.5441
 30
0.0
 11
0.134615
 21
32.1809
 31
0.0
  0
LINE
  5
5B
330
1E
100
AcDbEntity
  8
0
100
AcDbLine
 10
0.134615
 20
30.5441
 30
0.0
 11
0.134615
 21
29.525
 31
0.0
  0
LINE
  5
5C
330
1E
100
AcDbEntity
  8
0
100
AcDbLine
 10
0.134615
 20
29.525
 30
0.0
 11
0.134615
 21
30.5441
 31
0.0
  0
LINE
  5
5D
330
1E
100
AcDbEntity
  8
0
100
AcDbLine
 10
0.134615
 20
29.525
 30
0.0
 11
0.134615
 21
29.1544
 31
0.0
  0
LINE
  5
5E
330
1E
100
AcDbEntity
  8
0
100
AcDbLine
 10
0.5
 20
33.5441
 30
0.0
 11
0.5
 21
31.0441
 31
0.0
  0
LINE
  5
5F
330
1E
100
AcDbEntity
  8
0
100
AcDbLine
 10
0.5
 20
33.5441
 30
0.0
 11
0.5
 21
36.4118
 31
0.0
  0
LINE
  5
60
330
1E
100
AcDbEntity
  8
0
100
AcDbLine
 10
0.5
 20
36.4118
 30
0.0
 11
0.5
 21
33.5441
 31
0.0
  0
LINE
  5
61
330
1E
100
AcDbEntity
  8
0
100
AcDbLine
 10
0.5
 20
36.4118
 30
0.0
 11
0.5
 21
39.5
 31
0.0
  0
LINE
  5
62
330
1E
100
AcDbEntity
  8
0
100
AcDbLine
 10
0.5
 20
45.45589999999999
 30
0.0
 11
0.5
 21
42.5882
 31
0.0
  0
LINE
  5
63
330
1E
100
AcDbEntity
  8
0
100
AcDbLine
 10
0.5
 20
45.45589999999999
 30
0.0
 11
0.5
 21
47.95589999999999
 31
0.0
  0
LINE
  5
64
330
1E
100
AcDbEntity
  8
0
100
AcDbLine
 10
0.5
 20
42.5882
 30
0.0
 11
0.5
 21
39.5
 31
0.0
  0
LINE
  5
65
330
1E
100
AcDbEntity
  8
0
100
AcDbLine
 10
0.5
 20
42.5882
 30
0.0
 11
0.5
 21
45.45589999999999
 31
0.0
  0
LINE
  5
66
330
1E
100
AcDbEntity
  8
0
100
AcDbLine
 10
0.5
 20
47.95589999999999
 30
0.0
 11
0.5
 21
49.8309
 31
0.0
  0
LINE
  5
67
330
1E
100
AcDbEntity
  8
0
100
AcDbLine
 10
0.5
 20
47.95589999999999
 30
0.0
 11
0.5
 21
45.45589999999999
 31
0.0
  0
LINE
  5
68
330
1E
100
AcDbEntity
  8
0
100
AcDbLine
 10
0.5
 20
49.8309
 30
0.0
 11
0.5
 21
47.95589999999999
 31
0.0
  0
LINE
  5
69
330
1E
100
AcDbEntity
  8
0
100
AcDbLine
 10
0.5
 20
49.8309
 30
0.0
 11
0.5
 21
51.0074
 31
0.0
  0
LINE
  5
6A
330
1E
100
AcDbEntity
  8
0
100
AcDbLine
 10
0.5
 20
39.5
 30
0.0
 11
0.5
 21
36.4118
 31
0.0
  0
LINE
  5
6B
330
1E
100
AcDbEntity
  8
0
100
AcDbLine
 10
0.5
 20
39.5
 30
0.0
 11
0.5
 21
42.5882
 31
0.0
  0
LINE
  5
6C
330
1E
100
AcDbEntity
  8
0
100
AcDbLine
 10
0.6713750000000001
 20
33.3603
 30
0.0
 11
0.6713750000000001
 21
30.7868
 31
0.0
  0
LINE
  5
6D
330
1E
100
AcDbEntity
  8
0
100
AcDbLine
 10
0.6713750000000001
 20
33.3603
 30
0.0
 11
0.6713750000000001
 21
36.3382
 31
0.0
  0
LINE
  5
6E
330
1E
100
AcDbEntity
  8
0
100
AcDbLine
 10
0.6713750000000001
 20
36.3382
 30
0.0
 11
0.6713750000000001
 21
33.3603
 31
0.0
  0
LINE
  5
6F
330
1E
100
AcDbEntity
  8
0
100
AcDbLine
 10
0.6713750000000001
 20
36.3382
 30
0.0
 11
0.6713750000000001
 21
39.5
 31
0.0
  0
LINE
  5
70
330
1E
100
AcDbEntity
  8
0
100
AcDbLine
 10
0.6713750000000001
 20
45.6397
 30
0.0
 11
0.6713750000000001
 21
42.6618
 31
0.0
  0
LINE
  5
71
330
1E
100
AcDbEntity
  8
0
100
AcDbLine
 10
0.6713750000000001
 20
45.6397
 30
0.0
 11
0.6713750000000001
 21
48.2132
 31
0.0
  0
LINE
  5
72
330
1E
100
AcDbEntity
  8
0
100
AcDbLine
 10
0.6713750000000001
 20
42.6618
 30
0.0
 11
0.6713750000000001
 21
39.5
 31
0.0
  0
LINE
  5
73
330
1E
100
AcDbEntity
  8
0
100
AcDbLine
 10
0.6713750000000001
 20
42.6618
 30
0.0
 11
0.6713750000000001
 21
45.6397
 31
0.0
  0
LINE
  5
74
330
1E
100
AcDbEntity
  8
0
100
AcDbLine
 10
0.6713750000000001
 20
48.2132
 30
0.0
 11
0.6713750000000001
 21
50.1618
 31
0.0
  0
LINE
  5
75
330
1E
100
AcDbEntity
  8
0
100
AcDbLine
 10
0.6713750000000001
 20
48.2132
 30
0.0
 11
0.6713750000000001
 21
45.6397
 31
0.0
  0
LINE
  5
76
330
1E
100
AcDbEntity
  8
0
100
AcDbLine
 10
0.6713750000000001
 20
39.5
 30
0.0
 11
0.6713750000000001
 21
36.3382
 31
0.0
  0
LINE
  5
77
330
1E
100
AcDbEntity
  8
0
100
AcDbLine
 10
0.6713750000000001
 20
39.5
 30
0.0
 11
0.6713750000000001
 21
42.6618
 31
0.0
  0
LINE
  5
78
330
1E
100
AcDbEntity
  8
0
100
AcDbLine
 10
0.5
 20
31.0441
 30
0.0
 11
0.5
 21
29.1691
 31
0.0
  0
LINE
  5
79
330
1E
100
AcDbEntity
  8
0
100
AcDbLine
 10
0.5
 20
31.0441
 30
0.0
 11
0.5
 21
33.5441
 31
0.0
  0
LINE
  5
7A
330
1E
100
AcDbEntity
  8
0
100
AcDbLine
 10
0.5
 20
29.1691
 30
0.0
 11
0.5
 21
27.9926
 31
0.0
  0
LINE
  5
7B
330
1E
100
AcDbEntity
  8
0
100
AcDbLine
 10
0.5
 20
29.1691
 30
0.0
 11
0.5
 21
31.0441
 31
0.0
  0
LINE
  5
7C
330
1E
100
AcDbEntity
  8
0
100
AcDbLine
 10
0.6713750000000001
 20
30.7868
 30
0.0
 11
0.6713750000000001
 21
28.8382
 31
0.0
  0
LINE
  5
7D
330
1E
100
AcDbEntity
  8
0
100
AcDbLine
 10
0.6713750000000001
 20
30.7868
 30
0.0
 11
0.6713750000000001
 21
33.3603
 31
0.0
  0
LINE
  5
7E
330
1E
100
AcDbEntity
  8
0
100
AcDbLine
 10
0.5
 20
51.0074
 30
0.0
 11
0.5
 21
49.8309
 31
0.0
  0
LINE
  5
7F
330
1E
100
AcDbEntity
  8
0
100
AcDbLine
 10
0.5
 20
51.0074
 30
0.0
 11
0.5
 21
51.4485
 31
0.0
  0
LINE
  5
80
330
1E
100
AcDbEntity
  8
0
100
AcDbLine
 10
0.5
 20
51.4485
 30
0.0
 11
0.5
 21
51.0074
 31
0.0
  0
LINE
  5
81
330
1E
100
AcDbEntity
  8
0
100
AcDbLine
 10
0.5
 20
51.4485
 30
0.0
 11
0.6713750000000001
 21
51.8162
 31
0.0
  0
LINE
  5
82
330
1E
100
AcDbEntity
  8
0
100
AcDbLine
 10
0.6713750000000001
 20
50.1618
 30
0.0
 11
0.6713750000000001
 21
48.2132
 31
0.0
  0
LINE
  5
83
330
1E
100
AcDbEntity
  8
0
100
AcDbLine
 10
0.6713750000000001
 20
50.1618
 30
0.0
 11
0.6713750000000001
 21
51.375
 31
0.0
  0
LINE
  5
84
330
1E
100
AcDbEntity
  8
0
100
AcDbLine
 10
0.6713750000000001
 20
51.375
 30
0.0
 11
0.6713750000000001
 21
50.1618
 31
0.0
  0
LINE
  5
85
330
1E
100
AcDbEntity
  8
0
100
AcDbLine
 10
0.6713750000000001
 20
51.375
 30
0.0
 11
0.6713750000000001
 21
51.8162
 31
0.0
  0
LINE
  5
86
330
1E
100
AcDbEntity
  8
0
100
AcDbLine
 10
0.6713750000000001
 20
51.8162
 30
0.0
 11
0.6713750000000001
 21
51.375
 31
0.0
  0
LINE
  5
87
330
1E
100
AcDbEntity
  8
0
100
AcDbLine
 10
0.6713750000000001
 20
51.8162
 30
0.0
 11
1.01412
 21
52.0
 31
0.0
  0
LINE
  5
88
330
1E
100
AcDbEntity
  8
0
100
AcDbLine
 10
1.01412
 20
52.0
 30
0.0
 11
382.5
 21
52.0
 31
0.0
  0
LINE
  5
89
330
1E
100
AcDbEntity
  8
0
100
AcDbLine
 10
1.014119999999989
 20
52.0
 30
0.0
 11
382.5
 21
52.0
 31
0.0
  0
LINE
  5
8A
330
1E
100
AcDbEntity
  8
0
100
AcDbLine
 10
0.403846
 20
50.0
 30
0.0
 11
0.5
 21
50.0
 31
0.0
  0
LINE
  5
8B
330
1E
100
AcDbEntity
  8
0
100
AcDbLine
 10
0.403846
 20
50.0
 30
0.0
 11
0.5
 21
50.0
 31
0.0
  0
LINE
  5
8C
330
1E
100
AcDbEntity
  8
0
100
AcDbLine
 10
0.134615
 20
29.1544
 30
0.0
 11
0.403846
 21
29.0
 31
0.0
  0
LINE
  5
8D
330
1E
100
AcDbEntity
  8
0
100
AcDbLine
 10
0.134615
 20
29.1544
 30
0.0
 11
0.134615
 21
29.525
 31
0.0
  0
LINE
  5
8E
330
1E
100
AcDbEntity
  8
0
100
AcDbLine
 10
0.403846
 20
29.0
 30
0.0
 11
0.5
 21
29.0
 31
0.0
  0
LINE
  5
8F
330
1E
100
AcDbEntity
  8
0
100
AcDbLine
 10
0.403846
 20
29.0
 30
0.0
 11
0.5
 21
29.0
 31
0.0
  0
LINE
  5
90
330
1E
100
AcDbEntity
  8
0
100
AcDbLine
 10
0.0
 20
39.5
 30
0.0
 11
0.0
 21
36.9059
 31
0.0
  0
LINE
  5
91
330
1E
100
AcDbEntity
  8
0
100
AcDbLine
 10
0.0
 20
39.5
 30
0.0
 11
0.0
 21
42.0941
 31
0.0
  0
LINE
  5
94
330
1E
100
AcDbEntity
  8
0
100
AcDbLine
 10
42.45146977261839
 20
52.0
 30
0.0
 11
42.58
 21
54.3324
 31
0.0
  0
LINE
  5
95
330
1E
100
AcDbEntity
  8
0
100
AcDbLine
 10
42.45146977261839
 20
52.0
 30
0.0
 11
42.58
 21
54.3324
 31
0.0
  0
LINE
  5
96
330
1E
100
AcDbEntity
  8
0
100
AcDbLine
 10
42.58
 20
54.3324
 30
0.0
 11
43.00869999999999
 21
60.00289999999999
 31
0.0
  0
LINE
  5
167
330
1E
100
AcDbEntity
  8
0
100
AcDbLine
 10
43.00869999999999
 20
60.00289999999999
 30
0.0
 11
43.4752999999592
 21
63.91519999965749
 31
0.0
  0
LINE
  5
168
330
1E
100
AcDbEntity
  8
0
100
AcDbLine
 10
43.00869999999999
 20
60.00289999999999
 30
0.0
 11
43.47529999999999
 21
63.91519999999999
 31
0.0
  0
LINE
  5
16B
330
1E
100
AcDbEntity
  8
0
100
AcDbLine
 10
43.47529999999999
 20
63.91519999999999
 30
0.0
 11
43.8565
 21
67.1159
 31
0.0
  0
LINE
  5
16C
330
1E
100
AcDbEntity
  8
0
100
AcDbLine
 10
44.17609999999999
 20
68.8469
 30
0.0
 11
44.5262
 21
70.27219999999999
 31
0.0
  0
LINE
  5
16D
330
1E
100
AcDbEntity
  8
0
100
AcDbLine
 10
43.8565
 20
67.1159
 30
0.0
 11
44.17609999999999
 21
68.8469
 31
0.0
  0
LINE
  5
16E
330
1E
100
AcDbEntity
  8
0
100
AcDbLine
 10
45.0215
 20
71.5012
 30
0.0
 11
45.52529999999999
 21
72.38030000000001
 31
0.0
  0
LINE
  5
16F
330
1E
100
AcDbEntity
  8
0
100
AcDbLine
 10
44.5262
 20
70.27219999999999
 30
0.0
 11
45.0215
 21
71.5012
 31
0.0
  0
LINE
  5
170
330
1E
100
AcDbEntity
  8
0
100
AcDbLine
 10
46.14869999999999
 20
73.3191
 30
0.0
 11
46.8674
 21
74.1326
 31
0.0
  0
LINE
  5
171
330
1E
100
AcDbEntity
  8
0
100
AcDbLine
 10
45.52529999999999
 20
72.38030000000001
 30
0.0
 11
46.14869999999999
 21
73.3191
 31
0.0
  0
LINE
  5
17B
330
1E
100
AcDbEntity
  8
0
100
AcDbLine
 10
46.8674
 20
74.1326
 30
0.0
 11
47.68089999999999
 21
74.85129999999999
 31
0.0
  0
LINE
  5
17D
330
1E
100
AcDbEntity
  8
0
100
AcDbLine
 10
47.68089999999999
 20
74.85129999999999
 30
0.0
 11
48.6197
 21
75.4747
 31
0.0
  0
LINE
  5
17F
330
1E
100
AcDbEntity
  8
0
100
AcDbLine
 10
48.6197
 20
75.4747
 30
0.0
 11
49.4988
 21
75.9785
 31
0.0
  0
LINE
  5
181
330
1E
100
AcDbEntity
  8
0
100
AcDbLine
 10
49.4988
 20
75.9785
 30
0.0
 11
50.7278
 21
76.4738
 31
0.0
  0
LINE
  5
183
330
1E
100
AcDbEntity
  8
0
100
AcDbLine
 10
52.15310000018661
 20
76.82390000003441
 30
0.0
 11
53.88419999999999
 21
77.1435
 31
0.0
  0
LINE
  5
184
330
1E
100
AcDbEntity
  8
0
100
AcDbLine
 10
52.1531000001865
 20
76.82390000003441
 30
0.0
 11
53.88419999999999
 21
77.1435
 31
0.0
  0
LINE
  5
185
330
1E
100
AcDbEntity
  8
0
100
AcDbLine
 10
50.7278
 20
76.4738
 30
0.0
 11
52.1531
 21
76.82389999999999
 31
0.0
  0
LINE
  5
189
330
1E
100
AcDbEntity
  8
0
100
AcDbLine
 10
57.0848000000002
 20
77.52469999999999
 30
0.0
 11
60.9971
 21
77.99129999999999
 31
0.0
  0
LINE
  5
18A
330
1E
100
AcDbEntity
  8
0
100
AcDbLine
 10
53.88419999999999
 20
77.1435
 30
0.0
 11
57.0847999996813
 21
77.524699999962
 31
0.0
  0
LINE
  5
18B
330
1E
100
AcDbEntity
  8
0
100
AcDbLine
 10
53.88419999999999
 20
77.1435
 30
0.0
 11
57.0847999996824
 21
77.52469999996221
 31
0.0
  0
LINE
  5
18C
330
1E
100
AcDbEntity
  8
0
100
AcDbLine
 10
57.08480000287529
 20
77.5247000003429
 30
0.0
 11
60.9971
 21
77.99129999999999
 31
0.0
  0
LINE
  5
18D
330
1E
100
AcDbEntity
  8
0
100
AcDbLine
 10
60.9971
 20
77.99129999999999
 30
0.0
 11
66.6675999934216
 21
78.41999999950271
 31
0.0
  0
LINE
  5
18E
330
1E
100
AcDbEntity
  8
0
100
AcDbLine
 10
60.9971
 20
77.99129999999999
 30
0.0
 11
66.6675999934087
 21
78.4199999995017
 31
0.0
  0
LINE
  5
193
330
1E
100
AcDbEntity
  8
0
100
AcDbLine
 10
66.6676
 20
78.42
 30
0.0
 11
73.1369
 21
78.7765
 31
0.0
  0
LINE
  5
195
330
1E
100
AcDbEntity
  8
0
100
AcDbLine
 10
73.1369
 20
78.7765
 30
0.0
 11
78.1314
 21
78.94759999999999
 31
0.0
  0
LINE
  5
2AD
330
1E
100
AcDbEntity
  8
0
100
AcDbLine
 10
78.1314
 20
78.94759999999999
 30
0.0
 11
81.5
 21
79.0
 31
0.0
  0
LINE
  5
2B6
330
1E
100
AcDbEntity
  8
0
100
AcDbLine
 10
119.5246999999999
 20
63.91519999999999
 30
0.0
 11
119.1435
 21
67.1159
 31
0.0
  0
LINE
  5
2B7
330
1E
100
AcDbEntity
  8
0
100
AcDbLine
 10
120.4199999999999
 20
54.3324
 30
0.0
 11
119.9913
 21
60.00289999999999
 31
0.0
  0
LINE
  5
2B8
330
1E
100
AcDbEntity
  8
0
100
AcDbLine
 10
119.9913
 20
60.00289999999999
 30
0.0
 11
119.5246999999999
 21
63.91519999999999
 31
0.0
  0
LINE
  5
2B9
330
1E
100
AcDbEntity
  8
0
100
AcDbLine
 10
119.9913
 20
60.00289999999999
 30
0.0
 11
119.5247000000408
 21
63.91519999965749
 31
0.0
  0
LINE
  5
2BA
330
1E
100
AcDbEntity
  8
0
100
AcDbLine
 10
112.2721999999999
 20
76.4738
 30
0.0
 11
110.8469
 21
76.82389999999999
 31
0.0
  0
LINE
  5
2BB
330
1E
100
AcDbEntity
  8
0
100
AcDbLine
 10
118.4738
 20
70.27219999999999
 30
0.0
 11
117.9785
 21
71.5012
 31
0.0
  0
LINE
  5
2BC
330
1E
100
AcDbEntity
  8
0
100
AcDbLine
 10
119.1435
 20
67.1159
 30
0.0
 11
118.8239
 21
68.8469
 31
0.0
  0
LINE
  5
2BD
330
1E
100
AcDbEntity
  8
0
100
AcDbLine
 10
118.8239
 20
68.8469
 30
0.0
 11
118.4738
 21
70.27219999999999
 31
0.0
  0
LINE
  5
2BE
330
1E
100
AcDbEntity
  8
0
100
AcDbLine
 10
116.8513
 20
73.3191
 30
0.0
 11
116.1326
 21
74.1326
 31
0.0
  0
LINE
  5
2BF
330
1E
100
AcDbEntity
  8
0
100
AcDbLine
 10
117.9785
 20
71.5012
 30
0.0
 11
117.4746999999999
 21
72.38030000000001
 31
0.0
  0
LINE
  5
2C0
330
1E
100
AcDbEntity
  8
0
100
AcDbLine
 10
117.4746999999999
 20
72.38030000000001
 30
0.0
 11
116.8513
 21
73.3191
 31
0.0
  0
LINE
  5
2C1
330
1E
100
AcDbEntity
  8
0
100
AcDbLine
 10
115.3190999999999
 20
74.85129999999999
 30
0.0
 11
114.3803
 21
75.4747
 31
0.0
  0
LINE
  5
2C2
330
1E
100
AcDbEntity
  8
0
100
AcDbLine
 10
116.1326
 20
74.1326
 30
0.0
 11
115.3190999999999
 21
74.85129999999999
 31
0.0
  0
LINE
  5
2C3
330
1E
100
AcDbEntity
  8
0
100
AcDbLine
 10
113.5011999999999
 20
75.9785
 30
0.0
 11
112.2721999999999
 21
76.4738
 31
0.0
  0
LINE
  5
2C4
330
1E
100
AcDbEntity
  8
0
100
AcDbLine
 10
114.3803
 20
75.4747
 30
0.0
 11
113.5011999999999
 21
75.9785
 31
0.0
  0
LINE
  5
2C5
330
1E
100
AcDbEntity
  8
0
100
AcDbLine
 10
110.8468999998134
 20
76.82390000003441
 30
0.0
 11
109.1158
 21
77.1435
 31
0.0
  0
LINE
  5
2C6
330
1E
100
AcDbEntity
  8
0
100
AcDbLine
 10
110.8468999998133
 20
76.82390000003441
 30
0.0
 11
109.1158
 21
77.1435
 31
0.0
  0
LINE
  5
2C7
330
1E
100
AcDbEntity
  8
0
100
AcDbLine
 10
96.3324
 20
78.42
 30
0.0
 11
89.86310000000001
 21
78.7765
 31
0.0
  0
LINE
  5
2C8
330
1E
100
AcDbEntity
  8
0
100
AcDbLine
 10
102.0029
 20
77.99129999999999
 30
0.0
 11
96.3324000065913
 21
78.4199999995017
 31
0.0
  0
LINE
  5
2C9
330
1E
100
AcDbEntity
  8
0
100
AcDbLine
 10
102.0029
 20
77.99129999999999
 30
0.0
 11
96.3324000065784
 21
78.41999999950271
 31
0.0
  0
LINE
  5
2CA
330
1E
100
AcDbEntity
  8
0
100
AcDbLine
 10
105.9151999971247
 20
77.5247000003429
 30
0.0
 11
102.0029
 21
77.99129999999999
 31
0.0
  0
LINE
  5
2CB
330
1E
100
AcDbEntity
  8
0
100
AcDbLine
 10
109.1158
 20
77.1435
 30
0.0
 11
105.9152000003176
 21
77.52469999996221
 31
0.0
  0
LINE
  5
2CC
330
1E
100
AcDbEntity
  8
0
100
AcDbLine
 10
109.1158
 20
77.1435
 30
0.0
 11
105.9152000003186
 21
77.524699999962
 31
0.0
  0
LINE
  5
2CD
330
1E
100
AcDbEntity
  8
0
100
AcDbLine
 10
105.9151999999998
 20
77.52469999999999
 30
0.0
 11
102.0029
 21
77.99129999999999
 31
0.0
  0
LINE
  5
2CE
330
1E
100
AcDbEntity
  8
0
100
AcDbLine
 10
89.86310000000001
 20
78.7765
 30
0.0
 11
84.8686
 21
78.94759999999999
 31
0.0
  0
LINE
  5
2CF
330
1E
100
AcDbEntity
  8
0
100
AcDbLine
 10
84.8686
 20
78.94759999999999
 30
0.0
 11
81.5
 21
79.0
 31
0.0
  0
LINE
  5
2D0
330
1E
100
AcDbEntity
  8
0
100
AcDbLine
 10
120.5485302273816
 20
52.0
 30
0.0
 11
120.4199999999999
 21
54.3324
 31
0.0
  0
LINE
  5
2D1
330
1E
100
AcDbEntity
  8
0
100
AcDbLine
 10
120.5485302273816
 20
52.0
 30
0.0
 11
120.4199999999999
 21
54.3324
 31
0.0
  0
LINE
  5
2D2
330
1E
100
AcDbEntity
  8
0
100
AcDbLine
 10
119.5246999999999
 20
15.0848
 30
0.0
 11
119.1435
 21
11.8841
 31
0.0
  0
LINE
  5
2D3
330
1E
100
AcDbEntity
  8
0
100
AcDbLine
 10
43.47529999999999
 20
15.0848
 30
0.0
 11
43.8565
 21
11.8841
 31
0.0
  0
LINE
  5
2D4
330
1E
100
AcDbEntity
  8
0
100
AcDbLine
 10
42.58
 20
24.6676
 30
0.0
 11
43.00869999999999
 21
18.9971
 31
0.0
  0
LINE
  5
2D5
330
1E
100
AcDbEntity
  8
0
100
AcDbLine
 10
43.00869999999999
 20
18.9971
 30
0.0
 11
43.47529999999999
 21
15.0848
 31
0.0
  0
LINE
  5
2D6
330
1E
100
AcDbEntity
  8
0
100
AcDbLine
 10
43.00869999999999
 20
18.9971
 30
0.0
 11
43.4752999999592
 21
15.0848000003425
 31
0.0
  0
LINE
  5
2D7
330
1E
100
AcDbEntity
  8
0
100
AcDbLine
 10
120.4199999999999
 20
24.6676
 30
0.0
 11
119.9913
 21
18.9971
 31
0.0
  0
LINE
  5
2D8
330
1E
100
AcDbEntity
  8
0
100
AcDbLine
 10
119.9913
 20
18.9971
 30
0.0
 11
119.5247000000408
 21
15.0848000003425
 31
0.0
  0
LINE
  5
2D9
330
1E
100
AcDbEntity
  8
0
100
AcDbLine
 10
119.9913
 20
18.9971
 30
0.0
 11
119.5246999999999
 21
15.0848
 31
0.0
  0
LINE
  5
2DA
330
1E
100
AcDbEntity
  8
0
100
AcDbLine
 10
112.2721999999999
 20
2.526200000000002
 30
0.0
 11
110.8469
 21
2.176100000000005
 31
0.0
  0
LINE
  5
2DB
330
1E
100
AcDbEntity
  8
0
100
AcDbLine
 10
50.7278
 20
2.526200000000002
 30
0.0
 11
52.1531
 21
2.176100000000005
 31
0.0
  0
LINE
  5
2DC
330
1E
100
AcDbEntity
  8
0
100
AcDbLine
 10
44.5262
 20
8.727800000000002
 30
0.0
 11
45.0215
 21
7.498800000000002
 31
0.0
  0
LINE
  5
2DD
330
1E
100
AcDbEntity
  8
0
100
AcDbLine
 10
43.8565
 20
11.8841
 30
0.0
 11
44.17609999999999
 21
10.15309999999999
 31
0.0
  0
LINE
  5
2DE
330
1E
100
AcDbEntity
  8
0
100
AcDbLine
 10
44.17609999999999
 20
10.15309999999999
 30
0.0
 11
44.5262
 21
8.727800000000002
 31
0.0
  0
LINE
  5
2DF
330
1E
100
AcDbEntity
  8
0
100
AcDbLine
 10
46.14869999999999
 20
5.680899999999994
 30
0.0
 11
46.8674
 21
4.867400000000003
 31
0.0
  0
LINE
  5
2E0
330
1E
100
AcDbEntity
  8
0
100
AcDbLine
 10
45.0215
 20
7.498800000000002
 30
0.0
 11
45.52529999999999
 21
6.619699999999994
 31
0.0
  0
LINE
  5
2E1
330
1E
100
AcDbEntity
  8
0
100
AcDbLine
 10
45.52529999999999
 20
6.619699999999994
 30
0.0
 11
46.14869999999999
 21
5.680899999999994
 31
0.0
  0
LINE
  5
2E2
330
1E
100
AcDbEntity
  8
0
100
AcDbLine
 10
47.68089999999999
 20
4.148700000000005
 30
0.0
 11
48.6197
 21
3.525300000000001
 31
0.0
  0
LINE
  5
2E3
330
1E
100
AcDbEntity
  8
0
100
AcDbLine
 10
46.8674
 20
4.867400000000003
 30
0.0
 11
47.68089999999999
 21
4.148700000000005
 31
0.0
  0
LINE
  5
2E4
330
1E
100
AcDbEntity
  8
0
100
AcDbLine
 10
49.4988
 20
3.021500000000003
 30
0.0
 11
50.7278
 21
2.526200000000002
 31
0.0
  0
LINE
  5
2E5
330
1E
100
AcDbEntity
  8
0
100
AcDbLine
 10
48.6197
 20
3.525300000000001
 30
0.0
 11
49.4988
 21
3.021500000000003
 31
0.0
  0
LINE
  5
2E6
330
1E
100
AcDbEntity
  8
0
100
AcDbLine
 10
118.4738
 20
8.727800000000002
 30
0.0
 11
117.9785
 21
7.498800000000002
 31
0.0
  0
LINE
  5
2E7
330
1E
100
AcDbEntity
  8
0
100
AcDbLine
 10
119.1435
 20
11.8841
 30
0.0
 11
118.8239
 21
10.15309999999999
 31
0.0
  0
LINE
  5
2E8
330
1E
100
AcDbEntity
  8
0
100
AcDbLine
 10
118.8239
 20
10.15309999999999
 30
0.0
 11
118.4738
 21
8.727800000000002
 31
0.0
  0
LINE
  5
2E9
330
1E
100
AcDbEntity
  8
0
100
AcDbLine
 10
113.5011999999999
 20
3.021500000000003
 30
0.0
 11
112.2721999999999
 21
2.526200000000002
 31
0.0
  0
LINE
  5
2EA
330
1E
100
AcDbEntity
  8
0
100
AcDbLine
 10
116.8513
 20
5.680899999999994
 30
0.0
 11
116.1326
 21
4.867400000000003
 31
0.0
  0
LINE
  5
2EB
330
1E
100
AcDbEntity
  8
0
100
AcDbLine
 10
117.9785
 20
7.498800000000002
 30
0.0
 11
117.4746999999999
 21
6.619699999999994
 31
0.0
  0
LINE
  5
2EC
330
1E
100
AcDbEntity
  8
0
100
AcDbLine
 10
117.4746999999999
 20
6.619699999999994
 30
0.0
 11
116.8513
 21
5.680899999999994
 31
0.0
  0
LINE
  5
2ED
330
1E
100
AcDbEntity
  8
0
100
AcDbLine
 10
115.3190999999999
 20
4.148700000000005
 30
0.0
 11
114.3803
 21
3.525300000000001
 31
0.0
  0
LINE
  5
2EE
330
1E
100
AcDbEntity
  8
0
100
AcDbLine
 10
116.1326
 20
4.867400000000003
 30
0.0
 11
115.3190999999999
 21
4.148700000000005
 31
0.0
  0
LINE
  5
2EF
330
1E
100
AcDbEntity
  8
0
100
AcDbLine
 10
114.3803
 20
3.525300000000001
 30
0.0
 11
113.5011999999999
 21
3.021500000000003
 31
0.0
  0
LINE
  5
2F0
330
1E
100
AcDbEntity
  8
0
100
AcDbLine
 10
84.8686
 20
0.0524000000000058
 30
0.0
 11
81.5
 21
0.0
 31
0.0
  0
LINE
  5
2F1
330
1E
100
AcDbEntity
  8
0
100
AcDbLine
 10
52.1531000001865
 20
2.176099999965586
 30
0.0
 11
53.88419999999999
 21
1.856499999999996
 31
0.0
  0
LINE
  5
2F2
330
1E
100
AcDbEntity
  8
0
100
AcDbLine
 10
52.15310000018661
 20
2.176099999965586
 30
0.0
 11
53.88419999999999
 21
1.856499999999996
 31
0.0
  0
LINE
  5
2F3
330
1E
100
AcDbEntity
  8
0
100
AcDbLine
 10
66.6676
 20
0.5799999999999983
 30
0.0
 11
73.1369
 21
0.2235000000000014
 31
0.0
  0
LINE
  5
2F4
330
1E
100
AcDbEntity
  8
0
100
AcDbLine
 10
60.9971
 20
1.008700000000004
 30
0.0
 11
66.6675999934087
 21
0.580000000498302
 31
0.0
  0
LINE
  5
2F5
330
1E
100
AcDbEntity
  8
0
100
AcDbLine
 10
60.9971
 20
1.008700000000004
 30
0.0
 11
66.6675999934216
 21
0.580000000497293
 31
0.0
  0
LINE
  5
2F6
330
1E
100
AcDbEntity
  8
0
100
AcDbLine
 10
57.08480000287529
 20
1.475299999657096
 30
0.0
 11
60.9971
 21
1.008700000000004
 31
0.0
  0
LINE
  5
2F7
330
1E
100
AcDbEntity
  8
0
100
AcDbLine
 10
53.88419999999999
 20
1.856499999999996
 30
0.0
 11
57.0847999996824
 21
1.47530000003779
 31
0.0
  0
LINE
  5
2F8
330
1E
100
AcDbEntity
  8
0
100
AcDbLine
 10
53.88419999999999
 20
1.856499999999996
 30
0.0
 11
57.0847999996813
 21
1.475300000038004
 31
0.0
  0
LINE
  5
2F9
330
1E
100
AcDbEntity
  8
0
100
AcDbLine
 10
57.0848000000002
 20
1.475300000000004
 30
0.0
 11
60.9971
 21
1.008700000000004
 31
0.0
  0
LINE
  5
2FA
330
1E
100
AcDbEntity
  8
0
100
AcDbLine
 10
73.1369
 20
0.2235000000000014
 30
0.0
 11
78.1314
 21
0.0524000000000058
 31
0.0
  0
LINE
  5
2FB
330
1E
100
AcDbEntity
  8
0
100
AcDbLine
 10
78.1314
 20
0.0524000000000058
 30
0.0
 11
81.5
 21
0.0
 31
0.0
  0
LINE
  5
2FC
330
1E
100
AcDbEntity
  8
0
100
AcDbLine
 10
102.0029
 20
1.008700000000004
 30
0.0
 11
96.3324000065784
 21
0.580000000497293
 31
0.0
  0
LINE
  5
2FD
330
1E
100
AcDbEntity
  8
0
100
AcDbLine
 10
102.0029
 20
1.008700000000004
 30
0.0
 11
96.3324000065913
 21
0.580000000498302
 31
0.0
  0
LINE
  5
2FE
330
1E
100
AcDbEntity
  8
0
100
AcDbLine
 10
96.3324
 20
0.5799999999999983
 30
0.0
 11
89.86310000000001
 21
0.2235000000000014
 31
0.0
  0
LINE
  5
2FF
330
1E
100
AcDbEntity
  8
0
100
AcDbLine
 10
89.86310000000001
 20
0.2235000000000014
 30
0.0
 11
84.8686
 21
0.0524000000000058
 31
0.0
  0
LINE
  5
300
330
1E
100
AcDbEntity
  8
0
100
AcDbLine
 10
105.9151999999998
 20
1.475300000000004
 30
0.0
 11
102.0029
 21
1.008700000000004
 31
0.0
  0
LINE
  5
301
330
1E
100
AcDbEntity
  8
0
100
AcDbLine
 10
105.9151999971247
 20
1.475299999657096
 30
0.0
 11
102.0029
 21
1.008700000000004
 31
0.0
  0
LINE
  5
302
330
1E
100
AcDbEntity
  8
0
100
AcDbLine
 10
109.1158
 20
1.856499999999996
 30
0.0
 11
105.9152000003186
 21
1.475300000038004
 31
0.0
  0
LINE
  5
303
330
1E
100
AcDbEntity
  8
0
100
AcDbLine
 10
109.1158
 20
1.856499999999996
 30
0.0
 11
105.9152000003176
 21
1.47530000003779
 31
0.0
  0
LINE
  5
304
330
1E
100
AcDbEntity
  8
0
100
AcDbLine
 10
110.8468999998133
 20
2.176099999965586
 30
0.0
 11
109.1158
 21
1.856499999999996
 31
0.0
  0
LINE
  5
305
330
1E
100
AcDbEntity
  8
0
100
AcDbLine
 10
110.8468999998134
 20
2.176099999965586
 30
0.0
 11
109.1158
 21
1.856499999999996
 31
0.0
  0
LINE
  5
306
330
1E
100
AcDbEntity
  8
0
100
AcDbLine
 10
42.45146977261839
 20
27.0
 30
0.0
 11
42.58
 21
24.6676
 31
0.0
  0
LINE
  5
307
330
1E
100
AcDbEntity
  8
0
100
AcDbLine
 10
42.45146977261839
 20
27.0
 30
0.0
 11
42.58
 21
24.6676
 31
0.0
  0
LINE
  5
308
330
1E
100
AcDbEntity
  8
0
100
AcDbLine
 10
120.5485302273816
 20
27.0
 30
0.0
 11
120.4199999999999
 21
24.6676
 31
0.0
  0
LINE
  5
309
330
1E
100
AcDbEntity
  8
0
100
AcDbLine
 10
120.5485302273816
 20
27.0
 30
0.0
 11
120.4199999999999
 21
24.6676
 31
0.0
  0
LINE
  5
30A
330
1E
100
AcDbEntity
  8
0
100
AcDbLine
 10
763.98588
 20
52.0
 30
0.0
 11
382.5
 21
52.0
 31
0.0
  0
LINE
  5
30B
330
1E
100
AcDbEntity
  8
0
100
AcDbLine
 10
763.9858799999999
 20
52.0
 30
0.0
 11
382.5
 21
52.0
 31
0.0
  0
LINE
  5
30C
330
1E
100
AcDbEntity
  8
0
100
AcDbLine
 10
763.98588
 20
27.0
 30
0.0
 11
382.5
 21
27.0
 31
0.0
  0
LINE
  5
30D
330
1E
100
AcDbEntity
  8
0
100
AcDbLine
 10
763.9858799999999
 20
27.0
 30
0.0
 11
382.5
 21
27.0
 31
0.0
  0
LINE
  5
30E
330
1E
100
AcDbEntity
  8
0
100
AcDbLine
 10
765.0
 20
39.5
 30
0.0
 11
765.0
 21
42.0941
 31
0.0
  0
LINE
  5
30F
330
1E
100
AcDbEntity
  8
0
100
AcDbLine
 10
764.328625
 20
39.5
 30
0.0
 11
764.328625
 21
42.6618
 31
0.0
  0
LINE
  5
310
330
1E
100
AcDbEntity
  8
0
100
AcDbLine
 10
764.328625
 20
42.6618
 30
0.0
 11
764.328625
 21
39.5
 31
0.0
  0
LINE
  5
311
330
1E
100
AcDbEntity
  8
0
100
AcDbLine
 10
764.5
 20
39.5
 30
0.0
 11
764.5
 21
42.5882
 31
0.0
  0
LINE
  5
312
330
1E
100
AcDbEntity
  8
0
100
AcDbLine
 10
764.5
 20
42.5882
 30
0.0
 11
764.5
 21
39.5
 31
0.0
  0
LINE
  5
313
330
1E
100
AcDbEntity
  8
0
100
AcDbLine
 10
764.8653849999999
 20
39.5
 30
0.0
 11
764.8653849999999
 21
42.1559
 31
0.0
  0
LINE
  5
314
330
1E
100
AcDbEntity
  8
0
100
AcDbLine
 10
764.8653849999999
 20
42.1559
 30
0.0
 11
764.8653849999999
 21
39.5
 31
0.0
  0
LINE
  5
315
330
1E
100
AcDbEntity
  8
0
100
AcDbLine
 10
765.0
 20
42.0941
 30
0.0
 11
765.0
 21
39.5
 31
0.0
  0
LINE
  5
316
330
1E
100
AcDbEntity
  8
0
100
AcDbLine
 10
721.5247
 20
15.0848
 30
0.0
 11
721.1435
 21
11.8841
 31
0.0
  0
LINE
  5
317
330
1E
100
AcDbEntity
  8
0
100
AcDbLine
 10
645.4753000000001
 20
15.0848
 30
0.0
 11
645.8565
 21
11.8841
 31
0.0
  0
LINE
  5
318
330
1E
100
AcDbEntity
  8
0
100
AcDbLine
 10
714.2722
 20
2.526200000000002
 30
0.0
 11
712.8468999999999
 21
2.176100000000005
 31
0.0
  0
LINE
  5
319
330
1E
100
AcDbEntity
  8
0
100
AcDbLine
 10
652.7277999999999
 20
2.526200000000002
 30
0.0
 11
654.1530999999999
 21
2.176100000000005
 31
0.0
  0
LINE
  5
31A
330
1E
100
AcDbEntity
  8
0
100
AcDbLine
 10
680.1313999999999
 20
0.0524000000000058
 30
0.0
 11
683.4999999999999
 21
0.0
 31
0.0
  0
LINE
  5
31B
330
1E
100
AcDbEntity
  8
0
100
AcDbLine
 10
712.8468999998134
 20
2.176099999965586
 30
0.0
 11
711.1158
 21
1.856499999999996
 31
0.0
  0
LINE
  5
31C
330
1E
100
AcDbEntity
  8
0
100
AcDbLine
 10
712.8468999998135
 20
2.176099999965586
 30
0.0
 11
711.1158
 21
1.856499999999996
 31
0.0
  0
LINE
  5
31D
330
1E
100
AcDbEntity
  8
0
100
AcDbLine
 10
698.3324
 20
0.5799999999999983
 30
0.0
 11
691.8631
 21
0.2235000000000014
 31
0.0
  0
LINE
  5
31E
330
1E
100
AcDbEntity
  8
0
100
AcDbLine
 10
704.0028999999999
 20
1.008700000000004
 30
0.0
 11
698.3324000065784
 21
0.580000000497293
 31
0.0
  0
LINE
  5
31F
330
1E
100
AcDbEntity
  8
0
100
AcDbLine
 10
704.0028999999999
 20
1.008700000000004
 30
0.0
 11
698.3324000065913
 21
0.580000000498302
 31
0.0
  0
LINE
  5
320
330
1E
100
AcDbEntity
  8
0
100
AcDbLine
 10
707.9151999999997
 20
1.475300000000004
 30
0.0
 11
704.0028999999999
 21
1.008700000000004
 31
0.0
  0
LINE
  5
321
330
1E
100
AcDbEntity
  8
0
100
AcDbLine
 10
711.1158
 20
1.856499999999996
 30
0.0
 11
707.9152000003187
 21
1.475300000038004
 31
0.0
  0
LINE
  5
322
330
1E
100
AcDbEntity
  8
0
100
AcDbLine
 10
711.1158
 20
1.856499999999996
 30
0.0
 11
707.9152000003175
 21
1.47530000003779
 31
0.0
  0
LINE
  5
323
330
1E
100
AcDbEntity
  8
0
100
AcDbLine
 10
707.9151999971246
 20
1.475299999657096
 30
0.0
 11
704.0028999999999
 21
1.008700000000004
 31
0.0
  0
LINE
  5
324
330
1E
100
AcDbEntity
  8
0
100
AcDbLine
 10
691.8631
 20
0.2235000000000014
 30
0.0
 11
686.8686
 21
0.0524000000000058
 31
0.0
  0
LINE
  5
325
330
1E
100
AcDbEntity
  8
0
100
AcDbLine
 10
686.8686
 20
0.0524000000000058
 30
0.0
 11
683.4999999999999
 21
0.0
 31
0.0
  0
LINE
  5
326
330
1E
100
AcDbEntity
  8
0
100
AcDbLine
 10
662.9971
 20
1.008700000000004
 30
0.0
 11
668.6675999934086
 21
0.580000000498302
 31
0.0
  0
LINE
  5
327
330
1E
100
AcDbEntity
  8
0
100
AcDbLine
 10
662.9971
 20
1.008700000000004
 30
0.0
 11
668.6675999934216
 21
0.580000000497293
 31
0.0
  0
LINE
  5
328
330
1E
100
AcDbEntity
  8
0
100
AcDbLine
 10
668.6676
 20
0.5799999999999983
 30
0.0
 11
675.1368999999999
 21
0.2235000000000014
 31
0.0
  0
LINE
  5
329
330
1E
100
AcDbEntity
  8
0
100
AcDbLine
 10
675.1368999999999
 20
0.2235000000000014
 30
0.0
 11
680.1313999999999
 21
0.0524000000000058
 31
0.0
  0
LINE
  5
32A
330
1E
100
AcDbEntity
  8
0
100
AcDbLine
 10
659.0848000028753
 20
1.475299999657096
 30
0.0
 11
662.9971
 21
1.008700000000004
 31
0.0
  0
LINE
  5
32B
330
1E
100
AcDbEntity
  8
0
100
AcDbLine
 10
659.0848000000002
 20
1.475300000000004
 30
0.0
 11
662.9971
 21
1.008700000000004
 31
0.0
  0
LINE
  5
32C
330
1E
100
AcDbEntity
  8
0
100
AcDbLine
 10
654.1531000001864
 20
2.176099999965586
 30
0.0
 11
655.8841999999999
 21
1.856499999999996
 31
0.0
  0
LINE
  5
32D
330
1E
100
AcDbEntity
  8
0
100
AcDbLine
 10
654.1531000001866
 20
2.176099999965586
 30
0.0
 11
655.8841999999999
 21
1.856499999999996
 31
0.0
  0
LINE
  5
32E
330
1E
100
AcDbEntity
  8
0
100
AcDbLine
 10
655.8841999999999
 20
1.856499999999996
 30
0.0
 11
659.0847999996825
 21
1.47530000003779
 31
0.0
  0
LINE
  5
32F
330
1E
100
AcDbEntity
  8
0
100
AcDbLine
 10
655.8841999999999
 20
1.856499999999996
 30
0.0
 11
659.0847999996813
 21
1.475300000038004
 31
0.0
  0
LINE
  5
330
330
1E
100
AcDbEntity
  8
0
100
AcDbLine
 10
720.4737999999999
 20
8.727800000000002
 30
0.0
 11
719.9784999999999
 21
7.498800000000002
 31
0.0
  0
LINE
  5
331
330
1E
100
AcDbEntity
  8
0
100
AcDbLine
 10
718.8513
 20
5.680899999999994
 30
0.0
 11
718.1326
 21
4.867400000000003
 31
0.0
  0
LINE
  5
332
330
1E
100
AcDbEntity
  8
0
100
AcDbLine
 10
717.3191
 20
4.148700000000005
 30
0.0
 11
716.3803
 21
3.525300000000001
 31
0.0
  0
LINE
  5
333
330
1E
100
AcDbEntity
  8
0
100
AcDbLine
 10
716.3803
 20
3.525300000000001
 30
0.0
 11
715.5012
 21
3.021500000000003
 31
0.0
  0
LINE
  5
334
330
1E
100
AcDbEntity
  8
0
100
AcDbLine
 10
715.5012
 20
3.021500000000003
 30
0.0
 11
714.2722
 21
2.526200000000002
 31
0.0
  0
LINE
  5
335
330
1E
100
AcDbEntity
  8
0
100
AcDbLine
 10
718.1326
 20
4.867400000000003
 30
0.0
 11
717.3191
 21
4.148700000000005
 31
0.0
  0
LINE
  5
336
330
1E
100
AcDbEntity
  8
0
100
AcDbLine
 10
719.9784999999999
 20
7.498800000000002
 30
0.0
 11
719.4746999999999
 21
6.619699999999994
 31
0.0
  0
LINE
  5
337
330
1E
100
AcDbEntity
  8
0
100
AcDbLine
 10
719.4746999999999
 20
6.619699999999994
 30
0.0
 11
718.8513
 21
5.680899999999994
 31
0.0
  0
LINE
  5
338
330
1E
100
AcDbEntity
  8
0
100
AcDbLine
 10
721.1435
 20
11.8841
 30
0.0
 11
720.8238999999999
 21
10.15309999999999
 31
0.0
  0
LINE
  5
339
330
1E
100
AcDbEntity
  8
0
100
AcDbLine
 10
720.8238999999999
 20
10.15309999999999
 30
0.0
 11
720.4737999999999
 21
8.727800000000002
 31
0.0
  0
LINE
  5
33A
330
1E
100
AcDbEntity
  8
0
100
AcDbLine
 10
646.5262
 20
8.727800000000002
 30
0.0
 11
647.0215
 21
7.498800000000002
 31
0.0
  0
LINE
  5
33B
330
1E
100
AcDbEntity
  8
0
100
AcDbLine
 10
651.4987999999999
 20
3.021500000000003
 30
0.0
 11
652.7277999999999
 21
2.526200000000002
 31
0.0
  0
LINE
  5
33C
330
1E
100
AcDbEntity
  8
0
100
AcDbLine
 10
648.1486999999999
 20
5.680899999999994
 30
0.0
 11
648.8673999999999
 21
4.867400000000003
 31
0.0
  0
LINE
  5
33D
330
1E
100
AcDbEntity
  8
0
100
AcDbLine
 10
649.6809
 20
4.148700000000005
 30
0.0
 11
650.6197
 21
3.525300000000001
 31
0.0
  0
LINE
  5
33E
330
1E
100
AcDbEntity
  8
0
100
AcDbLine
 10
650.6197
 20
3.525300000000001
 30
0.0
 11
651.4987999999999
 21
3.021500000000003
 31
0.0
  0
LINE
  5
33F
330
1E
100
AcDbEntity
  8
0
100
AcDbLine
 10
648.8673999999999
 20
4.867400000000003
 30
0.0
 11
649.6809
 21
4.148700000000005
 31
0.0
  0
LINE
  5
340
330
1E
100
AcDbEntity
  8
0
100
AcDbLine
 10
647.0215
 20
7.498800000000002
 30
0.0
 11
647.5253
 21
6.619699999999994
 31
0.0
  0
LINE
  5
341
330
1E
100
AcDbEntity
  8
0
100
AcDbLine
 10
647.5253
 20
6.619699999999994
 30
0.0
 11
648.1486999999999
 21
5.680899999999994
 31
0.0
  0
LINE
  5
342
330
1E
100
AcDbEntity
  8
0
100
AcDbLine
 10
645.8565
 20
11.8841
 30
0.0
 11
646.1761
 21
10.15309999999999
 31
0.0
  0
LINE
  5
343
330
1E
100
AcDbEntity
  8
0
100
AcDbLine
 10
646.1761
 20
10.15309999999999
 30
0.0
 11
646.5262
 21
8.727800000000002
 31
0.0
  0
LINE
  5
344
330
1E
100
AcDbEntity
  8
0
100
AcDbLine
 10
764.328625
 20
27.1838
 30
0.0
 11
763.9858799999999
 21
27.0
 31
0.0
  0
LINE
  5
345
330
1E
100
AcDbEntity
  8
0
100
AcDbLine
 10
764.328625
 20
30.7868
 30
0.0
 11
764.328625
 21
33.3603
 31
0.0
  0
LINE
  5
346
330
1E
100
AcDbEntity
  8
0
100
AcDbLine
 10
764.5
 20
31.0441
 30
0.0
 11
764.5
 21
33.5441
 31
0.0
  0
LINE
  5
347
330
1E
100
AcDbEntity
  8
0
100
AcDbLine
 10
764.328625
 20
33.3603
 30
0.0
 11
764.328625
 21
30.7868
 31
0.0
  0
LINE
  5
348
330
1E
100
AcDbEntity
  8
0
100
AcDbLine
 10
764.5
 20
33.5441
 30
0.0
 11
764.5
 21
31.0441
 31
0.0
  0
LINE
  5
349
330
1E
100
AcDbEntity
  8
0
100
AcDbLine
 10
764.8653849999999
 20
32.1809
 30
0.0
 11
764.8653849999999
 21
34.3427
 31
0.0
  0
LINE
  5
34A
330
1E
100
AcDbEntity
  8
0
100
AcDbLine
 10
764.8653849999999
 20
34.3427
 30
0.0
 11
764.8653849999999
 21
32.1809
 31
0.0
  0
LINE
  5
34B
330
1E
100
AcDbEntity
  8
0
100
AcDbLine
 10
765.0
 20
34.4971
 30
0.0
 11
765.0
 21
32.3971
 31
0.0
  0
LINE
  5
34C
330
1E
100
AcDbEntity
  8
0
100
AcDbLine
 10
765.0
 20
32.3971
 30
0.0
 11
765.0
 21
34.4971
 31
0.0
  0
LINE
  5
34D
330
1E
100
AcDbEntity
  8
0
100
AcDbLine
 10
764.328625
 20
30.7868
 30
0.0
 11
764.328625
 21
28.8382
 31
0.0
  0
LINE
  5
34E
330
1E
100
AcDbEntity
  8
0
100
AcDbLine
 10
764.5
 20
29.1691
 30
0.0
 11
764.5
 21
31.0441
 31
0.0
  0
LINE
  5
34F
330
1E
100
AcDbEntity
  8
0
100
AcDbLine
 10
764.5
 20
31.0441
 30
0.0
 11
764.5
 21
29.1691
 31
0.0
  0
LINE
  5
350
330
1E
100
AcDbEntity
  8
0
100
AcDbLine
 10
764.8653849999999
 20
29.525
 30
0.0
 11
764.8653849999999
 21
30.5441
 31
0.0
  0
LINE
  5
351
330
1E
100
AcDbEntity
  8
0
100
AcDbLine
 10
764.8653849999999
 20
30.5441
 30
0.0
 11
764.8653849999999
 21
29.525
 31
0.0
  0
LINE
  5
352
330
1E
100
AcDbEntity
  8
0
100
AcDbLine
 10
764.328625
 20
28.8382
 30
0.0
 11
764.328625
 21
30.7868
 31
0.0
  0
LINE
  5
353
330
1E
100
AcDbEntity
  8
0
100
AcDbLine
 10
765.0
 20
29.8338
 30
0.0
 11
765.0
 21
30.82209999999999
 31
0.0
  0
LINE
  5
354
330
1E
100
AcDbEntity
  8
0
100
AcDbLine
 10
765.0
 20
30.82209999999999
 30
0.0
 11
765.0
 21
29.8338
 31
0.0
  0
LINE
  5
355
330
1E
100
AcDbEntity
  8
0
100
AcDbLine
 10
764.5
 20
29.1691
 30
0.0
 11
764.5
 21
27.9926
 31
0.0
  0
LINE
  5
356
330
1E
100
AcDbEntity
  8
0
100
AcDbLine
 10
764.328625
 20
27.625
 30
0.0
 11
764.328625
 21
28.8382
 31
0.0
  0
LINE
  5
357
330
1E
100
AcDbEntity
  8
0
100
AcDbLine
 10
764.328625
 20
28.8382
 30
0.0
 11
764.328625
 21
27.625
 31
0.0
  0
LINE
  5
358
330
1E
100
AcDbEntity
  8
0
100
AcDbLine
 10
764.5
 20
27.9926
 30
0.0
 11
764.5
 21
29.1691
 31
0.0
  0
LINE
  5
359
330
1E
100
AcDbEntity
  8
0
100
AcDbLine
 10
764.328625
 20
27.1838
 30
0.0
 11
764.328625
 21
27.625
 31
0.0
  0
LINE
  5
35A
330
1E
100
AcDbEntity
  8
0
100
AcDbLine
 10
764.5
 20
27.5515
 30
0.0
 11
764.5
 21
27.9926
 31
0.0
  0
LINE
  5
35B
330
1E
100
AcDbEntity
  8
0
100
AcDbLine
 10
764.5
 20
27.5515
 30
0.0
 11
764.328625
 21
27.1838
 31
0.0
  0
LINE
  5
35C
330
1E
100
AcDbEntity
  8
0
100
AcDbLine
 10
764.328625
 20
27.625
 30
0.0
 11
764.328625
 21
27.1838
 31
0.0
  0
LINE
  5
35D
330
1E
100
AcDbEntity
  8
0
100
AcDbLine
 10
764.5
 20
27.9926
 30
0.0
 11
764.5
 21
27.5515
 31
0.0
  0
LINE
  5
35E
330
1E
100
AcDbEntity
  8
0
100
AcDbLine
 10
764.596154
 20
29.0
 30
0.0
 11
764.5
 21
29.0
 31
0.0
  0
LINE
  5
35F
330
1E
100
AcDbEntity
  8
0
100
AcDbLine
 10
764.596154
 20
29.0
 30
0.0
 11
764.5
 21
29.0
 31
0.0
  0
LINE
  5
360
330
1E
100
AcDbEntity
  8
0
100
AcDbLine
 10
764.8653849999999
 20
29.1544
 30
0.0
 11
764.8653849999999
 21
29.525
 31
0.0
  0
LINE
  5
361
330
1E
100
AcDbEntity
  8
0
100
AcDbLine
 10
764.8653849999999
 20
29.1544
 30
0.0
 11
764.596154
 21
29.0
 31
0.0
  0
LINE
  5
362
330
1E
100
AcDbEntity
  8
0
100
AcDbLine
 10
764.8653849999999
 20
29.525
 30
0.0
 11
764.8653849999999
 21
29.1544
 31
0.0
  0
LINE
  5
363
330
1E
100
AcDbEntity
  8
0
100
AcDbLine
 10
765.0
 20
29.4632
 30
0.0
 11
765.0
 21
29.8338
 31
0.0
  0
LINE
  5
364
330
1E
100
AcDbEntity
  8
0
100
AcDbLine
 10
765.0
 20
29.4632
 30
0.0
 11
764.8653849999999
 21
29.1544
 31
0.0
  0
LINE
  5
365
330
1E
100
AcDbEntity
  8
0
100
AcDbLine
 10
765.0
 20
29.8338
 30
0.0
 11
765.0
 21
29.4632
 31
0.0
  0
LINE
  5
366
330
1E
100
AcDbEntity
  8
0
100
AcDbLine
 10
764.8653849999999
 20
30.5441
 30
0.0
 11
764.8653849999999
 21
32.1809
 31
0.0
  0
LINE
  5
367
330
1E
100
AcDbEntity
  8
0
100
AcDbLine
 10
764.8653849999999
 20
32.1809
 30
0.0
 11
764.8653849999999
 21
30.5441
 31
0.0
  0
LINE
  5
368
330
1E
100
AcDbEntity
  8
0
100
AcDbLine
 10
765.0
 20
32.3971
 30
0.0
 11
765.0
 21
30.82209999999999
 31
0.0
  0
LINE
  5
369
330
1E
100
AcDbEntity
  8
0
100
AcDbLine
 10
765.0
 20
30.82209999999999
 30
0.0
 11
765.0
 21
32.3971
 31
0.0
  0
LINE
  5
36A
330
1E
100
AcDbEntity
  8
0
100
AcDbLine
 10
764.328625
 20
39.5
 30
0.0
 11
764.328625
 21
36.3382
 31
0.0
  0
LINE
  5
36B
330
1E
100
AcDbEntity
  8
0
100
AcDbLine
 10
764.328625
 20
36.3382
 30
0.0
 11
764.328625
 21
39.5
 31
0.0
  0
LINE
  5
36C
330
1E
100
AcDbEntity
  8
0
100
AcDbLine
 10
764.5
 20
39.5
 30
0.0
 11
764.5
 21
36.4118
 31
0.0
  0
LINE
  5
36D
330
1E
100
AcDbEntity
  8
0
100
AcDbLine
 10
764.5
 20
36.4118
 30
0.0
 11
764.5
 21
39.5
 31
0.0
  0
LINE
  5
36E
330
1E
100
AcDbEntity
  8
0
100
AcDbLine
 10
764.8653849999999
 20
36.84409999999999
 30
0.0
 11
764.8653849999999
 21
34.3427
 31
0.0
  0
LINE
  5
36F
330
1E
100
AcDbEntity
  8
0
100
AcDbLine
 10
764.8653849999999
 20
34.3427
 30
0.0
 11
764.8653849999999
 21
36.84409999999999
 31
0.0
  0
LINE
  5
370
330
1E
100
AcDbEntity
  8
0
100
AcDbLine
 10
765.0
 20
36.9059
 30
0.0
 11
765.0
 21
34.4971
 31
0.0
  0
LINE
  5
371
330
1E
100
AcDbEntity
  8
0
100
AcDbLine
 10
765.0
 20
34.4971
 30
0.0
 11
765.0
 21
36.9059
 31
0.0
  0
LINE
  5
372
330
1E
100
AcDbEntity
  8
0
100
AcDbLine
 10
764.328625
 20
36.3382
 30
0.0
 11
764.328625
 21
33.3603
 31
0.0
  0
LINE
  5
373
330
1E
100
AcDbEntity
  8
0
100
AcDbLine
 10
764.328625
 20
33.3603
 30
0.0
 11
764.328625
 21
36.3382
 31
0.0
  0
LINE
  5
374
330
1E
100
AcDbEntity
  8
0
100
AcDbLine
 10
764.5
 20
36.4118
 30
0.0
 11
764.5
 21
33.5441
 31
0.0
  0
LINE
  5
375
330
1E
100
AcDbEntity
  8
0
100
AcDbLine
 10
764.5
 20
33.5441
 30
0.0
 11
764.5
 21
36.4118
 31
0.0
  0
LINE
  5
376
330
1E
100
AcDbEntity
  8
0
100
AcDbLine
 10
765.0
 20
39.5
 30
0.0
 11
765.0
 21
36.9059
 31
0.0
  0
LINE
  5
377
330
1E
100
AcDbEntity
  8
0
100
AcDbLine
 10
764.8653849999999
 20
36.84409999999999
 30
0.0
 11
764.8653849999999
 21
39.5
 31
0.0
  0
LINE
  5
378
330
1E
100
AcDbEntity
  8
0
100
AcDbLine
 10
764.8653849999999
 20
39.5
 30
0.0
 11
764.8653849999999
 21
36.84409999999999
 31
0.0
  0
LINE
  5
379
330
1E
100
AcDbEntity
  8
0
100
AcDbLine
 10
765.0
 20
36.9059
 30
0.0
 11
765.0
 21
39.5
 31
0.0
  0
LINE
  5
37A
330
1E
100
AcDbEntity
  8
0
100
AcDbLine
 10
722.4199999999999
 20
24.6676
 30
0.0
 11
721.9913
 21
18.9971
 31
0.0
  0
LINE
  5
37B
330
1E
100
AcDbEntity
  8
0
100
AcDbLine
 10
721.9913
 20
18.9971
 30
0.0
 11
721.5247000000407
 21
15.0848000003425
 31
0.0
  0
LINE
  5
37C
330
1E
100
AcDbEntity
  8
0
100
AcDbLine
 10
721.9913
 20
18.9971
 30
0.0
 11
721.5247
 21
15.0848
 31
0.0
  0
LINE
  5
37D
330
1E
100
AcDbEntity
  8
0
100
AcDbLine
 10
722.5485302273816
 20
27.0
 30
0.0
 11
722.4199999999999
 21
24.6676
 31
0.0
  0
LINE
  5
37E
330
1E
100
AcDbEntity
  8
0
100
AcDbLine
 10
722.5485302273816
 20
27.0
 30
0.0
 11
722.4199999999999
 21
24.6676
 31
0.0
  0
LINE
  5
37F
330
1E
100
AcDbEntity
  8
0
100
AcDbLine
 10
644.58
 20
24.6676
 30
0.0
 11
645.0086999999999
 21
18.9971
 31
0.0
  0
LINE
  5
380
330
1E
100
AcDbEntity
  8
0
100
AcDbLine
 10
645.0086999999999
 20
18.9971
 30
0.0
 11
645.4753000000001
 21
15.0848
 31
0.0
  0
LINE
  5
381
330
1E
100
AcDbEntity
  8
0
100
AcDbLine
 10
645.0086999999999
 20
18.9971
 30
0.0
 11
645.4752999999592
 21
15.0848000003425
 31
0.0
  0
LINE
  5
382
330
1E
100
AcDbEntity
  8
0
100
AcDbLine
 10
644.4514697726183
 20
27.0
 30
0.0
 11
644.58
 21
24.6676
 31
0.0
  0
LINE
  5
383
330
1E
100
AcDbEntity
  8
0
100
AcDbLine
 10
644.4514697726183
 20
27.0
 30
0.0
 11
644.58
 21
24.6676
 31
0.0
  0
LINE
  5
384
330
1E
100
AcDbEntity
  8
0
100
AcDbLine
 10
645.4753000000001
 20
63.91519999999999
 30
0.0
 11
645.8565
 21
67.1159
 31
0.0
  0
LINE
  5
385
330
1E
100
AcDbEntity
  8
0
100
AcDbLine
 10
721.5247
 20
63.91519999999999
 30
0.0
 11
721.1435
 21
67.1159
 31
0.0
  0
LINE
  5
386
330
1E
100
AcDbEntity
  8
0
100
AcDbLine
 10
764.328625
 20
51.8162
 30
0.0
 11
763.9858799999999
 21
52.0
 31
0.0
  0
LINE
  5
387
330
1E
100
AcDbEntity
  8
0
100
AcDbLine
 10
764.328625
 20
48.2132
 30
0.0
 11
764.328625
 21
45.6397
 31
0.0
  0
LINE
  5
388
330
1E
100
AcDbEntity
  8
0
100
AcDbLine
 10
764.328625
 20
45.6397
 30
0.0
 11
764.328625
 21
48.2132
 31
0.0
  0
LINE
  5
389
330
1E
100
AcDbEntity
  8
0
100
AcDbLine
 10
764.5
 20
47.95589999999999
 30
0.0
 11
764.5
 21
45.45589999999999
 31
0.0
  0
LINE
  5
38A
330
1E
100
AcDbEntity
  8
0
100
AcDbLine
 10
764.5
 20
45.45589999999999
 30
0.0
 11
764.5
 21
47.95589999999999
 31
0.0
  0
LINE
  5
38B
330
1E
100
AcDbEntity
  8
0
100
AcDbLine
 10
764.8653849999999
 20
46.8191
 30
0.0
 11
764.8653849999999
 21
44.6574
 31
0.0
  0
LINE
  5
38C
330
1E
100
AcDbEntity
  8
0
100
AcDbLine
 10
764.8653849999999
 20
44.6574
 30
0.0
 11
764.8653849999999
 21
46.8191
 31
0.0
  0
LINE
  5
38D
330
1E
100
AcDbEntity
  8
0
100
AcDbLine
 10
765.0
 20
46.60289999999999
 30
0.0
 11
765.0
 21
44.50289999999999
 31
0.0
  0
LINE
  5
38E
330
1E
100
AcDbEntity
  8
0
100
AcDbLine
 10
765.0
 20
44.50289999999999
 30
0.0
 11
765.0
 21
46.60289999999999
 31
0.0
  0
LINE
  5
38F
330
1E
100
AcDbEntity
  8
0
100
AcDbLine
 10
764.8653849999999
 20
42.1559
 30
0.0
 11
764.8653849999999
 21
44.6574
 31
0.0
  0
LINE
  5
390
330
1E
100
AcDbEntity
  8
0
100
AcDbLine
 10
764.8653849999999
 20
44.6574
 30
0.0
 11
764.8653849999999
 21
42.1559
 31
0.0
  0
LINE
  5
391
330
1E
100
AcDbEntity
  8
0
100
AcDbLine
 10
765.0
 20
42.0941
 30
0.0
 11
765.0
 21
44.50289999999999
 31
0.0
  0
LINE
  5
392
330
1E
100
AcDbEntity
  8
0
100
AcDbLine
 10
765.0
 20
44.50289999999999
 30
0.0
 11
765.0
 21
42.0941
 31
0.0
  0
LINE
  5
393
330
1E
100
AcDbEntity
  8
0
100
AcDbLine
 10
764.328625
 20
42.6618
 30
0.0
 11
764.328625
 21
45.6397
 31
0.0
  0
LINE
  5
394
330
1E
100
AcDbEntity
  8
0
100
AcDbLine
 10
764.328625
 20
45.6397
 30
0.0
 11
764.328625
 21
42.6618
 31
0.0
  0
LINE
  5
395
330
1E
100
AcDbEntity
  8
0
100
AcDbLine
 10
764.5
 20
42.5882
 30
0.0
 11
764.5
 21
45.45589999999999
 31
0.0
  0
LINE
  5
396
330
1E
100
AcDbEntity
  8
0
100
AcDbLine
 10
764.5
 20
45.45589999999999
 30
0.0
 11
764.5
 21
42.5882
 31
0.0
  0
LINE
  5
397
330
1E
100
AcDbEntity
  8
0
100
AcDbLine
 10
764.328625
 20
50.1618
 30
0.0
 11
764.328625
 21
48.2132
 31
0.0
  0
LINE
  5
398
330
1E
100
AcDbEntity
  8
0
100
AcDbLine
 10
764.328625
 20
48.2132
 30
0.0
 11
764.328625
 21
50.1618
 31
0.0
  0
LINE
  5
399
330
1E
100
AcDbEntity
  8
0
100
AcDbLine
 10
764.5
 20
49.8309
 30
0.0
 11
764.5
 21
47.95589999999999
 31
0.0
  0
LINE
  5
39A
330
1E
100
AcDbEntity
  8
0
100
AcDbLine
 10
764.5
 20
47.95589999999999
 30
0.0
 11
764.5
 21
49.8309
 31
0.0
  0
LINE
  5
39B
330
1E
100
AcDbEntity
  8
0
100
AcDbLine
 10
764.8653849999999
 20
49.475
 30
0.0
 11
764.8653849999999
 21
48.4559
 31
0.0
  0
LINE
  5
39C
330
1E
100
AcDbEntity
  8
0
100
AcDbLine
 10
764.8653849999999
 20
48.4559
 30
0.0
 11
764.8653849999999
 21
49.475
 31
0.0
  0
LINE
  5
39D
330
1E
100
AcDbEntity
  8
0
100
AcDbLine
 10
765.0
 20
49.1662
 30
0.0
 11
765.0
 21
48.1779
 31
0.0
  0
LINE
  5
39E
330
1E
100
AcDbEntity
  8
0
100
AcDbLine
 10
765.0
 20
48.1779
 30
0.0
 11
765.0
 21
49.1662
 31
0.0
  0
LINE
  5
39F
330
1E
100
AcDbEntity
  8
0
100
AcDbLine
 10
764.8653849999999
 20
48.4559
 30
0.0
 11
764.8653849999999
 21
46.8191
 31
0.0
  0
LINE
  5
3A0
330
1E
100
AcDbEntity
  8
0
100
AcDbLine
 10
764.8653849999999
 20
46.8191
 30
0.0
 11
764.8653849999999
 21
48.4559
 31
0.0
  0
LINE
  5
3A1
330
1E
100
AcDbEntity
  8
0
100
AcDbLine
 10
765.0
 20
48.1779
 30
0.0
 11
765.0
 21
46.60289999999999
 31
0.0
  0
LINE
  5
3A2
330
1E
100
AcDbEntity
  8
0
100
AcDbLine
 10
765.0
 20
46.60289999999999
 30
0.0
 11
765.0
 21
48.1779
 31
0.0
  0
LINE
  5
3A3
330
1E
100
AcDbEntity
  8
0
100
AcDbLine
 10
764.328625
 20
51.375
 30
0.0
 11
764.328625
 21
50.1618
 31
0.0
  0
LINE
  5
3A4
330
1E
100
AcDbEntity
  8
0
100
AcDbLine
 10
764.328625
 20
50.1618
 30
0.0
 11
764.328625
 21
51.375
 31
0.0
  0
LINE
  5
3A5
330
1E
100
AcDbEntity
  8
0
100
AcDbLine
 10
764.5
 20
51.0074
 30
0.0
 11
764.5
 21
49.8309
 31
0.0
  0
LINE
  5
3A6
330
1E
100
AcDbEntity
  8
0
100
AcDbLine
 10
764.5
 20
49.8309
 30
0.0
 11
764.5
 21
51.0074
 31
0.0
  0
LINE
  5
3A7
330
1E
100
AcDbEntity
  8
0
100
AcDbLine
 10
764.596154
 20
50.0
 30
0.0
 11
764.5
 21
50.0
 31
0.0
  0
LINE
  5
3A8
330
1E
100
AcDbEntity
  8
0
100
AcDbLine
 10
764.596154
 20
50.0
 30
0.0
 11
764.5
 21
50.0
 31
0.0
  0
LINE
  5
3A9
330
1E
100
AcDbEntity
  8
0
100
AcDbLine
 10
764.8653849999999
 20
49.475
 30
0.0
 11
764.8653849999999
 21
49.8456
 31
0.0
  0
LINE
  5
3AA
330
1E
100
AcDbEntity
  8
0
100
AcDbLine
 10
764.8653849999999
 20
49.8456
 30
0.0
 11
764.8653849999999
 21
49.475
 31
0.0
  0
LINE
  5
3AB
330
1E
100
AcDbEntity
  8
0
100
AcDbLine
 10
764.8653849999999
 20
49.8456
 30
0.0
 11
764.596154
 21
50.0
 31
0.0
  0
LINE
  5
3AC
330
1E
100
AcDbEntity
  8
0
100
AcDbLine
 10
765.0
 20
49.5368
 30
0.0
 11
765.0
 21
49.1662
 31
0.0
  0
LINE
  5
3AD
330
1E
100
AcDbEntity
  8
0
100
AcDbLine
 10
765.0
 20
49.5368
 30
0.0
 11
764.8653849999999
 21
49.8456
 31
0.0
  0
LINE
  5
3AE
330
1E
100
AcDbEntity
  8
0
100
AcDbLine
 10
765.0
 20
49.1662
 30
0.0
 11
765.0
 21
49.5368
 31
0.0
  0
LINE
  5
3AF
330
1E
100
AcDbEntity
  8
0
100
AcDbLine
 10
764.328625
 20
51.8162
 30
0.0
 11
764.328625
 21
51.375
 31
0.0
  0
LINE
  5
3B0
330
1E
100
AcDbEntity
  8
0
100
AcDbLine
 10
764.328625
 20
51.375
 30
0.0
 11
764.328625
 21
51.8162
 31
0.0
  0
LINE
  5
3B1
330
1E
100
AcDbEntity
  8
0
100
AcDbLine
 10
764.5
 20
51.4485
 30
0.0
 11
764.328625
 21
51.8162
 31
0.0
  0
LINE
  5
3B2
330
1E
100
AcDbEntity
  8
0
100
AcDbLine
 10
764.5
 20
51.4485
 30
0.0
 11
764.5
 21
51.0074
 31
0.0
  0
LINE
  5
3B3
330
1E
100
AcDbEntity
  8
0
100
AcDbLine
 10
764.5
 20
51.0074
 30
0.0
 11
764.5
 21
51.4485
 31
0.0
  0
LINE
  5
3B4
330
1E
100
AcDbEntity
  8
0
100
AcDbLine
 10
722.4199999999999
 20
54.3324
 30
0.0
 11
721.9913
 21
60.00289999999999
 31
0.0
  0
LINE
  5
3B5
330
1E
100
AcDbEntity
  8
0
100
AcDbLine
 10
722.5485302273816
 20
52.0
 30
0.0
 11
722.4199999999999
 21
54.3324
 31
0.0
  0
LINE
  5
3B6
330
1E
100
AcDbEntity
  8
0
100
AcDbLine
 10
722.5485302273816
 20
52.0
 30
0.0
 11
722.4199999999999
 21
54.3324
 31
0.0
  0
LINE
  5
3B7
330
1E
100
AcDbEntity
  8
0
100
AcDbLine
 10
721.9913
 20
60.00289999999999
 30
0.0
 11
721.5247
 21
63.91519999999999
 31
0.0
  0
LINE
  5
3B8
330
1E
100
AcDbEntity
  8
0
100
AcDbLine
 10
721.9913
 20
60.00289999999999
 30
0.0
 11
721.5247000000407
 21
63.91519999965749
 31
0.0
  0
LINE
  5
3B9
330
1E
100
AcDbEntity
  8
0
100
AcDbLine
 10
644.58
 20
54.3324
 30
0.0
 11
645.0086999999999
 21
60.00289999999999
 31
0.0
  0
LINE
  5
3BA
330
1E
100
AcDbEntity
  8
0
100
AcDbLine
 10
644.4514697726183
 20
52.0
 30
0.0
 11
644.58
 21
54.3324
 31
0.0
  0
LINE
  5
3BB
330
1E
100
AcDbEntity
  8
0
100
AcDbLine
 10
644.4514697726183
 20
52.0
 30
0.0
 11
644.58
 21
54.3324
 31
0.0
  0
LINE
  5
3BC
330
1E
100
AcDbEntity
  8
0
100
AcDbLine
 10
645.0086999999999
 20
60.00289999999999
 30
0.0
 11
645.4752999999592
 21
63.91519999965749
 31
0.0
  0
LINE
  5
3BD
330
1E
100
AcDbEntity
  8
0
100
AcDbLine
 10
645.0086999999999
 20
60.00289999999999
 30
0.0
 11
645.4753000000001
 21
63.91519999999999
 31
0.0
  0
LINE
  5
3BE
330
1E
100
AcDbEntity
  8
0
100
AcDbLine
 10
652.7277999999999
 20
76.4738
 30
0.0
 11
654.1530999999999
 21
76.82389999999999
 31
0.0
  0
LINE
  5
3BF
330
1E
100
AcDbEntity
  8
0
100
AcDbLine
 10
714.2722
 20
76.4738
 30
0.0
 11
712.8468999999999
 21
76.82389999999999
 31
0.0
  0
LINE
  5
3C0
330
1E
100
AcDbEntity
  8
0
100
AcDbLine
 10
720.4737999999999
 20
70.27219999999999
 30
0.0
 11
719.9784999999999
 21
71.5012
 31
0.0
  0
LINE
  5
3C1
330
1E
100
AcDbEntity
  8
0
100
AcDbLine
 10
721.1435
 20
67.1159
 30
0.0
 11
720.8238999999999
 21
68.8469
 31
0.0
  0
LINE
  5
3C2
330
1E
100
AcDbEntity
  8
0
100
AcDbLine
 10
720.8238999999999
 20
68.8469
 30
0.0
 11
720.4737999999999
 21
70.27219999999999
 31
0.0
  0
LINE
  5
3C3
330
1E
100
AcDbEntity
  8
0
100
AcDbLine
 10
718.8513
 20
73.3191
 30
0.0
 11
718.1326
 21
74.1326
 31
0.0
  0
LINE
  5
3C4
330
1E
100
AcDbEntity
  8
0
100
AcDbLine
 10
719.9784999999999
 20
71.5012
 30
0.0
 11
719.4746999999999
 21
72.38030000000001
 31
0.0
  0
LINE
  5
3C5
330
1E
100
AcDbEntity
  8
0
100
AcDbLine
 10
719.4746999999999
 20
72.38030000000001
 30
0.0
 11
718.8513
 21
73.3191
 31
0.0
  0
LINE
  5
3C6
330
1E
100
AcDbEntity
  8
0
100
AcDbLine
 10
717.3191
 20
74.85129999999999
 30
0.0
 11
716.3803
 21
75.4747
 31
0.0
  0
LINE
  5
3C7
330
1E
100
AcDbEntity
  8
0
100
AcDbLine
 10
718.1326
 20
74.1326
 30
0.0
 11
717.3191
 21
74.85129999999999
 31
0.0
  0
LINE
  5
3C8
330
1E
100
AcDbEntity
  8
0
100
AcDbLine
 10
715.5012
 20
75.9785
 30
0.0
 11
714.2722
 21
76.4738
 31
0.0
  0
LINE
  5
3C9
330
1E
100
AcDbEntity
  8
0
100
AcDbLine
 10
716.3803
 20
75.4747
 30
0.0
 11
715.5012
 21
75.9785
 31
0.0
  0
LINE
  5
3CA
330
1E
100
AcDbEntity
  8
0
100
AcDbLine
 10
646.5262
 20
70.27219999999999
 30
0.0
 11
647.0215
 21
71.5012
 31
0.0
  0
LINE
  5
3CB
330
1E
100
AcDbEntity
  8
0
100
AcDbLine
 10
645.8565
 20
67.1159
 30
0.0
 11
646.1761
 21
68.8469
 31
0.0
  0
LINE
  5
3CC
330
1E
100
AcDbEntity
  8
0
100
AcDbLine
 10
646.1761
 20
68.8469
 30
0.0
 11
646.5262
 21
70.27219999999999
 31
0.0
  0
LINE
  5
3CD
330
1E
100
AcDbEntity
  8
0
100
AcDbLine
 10
651.4987999999999
 20
75.9785
 30
0.0
 11
652.7277999999999
 21
76.4738
 31
0.0
  0
LINE
  5
3CE
330
1E
100
AcDbEntity
  8
0
100
AcDbLine
 10
648.1486999999999
 20
73.3191
 30
0.0
 11
648.8673999999999
 21
74.1326
 31
0.0
  0
LINE
  5
3CF
330
1E
100
AcDbEntity
  8
0
100
AcDbLine
 10
647.0215
 20
71.5012
 30
0.0
 11
647.5253
 21
72.38030000000001
 31
0.0
  0
LINE
  5
3D0
330
1E
100
AcDbEntity
  8
0
100
AcDbLine
 10
647.5253
 20
72.38030000000001
 30
0.0
 11
648.1486999999999
 21
73.3191
 31
0.0
  0
LINE
  5
3D1
330
1E
100
AcDbEntity
  8
0
100
AcDbLine
 10
649.6809
 20
74.85129999999999
 30
0.0
 11
650.6197
 21
75.4747
 31
0.0
  0
LINE
  5
3D2
330
1E
100
AcDbEntity
  8
0
100
AcDbLine
 10
648.8673999999999
 20
74.1326
 30
0.0
 11
649.6809
 21
74.85129999999999
 31
0.0
  0
LINE
  5
3D3
330
1E
100
AcDbEntity
  8
0
100
AcDbLine
 10
650.6197
 20
75.4747
 30
0.0
 11
651.4987999999999
 21
75.9785
 31
0.0
  0
LINE
  5
3D4
330
1E
100
AcDbEntity
  8
0
100
AcDbLine
 10
680.1313999999999
 20
78.94759999999999
 30
0.0
 11
683.4999999999999
 21
79.0
 31
0.0
  0
LINE
  5
3D5
330
1E
100
AcDbEntity
  8
0
100
AcDbLine
 10
712.8468999998135
 20
76.82390000003441
 30
0.0
 11
711.1158
 21
77.1435
 31
0.0
  0
LINE
  5
3D6
330
1E
100
AcDbEntity
  8
0
100
AcDbLine
 10
712.8468999998134
 20
76.82390000003441
 30
0.0
 11
711.1158
 21
77.1435
 31
0.0
  0
LINE
  5
3D7
330
1E
100
AcDbEntity
  8
0
100
AcDbLine
 10
698.3324
 20
78.42
 30
0.0
 11
691.8631
 21
78.7765
 31
0.0
  0
LINE
  5
3D8
330
1E
100
AcDbEntity
  8
0
100
AcDbLine
 10
704.0028999999999
 20
77.99129999999999
 30
0.0
 11
698.3324000065913
 21
78.4199999995017
 31
0.0
  0
LINE
  5
3D9
330
1E
100
AcDbEntity
  8
0
100
AcDbLine
 10
704.0028999999999
 20
77.99129999999999
 30
0.0
 11
698.3324000065784
 21
78.41999999950271
 31
0.0
  0
LINE
  5
3DA
330
1E
100
AcDbEntity
  8
0
100
AcDbLine
 10
707.9151999971246
 20
77.5247000003429
 30
0.0
 11
704.0028999999999
 21
77.99129999999999
 31
0.0
  0
LINE
  5
3DB
330
1E
100
AcDbEntity
  8
0
100
AcDbLine
 10
711.1158
 20
77.1435
 30
0.0
 11
707.9152000003175
 21
77.52469999996221
 31
0.0
  0
LINE
  5
3DC
330
1E
100
AcDbEntity
  8
0
100
AcDbLine
 10
711.1158
 20
77.1435
 30
0.0
 11
707.9152000003187
 21
77.524699999962
 31
0.0
  0
LINE
  5
3DD
330
1E
100
AcDbEntity
  8
0
100
AcDbLine
 10
707.9151999999997
 20
77.52469999999999
 30
0.0
 11
704.0028999999999
 21
77.99129999999999
 31
0.0
  0
LINE
  5
3DE
330
1E
100
AcDbEntity
  8
0
100
AcDbLine
 10
691.8631
 20
78.7765
 30
0.0
 11
686.8686
 21
78.94759999999999
 31
0.0
  0
LINE
  5
3DF
330
1E
100
AcDbEntity
  8
0
100
AcDbLine
 10
686.8686
 20
78.94759999999999
 30
0.0
 11
683.4999999999999
 21
79.0
 31
0.0
  0
LINE
  5
3E0
330
1E
100
AcDbEntity
  8
0
100
AcDbLine
 10
662.9971
 20
77.99129999999999
 30
0.0
 11
668.6675999934216
 21
78.41999999950271
 31
0.0
  0
LINE
  5
3E1
330
1E
100
AcDbEntity
  8
0
100
AcDbLine
 10
662.9971
 20
77.99129999999999
 30
0.0
 11
668.6675999934086
 21
78.4199999995017
 31
0.0
  0
LINE
  5
3E2
330
1E
100
AcDbEntity
  8
0
100
AcDbLine
 10
668.6676
 20
78.42
 30
0.0
 11
675.1368999999999
 21
78.7765
 31
0.0
  0
LINE
  5
3E3
330
1E
100
AcDbEntity
  8
0
100
AcDbLine
 10
675.1368999999999
 20
78.7765
 30
0.0
 11
680.1313999999999
 21
78.94759999999999
 31
0.0
  0
LINE
  5
3E4
330
1E
100
AcDbEntity
  8
0
100
AcDbLine
 10
659.0848000000002
 20
77.52469999999999
 30
0.0
 11
662.9971
 21
77.99129999999999
 31
0.0
  0
LINE
  5
3E5
330
1E
100
AcDbEntity
  8
0
100
AcDbLine
 10
659.0848000028753
 20
77.5247000003429
 30
0.0
 11
662.9971
 21
77.99129999999999
 31
0.0
  0
LINE
  5
3E6
330
1E
100
AcDbEntity
  8
0
100
AcDbLine
 10
655.8841999999999
 20
77.1435
 30
0.0
 11
659.0847999996813
 21
77.524699999962
 31
0.0
  0
LINE
  5
3E7
330
1E
100
AcDbEntity
  8
0
100
AcDbLine
 10
655.8841999999999
 20
77.1435
 30
0.0
 11
659.0847999996825
 21
77.52469999996221
 31
0.0
  0
LINE
  5
3E8
330
1E
100
AcDbEntity
  8
0
100
AcDbLine
 10
654.1531000001866
 20
76.82390000003441
 30
0.0
 11
655.8841999999999
 21
77.1435
 31
0.0
  0
LINE
  5
3E9
330
1E
100
AcDbEntity
  8
0
100
AcDbLine
 10
654.1531000001864
 20
76.82390000003441
 30
0.0
 11
655.8841999999999
 21
77.1435
 31
0.0
  0
ENDSEC
  0
SECTION
  2
OBJECTS
  0
DICTIONARY
  5
C
330
0
100
AcDbDictionary
281
     1
  3
ACAD_GROUP
350
D
  3
ACAD_LAYOUT
350
19
  3
ACAD_MLINESTYLE
350
16
  3
ACAD_PLOTSETTINGS
350
18
  3
ACAD_PLOTSTYLENAME
350
E
  3
AcDbVariableDictionary
350
3EA
  0
DICTIONARY
  5
D
102
{ACAD_REACTORS
330
C
102
}
330
C
100
AcDbDictionary
281
     1
  0
DICTIONARY
  5
19
102
{ACAD_REACTORS
330
C
102
}
330
C
100
AcDbDictionary
281
     1
  3
Layout1
350
1D
  3
Model
350
21
  0
DICTIONARY
  5
16
102
{ACAD_REACTORS
330
C
102
}
330
C
100
AcDbDictionary
281
     1
  3
Standard
350
17
  0
DICTIONARY
  5
18
102
{ACAD_REACTORS
330
C
102
}
330
C
100
AcDbDictionary
281
     1
  0
ACDBDICTIONARYWDFLT
  5
E
102
{ACAD_REACTORS
330
C
102
}
330
C
100
AcDbDictionary
281
     1
  3
Normal
350
F
100
AcDbDictionaryWithDefault
340
F
  0
DICTIONARY
  5
3EA
102
{ACAD_REACTORS
330
C
102
}
330
C
100
AcDbDictionary
281
     1
  3
DIMASSOC
350
3EB
  0
LAYOUT
  5
1D
102
{ACAD_REACTORS
330
19
102
}
330
19
100
AcDbPlotSettings
  1

  2
hp deskjet 980c series
  4

  6

 40
0.0
 41
0.0
 42
0.0
 43
0.0
 44
0.0
 45
0.0
 46
0.0
 47
0.0
 48
0.0
 49
0.0
140
0.0
141
0.0
142
1.0
143
1.0
 70
   688
 72
     0
 73
     0
 74
     5
  7

 75
    16
147
1.0
148
0.0
149
0.0
100
AcDbLayout
  1
Layout1
 70
     1
 71
     1
 10
0.0
 20
0.0
 11
12.0
 21
9.0
 12
0.0
 22
0.0
 32
0.0
 14
1.000000000000000E+20
 24
1.000000000000000E+20
 34
1.000000000000000E+20
 15
-1.000000000000000E+20
 25
-1.000000000000000E+20
 35
-1.000000000000000E+20
146
0.0
 13
0.0
 23
0.0
 33
0.0
 16
1.0
 26
0.0
 36
0.0
 17
0.0
 27
1.0
 37
0.0
 76
     0
330
1A
  0
LAYOUT
  5
21
102
{ACAD_REACTORS
330
19
102
}
330
19
100
AcDbPlotSettings
  1

  2
hp deskjet 980c series
  4

  6

 40
0.0
 41
0.0
 42
0.0
 43
0.0
 44
0.0
 45
0.0
 46
0.0
 47
0.0
 48
0.0
 49
0.0
140
0.0
141
0.0
142
1.0
143
1.0
 70
  1712
 72
     0
 73
     0
 74
     0
  7

 75
     0
147
1.0
148
0.0
149
0.0
100
AcDbLayout
  1
Model
 70
     1
 71
     0
 10
0.0
 20
0.0
 11
12.0
 21
9.0
 12
0.0
 22
0.0
 32
0.0
 14
0.0
 24
0.0
 34
0.0
 15
0.0
 25
0.0
 35
0.0
146
0.0
 13
0.0
 23
0.0
 33
0.0
 16
1.0
 26
0.0
 36
0.0
 17
0.0
 27
1.0
 37
0.0
 76
     0
330
1E
  0
MLINESTYLE
  5
17
102
{ACAD_REACTORS
330
16
102
}
330
16
100
AcDbMlineStyle
  2
STANDARD
 70
     0
  3

 62
   256
 51
90.0
 52
90.0
 71
     2
 49
0.5
 62
   256
  6
BYLAYER
 49
-0.5
 62
   256
  6
BYLAYER
  0
ACDBPLACEHOLDER
  5
F
102
{ACAD_REACTORS
330
E
102
}
330
E
  0
DICTIONARYVAR
  5
3EB
102
{ACAD_REACTORS
330
3EA
102
}
330
3EA
100
DictionaryVariables
280
     0
  1
1
  0
ENDSEC
  0
EOF
