  0
SECTION
  2
HEADER
  9
$ACADVER
  1
AC1015
  9
$ACADMAINTVER
 70
    13
  9
$DWGCODEPAGE
  3
ANSI_1252
  9
$INSBASE
 10
0.0
 20
0.0
 30
0.0
  9
$EXTMIN
 10
0.0
 20
0.0
 30
0.0
  9
$EXTMAX
 10
79.0
 20
79.0
 30
0.0
  9
$LIMMIN
 10
0.0
 20
0.0
  9
$LIMMAX
 10
12.0
 20
9.0
  9
$ORTHOMODE
 70
     0
  9
$REGENMODE
 70
     1
  9
$FILLMODE
 70
     1
  9
$QTEXTMODE
 70
     0
  9
$MIRRTEXT
 70
     1
  9
$LTSCALE
 40
1.0
  9
$ATTMODE
 70
     1
  9
$TEXTSIZE
 40
0.2
  9
$TRACEWID
 40
0.05
  9
$TEXTSTYLE
  7
Standard
  9
$CLAYER
  8
0
  9
$CELTYPE
  6
Continuous
  9
$CECOLOR
 62
   256
  9
$CELTSCALE
 40
1.0
  9
$DISPSILH
 70
     0
  9
$DIMSCALE
 40
1.0
  9
$DIMASZ
 40
0.18
  9
$DIMEXO
 40
0.0625
  9
$DIMDLI
 40
0.38
  9
$DIMRND
 40
0.0
  9
$DIMDLE
 40
0.0
  9
$DIMEXE
 40
0.18
  9
$DIMTP
 40
0.0
  9
$DIMTM
 40
0.0
  9
$DIMTXT
 40
0.18
  9
$DIMCEN
 40
0.09
  9
$DIMTSZ
 40
0.0
  9
$DIMTOL
 70
     0
  9
$DIMLIM
 70
     0
  9
$DIMTIH
 70
     1
  9
$DIMTOH
 70
     1
  9
$DIMSE1
 70
     0
  9
$DIMSE2
 70
     0
  9
$DIMTAD
 70
     0
  9
$DIMZIN
 70
     0
  9
$DIMBLK
  1

  9
$DIMASO
 70
     1
  9
$DIMSHO
 70
     1
  9
$DIMPOST
  1

  9
$DIMAPOST
  1

  9
$DIMALT
 70
     0
  9
$DIMALTD
 70
     2
  9
$DIMALTF
 40
25.4
  9
$DIMLFAC
 40
1.0
  9
$DIMTOFL
 70
     0
  9
$DIMTVP
 40
0.0
  9
$DIMTIX
 70
     0
  9
$DIMSOXD
 70
     0
  9
$DIMSAH
 70
     0
  9
$DIMBLK1
  1

  9
$DIMBLK2
  1

  9
$DIMSTYLE
  2
Standard
  9
$DIMCLRD
 70
     0
  9
$DIMCLRE
 70
     0
  9
$DIMCLRT
 70
     0
  9
$DIMTFAC
 40
1.0
  9
$DIMGAP
 40
0.09
  9
$DIMJUST
 70
     0
  9
$DIMSD1
 70
     0
  9
$DIMSD2
 70
     0
  9
$DIMTOLJ
 70
     1
  9
$DIMTZIN
 70
     0
  9
$DIMALTZ
 70
     0
  9
$DIMALTTZ
 70
     0
  9
$DIMUPT
 70
     0
  9
$DIMDEC
 70
     4
  9
$DIMTDEC
 70
     4
  9
$DIMALTU
 70
     2
  9
$DIMALTTD
 70
     2
  9
$DIMTXSTY
  7
Standard
  9
$DIMAUNIT
 70
     0
  9
$DIMADEC
 70
     0
  9
$DIMALTRND
 40
0.0
  9
$DIMAZIN
 70
     0
  9
$DIMDSEP
 70
    46
  9
$DIMATFIT
 70
     3
  9
$DIMFRAC
 70
     0
  9
$DIMLDRBLK
  1

  9
$DIMLUNIT
 70
     2
  9
$DIMLWD
 70
    -2
  9
$DIMLWE
 70
    -2
  9
$DIMTMOVE
 70
     0
  9
$LUNITS
 70
     2
  9
$LUPREC
 70
     4
  9
$SKETCHINC
 40
0.1
  9
$FILLETRAD
 40
0.0
  9
$AUNITS
 70
     0
  9
$AUPREC
 70
     0
  9
$MENU
  1
.
  9
$ELEVATION
 40
0.0
  9
$PELEVATION
 40
0.0
  9
$THICKNESS
 40
0.0
  9
$LIMCHECK
 70
     0
  9
$CHAMFERA
 40
0.0
  9
$CHAMFERB
 40
0.0
  9
$CHAMFERC
 40
0.0
  9
$CHAMFERD
 40
0.0
  9
$SKPOLY
 70
     0
  9
$TDCREATE
 40
2454906.875533854
  9
$TDUCREATE
 40
2454906.833867187
  9
$TDUPDATE
 40
2454906.879656748
  9
$TDUUPDATE
 40
2454906.837990081
  9
$TDINDWG
 40
0.0041228935
  9
$TDUSRTIMER
 40
0.0041228935
  9
$USRTIMER
 70
     1
  9
$ANGBASE
 50
0.0
  9
$ANGDIR
 70
     0
  9
$PDMODE
 70
     0
  9
$PDSIZE
 40
0.0
  9
$PLINEWID
 40
0.0
  9
$SPLFRAME
 70
     0
  9
$SPLINETYPE
 70
     6
  9
$SPLINESEGS
 70
     8
  9
$HANDSEED
  5
334
  9
$SURFTAB1
 70
     6
  9
$SURFTAB2
 70
     6
  9
$SURFTYPE
 70
     6
  9
$SURFU
 70
     6
  9
$SURFV
 70
     6
  9
$UCSBASE
  2

  9
$UCSNAME
  2

  9
$UCSORG
 10
0.0
 20
0.0
 30
0.0
  9
$UCSXDIR
 10
1.0
 20
0.0
 30
0.0
  9
$UCSYDIR
 10
0.0
 20
1.0
 30
0.0
  9
$UCSORTHOREF
  2

  9
$UCSORTHOVIEW
 70
     1
  9
$UCSORGTOP
 10
0.0
 20
0.0
 30
0.0
  9
$UCSORGBOTTOM
 10
0.0
 20
0.0
 30
0.0
  9
$UCSORGLEFT
 10
0.0
 20
0.0
 30
0.0
  9
$UCSORGRIGHT
 10
0.0
 20
0.0
 30
0.0
  9
$UCSORGFRONT
 10
0.0
 20
0.0
 30
0.0
  9
$UCSORGBACK
 10
0.0
 20
0.0
 30
0.0
  9
$PUCSBASE
  2

  9
$PUCSNAME
  2

  9
$PUCSORG
 10
0.0
 20
0.0
 30
0.0
  9
$PUCSXDIR
 10
1.0
 20
0.0
 30
0.0
  9
$PUCSYDIR
 10
0.0
 20
1.0
 30
0.0
  9
$PUCSORTHOREF
  2

  9
$PUCSORTHOVIEW
 70
     0
  9
$PUCSORGTOP
 10
0.0
 20
0.0
 30
0.0
  9
$PUCSORGBOTTOM
 10
0.0
 20
0.0
 30
0.0
  9
$PUCSORGLEFT
 10
0.0
 20
0.0
 30
0.0
  9
$PUCSORGRIGHT
 10
0.0
 20
0.0
 30
0.0
  9
$PUCSORGFRONT
 10
0.0
 20
0.0
 30
0.0
  9
$PUCSORGBACK
 10
0.0
 20
0.0
 30
0.0
  9
$USERI1
 70
     0
  9
$USERI2
 70
     0
  9
$USERI3
 70
     0
  9
$USERI4
 70
     0
  9
$USERI5
 70
     0
  9
$USERR1
 40
0.0
  9
$USERR2
 40
0.0
  9
$USERR3
 40
0.0
  9
$USERR4
 40
0.0
  9
$USERR5
 40
0.0
  9
$WORLDVIEW
 70
     1
  9
$SHADEDGE
 70
     3
  9
$SHADEDIF
 70
    70
  9
$TILEMODE
 70
     1
  9
$MAXACTVP
 70
    64
  9
$PINSBASE
 10
0.0
 20
0.0
 30
0.0
  9
$PLIMCHECK
 70
     0
  9
$PEXTMIN
 10
1.000000000000000E+20
 20
1.000000000000000E+20
 30
1.000000000000000E+20
  9
$PEXTMAX
 10
-1.000000000000000E+20
 20
-1.000000000000000E+20
 30
-1.000000000000000E+20
  9
$PLIMMIN
 10
0.0
 20
0.0
  9
$PLIMMAX
 10
12.0
 20
9.0
  9
$UNITMODE
 70
     0
  9
$VISRETAIN
 70
     1
  9
$PLINEGEN
 70
     0
  9
$PSLTSCALE
 70
     1
  9
$TREEDEPTH
 70
  3020
  9
$CMLSTYLE
  2
Standard
  9
$CMLJUST
 70
     0
  9
$CMLSCALE
 40
1.0
  9
$PROXYGRAPHICS
 70
     1
  9
$MEASUREMENT
 70
     0
  9
$CELWEIGHT
370
    -1
  9
$ENDCAPS
280
     0
  9
$JOINSTYLE
280
     0
  9
$LWDISPLAY
290
     0
  9
$INSUNITS
 70
     0
  9
$HYPERLINKBASE
  1

  9
$STYLESHEET
  1

  9
$XEDIT
290
     1
  9
$CEPSNTYPE
380
     0
  9
$PSTYLEMODE
290
     1
  9
$FINGERPRINTGUID
  2
{5DDFBBDA-12C9-4294-89F1-BEB53D6DDC61}
  9
$VERSIONGUID
  2
{3B184232-D9CD-4532-9DC4-97B0F12699D5}
  9
$EXTNAMES
290
     1
  9
$PSVPSCALE
 40
0.0
  9
$OLESTARTUP
290
     0
  0
ENDSEC
  0
SECTION
  2
CLASSES
  0
CLASS
  1
ACDBDICTIONARYWDFLT
  2
AcDbDictionaryWithDefault
  3
AutoCAD 2000
 90
        0
280
     0
281
     0
  0
CLASS
  1
ACDBPLACEHOLDER
  2
AcDbPlaceHolder
  3
AutoCAD 2000
 90
        0
280
     0
281
     0
  0
CLASS
  1
LAYOUT
  2
AcDbLayout
  3
AutoCAD 2000
 90
        0
280
     0
281
     0
  0
CLASS
  1
DICTIONARYVAR
  2
AcDbDictionaryVar
  3
AutoCAD 2000
 90
        0
280
     0
281
     0
  0
ENDSEC
  0
SECTION
  2
TABLES
  0
TABLE
  2
VPORT
  5
8
330
0
100
AcDbSymbolTable
 70
     2
  0
VPORT
  5
333
330
8
100
AcDbSymbolTableRecord
100
AcDbViewportTableRecord
  2
*Active
 70
     0
 10
0.0
 20
0.0
 11
1.0
 21
1.0
 12
39.5
 22
39.5
 13
0.0
 23
0.0
 14
1.0
 24
1.0
 15
0.0
 25
0.0
 16
0.0
 26
0.0
 36
1.0
 17
0.0
 27
0.0
 37
0.0
 40
79.49894736842106
 41
1.968387776606954
 42
50.0
 43
0.0
 44
0.0
 50
0.0
 51
0.0
 71
     0
 72
   100
 73
     1
 74
     3
 75
     0
 76
     0
 77
     0
 78
     0
281
     0
 65
     1
110
0.0
120
0.0
130
0.0
111
1.0
121
0.0
131
0.0
112
0.0
122
1.0
132
0.0
 79
     1
146
0.0
  0
ENDTAB
  0
TABLE
  2
LTYPE
  5
5
330
0
100
AcDbSymbolTable
 70
     1
  0
LTYPE
  5
13
330
5
100
AcDbSymbolTableRecord
100
AcDbLinetypeTableRecord
  2
ByBlock
 70
     0
  3

 72
    65
 73
     0
 40
0.0
  0
LTYPE
  5
14
330
5
100
AcDbSymbolTableRecord
100
AcDbLinetypeTableRecord
  2
ByLayer
 70
     0
  3

 72
    65
 73
     0
 40
0.0
  0
LTYPE
  5
15
330
5
100
AcDbSymbolTableRecord
100
AcDbLinetypeTableRecord
  2
Continuous
 70
     0
  3
Solid line
 72
    65
 73
     0
 40
0.0
  0
ENDTAB
  0
TABLE
  2
LAYER
  5
2
330
0
100
AcDbSymbolTable
 70
     1
  0
LAYER
  5
10
330
2
100
AcDbSymbolTableRecord
100
AcDbLayerTableRecord
  2
0
 70
     0
 62
     7
  6
Continuous
370
    -3
390
F
  0
ENDTAB
  0
TABLE
  2
STYLE
  5
3
330
0
100
AcDbSymbolTable
 70
     1
  0
STYLE
  5
11
330
3
100
AcDbSymbolTableRecord
100
AcDbTextStyleTableRecord
  2
Standard
 70
     0
 40
0.0
 41
1.0
 50
0.0
 71
     0
 42
0.2
  3
txt
  4

  0
ENDTAB
  0
TABLE
  2
VIEW
  5
6
330
0
100
AcDbSymbolTable
 70
     0
  0
ENDTAB
  0
TABLE
  2
UCS
  5
7
330
0
100
AcDbSymbolTable
 70
     0
  0
ENDTAB
  0
TABLE
  2
APPID
  5
9
330
0
100
AcDbSymbolTable
 70
     1
  0
APPID
  5
12
330
9
100
AcDbSymbolTableRecord
100
AcDbRegAppTableRecord
  2
ACAD
 70
     0
  0
ENDTAB
  0
TABLE
  2
DIMSTYLE
  5
A
330
0
100
AcDbSymbolTable
 70
     1
100
AcDbDimStyleTable
 71
     0
  0
DIMSTYLE
105
2D2
330
A
100
AcDbSymbolTableRecord
100
AcDbDimStyleTableRecord
  2
Standard
 70
     0
340
11
  0
ENDTAB
  0
TABLE
  2
BLOCK_RECORD
  5
1
330
0
100
AcDbSymbolTable
 70
     0
  0
BLOCK_RECORD
  5
1E
330
1
100
AcDbSymbolTableRecord
100
AcDbBlockTableRecord
  2
*Model_Space
340
21
  0
BLOCK_RECORD
  5
1A
330
1
100
AcDbSymbolTableRecord
100
AcDbBlockTableRecord
  2
*Paper_Space
340
1D
  0
ENDTAB
  0
ENDSEC
  0
SECTION
  2
BLOCKS
  0
BLOCK
  5
1F
330
1E
100
AcDbEntity
  8
0
100
AcDbBlockBegin
  2
*Model_Space
 70
     0
 10
0.0
 20
0.0
 30
0.0
  3
*Model_Space
  1

  0
ENDBLK
  5
20
330
1E
100
AcDbEntity
  8
0
100
AcDbBlockEnd
  0
BLOCK
  5
1B
330
1A
100
AcDbEntity
 67
     1
  8
0
100
AcDbBlockBegin
  2
*Paper_Space
 70
     0
 10
0.0
 20
0.0
 30
0.0
  3
*Paper_Space
  1

  0
ENDBLK
  5
1C
330
1A
100
AcDbEntity
 67
     1
  8
0
100
AcDbBlockEnd
  0
ENDSEC
  0
SECTION
  2
ENTITIES
  0
LINE
  5
40
330
1E
100
AcDbEntity
  8
0
100
AcDbLine
 10
36.97999999999999
 20
3.500000000000009
 30
0.0
 11
39.5
 21
3.500000000000009
 31
0.0
  0
LINE
  5
41
330
1E
100
AcDbEntity
  8
0
100
AcDbLine
 10
34.65999999999999
 20
3.500000000000009
 30
0.0
 11
36.97999999999999
 21
3.500000000000009
 31
0.0
  0
LINE
  5
42
330
1E
100
AcDbEntity
  8
0
100
AcDbLine
 10
32.62
 20
3.500000000000009
 30
0.0
 11
34.65999999999999
 21
3.500000000000009
 31
0.0
  0
LINE
  5
43
330
1E
100
AcDbEntity
  8
0
100
AcDbLine
 10
31.05999999999999
 20
3.500000000000009
 30
0.0
 11
32.62
 21
3.500000000000009
 31
0.0
  0
LINE
  5
44
330
1E
100
AcDbEntity
  8
0
100
AcDbLine
 10
36.97999999999999
 20
3.500000000000009
 30
0.0
 11
39.5
 21
3.500000000000009
 31
0.0
  0
LINE
  5
45
330
1E
100
AcDbEntity
  8
0
100
AcDbLine
 10
34.65999999999999
 20
3.500000000000009
 30
0.0
 11
36.97999999999999
 21
3.500000000000009
 31
0.0
  0
LINE
  5
46
330
1E
100
AcDbEntity
  8
0
100
AcDbLine
 10
32.62
 20
3.500000000000009
 30
0.0
 11
34.65999999999999
 21
3.500000000000009
 31
0.0
  0
LINE
  5
47
330
1E
100
AcDbEntity
  8
0
100
AcDbLine
 10
31.05999999999999
 20
3.500000000000009
 30
0.0
 11
32.62
 21
3.500000000000009
 31
0.0
  0
LINE
  5
48
330
1E
100
AcDbEntity
  8
0
100
AcDbLine
 10
30.1
 20
3.500000000000009
 30
0.0
 11
31.05999999999999
 21
3.500000000000009
 31
0.0
  0
LINE
  5
49
330
1E
100
AcDbEntity
  8
0
100
AcDbLine
 10
30.1
 20
3.500000000000009
 30
0.0
 11
31.05999999999999
 21
3.500000000000009
 31
0.0
  0
LINE
  5
4A
330
1E
100
AcDbEntity
  8
0
100
AcDbLine
 10
29.74
 20
3.500000000000009
 30
0.0
 11
30.1
 21
3.500000000000009
 31
0.0
  0
LINE
  5
50
330
1E
100
AcDbEntity
  8
0
100
AcDbLine
 10
34.54
 20
3.738950000000009
 30
0.0
 11
36.93999999999999
 21
3.738950000000009
 31
0.0
  0
LINE
  5
51
330
1E
100
AcDbEntity
  8
0
100
AcDbLine
 10
32.42
 20
3.738950000000009
 30
0.0
 11
34.54
 21
3.738950000000009
 31
0.0
  0
LINE
  5
52
330
1E
100
AcDbEntity
  8
0
100
AcDbLine
 10
30.82
 20
3.738950000000009
 30
0.0
 11
32.42
 21
3.738950000000009
 31
0.0
  0
LINE
  5
53
330
1E
100
AcDbEntity
  8
0
100
AcDbLine
 10
29.86
 20
3.738950000000009
 30
0.0
 11
30.82
 21
3.738950000000009
 31
0.0
  0
LINE
  5
54
330
1E
100
AcDbEntity
  8
0
100
AcDbLine
 10
36.93999999999999
 20
3.738950000000009
 30
0.0
 11
39.5
 21
3.738950000000009
 31
0.0
  0
LINE
  5
55
330
1E
100
AcDbEntity
  8
0
100
AcDbLine
 10
29.5
 20
3.738950000000009
 30
0.0
 11
29.5
 21
4.742530000000009
 31
0.0
  0
LINE
  5
56
330
1E
100
AcDbEntity
  8
0
100
AcDbLine
 10
29.5
 20
3.738950000000009
 30
0.0
 11
29.86
 21
3.738950000000009
 31
0.0
  0
LINE
  5
57
330
1E
100
AcDbEntity
  8
0
100
AcDbLine
 10
29.5
 20
3.738950000000009
 30
0.0
 11
29.74
 21
3.500000000000009
 31
0.0
  0
LINE
  5
58
330
1E
100
AcDbEntity
  8
0
100
AcDbLine
 10
29.86
 20
4.742530000000009
 30
0.0
 11
30.82
 21
4.742530000000009
 31
0.0
  0
LINE
  5
5A
330
1E
100
AcDbEntity
  8
0
100
AcDbLine
 10
30.1
 20
4.981480000000009
 30
0.0
 11
31.05999999999999
 21
4.981480000000009
 31
0.0
  0
LINE
  5
5B
330
1E
100
AcDbEntity
  8
0
100
AcDbLine
 10
29.74
 20
4.981480000000009
 30
0.0
 11
30.1
 21
4.981480000000009
 31
0.0
  0
LINE
  5
5C
330
1E
100
AcDbEntity
  8
0
100
AcDbLine
 10
30.82
 20
4.742530000000009
 30
0.0
 11
32.42
 21
4.742530000000009
 31
0.0
  0
LINE
  5
5D
330
1E
100
AcDbEntity
  8
0
100
AcDbLine
 10
29.5
 20
4.742530000000009
 30
0.0
 11
29.74
 21
4.981480000000009
 31
0.0
  0
LINE
  5
5E
330
1E
100
AcDbEntity
  8
0
100
AcDbLine
 10
29.5
 20
4.742530000000009
 30
0.0
 11
29.5
 21
3.738950000000009
 31
0.0
  0
LINE
  5
5F
330
1E
100
AcDbEntity
  8
0
100
AcDbLine
 10
29.5
 20
4.742530000000009
 30
0.0
 11
29.86
 21
4.742530000000009
 31
0.0
  0
LINE
  5
60
330
1E
100
AcDbEntity
  8
0
100
AcDbLine
 10
36.93999999999999
 20
4.742530000000009
 30
0.0
 11
39.5
 21
4.742530000000009
 31
0.0
  0
LINE
  5
61
330
1E
100
AcDbEntity
  8
0
100
AcDbLine
 10
34.54
 20
4.742530000000009
 30
0.0
 11
36.93999999999999
 21
4.742530000000009
 31
0.0
  0
LINE
  5
62
330
1E
100
AcDbEntity
  8
0
100
AcDbLine
 10
36.97999999999999
 20
4.981480000000009
 30
0.0
 11
39.5
 21
4.981480000000009
 31
0.0
  0
LINE
  5
63
330
1E
100
AcDbEntity
  8
0
100
AcDbLine
 10
34.65999999999999
 20
4.981480000000009
 30
0.0
 11
36.97999999999999
 21
4.981480000000009
 31
0.0
  0
LINE
  5
64
330
1E
100
AcDbEntity
  8
0
100
AcDbLine
 10
32.62
 20
4.981480000000009
 30
0.0
 11
34.65999999999999
 21
4.981480000000009
 31
0.0
  0
LINE
  5
65
330
1E
100
AcDbEntity
  8
0
100
AcDbLine
 10
31.05999999999999
 20
4.981480000000009
 30
0.0
 11
32.62
 21
4.981480000000009
 31
0.0
  0
LINE
  5
66
330
1E
100
AcDbEntity
  8
0
100
AcDbLine
 10
32.42
 20
4.742530000000009
 30
0.0
 11
34.54
 21
4.742530000000009
 31
0.0
  0
LINE
  5
68
330
1E
100
AcDbEntity
  8
0
100
AcDbLine
 10
32.42
 20
5.123930000000009
 30
0.0
 11
34.54
 21
5.123930000000009
 31
0.0
  0
LINE
  5
69
330
1E
100
AcDbEntity
  8
0
100
AcDbLine
 10
30.82
 20
5.123930000000009
 30
0.0
 11
32.42
 21
5.123930000000009
 31
0.0
  0
LINE
  5
6A
330
1E
100
AcDbEntity
  8
0
100
AcDbLine
 10
29.86
 20
5.123930000000009
 30
0.0
 11
30.82
 21
5.123930000000009
 31
0.0
  0
LINE
  5
6D
330
1E
100
AcDbEntity
  8
0
100
AcDbLine
 10
36.93999999999999
 20
5.123930000000009
 30
0.0
 11
39.5
 21
5.123930000000009
 31
0.0
  0
LINE
  5
6E
330
1E
100
AcDbEntity
  8
0
100
AcDbLine
 10
34.54
 20
5.123930000000009
 30
0.0
 11
36.93999999999999
 21
5.123930000000009
 31
0.0
  0
LINE
  5
6F
330
1E
100
AcDbEntity
  8
0
100
AcDbLine
 10
29.5
 20
5.123930000000009
 30
0.0
 11
29.5
 21
25.3575
 31
0.0
  0
LINE
  5
70
330
1E
100
AcDbEntity
  8
0
100
AcDbLine
 10
29.5
 20
5.123930000000009
 30
0.0
 11
29.86
 21
5.123930000000009
 31
0.0
  0
LINE
  5
71
330
1E
100
AcDbEntity
  8
0
100
AcDbLine
 10
29.5
 20
5.123930000000009
 30
0.0
 11
29.74
 21
4.981480000000009
 31
0.0
  0
LINE
  5
72
330
1E
100
AcDbEntity
  8
0
100
AcDbLine
 10
39.5
 20
5.123930000000009
 30
0.0
 11
42.06
 21
5.123930000000009
 31
0.0
  0
LINE
  5
73
330
1E
100
AcDbEntity
  8
0
100
AcDbLine
 10
39.5
 20
4.981480000000009
 30
0.0
 11
42.02
 21
4.981480000000009
 31
0.0
  0
LINE
  5
74
330
1E
100
AcDbEntity
  8
0
100
AcDbLine
 10
39.5
 20
4.742530000000009
 30
0.0
 11
42.06
 21
4.742530000000009
 31
0.0
  0
LINE
  5
75
330
1E
100
AcDbEntity
  8
0
100
AcDbLine
 10
39.5
 20
3.738950000000009
 30
0.0
 11
42.06
 21
3.738950000000009
 31
0.0
  0
LINE
  5
76
330
1E
100
AcDbEntity
  8
0
100
AcDbLine
 10
39.5
 20
3.500000000000009
 30
0.0
 11
42.02
 21
3.500000000000009
 31
0.0
  0
LINE
  5
77
330
1E
100
AcDbEntity
  8
0
100
AcDbLine
 10
39.5
 20
3.500000000000009
 30
0.0
 11
42.02
 21
3.500000000000009
 31
0.0
  0
LINE
  5
7A
330
1E
100
AcDbEntity
  8
0
100
AcDbLine
 10
37.736
 20
6.92000000000003
 30
0.0
 11
39.5
 21
6.668000000000029
 31
0.0
  0
LINE
  5
7B
330
1E
100
AcDbEntity
  8
0
100
AcDbLine
 10
37.70799999999999
 20
6.752000000000029
 30
0.0
 11
39.5
 21
6.50000000000003
 31
0.0
  0
LINE
  5
7C
330
1E
100
AcDbEntity
  8
0
100
AcDbLine
 10
39.5
 20
6.668000000000029
 30
0.0
 11
41.26399999999999
 21
6.92000000000003
 31
0.0
  0
LINE
  5
7D
330
1E
100
AcDbEntity
  8
0
100
AcDbLine
 10
39.5
 20
6.50000000000003
 30
0.0
 11
41.29199999999999
 21
6.752000000000029
 31
0.0
  0
LINE
  5
81
330
1E
100
AcDbEntity
  8
0
100
AcDbLine
 10
42.02
 20
4.981480000000009
 30
0.0
 11
44.34
 21
4.981480000000009
 31
0.0
  0
LINE
  5
82
330
1E
100
AcDbEntity
  8
0
100
AcDbLine
 10
42.06
 20
5.123930000000009
 30
0.0
 11
44.46
 21
5.123930000000009
 31
0.0
  0
LINE
  5
83
330
1E
100
AcDbEntity
  8
0
100
AcDbLine
 10
42.06
 20
4.742530000000009
 30
0.0
 11
44.46
 21
4.742530000000009
 31
0.0
  0
LINE
  5
84
330
1E
100
AcDbEntity
  8
0
100
AcDbLine
 10
42.06
 20
3.738950000000009
 30
0.0
 11
44.46
 21
3.738950000000009
 31
0.0
  0
LINE
  5
85
330
1E
100
AcDbEntity
  8
0
100
AcDbLine
 10
42.02
 20
3.500000000000009
 30
0.0
 11
44.34
 21
3.500000000000009
 31
0.0
  0
LINE
  5
86
330
1E
100
AcDbEntity
  8
0
100
AcDbLine
 10
42.02
 20
3.500000000000009
 30
0.0
 11
44.34
 21
3.500000000000009
 31
0.0
  0
LINE
  5
87
330
1E
100
AcDbEntity
  8
0
100
AcDbLine
 10
41.29199999999999
 20
6.752000000000029
 30
0.0
 11
42.972
 21
7.424000000000029
 31
0.0
  0
LINE
  5
8A
330
1E
100
AcDbEntity
  8
0
100
AcDbLine
 10
36.11199999999999
 20
7.592000000000029
 30
0.0
 11
37.736
 21
6.92000000000003
 31
0.0
  0
LINE
  5
8B
330
1E
100
AcDbEntity
  8
0
100
AcDbLine
 10
36.028
 20
7.424000000000029
 30
0.0
 11
37.70799999999999
 21
6.752000000000029
 31
0.0
  0
LINE
  5
8C
330
1E
100
AcDbEntity
  8
0
100
AcDbLine
 10
41.26399999999999
 20
6.92000000000003
 30
0.0
 11
42.88800000000001
 21
7.592000000000029
 31
0.0
  0
LINE
  5
8D
330
1E
100
AcDbEntity
  8
0
100
AcDbLine
 10
44.34
 20
4.981480000000009
 30
0.0
 11
46.38
 21
4.981480000000009
 31
0.0
  0
LINE
  5
8E
330
1E
100
AcDbEntity
  8
0
100
AcDbLine
 10
44.34
 20
3.500000000000009
 30
0.0
 11
46.38
 21
3.500000000000009
 31
0.0
  0
LINE
  5
8F
330
1E
100
AcDbEntity
  8
0
100
AcDbLine
 10
44.34
 20
3.500000000000009
 30
0.0
 11
46.38
 21
3.500000000000009
 31
0.0
  0
LINE
  5
90
330
1E
100
AcDbEntity
  8
0
100
AcDbLine
 10
42.972
 20
7.424000000000029
 30
0.0
 11
44.456
 21
8.54400000000003
 31
0.0
  0
LINE
  5
92
330
1E
100
AcDbEntity
  8
0
100
AcDbLine
 10
38.114
 20
8.33000000000003
 30
0.0
 11
39.5
 21
8.132000000000029
 31
0.0
  0
LINE
  5
93
330
1E
100
AcDbEntity
  8
0
100
AcDbLine
 10
38.092
 20
8.19800000000003
 30
0.0
 11
39.5
 21
8.00000000000003
 31
0.0
  0
LINE
  5
94
330
1E
100
AcDbEntity
  8
0
100
AcDbLine
 10
39.5
 20
8.132000000000029
 30
0.0
 11
40.88599999999999
 21
8.33000000000003
 31
0.0
  0
LINE
  5
95
330
1E
100
AcDbEntity
  8
0
100
AcDbLine
 10
40.88599999999999
 20
8.33000000000003
 30
0.0
 11
42.16199999999999
 21
8.858000000000028
 31
0.0
  0
LINE
  5
96
330
1E
100
AcDbEntity
  8
0
100
AcDbLine
 10
39.5
 20
8.00000000000003
 30
0.0
 11
40.908
 21
8.19800000000003
 31
0.0
  0
LINE
  5
97
330
1E
100
AcDbEntity
  8
0
100
AcDbLine
 10
40.908
 20
8.19800000000003
 30
0.0
 11
42.228
 21
8.726000000000029
 31
0.0
  0
LINE
  5
98
330
1E
100
AcDbEntity
  8
0
100
AcDbLine
 10
34.68399999999999
 20
8.684000000000029
 30
0.0
 11
36.11199999999999
 21
7.592000000000029
 31
0.0
  0
LINE
  5
99
330
1E
100
AcDbEntity
  8
0
100
AcDbLine
 10
34.544
 20
8.54400000000003
 30
0.0
 11
36.028
 21
7.424000000000029
 31
0.0
  0
LINE
  5
9A
330
1E
100
AcDbEntity
  8
0
100
AcDbLine
 10
42.88800000000001
 20
7.592000000000029
 30
0.0
 11
44.316
 21
8.684000000000029
 31
0.0
  0
LINE
  5
9B
330
1E
100
AcDbEntity
  8
0
100
AcDbLine
 10
44.46
 20
5.123930000000009
 30
0.0
 11
46.58
 21
5.123930000000009
 31
0.0
  0
LINE
  5
9C
330
1E
100
AcDbEntity
  8
0
100
AcDbLine
 10
44.46
 20
4.742530000000009
 30
0.0
 11
46.58
 21
4.742530000000009
 31
0.0
  0
LINE
  5
9D
330
1E
100
AcDbEntity
  8
0
100
AcDbLine
 10
44.46
 20
3.738950000000009
 30
0.0
 11
46.58
 21
3.738950000000009
 31
0.0
  0
LINE
  5
9E
330
1E
100
AcDbEntity
  8
0
100
AcDbLine
 10
44.456
 20
8.54400000000003
 30
0.0
 11
45.57599999999999
 21
10.02799999999999
 31
0.0
  0
LINE
  5
A4
330
1E
100
AcDbEntity
  8
0
100
AcDbLine
 10
36.772
 20
8.726000000000029
 30
0.0
 11
38.092
 21
8.19800000000003
 31
0.0
  0
LINE
  5
A5
330
1E
100
AcDbEntity
  8
0
100
AcDbLine
 10
36.838
 20
8.858000000000028
 30
0.0
 11
38.114
 21
8.33000000000003
 31
0.0
  0
LINE
  5
A6
330
1E
100
AcDbEntity
  8
0
100
AcDbLine
 10
35.716
 20
9.716000000000029
 30
0.0
 11
36.838
 21
8.858000000000028
 31
0.0
  0
LINE
  5
A7
330
1E
100
AcDbEntity
  8
0
100
AcDbLine
 10
35.606
 20
9.60600000000003
 30
0.0
 11
36.772
 21
8.726000000000029
 31
0.0
  0
LINE
  5
A8
330
1E
100
AcDbEntity
  8
0
100
AcDbLine
 10
42.16199999999999
 20
8.858000000000028
 30
0.0
 11
43.284
 21
9.716000000000029
 31
0.0
  0
LINE
  5
A9
330
1E
100
AcDbEntity
  8
0
100
AcDbLine
 10
43.284
 20
9.716000000000029
 30
0.0
 11
44.142
 21
10.83799999999999
 31
0.0
  0
LINE
  5
AA
330
1E
100
AcDbEntity
  8
0
100
AcDbLine
 10
42.228
 20
8.726000000000029
 30
0.0
 11
43.394
 21
9.60600000000003
 31
0.0
  0
LINE
  5
AB
330
1E
100
AcDbEntity
  8
0
100
AcDbLine
 10
43.394
 20
9.60600000000003
 30
0.0
 11
44.27399999999999
 21
10.772
 31
0.0
  0
LINE
  5
AC
330
1E
100
AcDbEntity
  8
0
100
AcDbLine
 10
33.59199999999999
 20
10.112
 30
0.0
 11
34.68399999999999
 21
8.684000000000029
 31
0.0
  0
LINE
  5
AD
330
1E
100
AcDbEntity
  8
0
100
AcDbLine
 10
33.424
 20
10.02799999999999
 30
0.0
 11
34.544
 21
8.54400000000003
 31
0.0
  0
LINE
  5
AE
330
1E
100
AcDbEntity
  8
0
100
AcDbLine
 10
44.316
 20
8.684000000000029
 30
0.0
 11
45.40799999999999
 21
10.112
 31
0.0
  0
LINE
  5
AF
330
1E
100
AcDbEntity
  8
0
100
AcDbLine
 10
45.57599999999999
 20
10.02799999999999
 30
0.0
 11
46.248
 21
11.708
 31
0.0
  0
LINE
  5
B8
330
1E
100
AcDbEntity
  8
0
100
AcDbLine
 10
34.858
 20
10.83799999999999
 30
0.0
 11
35.716
 21
9.716000000000029
 31
0.0
  0
LINE
  5
B9
330
1E
100
AcDbEntity
  8
0
100
AcDbLine
 10
34.72599999999999
 20
10.772
 30
0.0
 11
35.606
 21
9.60600000000003
 31
0.0
  0
LINE
  5
BA
330
1E
100
AcDbEntity
  8
0
100
AcDbLine
 10
44.142
 20
10.83799999999999
 30
0.0
 11
44.67
 21
12.114
 31
0.0
  0
LINE
  5
BB
330
1E
100
AcDbEntity
  8
0
100
AcDbLine
 10
44.27399999999999
 20
10.772
 30
0.0
 11
44.80199999999999
 21
12.092
 31
0.0
  0
LINE
  5
BC
330
1E
100
AcDbEntity
  8
0
100
AcDbLine
 10
32.66799999999999
 20
13.5
 30
0.0
 11
32.92
 21
11.73599999999999
 31
0.0
  0
LINE
  5
BD
330
1E
100
AcDbEntity
  8
0
100
AcDbLine
 10
32.66799999999999
 20
13.5
 30
0.0
 11
32.92
 21
15.264
 31
0.0
  0
LINE
  5
BE
330
1E
100
AcDbEntity
  8
0
100
AcDbLine
 10
34.32999999999999
 20
12.114
 30
0.0
 11
34.858
 21
10.83799999999999
 31
0.0
  0
LINE
  5
BF
330
1E
100
AcDbEntity
  8
0
100
AcDbLine
 10
34.198
 20
12.092
 30
0.0
 11
34.72599999999999
 21
10.772
 31
0.0
  0
LINE
  5
C0
330
1E
100
AcDbEntity
  8
0
100
AcDbLine
 10
34.858
 20
16.162
 30
0.0
 11
35.716
 21
17.284
 31
0.0
  0
LINE
  5
C1
330
1E
100
AcDbEntity
  8
0
100
AcDbLine
 10
34.32999999999999
 20
14.88599999999999
 30
0.0
 11
34.858
 21
16.162
 31
0.0
  0
LINE
  5
C2
330
1E
100
AcDbEntity
  8
0
100
AcDbLine
 10
34.198
 20
14.908
 30
0.0
 11
34.72599999999999
 21
16.22799999999999
 31
0.0
  0
LINE
  5
C3
330
1E
100
AcDbEntity
  8
0
100
AcDbLine
 10
34.13199999999999
 20
13.5
 30
0.0
 11
34.32999999999999
 21
12.114
 31
0.0
  0
LINE
  5
C4
330
1E
100
AcDbEntity
  8
0
100
AcDbLine
 10
34.13199999999999
 20
13.5
 30
0.0
 11
34.32999999999999
 21
14.88599999999999
 31
0.0
  0
LINE
  5
C5
330
1E
100
AcDbEntity
  8
0
100
AcDbLine
 10
34.0
 20
13.5
 30
0.0
 11
34.198
 21
12.092
 31
0.0
  0
LINE
  5
C6
330
1E
100
AcDbEntity
  8
0
100
AcDbLine
 10
34.0
 20
13.5
 30
0.0
 11
34.198
 21
14.908
 31
0.0
  0
LINE
  5
C7
330
1E
100
AcDbEntity
  8
0
100
AcDbLine
 10
34.72599999999999
 20
16.22799999999999
 30
0.0
 11
35.606
 21
17.394
 31
0.0
  0
LINE
  5
C8
330
1E
100
AcDbEntity
  8
0
100
AcDbLine
 10
44.142
 20
16.162
 30
0.0
 11
44.67
 21
14.88599999999999
 31
0.0
  0
LINE
  5
C9
330
1E
100
AcDbEntity
  8
0
100
AcDbLine
 10
44.67
 20
14.88599999999999
 30
0.0
 11
44.868
 21
13.5
 31
0.0
  0
LINE
  5
CA
330
1E
100
AcDbEntity
  8
0
100
AcDbLine
 10
44.27399999999999
 20
16.22799999999999
 30
0.0
 11
44.80199999999999
 21
14.908
 31
0.0
  0
LINE
  5
CB
330
1E
100
AcDbEntity
  8
0
100
AcDbLine
 10
44.80199999999999
 20
14.908
 30
0.0
 11
45.0
 21
13.5
 31
0.0
  0
LINE
  5
CC
330
1E
100
AcDbEntity
  8
0
100
AcDbLine
 10
44.67
 20
12.114
 30
0.0
 11
44.868
 21
13.5
 31
0.0
  0
LINE
  5
CD
330
1E
100
AcDbEntity
  8
0
100
AcDbLine
 10
44.80199999999999
 20
12.092
 30
0.0
 11
45.0
 21
13.5
 31
0.0
  0
LINE
  5
CE
330
1E
100
AcDbEntity
  8
0
100
AcDbLine
 10
33.59199999999999
 20
16.88799999999999
 30
0.0
 11
34.68399999999999
 21
18.31599999999999
 31
0.0
  0
LINE
  5
CF
330
1E
100
AcDbEntity
  8
0
100
AcDbLine
 10
32.92
 20
15.264
 30
0.0
 11
33.59199999999999
 21
16.88799999999999
 31
0.0
  0
LINE
  5
D0
330
1E
100
AcDbEntity
  8
0
100
AcDbLine
 10
32.92
 20
11.73599999999999
 30
0.0
 11
33.59199999999999
 21
10.112
 31
0.0
  0
LINE
  5
D1
330
1E
100
AcDbEntity
  8
0
100
AcDbLine
 10
32.75199999999999
 20
15.292
 30
0.0
 11
33.424
 21
16.972
 31
0.0
  0
LINE
  5
D2
330
1E
100
AcDbEntity
  8
0
100
AcDbLine
 10
32.75199999999999
 20
11.708
 30
0.0
 11
33.424
 21
10.02799999999999
 31
0.0
  0
LINE
  5
D3
330
1E
100
AcDbEntity
  8
0
100
AcDbLine
 10
32.5
 20
13.5
 30
0.0
 11
32.75199999999999
 21
11.708
 31
0.0
  0
LINE
  5
D4
330
1E
100
AcDbEntity
  8
0
100
AcDbLine
 10
32.5
 20
13.5
 30
0.0
 11
32.75199999999999
 21
15.292
 31
0.0
  0
LINE
  5
D5
330
1E
100
AcDbEntity
  8
0
100
AcDbLine
 10
36.838
 20
18.14199999999999
 30
0.0
 11
38.114
 21
18.67
 31
0.0
  0
LINE
  5
D6
330
1E
100
AcDbEntity
  8
0
100
AcDbLine
 10
35.716
 20
17.284
 30
0.0
 11
36.838
 21
18.14199999999999
 31
0.0
  0
LINE
  5
D7
330
1E
100
AcDbEntity
  8
0
100
AcDbLine
 10
35.606
 20
17.394
 30
0.0
 11
36.772
 21
18.274
 31
0.0
  0
LINE
  5
D8
330
1E
100
AcDbEntity
  8
0
100
AcDbLine
 10
36.772
 20
18.274
 30
0.0
 11
38.092
 21
18.802
 31
0.0
  0
LINE
  5
D9
330
1E
100
AcDbEntity
  8
0
100
AcDbLine
 10
42.16199999999999
 20
18.14199999999999
 30
0.0
 11
43.284
 21
17.284
 31
0.0
  0
LINE
  5
DA
330
1E
100
AcDbEntity
  8
0
100
AcDbLine
 10
43.284
 20
17.284
 30
0.0
 11
44.142
 21
16.162
 31
0.0
  0
LINE
  5
DB
330
1E
100
AcDbEntity
  8
0
100
AcDbLine
 10
42.228
 20
18.274
 30
0.0
 11
43.394
 21
17.394
 31
0.0
  0
LINE
  5
DC
330
1E
100
AcDbEntity
  8
0
100
AcDbLine
 10
43.394
 20
17.394
 30
0.0
 11
44.27399999999999
 21
16.22799999999999
 31
0.0
  0
LINE
  5
DD
330
1E
100
AcDbEntity
  8
0
100
AcDbLine
 10
34.68399999999999
 20
18.31599999999999
 30
0.0
 11
36.11199999999999
 21
19.408
 31
0.0
  0
LINE
  5
DE
330
1E
100
AcDbEntity
  8
0
100
AcDbLine
 10
33.424
 20
16.972
 30
0.0
 11
34.544
 21
18.456
 31
0.0
  0
LINE
  5
E1
330
1E
100
AcDbEntity
  8
0
100
AcDbLine
 10
38.114
 20
18.67
 30
0.0
 11
39.5
 21
18.868
 31
0.0
  0
LINE
  5
E2
330
1E
100
AcDbEntity
  8
0
100
AcDbLine
 10
38.092
 20
18.802
 30
0.0
 11
39.5
 21
19.0
 31
0.0
  0
LINE
  5
E3
330
1E
100
AcDbEntity
  8
0
100
AcDbLine
 10
39.5
 20
18.868
 30
0.0
 11
40.88599999999999
 21
18.67
 31
0.0
  0
LINE
  5
E4
330
1E
100
AcDbEntity
  8
0
100
AcDbLine
 10
40.88599999999999
 20
18.67
 30
0.0
 11
42.16199999999999
 21
18.14199999999999
 31
0.0
  0
LINE
  5
E5
330
1E
100
AcDbEntity
  8
0
100
AcDbLine
 10
39.5
 20
19.0
 30
0.0
 11
40.908
 21
18.802
 31
0.0
  0
LINE
  5
E6
330
1E
100
AcDbEntity
  8
0
100
AcDbLine
 10
40.908
 20
18.802
 30
0.0
 11
42.228
 21
18.274
 31
0.0
  0
LINE
  5
E7
330
1E
100
AcDbEntity
  8
0
100
AcDbLine
 10
36.11199999999999
 20
19.408
 30
0.0
 11
37.736
 21
20.08
 31
0.0
  0
LINE
  5
E8
330
1E
100
AcDbEntity
  8
0
100
AcDbLine
 10
34.544
 20
18.456
 30
0.0
 11
36.028
 21
19.576
 31
0.0
  0
LINE
  5
E9
330
1E
100
AcDbEntity
  8
0
100
AcDbLine
 10
37.736
 20
20.08
 30
0.0
 11
39.5
 21
20.332
 31
0.0
  0
LINE
  5
EA
330
1E
100
AcDbEntity
  8
0
100
AcDbLine
 10
36.028
 20
19.576
 30
0.0
 11
37.70799999999999
 21
20.248
 31
0.0
  0
LINE
  5
EB
330
1E
100
AcDbEntity
  8
0
100
AcDbLine
 10
37.70799999999999
 20
20.248
 30
0.0
 11
39.5
 21
20.5
 31
0.0
  0
LINE
  5
EF
330
1E
100
AcDbEntity
  8
0
100
AcDbLine
 10
34.54
 20
25.3575
 30
0.0
 11
36.93999999999999
 21
25.3575
 31
0.0
  0
LINE
  5
F1
330
1E
100
AcDbEntity
  8
0
100
AcDbLine
 10
32.42
 20
25.3575
 30
0.0
 11
34.54
 21
25.3575
 31
0.0
  0
LINE
  5
F3
330
1E
100
AcDbEntity
  8
0
100
AcDbLine
 10
30.82
 20
25.3575
 30
0.0
 11
32.42
 21
25.3575
 31
0.0
  0
LINE
  5
F5
330
1E
100
AcDbEntity
  8
0
100
AcDbLine
 10
29.86
 20
25.3575
 30
0.0
 11
30.82
 21
25.3575
 31
0.0
  0
LINE
  5
F7
330
1E
100
AcDbEntity
  8
0
100
AcDbLine
 10
36.93999999999999
 20
25.3575
 30
0.0
 11
39.5
 21
25.3575
 31
0.0
  0
LINE
  5
F9
330
1E
100
AcDbEntity
  8
0
100
AcDbLine
 10
29.5
 20
25.3575
 30
0.0
 11
29.74
 21
25.5
 31
0.0
  0
LINE
  5
FA
330
1E
100
AcDbEntity
  8
0
100
AcDbLine
 10
29.5
 20
25.3575
 30
0.0
 11
29.5
 21
5.123930000000009
 31
0.0
  0
LINE
  5
FB
330
1E
100
AcDbEntity
  8
0
100
AcDbLine
 10
29.5
 20
25.3575
 30
0.0
 11
29.86
 21
25.3575
 31
0.0
  0
LINE
  5
FC
330
1E
100
AcDbEntity
  8
0
100
AcDbLine
 10
34.65999999999999
 20
25.5
 30
0.0
 11
36.97999999999999
 21
25.5
 31
0.0
  0
LINE
  5
FD
330
1E
100
AcDbEntity
  8
0
100
AcDbLine
 10
32.62
 20
25.5
 30
0.0
 11
34.65999999999999
 21
25.5
 31
0.0
  0
LINE
  5
FE
330
1E
100
AcDbEntity
  8
0
100
AcDbLine
 10
31.05999999999999
 20
25.5
 30
0.0
 11
32.62
 21
25.5
 31
0.0
  0
LINE
  5
FF
330
1E
100
AcDbEntity
  8
0
100
AcDbLine
 10
30.1
 20
25.5
 30
0.0
 11
31.05999999999999
 21
25.5
 31
0.0
  0
LINE
  5
100
330
1E
100
AcDbEntity
  8
0
100
AcDbLine
 10
29.74
 20
25.5
 30
0.0
 11
30.1
 21
25.5
 31
0.0
  0
LINE
  5
101
330
1E
100
AcDbEntity
  8
0
100
AcDbLine
 10
36.93999999999999
 20
25.64249999999999
 30
0.0
 11
39.5
 21
25.64249999999999
 31
0.0
  0
LINE
  5
102
330
1E
100
AcDbEntity
  8
0
100
AcDbLine
 10
34.54
 20
25.64249999999999
 30
0.0
 11
36.93999999999999
 21
25.64249999999999
 31
0.0
  0
LINE
  5
103
330
1E
100
AcDbEntity
  8
0
100
AcDbLine
 10
32.42
 20
25.64249999999999
 30
0.0
 11
34.54
 21
25.64249999999999
 31
0.0
  0
LINE
  5
104
330
1E
100
AcDbEntity
  8
0
100
AcDbLine
 10
30.82
 20
25.64249999999999
 30
0.0
 11
32.42
 21
25.64249999999999
 31
0.0
  0
LINE
  5
105
330
1E
100
AcDbEntity
  8
0
100
AcDbLine
 10
29.86
 20
25.64249999999999
 30
0.0
 11
30.82
 21
25.64249999999999
 31
0.0
  0
LINE
  5
109
330
1E
100
AcDbEntity
  8
0
100
AcDbLine
 10
0.0
 20
39.5
 30
0.0
 11
0.052431
 21
42.86859999999999
 31
0.0
  0
LINE
  5
10D
330
1E
100
AcDbEntity
  8
0
100
AcDbLine
 10
0.052431
 20
42.86859999999999
 30
0.0
 11
0.223521
 21
47.8631
 31
0.0
  0
LINE
  5
10E
330
1E
100
AcDbEntity
  8
0
100
AcDbLine
 10
0.223521
 20
47.8631
 30
0.0
 11
0.5799590000000001
 21
54.3324
 31
0.0
  0
LINE
  5
10F
330
1E
100
AcDbEntity
  8
0
100
AcDbLine
 10
0.052431
 20
42.86859999999999
 30
0.0
 11
0.223521
 21
47.8631
 31
0.0
  0
LINE
  5
110
330
1E
100
AcDbEntity
  8
0
100
AcDbLine
 10
1.008699999999999
 20
60.0028
 30
0.0
 11
1.47526
 21
63.91519999999999
 31
0.0
  0
LINE
  5
111
330
1E
100
AcDbEntity
  8
0
100
AcDbLine
 10
0.5799590000000001
 20
54.3324
 30
0.0
 11
1.008699999999999
 21
60.0028
 31
0.0
  0
LINE
  5
115
330
1E
100
AcDbEntity
  8
0
100
AcDbLine
 10
1.85653
 20
67.11579999999999
 30
0.0
 11
1.89920491240675
 21
67.34698304136229
 31
0.0
  0
LINE
  5
116
330
1E
100
AcDbEntity
  8
0
100
AcDbLine
 10
1.85653
 20
67.11579999999999
 30
0.0
 11
1.89920491240631
 21
67.3469830413599
 31
0.0
  0
LINE
  5
117
330
1E
100
AcDbEntity
  8
0
100
AcDbLine
 10
1.47526
 20
63.91519999999999
 30
0.0
 11
1.85653
 21
67.11579999999999
 31
0.0
  0
LINE
  5
118
330
1E
100
AcDbEntity
  8
0
100
AcDbLine
 10
1.85655
 20
67.1159
 30
0.0
 11
2.29278666666639
 21
69.32199999999889
 31
0.0
  0
LINE
  5
11A
330
1E
100
AcDbEntity
  8
0
100
AcDbLine
 10
2.29278666666639
 20
69.32199999999889
 30
0.0
 11
2.526199999999999
 21
70.27219999999999
 31
0.0
  0
LINE
  5
11B
330
1E
100
AcDbEntity
  8
0
100
AcDbLine
 10
2.29278666666644
 20
69.32199999999911
 30
0.0
 11
2.526199999999999
 21
70.27219999999999
 31
0.0
  0
LINE
  5
11C
330
1E
100
AcDbEntity
  8
0
100
AcDbLine
 10
2.526199999999999
 20
70.27219999999999
 30
0.0
 11
2.773844999999569
 21
70.886699999999
 31
0.0
  0
LINE
  5
11D
330
1E
100
AcDbEntity
  8
0
100
AcDbLine
 10
2.526199999999999
 20
70.27219999999999
 30
0.0
 11
2.773845000000069
 21
70.8867000000002
 31
0.0
  0
LINE
  5
120
330
1E
100
AcDbEntity
  8
0
100
AcDbLine
 10
3.273405000003479
 20
71.94075000000609
 30
0.0
 11
3.525319999999999
 21
72.38030000000001
 31
0.0
  0
LINE
  5
122
330
1E
100
AcDbEntity
  8
0
100
AcDbLine
 10
4.148699999999999
 20
73.3191
 30
0.0
 11
4.86742
 21
74.1326
 31
0.0
  0
LINE
  5
123
330
1E
100
AcDbEntity
  8
0
100
AcDbLine
 10
3.525319999999999
 20
72.38030000000001
 30
0.0
 11
4.148699999999999
 21
73.3191
 31
0.0
  0
LINE
  5
12F
330
1E
100
AcDbEntity
  8
0
100
AcDbLine
 10
29.5
 20
53.3575
 30
0.0
 11
29.5
 21
39.5
 31
0.0
  0
LINE
  5
130
330
1E
100
AcDbEntity
  8
0
100
AcDbLine
 10
29.5
 20
53.3575
 30
0.0
 11
29.86
 21
53.3575
 31
0.0
  0
LINE
  5
131
330
1E
100
AcDbEntity
  8
0
100
AcDbLine
 10
29.5
 20
53.3575
 30
0.0
 11
29.74
 21
53.5
 31
0.0
  0
LINE
  5
133
330
1E
100
AcDbEntity
  8
0
100
AcDbLine
 10
4.86742
 20
74.1326
 30
0.0
 11
5.68086
 21
74.85129999999999
 31
0.0
  0
LINE
  5
134
330
1E
100
AcDbEntity
  8
0
100
AcDbLine
 10
29.5
 20
73.87609999999999
 30
0.0
 11
29.5
 21
53.6425
 31
0.0
  0
LINE
  5
135
330
1E
100
AcDbEntity
  8
0
100
AcDbLine
 10
29.5
 20
73.87609999999999
 30
0.0
 11
29.86
 21
73.87609999999999
 31
0.0
  0
LINE
  5
136
330
1E
100
AcDbEntity
  8
0
100
AcDbLine
 10
29.5
 20
73.87609999999999
 30
0.0
 11
29.74
 21
74.0185
 31
0.0
  0
LINE
  5
137
330
1E
100
AcDbEntity
  8
0
100
AcDbLine
 10
29.5
 20
53.6425
 30
0.0
 11
29.5
 21
73.87609999999999
 31
0.0
  0
LINE
  5
138
330
1E
100
AcDbEntity
  8
0
100
AcDbLine
 10
29.5
 20
53.6425
 30
0.0
 11
29.74
 21
53.5
 31
0.0
  0
LINE
  5
139
330
1E
100
AcDbEntity
  8
0
100
AcDbLine
 10
29.5
 20
53.6425
 30
0.0
 11
29.86
 21
53.6425
 31
0.0
  0
LINE
  5
13B
330
1E
100
AcDbEntity
  8
0
100
AcDbLine
 10
6.619689999999999
 20
75.4747
 30
0.0
 11
7.49876
 21
75.9785
 31
0.0
  0
LINE
  5
13C
330
1E
100
AcDbEntity
  8
0
100
AcDbLine
 10
5.68086
 20
74.85129999999999
 30
0.0
 11
6.619689999999999
 21
75.4747
 31
0.0
  0
LINE
  5
13E
330
1E
100
AcDbEntity
  8
0
100
AcDbLine
 10
7.49876
 20
75.9785
 30
0.0
 11
8.727769999999999
 21
76.4738
 31
0.0
  0
LINE
  5
141
330
1E
100
AcDbEntity
  8
0
100
AcDbLine
 10
8.727769999999999
 20
76.4738
 30
0.0
 11
10.1531
 21
76.82389999999999
 31
0.0
  0
LINE
  5
142
330
1E
100
AcDbEntity
  8
0
100
AcDbLine
 10
10.1531
 20
76.82389999999999
 30
0.0
 11
11.8842
 21
77.1435
 31
0.0
  0
LINE
  5
143
330
1E
100
AcDbEntity
  8
0
100
AcDbLine
 10
11.8842
 20
77.1435
 30
0.0
 11
15.0848
 21
77.52469999999999
 31
0.0
  0
LINE
  5
145
330
1E
100
AcDbEntity
  8
0
100
AcDbLine
 10
15.0848
 20
77.52469999999999
 30
0.0
 11
18.99709999999999
 21
77.99129999999999
 31
0.0
  0
LINE
  5
14A
330
1E
100
AcDbEntity
  8
0
100
AcDbLine
 10
18.99709999999999
 20
77.99129999999999
 30
0.0
 11
24.6676
 21
78.42
 31
0.0
  0
LINE
  5
14D
330
1E
100
AcDbEntity
  8
0
100
AcDbLine
 10
24.6676
 20
78.42
 30
0.0
 11
31.1369
 21
78.7765
 31
0.0
  0
LINE
  5
14E
330
1E
100
AcDbEntity
  8
0
100
AcDbLine
 10
29.5
 20
75.26100000000001
 30
0.0
 11
29.5
 21
74.25749999999999
 31
0.0
  0
LINE
  5
14F
330
1E
100
AcDbEntity
  8
0
100
AcDbLine
 10
29.5
 20
75.26100000000001
 30
0.0
 11
29.86
 21
75.26100000000001
 31
0.0
  0
LINE
  5
150
330
1E
100
AcDbEntity
  8
0
100
AcDbLine
 10
29.5
 20
75.26100000000001
 30
0.0
 11
29.74
 21
75.5
 31
0.0
  0
LINE
  5
151
330
1E
100
AcDbEntity
  8
0
100
AcDbLine
 10
29.5
 20
74.25749999999999
 30
0.0
 11
29.5
 21
75.26100000000001
 31
0.0
  0
LINE
  5
152
330
1E
100
AcDbEntity
  8
0
100
AcDbLine
 10
29.5
 20
74.25749999999999
 30
0.0
 11
29.74
 21
74.0185
 31
0.0
  0
LINE
  5
153
330
1E
100
AcDbEntity
  8
0
100
AcDbLine
 10
29.5
 20
74.25749999999999
 30
0.0
 11
29.86
 21
74.25749999999999
 31
0.0
  0
LINE
  5
154
330
1E
100
AcDbEntity
  8
0
100
AcDbLine
 10
29.74
 20
53.5
 30
0.0
 11
30.1
 21
53.5
 31
0.0
  0
LINE
  5
155
330
1E
100
AcDbEntity
  8
0
100
AcDbLine
 10
30.82
 20
53.3575
 30
0.0
 11
32.42
 21
53.3575
 31
0.0
  0
LINE
  5
156
330
1E
100
AcDbEntity
  8
0
100
AcDbLine
 10
29.86
 20
53.3575
 30
0.0
 11
30.82
 21
53.3575
 31
0.0
  0
LINE
  5
157
330
1E
100
AcDbEntity
  8
0
100
AcDbLine
 10
30.1
 20
53.5
 30
0.0
 11
31.05999999999999
 21
53.5
 31
0.0
  0
LINE
  5
158
330
1E
100
AcDbEntity
  8
0
100
AcDbLine
 10
31.05999999999999
 20
53.5
 30
0.0
 11
32.62
 21
53.5
 31
0.0
  0
LINE
  5
159
330
1E
100
AcDbEntity
  8
0
100
AcDbLine
 10
30.82
 20
53.6425
 30
0.0
 11
32.42
 21
53.6425
 31
0.0
  0
LINE
  5
15A
330
1E
100
AcDbEntity
  8
0
100
AcDbLine
 10
30.82
 20
73.87609999999999
 30
0.0
 11
32.42
 21
73.87609999999999
 31
0.0
  0
LINE
  5
15B
330
1E
100
AcDbEntity
  8
0
100
AcDbLine
 10
29.86
 20
73.87609999999999
 30
0.0
 11
30.82
 21
73.87609999999999
 31
0.0
  0
LINE
  5
15C
330
1E
100
AcDbEntity
  8
0
100
AcDbLine
 10
29.86
 20
53.6425
 30
0.0
 11
30.82
 21
53.6425
 31
0.0
  0
LINE
  5
15D
330
1E
100
AcDbEntity
  8
0
100
AcDbLine
 10
34.54
 20
53.3575
 30
0.0
 11
36.93999999999999
 21
53.3575
 31
0.0
  0
LINE
  5
15E
330
1E
100
AcDbEntity
  8
0
100
AcDbLine
 10
32.42
 20
53.3575
 30
0.0
 11
34.54
 21
53.3575
 31
0.0
  0
LINE
  5
15F
330
1E
100
AcDbEntity
  8
0
100
AcDbLine
 10
32.62
 20
53.5
 30
0.0
 11
34.65999999999999
 21
53.5
 31
0.0
  0
LINE
  5
160
330
1E
100
AcDbEntity
  8
0
100
AcDbLine
 10
34.65999999999999
 20
53.5
 30
0.0
 11
36.97999999999999
 21
53.5
 31
0.0
  0
LINE
  5
161
330
1E
100
AcDbEntity
  8
0
100
AcDbLine
 10
34.54
 20
53.6425
 30
0.0
 11
36.93999999999999
 21
53.6425
 31
0.0
  0
LINE
  5
162
330
1E
100
AcDbEntity
  8
0
100
AcDbLine
 10
32.66799999999999
 20
65.5
 30
0.0
 11
32.92
 21
67.26399999999999
 31
0.0
  0
LINE
  5
163
330
1E
100
AcDbEntity
  8
0
100
AcDbLine
 10
32.66799999999999
 20
65.5
 30
0.0
 11
32.92
 21
63.736
 31
0.0
  0
LINE
  5
164
330
1E
100
AcDbEntity
  8
0
100
AcDbLine
 10
34.544
 20
60.544
 30
0.0
 11
36.028
 21
59.424
 31
0.0
  0
LINE
  5
165
330
1E
100
AcDbEntity
  8
0
100
AcDbLine
 10
32.92
 20
63.736
 30
0.0
 11
33.59199999999999
 21
62.11199999999999
 31
0.0
  0
LINE
  5
166
330
1E
100
AcDbEntity
  8
0
100
AcDbLine
 10
34.32999999999999
 20
64.11399999999999
 30
0.0
 11
34.858
 21
62.838
 31
0.0
  0
LINE
  5
167
330
1E
100
AcDbEntity
  8
0
100
AcDbLine
 10
34.198
 20
64.092
 30
0.0
 11
34.72599999999999
 21
62.772
 31
0.0
  0
LINE
  5
168
330
1E
100
AcDbEntity
  8
0
100
AcDbLine
 10
34.32999999999999
 20
66.886
 30
0.0
 11
34.858
 21
68.16199999999999
 31
0.0
  0
LINE
  5
169
330
1E
100
AcDbEntity
  8
0
100
AcDbLine
 10
34.13199999999999
 20
65.5
 30
0.0
 11
34.32999999999999
 21
66.886
 31
0.0
  0
LINE
  5
16A
330
1E
100
AcDbEntity
  8
0
100
AcDbLine
 10
34.13199999999999
 20
65.5
 30
0.0
 11
34.32999999999999
 21
64.11399999999999
 31
0.0
  0
LINE
  5
16B
330
1E
100
AcDbEntity
  8
0
100
AcDbLine
 10
34.198
 20
66.908
 30
0.0
 11
34.72599999999999
 21
68.228
 31
0.0
  0
LINE
  5
16C
330
1E
100
AcDbEntity
  8
0
100
AcDbLine
 10
34.0
 20
65.5
 30
0.0
 11
34.198
 21
66.908
 31
0.0
  0
LINE
  5
16D
330
1E
100
AcDbEntity
  8
0
100
AcDbLine
 10
34.0
 20
65.5
 30
0.0
 11
34.198
 21
64.092
 31
0.0
  0
LINE
  5
16E
330
1E
100
AcDbEntity
  8
0
100
AcDbLine
 10
33.59199999999999
 20
62.11199999999999
 30
0.0
 11
34.68399999999999
 21
60.684
 31
0.0
  0
LINE
  5
16F
330
1E
100
AcDbEntity
  8
0
100
AcDbLine
 10
32.92
 20
67.26399999999999
 30
0.0
 11
33.59199999999999
 21
68.888
 31
0.0
  0
LINE
  5
170
330
1E
100
AcDbEntity
  8
0
100
AcDbLine
 10
33.424
 20
62.02799999999999
 30
0.0
 11
34.544
 21
60.544
 31
0.0
  0
LINE
  5
171
330
1E
100
AcDbEntity
  8
0
100
AcDbLine
 10
32.75199999999999
 20
63.708
 30
0.0
 11
33.424
 21
62.02799999999999
 31
0.0
  0
LINE
  5
172
330
1E
100
AcDbEntity
  8
0
100
AcDbLine
 10
33.59199999999999
 20
68.888
 30
0.0
 11
34.68399999999999
 21
70.316
 31
0.0
  0
LINE
  5
173
330
1E
100
AcDbEntity
  8
0
100
AcDbLine
 10
34.544
 20
70.456
 30
0.0
 11
36.028
 21
71.57600000000001
 31
0.0
  0
LINE
  5
174
330
1E
100
AcDbEntity
  8
0
100
AcDbLine
 10
33.424
 20
68.97199999999999
 30
0.0
 11
34.544
 21
70.456
 31
0.0
  0
LINE
  5
175
330
1E
100
AcDbEntity
  8
0
100
AcDbLine
 10
32.75199999999999
 20
67.292
 30
0.0
 11
33.424
 21
68.97199999999999
 31
0.0
  0
LINE
  5
176
330
1E
100
AcDbEntity
  8
0
100
AcDbLine
 10
32.5
 20
65.5
 30
0.0
 11
32.75199999999999
 21
67.292
 31
0.0
  0
LINE
  5
177
330
1E
100
AcDbEntity
  8
0
100
AcDbLine
 10
32.5
 20
65.5
 30
0.0
 11
32.75199999999999
 21
63.708
 31
0.0
  0
LINE
  5
178
330
1E
100
AcDbEntity
  8
0
100
AcDbLine
 10
34.54
 20
73.87609999999999
 30
0.0
 11
36.93999999999999
 21
73.87609999999999
 31
0.0
  0
LINE
  5
179
330
1E
100
AcDbEntity
  8
0
100
AcDbLine
 10
32.42
 20
73.87609999999999
 30
0.0
 11
34.54
 21
73.87609999999999
 31
0.0
  0
LINE
  5
17A
330
1E
100
AcDbEntity
  8
0
100
AcDbLine
 10
32.42
 20
53.6425
 30
0.0
 11
34.54
 21
53.6425
 31
0.0
  0
LINE
  5
17B
330
1E
100
AcDbEntity
  8
0
100
AcDbLine
 10
36.93999999999999
 20
53.3575
 30
0.0
 11
39.5
 21
53.3575
 31
0.0
  0
LINE
  5
17C
330
1E
100
AcDbEntity
  8
0
100
AcDbLine
 10
39.5
 20
53.3575
 30
0.0
 11
42.06
 21
53.3575
 31
0.0
  0
LINE
  5
17D
330
1E
100
AcDbEntity
  8
0
100
AcDbLine
 10
36.97999999999999
 20
53.5
 30
0.0
 11
39.5
 21
53.5
 31
0.0
  0
LINE
  5
17E
330
1E
100
AcDbEntity
  8
0
100
AcDbLine
 10
36.93999999999999
 20
53.6425
 30
0.0
 11
39.5
 21
53.6425
 31
0.0
  0
LINE
  5
17F
330
1E
100
AcDbEntity
  8
0
100
AcDbLine
 10
39.5
 20
53.5
 30
0.0
 11
42.02
 21
53.5
 31
0.0
  0
LINE
  5
180
330
1E
100
AcDbEntity
  8
0
100
AcDbLine
 10
34.858
 20
62.838
 30
0.0
 11
35.716
 21
61.716
 31
0.0
  0
LINE
  5
181
330
1E
100
AcDbEntity
  8
0
100
AcDbLine
 10
34.72599999999999
 20
62.772
 30
0.0
 11
35.606
 21
61.606
 31
0.0
  0
LINE
  5
182
330
1E
100
AcDbEntity
  8
0
100
AcDbLine
 10
35.606
 20
61.606
 30
0.0
 11
36.772
 21
60.72600000000001
 31
0.0
  0
LINE
  5
183
330
1E
100
AcDbEntity
  8
0
100
AcDbLine
 10
35.716
 20
61.716
 30
0.0
 11
36.838
 21
60.858
 31
0.0
  0
LINE
  5
184
330
1E
100
AcDbEntity
  8
0
100
AcDbLine
 10
34.858
 20
68.16199999999999
 30
0.0
 11
35.716
 21
69.28399999999999
 31
0.0
  0
LINE
  5
185
330
1E
100
AcDbEntity
  8
0
100
AcDbLine
 10
35.716
 20
69.28399999999999
 30
0.0
 11
36.838
 21
70.14199999999999
 31
0.0
  0
LINE
  5
186
330
1E
100
AcDbEntity
  8
0
100
AcDbLine
 10
35.606
 20
69.39399999999999
 30
0.0
 11
36.772
 21
70.274
 31
0.0
  0
LINE
  5
187
330
1E
100
AcDbEntity
  8
0
100
AcDbLine
 10
34.72599999999999
 20
68.228
 30
0.0
 11
35.606
 21
69.39399999999999
 31
0.0
  0
LINE
  5
188
330
1E
100
AcDbEntity
  8
0
100
AcDbLine
 10
34.68399999999999
 20
60.684
 30
0.0
 11
36.11199999999999
 21
59.592
 31
0.0
  0
LINE
  5
189
330
1E
100
AcDbEntity
  8
0
100
AcDbLine
 10
34.68399999999999
 20
70.316
 30
0.0
 11
36.11199999999999
 21
71.408
 31
0.0
  0
LINE
  5
18A
330
1E
100
AcDbEntity
  8
0
100
AcDbLine
 10
36.838
 20
60.858
 30
0.0
 11
38.114
 21
60.33
 31
0.0
  0
LINE
  5
18B
330
1E
100
AcDbEntity
  8
0
100
AcDbLine
 10
36.772
 20
60.72600000000001
 30
0.0
 11
38.092
 21
60.198
 31
0.0
  0
LINE
  5
18C
330
1E
100
AcDbEntity
  8
0
100
AcDbLine
 10
36.838
 20
70.14199999999999
 30
0.0
 11
38.114
 21
70.67
 31
0.0
  0
LINE
  5
18D
330
1E
100
AcDbEntity
  8
0
100
AcDbLine
 10
36.772
 20
70.274
 30
0.0
 11
38.092
 21
70.80199999999999
 31
0.0
  0
LINE
  5
18E
330
1E
100
AcDbEntity
  8
0
100
AcDbLine
 10
36.11199999999999
 20
59.592
 30
0.0
 11
37.736
 21
58.92
 31
0.0
  0
LINE
  5
18F
330
1E
100
AcDbEntity
  8
0
100
AcDbLine
 10
36.11199999999999
 20
71.408
 30
0.0
 11
37.736
 21
72.08
 31
0.0
  0
LINE
  5
190
330
1E
100
AcDbEntity
  8
0
100
AcDbLine
 10
36.028
 20
59.424
 30
0.0
 11
37.70799999999999
 21
58.75199999999999
 31
0.0
  0
LINE
  5
191
330
1E
100
AcDbEntity
  8
0
100
AcDbLine
 10
36.028
 20
71.57600000000001
 30
0.0
 11
37.70799999999999
 21
72.248
 31
0.0
  0
LINE
  5
192
330
1E
100
AcDbEntity
  8
0
100
AcDbLine
 10
39.5
 20
58.5
 30
0.0
 11
41.29199999999999
 21
58.75199999999999
 31
0.0
  0
LINE
  5
193
330
1E
100
AcDbEntity
  8
0
100
AcDbLine
 10
37.70799999999999
 20
58.75199999999999
 30
0.0
 11
39.5
 21
58.5
 31
0.0
  0
LINE
  5
194
330
1E
100
AcDbEntity
  8
0
100
AcDbLine
 10
38.114
 20
60.33
 30
0.0
 11
39.5
 21
60.132
 31
0.0
  0
LINE
  5
195
330
1E
100
AcDbEntity
  8
0
100
AcDbLine
 10
38.092
 20
60.198
 30
0.0
 11
39.5
 21
60.0
 31
0.0
  0
LINE
  5
196
330
1E
100
AcDbEntity
  8
0
100
AcDbLine
 10
38.114
 20
70.67
 30
0.0
 11
39.5
 21
70.868
 31
0.0
  0
LINE
  5
197
330
1E
100
AcDbEntity
  8
0
100
AcDbLine
 10
38.092
 20
70.80199999999999
 30
0.0
 11
39.5
 21
71.0
 31
0.0
  0
LINE
  5
198
330
1E
100
AcDbEntity
  8
0
100
AcDbLine
 10
39.5
 20
60.132
 30
0.0
 11
40.88599999999999
 21
60.33
 31
0.0
  0
LINE
  5
199
330
1E
100
AcDbEntity
  8
0
100
AcDbLine
 10
39.5
 20
60.0
 30
0.0
 11
40.908
 21
60.198
 31
0.0
  0
LINE
  5
19A
330
1E
100
AcDbEntity
  8
0
100
AcDbLine
 10
39.5
 20
70.868
 30
0.0
 11
40.88599999999999
 21
70.67
 31
0.0
  0
LINE
  5
19B
330
1E
100
AcDbEntity
  8
0
100
AcDbLine
 10
39.5
 20
71.0
 30
0.0
 11
40.908
 21
70.80199999999999
 31
0.0
  0
LINE
  5
19C
330
1E
100
AcDbEntity
  8
0
100
AcDbLine
 10
37.736
 20
58.92
 30
0.0
 11
39.5
 21
58.668
 31
0.0
  0
LINE
  5
19D
330
1E
100
AcDbEntity
  8
0
100
AcDbLine
 10
37.736
 20
72.08
 30
0.0
 11
39.5
 21
72.332
 31
0.0
  0
LINE
  5
19E
330
1E
100
AcDbEntity
  8
0
100
AcDbLine
 10
37.70799999999999
 20
72.248
 30
0.0
 11
39.5
 21
72.5
 31
0.0
  0
LINE
  5
19F
330
1E
100
AcDbEntity
  8
0
100
AcDbLine
 10
39.5
 20
58.668
 30
0.0
 11
41.26399999999999
 21
58.92
 31
0.0
  0
LINE
  5
1A0
330
1E
100
AcDbEntity
  8
0
100
AcDbLine
 10
39.5
 20
72.332
 30
0.0
 11
41.26399999999999
 21
72.08
 31
0.0
  0
LINE
  5
1A1
330
1E
100
AcDbEntity
  8
0
100
AcDbLine
 10
39.5
 20
72.5
 30
0.0
 11
41.29199999999999
 21
72.248
 31
0.0
  0
LINE
  5
1A2
330
1E
100
AcDbEntity
  8
0
100
AcDbLine
 10
36.93999999999999
 20
73.87609999999999
 30
0.0
 11
39.5
 21
73.87609999999999
 31
0.0
  0
LINE
  5
1A3
330
1E
100
AcDbEntity
  8
0
100
AcDbLine
 10
39.5
 20
53.6425
 30
0.0
 11
42.06
 21
53.6425
 31
0.0
  0
LINE
  5
1A4
330
1E
100
AcDbEntity
  8
0
100
AcDbLine
 10
39.5
 20
73.87609999999999
 30
0.0
 11
42.06
 21
73.87609999999999
 31
0.0
  0
LINE
  5
1A5
330
1E
100
AcDbEntity
  8
0
100
AcDbLine
 10
36.97999999999999
 20
74.0185
 30
0.0
 11
39.5
 21
74.0185
 31
0.0
  0
LINE
  5
1A6
330
1E
100
AcDbEntity
  8
0
100
AcDbLine
 10
34.65999999999999
 20
74.0185
 30
0.0
 11
36.97999999999999
 21
74.0185
 31
0.0
  0
LINE
  5
1A7
330
1E
100
AcDbEntity
  8
0
100
AcDbLine
 10
32.62
 20
74.0185
 30
0.0
 11
34.65999999999999
 21
74.0185
 31
0.0
  0
LINE
  5
1A8
330
1E
100
AcDbEntity
  8
0
100
AcDbLine
 10
31.05999999999999
 20
74.0185
 30
0.0
 11
32.62
 21
74.0185
 31
0.0
  0
LINE
  5
1A9
330
1E
100
AcDbEntity
  8
0
100
AcDbLine
 10
30.1
 20
74.0185
 30
0.0
 11
31.05999999999999
 21
74.0185
 31
0.0
  0
LINE
  5
1AA
330
1E
100
AcDbEntity
  8
0
100
AcDbLine
 10
29.74
 20
74.0185
 30
0.0
 11
30.1
 21
74.0185
 31
0.0
  0
LINE
  5
1AB
330
1E
100
AcDbEntity
  8
0
100
AcDbLine
 10
29.86
 20
75.26100000000001
 30
0.0
 11
30.82
 21
75.26100000000001
 31
0.0
  0
LINE
  5
1AC
330
1E
100
AcDbEntity
  8
0
100
AcDbLine
 10
36.93999999999999
 20
74.25749999999999
 30
0.0
 11
39.5
 21
74.25749999999999
 31
0.0
  0
LINE
  5
1AD
330
1E
100
AcDbEntity
  8
0
100
AcDbLine
 10
34.54
 20
74.25749999999999
 30
0.0
 11
36.93999999999999
 21
74.25749999999999
 31
0.0
  0
LINE
  5
1AE
330
1E
100
AcDbEntity
  8
0
100
AcDbLine
 10
32.42
 20
74.25749999999999
 30
0.0
 11
34.54
 21
74.25749999999999
 31
0.0
  0
LINE
  5
1AF
330
1E
100
AcDbEntity
  8
0
100
AcDbLine
 10
36.93999999999999
 20
75.26100000000001
 30
0.0
 11
39.5
 21
75.26100000000001
 31
0.0
  0
LINE
  5
1B0
330
1E
100
AcDbEntity
  8
0
100
AcDbLine
 10
34.54
 20
75.26100000000001
 30
0.0
 11
36.93999999999999
 21
75.26100000000001
 31
0.0
  0
LINE
  5
1B1
330
1E
100
AcDbEntity
  8
0
100
AcDbLine
 10
32.42
 20
75.26100000000001
 30
0.0
 11
34.54
 21
75.26100000000001
 31
0.0
  0
LINE
  5
1B2
330
1E
100
AcDbEntity
  8
0
100
AcDbLine
 10
30.82
 20
75.26100000000001
 30
0.0
 11
32.42
 21
75.26100000000001
 31
0.0
  0
LINE
  5
1B3
330
1E
100
AcDbEntity
  8
0
100
AcDbLine
 10
30.82
 20
74.25749999999999
 30
0.0
 11
32.42
 21
74.25749999999999
 31
0.0
  0
LINE
  5
1B4
330
1E
100
AcDbEntity
  8
0
100
AcDbLine
 10
29.86
 20
74.25749999999999
 30
0.0
 11
30.82
 21
74.25749999999999
 31
0.0
  0
LINE
  5
1B5
330
1E
100
AcDbEntity
  8
0
100
AcDbLine
 10
39.5
 20
74.0185
 30
0.0
 11
42.02
 21
74.0185
 31
0.0
  0
LINE
  5
1B6
330
1E
100
AcDbEntity
  8
0
100
AcDbLine
 10
39.5
 20
74.25749999999999
 30
0.0
 11
42.06
 21
74.25749999999999
 31
0.0
  0
LINE
  5
1B7
330
1E
100
AcDbEntity
  8
0
100
AcDbLine
 10
36.97999999999999
 20
75.5
 30
0.0
 11
39.5
 21
75.5
 31
0.0
  0
LINE
  5
1B8
330
1E
100
AcDbEntity
  8
0
100
AcDbLine
 10
34.65999999999999
 20
75.5
 30
0.0
 11
36.97999999999999
 21
75.5
 31
0.0
  0
LINE
  5
1B9
330
1E
100
AcDbEntity
  8
0
100
AcDbLine
 10
32.62
 20
75.5
 30
0.0
 11
34.65999999999999
 21
75.5
 31
0.0
  0
LINE
  5
1BA
330
1E
100
AcDbEntity
  8
0
100
AcDbLine
 10
31.05999999999999
 20
75.5
 30
0.0
 11
32.62
 21
75.5
 31
0.0
  0
LINE
  5
1BB
330
1E
100
AcDbEntity
  8
0
100
AcDbLine
 10
30.1
 20
75.5
 30
0.0
 11
31.05999999999999
 21
75.5
 31
0.0
  0
LINE
  5
1BD
330
1E
100
AcDbEntity
  8
0
100
AcDbLine
 10
31.1369
 20
78.7765
 30
0.0
 11
36.1314
 21
78.94759999999999
 31
0.0
  0
LINE
  5
1C1
330
1E
100
AcDbEntity
  8
0
100
AcDbLine
 10
36.1314
 20
78.94759999999999
 30
0.0
 11
39.5
 21
79.0
 31
0.0
  0
LINE
  5
1C2
330
1E
100
AcDbEntity
  8
0
100
AcDbLine
 10
29.74
 20
75.5
 30
0.0
 11
30.1
 21
75.5
 31
0.0
  0
LINE
  5
1C3
330
1E
100
AcDbEntity
  8
0
100
AcDbLine
 10
39.5
 20
75.5
 30
0.0
 11
42.02
 21
75.5
 31
0.0
  0
LINE
  5
1C4
330
1E
100
AcDbEntity
  8
0
100
AcDbLine
 10
39.5
 20
75.26100000000001
 30
0.0
 11
42.06
 21
75.26100000000001
 31
0.0
  0
LINE
  5
1C5
330
1E
100
AcDbEntity
  8
0
100
AcDbLine
 10
29.5
 20
39.5
 30
0.0
 11
29.5
 21
25.64249999999999
 31
0.0
  0
LINE
  5
1C6
330
1E
100
AcDbEntity
  8
0
100
AcDbLine
 10
29.5
 20
39.5
 30
0.0
 11
29.5
 21
53.3575
 31
0.0
  0
LINE
  5
1C7
330
1E
100
AcDbEntity
  8
0
100
AcDbLine
 10
29.5
 20
25.64249999999999
 30
0.0
 11
29.86
 21
25.64249999999999
 31
0.0
  0
LINE
  5
1C8
330
1E
100
AcDbEntity
  8
0
100
AcDbLine
 10
29.5
 20
25.64249999999999
 30
0.0
 11
29.74
 21
25.5
 31
0.0
  0
LINE
  5
1C9
330
1E
100
AcDbEntity
  8
0
100
AcDbLine
 10
29.5
 20
25.64249999999999
 30
0.0
 11
29.5
 21
39.5
 31
0.0
  0
LINE
  5
1CA
330
1E
100
AcDbEntity
  8
0
100
AcDbLine
 10
39.5
 20
25.64249999999999
 30
0.0
 11
42.06
 21
25.64249999999999
 31
0.0
  0
LINE
  5
1CB
330
1E
100
AcDbEntity
  8
0
100
AcDbLine
 10
36.97999999999999
 20
25.5
 30
0.0
 11
39.5
 21
25.5
 31
0.0
  0
LINE
  5
1CD
330
1E
100
AcDbEntity
  8
0
100
AcDbLine
 10
39.5
 20
25.5
 30
0.0
 11
42.02
 21
25.5
 31
0.0
  0
LINE
  5
1CE
330
1E
100
AcDbEntity
  8
0
100
AcDbLine
 10
39.5
 20
25.3575
 30
0.0
 11
42.06
 21
25.3575
 31
0.0
  0
LINE
  5
1D0
330
1E
100
AcDbEntity
  8
0
100
AcDbLine
 10
40.88599999999999
 20
60.33
 30
0.0
 11
42.16199999999999
 21
60.858
 31
0.0
  0
LINE
  5
1D1
330
1E
100
AcDbEntity
  8
0
100
AcDbLine
 10
40.908
 20
60.198
 30
0.0
 11
42.228
 21
60.72600000000001
 31
0.0
  0
LINE
  5
1D2
330
1E
100
AcDbEntity
  8
0
100
AcDbLine
 10
40.88599999999999
 20
70.67
 30
0.0
 11
42.16199999999999
 21
70.14199999999999
 31
0.0
  0
LINE
  5
1D3
330
1E
100
AcDbEntity
  8
0
100
AcDbLine
 10
40.908
 20
70.80199999999999
 30
0.0
 11
42.228
 21
70.274
 31
0.0
  0
LINE
  5
1D4
330
1E
100
AcDbEntity
  8
0
100
AcDbLine
 10
41.29199999999999
 20
58.75199999999999
 30
0.0
 11
42.972
 21
59.424
 31
0.0
  0
LINE
  5
1D5
330
1E
100
AcDbEntity
  8
0
100
AcDbLine
 10
41.26399999999999
 20
58.92
 30
0.0
 11
42.88800000000001
 21
59.592
 31
0.0
  0
LINE
  5
1D6
330
1E
100
AcDbEntity
  8
0
100
AcDbLine
 10
41.29199999999999
 20
72.248
 30
0.0
 11
42.972
 21
71.57600000000001
 31
0.0
  0
LINE
  5
1D7
330
1E
100
AcDbEntity
  8
0
100
AcDbLine
 10
41.26399999999999
 20
72.08
 30
0.0
 11
42.88800000000001
 21
71.408
 31
0.0
  0
LINE
  5
1D8
330
1E
100
AcDbEntity
  8
0
100
AcDbLine
 10
39.5
 20
20.5
 30
0.0
 11
41.29199999999999
 21
20.248
 31
0.0
  0
LINE
  5
1D9
330
1E
100
AcDbEntity
  8
0
100
AcDbLine
 10
39.5
 20
20.332
 30
0.0
 11
41.26399999999999
 21
20.08
 31
0.0
  0
LINE
  5
1DA
330
1E
100
AcDbEntity
  8
0
100
AcDbLine
 10
42.02
 20
53.5
 30
0.0
 11
44.34
 21
53.5
 31
0.0
  0
LINE
  5
1DB
330
1E
100
AcDbEntity
  8
0
100
AcDbLine
 10
42.02
 20
74.0185
 30
0.0
 11
44.34
 21
74.0185
 31
0.0
  0
LINE
  5
1DC
330
1E
100
AcDbEntity
  8
0
100
AcDbLine
 10
42.02
 20
75.5
 30
0.0
 11
44.34
 21
75.5
 31
0.0
  0
LINE
  5
1DD
330
1E
100
AcDbEntity
  8
0
100
AcDbLine
 10
42.06
 20
53.3575
 30
0.0
 11
44.46
 21
53.3575
 31
0.0
  0
LINE
  5
1DE
330
1E
100
AcDbEntity
  8
0
100
AcDbLine
 10
42.06
 20
53.6425
 30
0.0
 11
44.46
 21
53.6425
 31
0.0
  0
LINE
  5
1DF
330
1E
100
AcDbEntity
  8
0
100
AcDbLine
 10
42.06
 20
73.87609999999999
 30
0.0
 11
44.46
 21
73.87609999999999
 31
0.0
  0
LINE
  5
1E0
330
1E
100
AcDbEntity
  8
0
100
AcDbLine
 10
42.06
 20
74.25749999999999
 30
0.0
 11
44.46
 21
74.25749999999999
 31
0.0
  0
LINE
  5
1E1
330
1E
100
AcDbEntity
  8
0
100
AcDbLine
 10
42.16199999999999
 20
60.858
 30
0.0
 11
43.284
 21
61.716
 31
0.0
  0
LINE
  5
1E2
330
1E
100
AcDbEntity
  8
0
100
AcDbLine
 10
42.228
 20
60.72600000000001
 30
0.0
 11
43.394
 21
61.606
 31
0.0
  0
LINE
  5
1E3
330
1E
100
AcDbEntity
  8
0
100
AcDbLine
 10
42.16199999999999
 20
70.14199999999999
 30
0.0
 11
43.284
 21
69.28399999999999
 31
0.0
  0
LINE
  5
1E4
330
1E
100
AcDbEntity
  8
0
100
AcDbLine
 10
42.228
 20
70.274
 30
0.0
 11
43.394
 21
69.39399999999999
 31
0.0
  0
LINE
  5
1E5
330
1E
100
AcDbEntity
  8
0
100
AcDbLine
 10
42.972
 20
59.424
 30
0.0
 11
44.456
 21
60.544
 31
0.0
  0
LINE
  5
1E6
330
1E
100
AcDbEntity
  8
0
100
AcDbLine
 10
42.88800000000001
 20
59.592
 30
0.0
 11
44.316
 21
60.684
 31
0.0
  0
LINE
  5
1E9
330
1E
100
AcDbEntity
  8
0
100
AcDbLine
 10
42.972
 20
71.57600000000001
 30
0.0
 11
44.456
 21
70.456
 31
0.0
  0
LINE
  5
1EA
330
1E
100
AcDbEntity
  8
0
100
AcDbLine
 10
42.88800000000001
 20
71.408
 30
0.0
 11
44.316
 21
70.316
 31
0.0
  0
LINE
  5
1EB
330
1E
100
AcDbEntity
  8
0
100
AcDbLine
 10
42.06
 20
75.26100000000001
 30
0.0
 11
44.46
 21
75.26100000000001
 31
0.0
  0
LINE
  5
1EC
330
1E
100
AcDbEntity
  8
0
100
AcDbLine
 10
42.06
 20
25.64249999999999
 30
0.0
 11
44.46
 21
25.64249999999999
 31
0.0
  0
LINE
  5
1EE
330
1E
100
AcDbEntity
  8
0
100
AcDbLine
 10
42.02
 20
25.5
 30
0.0
 11
44.34
 21
25.5
 31
0.0
  0
LINE
  5
1EF
330
1E
100
AcDbEntity
  8
0
100
AcDbLine
 10
42.06
 20
25.3575
 30
0.0
 11
44.46
 21
25.3575
 31
0.0
  0
LINE
  5
1F0
330
1E
100
AcDbEntity
  8
0
100
AcDbLine
 10
41.29199999999999
 20
20.248
 30
0.0
 11
42.972
 21
19.576
 31
0.0
  0
LINE
  5
1F1
330
1E
100
AcDbEntity
  8
0
100
AcDbLine
 10
41.26399999999999
 20
20.08
 30
0.0
 11
42.88800000000001
 21
19.408
 31
0.0
  0
LINE
  5
1F2
330
1E
100
AcDbEntity
  8
0
100
AcDbLine
 10
43.284
 20
61.716
 30
0.0
 11
44.142
 21
62.838
 31
0.0
  0
LINE
  5
1F3
330
1E
100
AcDbEntity
  8
0
100
AcDbLine
 10
44.142
 20
62.838
 30
0.0
 11
44.67
 21
64.11399999999999
 31
0.0
  0
LINE
  5
1F4
330
1E
100
AcDbEntity
  8
0
100
AcDbLine
 10
43.394
 20
61.606
 30
0.0
 11
44.27399999999999
 21
62.772
 31
0.0
  0
LINE
  5
1F5
330
1E
100
AcDbEntity
  8
0
100
AcDbLine
 10
44.27399999999999
 20
62.772
 30
0.0
 11
44.80199999999999
 21
64.092
 31
0.0
  0
LINE
  5
1F6
330
1E
100
AcDbEntity
  8
0
100
AcDbLine
 10
44.142
 20
68.16199999999999
 30
0.0
 11
44.67
 21
66.886
 31
0.0
  0
LINE
  5
1F7
330
1E
100
AcDbEntity
  8
0
100
AcDbLine
 10
43.284
 20
69.28399999999999
 30
0.0
 11
44.142
 21
68.16199999999999
 31
0.0
  0
LINE
  5
1F8
330
1E
100
AcDbEntity
  8
0
100
AcDbLine
 10
43.394
 20
69.39399999999999
 30
0.0
 11
44.27399999999999
 21
68.228
 31
0.0
  0
LINE
  5
1F9
330
1E
100
AcDbEntity
  8
0
100
AcDbLine
 10
44.27399999999999
 20
68.228
 30
0.0
 11
44.80199999999999
 21
66.908
 31
0.0
  0
LINE
  5
1FA
330
1E
100
AcDbEntity
  8
0
100
AcDbLine
 10
44.316
 20
60.684
 30
0.0
 11
45.40799999999999
 21
62.11199999999999
 31
0.0
  0
LINE
  5
1FB
330
1E
100
AcDbEntity
  8
0
100
AcDbLine
 10
44.316
 20
70.316
 30
0.0
 11
45.40799999999999
 21
68.888
 31
0.0
  0
LINE
  5
1FC
330
1E
100
AcDbEntity
  8
0
100
AcDbLine
 10
44.34
 20
53.5
 30
0.0
 11
46.38
 21
53.5
 31
0.0
  0
LINE
  5
1FD
330
1E
100
AcDbEntity
  8
0
100
AcDbLine
 10
44.34
 20
74.0185
 30
0.0
 11
46.38
 21
74.0185
 31
0.0
  0
LINE
  5
1FE
330
1E
100
AcDbEntity
  8
0
100
AcDbLine
 10
44.456
 20
60.544
 30
0.0
 11
45.57599999999999
 21
62.02799999999999
 31
0.0
  0
LINE
  5
1FF
330
1E
100
AcDbEntity
  8
0
100
AcDbLine
 10
44.456
 20
70.456
 30
0.0
 11
45.57599999999999
 21
68.97199999999999
 31
0.0
  0
LINE
  5
200
330
1E
100
AcDbEntity
  8
0
100
AcDbLine
 10
44.34
 20
75.5
 30
0.0
 11
46.38
 21
75.5
 31
0.0
  0
LINE
  5
202
330
1E
100
AcDbEntity
  8
0
100
AcDbLine
 10
44.34
 20
25.5
 30
0.0
 11
46.38
 21
25.5
 31
0.0
  0
LINE
  5
203
330
1E
100
AcDbEntity
  8
0
100
AcDbLine
 10
42.972
 20
19.576
 30
0.0
 11
44.456
 21
18.456
 31
0.0
  0
LINE
  5
204
330
1E
100
AcDbEntity
  8
0
100
AcDbLine
 10
42.88800000000001
 20
19.408
 30
0.0
 11
44.316
 21
18.31599999999999
 31
0.0
  0
LINE
  5
205
330
1E
100
AcDbEntity
  8
0
100
AcDbLine
 10
44.46
 20
53.3575
 30
0.0
 11
46.58
 21
53.3575
 31
0.0
  0
LINE
  5
206
330
1E
100
AcDbEntity
  8
0
100
AcDbLine
 10
44.46
 20
53.6425
 30
0.0
 11
46.58
 21
53.6425
 31
0.0
  0
LINE
  5
207
330
1E
100
AcDbEntity
  8
0
100
AcDbLine
 10
44.46
 20
73.87609999999999
 30
0.0
 11
46.58
 21
73.87609999999999
 31
0.0
  0
LINE
  5
208
330
1E
100
AcDbEntity
  8
0
100
AcDbLine
 10
44.46
 20
74.25749999999999
 30
0.0
 11
46.58
 21
74.25749999999999
 31
0.0
  0
LINE
  5
209
330
1E
100
AcDbEntity
  8
0
100
AcDbLine
 10
44.46
 20
75.26100000000001
 30
0.0
 11
46.58
 21
75.26100000000001
 31
0.0
  0
LINE
  5
20A
330
1E
100
AcDbEntity
  8
0
100
AcDbLine
 10
44.67
 20
64.11399999999999
 30
0.0
 11
44.868
 21
65.5
 31
0.0
  0
LINE
  5
20B
330
1E
100
AcDbEntity
  8
0
100
AcDbLine
 10
44.80199999999999
 20
64.092
 30
0.0
 11
45.0
 21
65.5
 31
0.0
  0
LINE
  5
20C
330
1E
100
AcDbEntity
  8
0
100
AcDbLine
 10
44.67
 20
66.886
 30
0.0
 11
44.868
 21
65.5
 31
0.0
  0
LINE
  5
20D
330
1E
100
AcDbEntity
  8
0
100
AcDbLine
 10
44.80199999999999
 20
66.908
 30
0.0
 11
45.0
 21
65.5
 31
0.0
  0
LINE
  5
20E
330
1E
100
AcDbEntity
  8
0
100
AcDbLine
 10
45.57599999999999
 20
62.02799999999999
 30
0.0
 11
46.248
 21
63.708
 31
0.0
  0
LINE
  5
20F
330
1E
100
AcDbEntity
  8
0
100
AcDbLine
 10
45.40799999999999
 20
62.11199999999999
 30
0.0
 11
46.07999999999999
 21
63.736
 31
0.0
  0
LINE
  5
210
330
1E
100
AcDbEntity
  8
0
100
AcDbLine
 10
45.57599999999999
 20
68.97199999999999
 30
0.0
 11
46.248
 21
67.292
 31
0.0
  0
LINE
  5
211
330
1E
100
AcDbEntity
  8
0
100
AcDbLine
 10
45.40799999999999
 20
68.888
 30
0.0
 11
46.07999999999999
 21
67.26399999999999
 31
0.0
  0
LINE
  5
212
330
1E
100
AcDbEntity
  8
0
100
AcDbLine
 10
44.46
 20
25.64249999999999
 30
0.0
 11
46.58
 21
25.64249999999999
 31
0.0
  0
LINE
  5
213
330
1E
100
AcDbEntity
  8
0
100
AcDbLine
 10
44.46
 20
25.3575
 30
0.0
 11
46.58
 21
25.3575
 31
0.0
  0
LINE
  5
214
330
1E
100
AcDbEntity
  8
0
100
AcDbLine
 10
44.456
 20
18.456
 30
0.0
 11
45.57599999999999
 21
16.972
 31
0.0
  0
LINE
  5
215
330
1E
100
AcDbEntity
  8
0
100
AcDbLine
 10
44.316
 20
18.31599999999999
 30
0.0
 11
45.40799999999999
 21
16.88799999999999
 31
0.0
  0
LINE
  5
216
330
1E
100
AcDbEntity
  8
0
100
AcDbLine
 10
46.07999999999999
 20
63.736
 30
0.0
 11
46.332
 21
65.5
 31
0.0
  0
LINE
  5
217
330
1E
100
AcDbEntity
  8
0
100
AcDbLine
 10
46.07999999999999
 20
67.26399999999999
 30
0.0
 11
46.332
 21
65.5
 31
0.0
  0
LINE
  5
218
330
1E
100
AcDbEntity
  8
0
100
AcDbLine
 10
45.57599999999999
 20
16.972
 30
0.0
 11
46.248
 21
15.292
 31
0.0
  0
LINE
  5
219
330
1E
100
AcDbEntity
  8
0
100
AcDbLine
 10
45.40799999999999
 20
16.88799999999999
 30
0.0
 11
46.07999999999999
 21
15.264
 31
0.0
  0
LINE
  5
21A
330
1E
100
AcDbEntity
  8
0
100
AcDbLine
 10
46.07999999999999
 20
15.264
 30
0.0
 11
46.332
 21
13.5
 31
0.0
  0
LINE
  5
21B
330
1E
100
AcDbEntity
  8
0
100
AcDbLine
 10
45.40799999999999
 20
10.112
 30
0.0
 11
46.07999999999999
 21
11.73599999999999
 31
0.0
  0
LINE
  5
21F
330
1E
100
AcDbEntity
  8
0
100
AcDbLine
 10
46.38
 20
3.500000000000009
 30
0.0
 11
47.93999999999999
 21
3.500000000000009
 31
0.0
  0
LINE
  5
220
330
1E
100
AcDbEntity
  8
0
100
AcDbLine
 10
46.38
 20
3.500000000000009
 30
0.0
 11
47.93999999999999
 21
3.500000000000009
 31
0.0
  0
LINE
  5
221
330
1E
100
AcDbEntity
  8
0
100
AcDbLine
 10
47.93999999999999
 20
3.500000000000009
 30
0.0
 11
48.9
 21
3.500000000000009
 31
0.0
  0
LINE
  5
222
330
1E
100
AcDbEntity
  8
0
100
AcDbLine
 10
46.58
 20
5.123930000000009
 30
0.0
 11
48.18
 21
5.123930000000009
 31
0.0
  0
LINE
  5
223
330
1E
100
AcDbEntity
  8
0
100
AcDbLine
 10
46.38
 20
4.981480000000009
 30
0.0
 11
47.93999999999999
 21
4.981480000000009
 31
0.0
  0
LINE
  5
224
330
1E
100
AcDbEntity
  8
0
100
AcDbLine
 10
48.18
 20
5.123930000000009
 30
0.0
 11
49.14
 21
5.123930000000009
 31
0.0
  0
LINE
  5
225
330
1E
100
AcDbEntity
  8
0
100
AcDbLine
 10
47.93999999999999
 20
4.981480000000009
 30
0.0
 11
48.9
 21
4.981480000000009
 31
0.0
  0
LINE
  5
226
330
1E
100
AcDbEntity
  8
0
100
AcDbLine
 10
46.58
 20
4.742530000000009
 30
0.0
 11
48.18
 21
4.742530000000009
 31
0.0
  0
LINE
  5
227
330
1E
100
AcDbEntity
  8
0
100
AcDbLine
 10
48.18
 20
4.742530000000009
 30
0.0
 11
49.14
 21
4.742530000000009
 31
0.0
  0
LINE
  5
228
330
1E
100
AcDbEntity
  8
0
100
AcDbLine
 10
46.58
 20
3.738950000000009
 30
0.0
 11
48.18
 21
3.738950000000009
 31
0.0
  0
LINE
  5
229
330
1E
100
AcDbEntity
  8
0
100
AcDbLine
 10
48.18
 20
3.738950000000009
 30
0.0
 11
49.14
 21
3.738950000000009
 31
0.0
  0
LINE
  5
22A
330
1E
100
AcDbEntity
  8
0
100
AcDbLine
 10
48.9
 20
4.981480000000009
 30
0.0
 11
49.26
 21
4.981480000000009
 31
0.0
  0
LINE
  5
22B
330
1E
100
AcDbEntity
  8
0
100
AcDbLine
 10
47.93999999999999
 20
3.500000000000009
 30
0.0
 11
48.9
 21
3.500000000000009
 31
0.0
  0
LINE
  5
241
330
1E
100
AcDbEntity
  8
0
100
AcDbLine
 10
49.14
 20
5.123930000000009
 30
0.0
 11
49.5
 21
5.123930000000009
 31
0.0
  0
LINE
  5
242
330
1E
100
AcDbEntity
  8
0
100
AcDbLine
 10
49.14
 20
4.742530000000009
 30
0.0
 11
49.5
 21
4.742530000000009
 31
0.0
  0
LINE
  5
247
330
1E
100
AcDbEntity
  8
0
100
AcDbLine
 10
49.5
 20
3.738950000000009
 30
0.0
 11
49.5
 21
4.742530000000009
 31
0.0
  0
LINE
  5
253
330
1E
100
AcDbEntity
  8
0
100
AcDbLine
 10
49.5
 20
5.123930000000009
 30
0.0
 11
49.5
 21
25.3575
 31
0.0
  0
LINE
  5
254
330
1E
100
AcDbEntity
  8
0
100
AcDbLine
 10
49.26
 20
4.981480000000009
 30
0.0
 11
49.5
 21
4.742530000000009
 31
0.0
  0
LINE
  5
255
330
1E
100
AcDbEntity
  8
0
100
AcDbLine
 10
49.26
 20
4.981480000000009
 30
0.0
 11
49.5
 21
5.123930000000009
 31
0.0
  0
LINE
  5
256
330
1E
100
AcDbEntity
  8
0
100
AcDbLine
 10
49.5
 20
4.742530000000009
 30
0.0
 11
49.5
 21
3.738950000000009
 31
0.0
  0
LINE
  5
257
330
1E
100
AcDbEntity
  8
0
100
AcDbLine
 10
49.14
 20
3.738950000000009
 30
0.0
 11
49.5
 21
3.738950000000009
 31
0.0
  0
LINE
  5
258
330
1E
100
AcDbEntity
  8
0
100
AcDbLine
 10
49.26
 20
3.500000000000009
 30
0.0
 11
49.5
 21
3.738950000000009
 31
0.0
  0
LINE
  5
259
330
1E
100
AcDbEntity
  8
0
100
AcDbLine
 10
48.9
 20
3.500000000000009
 30
0.0
 11
49.26
 21
3.500000000000009
 31
0.0
  0
LINE
  5
25A
330
1E
100
AcDbEntity
  8
0
100
AcDbLine
 10
46.248
 20
63.708
 30
0.0
 11
46.5
 21
65.5
 31
0.0
  0
LINE
  5
25B
330
1E
100
AcDbEntity
  8
0
100
AcDbLine
 10
46.248
 20
67.292
 30
0.0
 11
46.5
 21
65.5
 31
0.0
  0
LINE
  5
25C
330
1E
100
AcDbEntity
  8
0
100
AcDbLine
 10
46.58
 20
25.3575
 30
0.0
 11
48.18
 21
25.3575
 31
0.0
  0
LINE
  5
25D
330
1E
100
AcDbEntity
  8
0
100
AcDbLine
 10
48.18
 20
25.3575
 30
0.0
 11
49.14
 21
25.3575
 31
0.0
  0
LINE
  5
268
330
1E
100
AcDbEntity
  8
0
100
AcDbLine
 10
49.14
 20
25.3575
 30
0.0
 11
49.5
 21
25.3575
 31
0.0
  0
LINE
  5
26A
330
1E
100
AcDbEntity
  8
0
100
AcDbLine
 10
46.38
 20
25.5
 30
0.0
 11
47.93999999999999
 21
25.5
 31
0.0
  0
LINE
  5
26B
330
1E
100
AcDbEntity
  8
0
100
AcDbLine
 10
46.38
 20
53.5
 30
0.0
 11
47.93999999999999
 21
53.5
 31
0.0
  0
LINE
  5
26C
330
1E
100
AcDbEntity
  8
0
100
AcDbLine
 10
46.58
 20
53.3575
 30
0.0
 11
48.18
 21
53.3575
 31
0.0
  0
LINE
  5
26D
330
1E
100
AcDbEntity
  8
0
100
AcDbLine
 10
46.58
 20
53.6425
 30
0.0
 11
48.18
 21
53.6425
 31
0.0
  0
LINE
  5
26E
330
1E
100
AcDbEntity
  8
0
100
AcDbLine
 10
46.58
 20
73.87609999999999
 30
0.0
 11
48.18
 21
73.87609999999999
 31
0.0
  0
LINE
  5
26F
330
1E
100
AcDbEntity
  8
0
100
AcDbLine
 10
46.38
 20
74.0185
 30
0.0
 11
47.93999999999999
 21
74.0185
 31
0.0
  0
LINE
  5
270
330
1E
100
AcDbEntity
  8
0
100
AcDbLine
 10
46.58
 20
74.25749999999999
 30
0.0
 11
48.18
 21
74.25749999999999
 31
0.0
  0
LINE
  5
271
330
1E
100
AcDbEntity
  8
0
100
AcDbLine
 10
47.93999999999999
 20
53.5
 30
0.0
 11
48.9
 21
53.5
 31
0.0
  0
LINE
  5
272
330
1E
100
AcDbEntity
  8
0
100
AcDbLine
 10
47.93999999999999
 20
74.0185
 30
0.0
 11
48.9
 21
74.0185
 31
0.0
  0
LINE
  5
273
330
1E
100
AcDbEntity
  8
0
100
AcDbLine
 10
46.58
 20
75.26100000000001
 30
0.0
 11
48.18
 21
75.26100000000001
 31
0.0
  0
LINE
  5
276
330
1E
100
AcDbEntity
  8
0
100
AcDbLine
 10
46.38
 20
75.5
 30
0.0
 11
47.93999999999999
 21
75.5
 31
0.0
  0
LINE
  5
277
330
1E
100
AcDbEntity
  8
0
100
AcDbLine
 10
48.18
 20
53.3575
 30
0.0
 11
49.14
 21
53.3575
 31
0.0
  0
LINE
  5
278
330
1E
100
AcDbEntity
  8
0
100
AcDbLine
 10
48.18
 20
53.6425
 30
0.0
 11
49.14
 21
53.6425
 31
0.0
  0
LINE
  5
279
330
1E
100
AcDbEntity
  8
0
100
AcDbLine
 10
48.18
 20
73.87609999999999
 30
0.0
 11
49.14
 21
73.87609999999999
 31
0.0
  0
LINE
  5
27A
330
1E
100
AcDbEntity
  8
0
100
AcDbLine
 10
48.18
 20
74.25749999999999
 30
0.0
 11
49.14
 21
74.25749999999999
 31
0.0
  0
LINE
  5
27B
330
1E
100
AcDbEntity
  8
0
100
AcDbLine
 10
48.18
 20
75.26100000000001
 30
0.0
 11
49.14
 21
75.26100000000001
 31
0.0
  0
LINE
  5
27C
330
1E
100
AcDbEntity
  8
0
100
AcDbLine
 10
47.93999999999999
 20
75.5
 30
0.0
 11
48.9
 21
75.5
 31
0.0
  0
LINE
  5
27D
330
1E
100
AcDbEntity
  8
0
100
AcDbLine
 10
46.58
 20
25.64249999999999
 30
0.0
 11
48.18
 21
25.64249999999999
 31
0.0
  0
LINE
  5
27E
330
1E
100
AcDbEntity
  8
0
100
AcDbLine
 10
48.9
 20
53.5
 30
0.0
 11
49.26
 21
53.5
 31
0.0
  0
LINE
  5
27F
330
1E
100
AcDbEntity
  8
0
100
AcDbLine
 10
48.9
 20
74.0185
 30
0.0
 11
49.26
 21
74.0185
 31
0.0
  0
LINE
  5
280
330
1E
100
AcDbEntity
  8
0
100
AcDbLine
 10
48.9
 20
75.5
 30
0.0
 11
49.26
 21
75.5
 31
0.0
  0
LINE
  5
281
330
1E
100
AcDbEntity
  8
0
100
AcDbLine
 10
48.18
 20
25.64249999999999
 30
0.0
 11
49.14
 21
25.64249999999999
 31
0.0
  0
LINE
  5
283
330
1E
100
AcDbEntity
  8
0
100
AcDbLine
 10
47.93999999999999
 20
25.5
 30
0.0
 11
48.9
 21
25.5
 31
0.0
  0
LINE
  5
284
330
1E
100
AcDbEntity
  8
0
100
AcDbLine
 10
49.14
 20
53.3575
 30
0.0
 11
49.5
 21
53.3575
 31
0.0
  0
LINE
  5
285
330
1E
100
AcDbEntity
  8
0
100
AcDbLine
 10
49.14
 20
53.6425
 30
0.0
 11
49.5
 21
53.6425
 31
0.0
  0
LINE
  5
286
330
1E
100
AcDbEntity
  8
0
100
AcDbLine
 10
49.26
 20
53.5
 30
0.0
 11
49.5
 21
53.6425
 31
0.0
  0
LINE
  5
287
330
1E
100
AcDbEntity
  8
0
100
AcDbLine
 10
49.26
 20
53.5
 30
0.0
 11
49.5
 21
53.3575
 31
0.0
  0
LINE
  5
288
330
1E
100
AcDbEntity
  8
0
100
AcDbLine
 10
49.14
 20
73.87609999999999
 30
0.0
 11
49.5
 21
73.87609999999999
 31
0.0
  0
LINE
  5
289
330
1E
100
AcDbEntity
  8
0
100
AcDbLine
 10
49.14
 20
74.25749999999999
 30
0.0
 11
49.5
 21
74.25749999999999
 31
0.0
  0
LINE
  5
28A
330
1E
100
AcDbEntity
  8
0
100
AcDbLine
 10
49.26
 20
74.0185
 30
0.0
 11
49.5
 21
74.25749999999999
 31
0.0
  0
LINE
  5
28B
330
1E
100
AcDbEntity
  8
0
100
AcDbLine
 10
49.26
 20
74.0185
 30
0.0
 11
49.5
 21
73.87609999999999
 31
0.0
  0
LINE
  5
28C
330
1E
100
AcDbEntity
  8
0
100
AcDbLine
 10
49.14
 20
75.26100000000001
 30
0.0
 11
49.5
 21
75.26100000000001
 31
0.0
  0
LINE
  5
28D
330
1E
100
AcDbEntity
  8
0
100
AcDbLine
 10
49.26
 20
75.5
 30
0.0
 11
49.5
 21
75.26100000000001
 31
0.0
  0
LINE
  5
28E
330
1E
100
AcDbEntity
  8
0
100
AcDbLine
 10
49.14
 20
25.64249999999999
 30
0.0
 11
49.5
 21
25.64249999999999
 31
0.0
  0
LINE
  5
290
330
1E
100
AcDbEntity
  8
0
100
AcDbLine
 10
48.9
 20
25.5
 30
0.0
 11
49.26
 21
25.5
 31
0.0
  0
LINE
  5
291
330
1E
100
AcDbEntity
  8
0
100
AcDbLine
 10
49.5
 20
53.3575
 30
0.0
 11
49.5
 21
39.5
 31
0.0
  0
LINE
  5
292
330
1E
100
AcDbEntity
  8
0
100
AcDbLine
 10
49.5
 20
53.6425
 30
0.0
 11
49.5
 21
73.87609999999999
 31
0.0
  0
LINE
  5
293
330
1E
100
AcDbEntity
  8
0
100
AcDbLine
 10
49.5
 20
73.87609999999999
 30
0.0
 11
49.5
 21
53.6425
 31
0.0
  0
LINE
  5
294
330
1E
100
AcDbEntity
  8
0
100
AcDbLine
 10
49.5
 20
74.25749999999999
 30
0.0
 11
49.5
 21
75.26100000000001
 31
0.0
  0
LINE
  5
295
330
1E
100
AcDbEntity
  8
0
100
AcDbLine
 10
49.5
 20
75.26100000000001
 30
0.0
 11
49.5
 21
74.25749999999999
 31
0.0
  0
LINE
  5
2C9
330
1E
100
AcDbEntity
  8
0
100
AcDbLine
 10
49.5
 20
39.5
 30
0.0
 11
49.5
 21
25.64249999999999
 31
0.0
  0
LINE
  5
2CA
330
1E
100
AcDbEntity
  8
0
100
AcDbLine
 10
49.5
 20
39.5
 30
0.0
 11
49.5
 21
53.3575
 31
0.0
  0
LINE
  5
2CB
330
1E
100
AcDbEntity
  8
0
100
AcDbLine
 10
49.5
 20
25.64249999999999
 30
0.0
 11
49.5
 21
39.5
 31
0.0
  0
LINE
  5
2CC
330
1E
100
AcDbEntity
  8
0
100
AcDbLine
 10
49.26
 20
25.5
 30
0.0
 11
49.5
 21
25.3575
 31
0.0
  0
LINE
  5
2CD
330
1E
100
AcDbEntity
  8
0
100
AcDbLine
 10
49.26
 20
25.5
 30
0.0
 11
49.5
 21
25.64249999999999
 31
0.0
  0
LINE
  5
2CE
330
1E
100
AcDbEntity
  8
0
100
AcDbLine
 10
49.5
 20
25.3575
 30
0.0
 11
49.5
 21
5.123930000000009
 31
0.0
  0
LINE
  5
2CF
330
1E
100
AcDbEntity
  8
0
100
AcDbLine
 10
46.248
 20
15.292
 30
0.0
 11
46.5
 21
13.5
 31
0.0
  0
LINE
  5
2D0
330
1E
100
AcDbEntity
  8
0
100
AcDbLine
 10
46.248
 20
11.708
 30
0.0
 11
46.5
 21
13.5
 31
0.0
  0
LINE
  5
2D1
330
1E
100
AcDbEntity
  8
0
100
AcDbLine
 10
46.07999999999999
 20
11.73599999999999
 30
0.0
 11
46.332
 21
13.5
 31
0.0
  0
LINE
  5
2D6
330
1E
100
AcDbEntity
  8
0
100
AcDbLine
 10
3.273405000003479
 20
71.94075000000609
 30
0.0
 11
2.773845000000069
 21
70.8867000000002
 31
0.0
  0
LINE
  5
2D7
330
1E
100
AcDbEntity
  8
0
100
AcDbLine
 10
67.11580000000001
 20
77.1435
 30
0.0
 11
63.91519999999999
 21
77.52469999999999
 31
0.0
  0
LINE
  5
2D8
330
1E
100
AcDbEntity
  8
0
100
AcDbLine
 10
68.8469
 20
76.82389999999999
 30
0.0
 11
67.11580000000001
 21
77.1435
 31
0.0
  0
LINE
  5
2D9
330
1E
100
AcDbEntity
  8
0
100
AcDbLine
 10
54.3324
 20
78.42
 30
0.0
 11
47.8631
 21
78.7765
 31
0.0
  0
LINE
  5
2DA
330
1E
100
AcDbEntity
  8
0
100
AcDbLine
 10
60.00289999999999
 20
77.99129999999999
 30
0.0
 11
54.3324
 21
78.42
 31
0.0
  0
LINE
  5
2DB
330
1E
100
AcDbEntity
  8
0
100
AcDbLine
 10
63.91519999999999
 20
77.52469999999999
 30
0.0
 11
60.00289999999999
 21
77.99129999999999
 31
0.0
  0
LINE
  5
2DC
330
1E
100
AcDbEntity
  8
0
100
AcDbLine
 10
47.8631
 20
78.7765
 30
0.0
 11
42.86859999999999
 21
78.94759999999999
 31
0.0
  0
LINE
  5
2DD
330
1E
100
AcDbEntity
  8
0
100
AcDbLine
 10
42.86859999999999
 20
78.94759999999999
 30
0.0
 11
39.5
 21
79.0
 31
0.0
  0
LINE
  5
2DE
330
1E
100
AcDbEntity
  8
0
100
AcDbLine
 10
79.0
 20
39.5
 30
0.0
 11
78.947569
 21
42.86859999999999
 31
0.0
  0
LINE
  5
2DF
330
1E
100
AcDbEntity
  8
0
100
AcDbLine
 10
77.52473999999999
 20
63.91519999999999
 30
0.0
 11
77.14347
 21
67.11579999999999
 31
0.0
  0
LINE
  5
2E0
330
1E
100
AcDbEntity
  8
0
100
AcDbLine
 10
78.77647899999999
 20
47.8631
 30
0.0
 11
78.420041
 21
54.3324
 31
0.0
  0
LINE
  5
2E1
330
1E
100
AcDbEntity
  8
0
100
AcDbLine
 10
78.947569
 20
42.86859999999999
 30
0.0
 11
78.77647899999999
 21
47.8631
 31
0.0
  0
LINE
  5
2E2
330
1E
100
AcDbEntity
  8
0
100
AcDbLine
 10
78.947569
 20
42.86859999999999
 30
0.0
 11
78.77647899999999
 21
47.8631
 31
0.0
  0
LINE
  5
2E3
330
1E
100
AcDbEntity
  8
0
100
AcDbLine
 10
78.420041
 20
54.3324
 30
0.0
 11
77.99129999999999
 21
60.0028
 31
0.0
  0
LINE
  5
2E4
330
1E
100
AcDbEntity
  8
0
100
AcDbLine
 10
77.99129999999999
 20
60.0028
 30
0.0
 11
77.52473999999999
 21
63.91519999999999
 31
0.0
  0
LINE
  5
2E5
330
1E
100
AcDbEntity
  8
0
100
AcDbLine
 10
76.70721333333355
 20
69.32199999999911
 30
0.0
 11
76.4738
 21
70.27219999999999
 31
0.0
  0
LINE
  5
2E6
330
1E
100
AcDbEntity
  8
0
100
AcDbLine
 10
76.70721333333361
 20
69.32199999999889
 30
0.0
 11
76.4738
 21
70.27219999999999
 31
0.0
  0
LINE
  5
2E7
330
1E
100
AcDbEntity
  8
0
100
AcDbLine
 10
77.14345
 20
67.1159
 30
0.0
 11
76.70721333333361
 21
69.32199999999889
 31
0.0
  0
LINE
  5
2E8
330
1E
100
AcDbEntity
  8
0
100
AcDbLine
 10
77.14347
 20
67.11579999999999
 30
0.0
 11
77.1007950875937
 21
67.3469830413599
 31
0.0
  0
LINE
  5
2E9
330
1E
100
AcDbEntity
  8
0
100
AcDbLine
 10
77.14347
 20
67.11579999999999
 30
0.0
 11
77.10079508759325
 21
67.34698304136229
 31
0.0
  0
LINE
  5
2EA
330
1E
100
AcDbEntity
  8
0
100
AcDbLine
 10
70.27223000000001
 20
76.4738
 30
0.0
 11
68.8469
 21
76.82389999999999
 31
0.0
  0
LINE
  5
2EB
330
1E
100
AcDbEntity
  8
0
100
AcDbLine
 10
71.50123999999999
 20
75.9785
 30
0.0
 11
70.27223000000001
 21
76.4738
 31
0.0
  0
LINE
  5
2EC
330
1E
100
AcDbEntity
  8
0
100
AcDbLine
 10
76.4738
 20
70.27219999999999
 30
0.0
 11
76.22615499999993
 21
70.8867000000002
 31
0.0
  0
LINE
  5
2ED
330
1E
100
AcDbEntity
  8
0
100
AcDbLine
 10
76.4738
 20
70.27219999999999
 30
0.0
 11
76.22615500000043
 21
70.886699999999
 31
0.0
  0
LINE
  5
2EE
330
1E
100
AcDbEntity
  8
0
100
AcDbLine
 10
74.13258
 20
74.1326
 30
0.0
 11
73.31914000000001
 21
74.85129999999999
 31
0.0
  0
LINE
  5
2EF
330
1E
100
AcDbEntity
  8
0
100
AcDbLine
 10
74.85129999999999
 20
73.3191
 30
0.0
 11
74.13258
 21
74.1326
 31
0.0
  0
LINE
  5
2F0
330
1E
100
AcDbEntity
  8
0
100
AcDbLine
 10
75.47468000000001
 20
72.38030000000001
 30
0.0
 11
74.85129999999999
 21
73.3191
 31
0.0
  0
LINE
  5
2F1
330
1E
100
AcDbEntity
  8
0
100
AcDbLine
 10
75.72659499999652
 20
71.94075000000609
 30
0.0
 11
76.22615499999993
 21
70.8867000000002
 31
0.0
  0
LINE
  5
2F2
330
1E
100
AcDbEntity
  8
0
100
AcDbLine
 10
75.72659499999652
 20
71.94075000000609
 30
0.0
 11
75.47468000000001
 21
72.38030000000001
 31
0.0
  0
LINE
  5
2F3
330
1E
100
AcDbEntity
  8
0
100
AcDbLine
 10
72.38030999999999
 20
75.4747
 30
0.0
 11
71.50123999999999
 21
75.9785
 31
0.0
  0
LINE
  5
2F4
330
1E
100
AcDbEntity
  8
0
100
AcDbLine
 10
73.31914000000001
 20
74.85129999999999
 30
0.0
 11
72.38030999999999
 21
75.4747
 31
0.0
  0
LINE
  5
2F5
330
1E
100
AcDbEntity
  8
0
100
AcDbLine
 10
79.0
 20
39.5
 30
0.0
 11
78.947569
 21
36.1314
 31
0.0
  0
LINE
  5
2F6
330
1E
100
AcDbEntity
  8
0
100
AcDbLine
 10
67.11580000000001
 20
1.856499999999996
 30
0.0
 11
63.91519999999999
 21
1.475300000000004
 31
0.0
  0
LINE
  5
2F7
330
1E
100
AcDbEntity
  8
0
100
AcDbLine
 10
60.00289999999999
 20
1.008700000000004
 30
0.0
 11
54.3324
 21
0.5799999999999983
 31
0.0
  0
LINE
  5
2F8
330
1E
100
AcDbEntity
  8
0
100
AcDbLine
 10
63.91519999999999
 20
1.475300000000004
 30
0.0
 11
60.00289999999999
 21
1.008700000000004
 31
0.0
  0
LINE
  5
2F9
330
1E
100
AcDbEntity
  8
0
100
AcDbLine
 10
77.52473999999999
 20
15.0848
 30
0.0
 11
77.14347
 21
11.8842
 31
0.0
  0
LINE
  5
2FA
330
1E
100
AcDbEntity
  8
0
100
AcDbLine
 10
78.77647899999999
 20
31.1369
 30
0.0
 11
78.420041
 21
24.6676
 31
0.0
  0
LINE
  5
2FB
330
1E
100
AcDbEntity
  8
0
100
AcDbLine
 10
78.947569
 20
36.1314
 30
0.0
 11
78.77647899999999
 21
31.1369
 31
0.0
  0
LINE
  5
2FC
330
1E
100
AcDbEntity
  8
0
100
AcDbLine
 10
78.947569
 20
36.1314
 30
0.0
 11
78.77647899999999
 21
31.1369
 31
0.0
  0
LINE
  5
2FD
330
1E
100
AcDbEntity
  8
0
100
AcDbLine
 10
78.420041
 20
24.6676
 30
0.0
 11
77.99129999999999
 21
18.9972
 31
0.0
  0
LINE
  5
2FE
330
1E
100
AcDbEntity
  8
0
100
AcDbLine
 10
77.99129999999999
 20
18.9972
 30
0.0
 11
77.52473999999999
 21
15.0848
 31
0.0
  0
LINE
  5
2FF
330
1E
100
AcDbEntity
  8
0
100
AcDbLine
 10
76.70721333333361
 20
9.678000000001105
 30
0.0
 11
76.4738
 21
8.727800000000002
 31
0.0
  0
LINE
  5
300
330
1E
100
AcDbEntity
  8
0
100
AcDbLine
 10
76.70721333333355
 20
9.678000000000892
 30
0.0
 11
76.4738
 21
8.727800000000002
 31
0.0
  0
LINE
  5
301
330
1E
100
AcDbEntity
  8
0
100
AcDbLine
 10
70.27223000000001
 20
2.526200000000002
 30
0.0
 11
68.8469
 21
2.176100000000005
 31
0.0
  0
LINE
  5
302
330
1E
100
AcDbEntity
  8
0
100
AcDbLine
 10
71.50123999999999
 20
3.021500000000003
 30
0.0
 11
70.27223000000001
 21
2.526200000000002
 31
0.0
  0
LINE
  5
303
330
1E
100
AcDbEntity
  8
0
100
AcDbLine
 10
76.4738
 20
8.727800000000002
 30
0.0
 11
76.22615500000043
 21
8.113300000001004
 31
0.0
  0
LINE
  5
304
330
1E
100
AcDbEntity
  8
0
100
AcDbLine
 10
76.4738
 20
8.727800000000002
 30
0.0
 11
76.22615499999993
 21
8.113299999999796
 31
0.0
  0
LINE
  5
305
330
1E
100
AcDbEntity
  8
0
100
AcDbLine
 10
74.13258
 20
4.867400000000003
 30
0.0
 11
73.31914000000001
 21
4.148700000000005
 31
0.0
  0
LINE
  5
306
330
1E
100
AcDbEntity
  8
0
100
AcDbLine
 10
72.38030999999999
 20
3.525300000000001
 30
0.0
 11
71.50123999999999
 21
3.021500000000003
 31
0.0
  0
LINE
  5
307
330
1E
100
AcDbEntity
  8
0
100
AcDbLine
 10
73.31914000000001
 20
4.148700000000005
 30
0.0
 11
72.38030999999999
 21
3.525300000000001
 31
0.0
  0
LINE
  5
308
330
1E
100
AcDbEntity
  8
0
100
AcDbLine
 10
74.85129999999999
 20
5.680899999999994
 30
0.0
 11
74.13258
 21
4.867400000000003
 31
0.0
  0
LINE
  5
309
330
1E
100
AcDbEntity
  8
0
100
AcDbLine
 10
75.47468000000001
 20
6.619699999999994
 30
0.0
 11
74.85129999999999
 21
5.680899999999994
 31
0.0
  0
LINE
  5
30A
330
1E
100
AcDbEntity
  8
0
100
AcDbLine
 10
75.72659499999652
 20
7.059249999993909
 30
0.0
 11
76.22615499999993
 21
8.113299999999796
 31
0.0
  0
LINE
  5
30B
330
1E
100
AcDbEntity
  8
0
100
AcDbLine
 10
75.72659499999652
 20
7.059249999993909
 30
0.0
 11
75.47468000000001
 21
6.619699999999994
 31
0.0
  0
LINE
  5
30C
330
1E
100
AcDbEntity
  8
0
100
AcDbLine
 10
68.8469
 20
2.176100000000005
 30
0.0
 11
67.11580000000001
 21
1.856499999999996
 31
0.0
  0
LINE
  5
30D
330
1E
100
AcDbEntity
  8
0
100
AcDbLine
 10
77.14347
 20
11.8842
 30
0.0
 11
77.10079508759325
 21
11.6530169586377
 31
0.0
  0
LINE
  5
30E
330
1E
100
AcDbEntity
  8
0
100
AcDbLine
 10
77.14347
 20
11.8842
 30
0.0
 11
77.1007950875937
 21
11.65301695864009
 31
0.0
  0
LINE
  5
30F
330
1E
100
AcDbEntity
  8
0
100
AcDbLine
 10
77.14345
 20
11.8841
 30
0.0
 11
76.70721333333361
 21
9.678000000001105
 31
0.0
  0
LINE
  5
310
330
1E
100
AcDbEntity
  8
0
100
AcDbLine
 10
42.86859999999999
 20
0.0524000000000058
 30
0.0
 11
39.5
 21
0.0
 31
0.0
  0
LINE
  5
311
330
1E
100
AcDbEntity
  8
0
100
AcDbLine
 10
11.8842
 20
1.856499999999996
 30
0.0
 11
15.0848
 21
1.475300000000004
 31
0.0
  0
LINE
  5
312
330
1E
100
AcDbEntity
  8
0
100
AcDbLine
 10
24.6676
 20
0.5799999999999983
 30
0.0
 11
31.1369
 21
0.2235000000000014
 31
0.0
  0
LINE
  5
313
330
1E
100
AcDbEntity
  8
0
100
AcDbLine
 10
18.99709999999999
 20
1.008700000000004
 30
0.0
 11
24.6676
 21
0.5799999999999983
 31
0.0
  0
LINE
  5
314
330
1E
100
AcDbEntity
  8
0
100
AcDbLine
 10
15.0848
 20
1.475300000000004
 30
0.0
 11
18.99709999999999
 21
1.008700000000004
 31
0.0
  0
LINE
  5
315
330
1E
100
AcDbEntity
  8
0
100
AcDbLine
 10
31.1369
 20
0.2235000000000014
 30
0.0
 11
36.1314
 21
0.0524000000000058
 31
0.0
  0
LINE
  5
316
330
1E
100
AcDbEntity
  8
0
100
AcDbLine
 10
36.1314
 20
0.0524000000000058
 30
0.0
 11
39.5
 21
0.0
 31
0.0
  0
LINE
  5
317
330
1E
100
AcDbEntity
  8
0
100
AcDbLine
 10
54.3324
 20
0.5799999999999983
 30
0.0
 11
47.8631
 21
0.2235000000000014
 31
0.0
  0
LINE
  5
318
330
1E
100
AcDbEntity
  8
0
100
AcDbLine
 10
47.8631
 20
0.2235000000000014
 30
0.0
 11
42.86859999999999
 21
0.0524000000000058
 31
0.0
  0
LINE
  5
319
330
1E
100
AcDbEntity
  8
0
100
AcDbLine
 10
0.0
 20
39.5
 30
0.0
 11
0.052431
 21
36.1314
 31
0.0
  0
LINE
  5
31A
330
1E
100
AcDbEntity
  8
0
100
AcDbLine
 10
1.47526
 20
15.0848
 30
0.0
 11
1.85653
 21
11.8842
 31
0.0
  0
LINE
  5
31B
330
1E
100
AcDbEntity
  8
0
100
AcDbLine
 10
0.223521
 20
31.1369
 30
0.0
 11
0.5799590000000001
 21
24.6676
 31
0.0
  0
LINE
  5
31C
330
1E
100
AcDbEntity
  8
0
100
AcDbLine
 10
0.052431
 20
36.1314
 30
0.0
 11
0.223521
 21
31.1369
 31
0.0
  0
LINE
  5
31D
330
1E
100
AcDbEntity
  8
0
100
AcDbLine
 10
0.052431
 20
36.1314
 30
0.0
 11
0.223521
 21
31.1369
 31
0.0
  0
LINE
  5
31E
330
1E
100
AcDbEntity
  8
0
100
AcDbLine
 10
0.5799590000000001
 20
24.6676
 30
0.0
 11
1.008699999999999
 21
18.9972
 31
0.0
  0
LINE
  5
31F
330
1E
100
AcDbEntity
  8
0
100
AcDbLine
 10
1.008699999999999
 20
18.9972
 30
0.0
 11
1.47526
 21
15.0848
 31
0.0
  0
LINE
  5
320
330
1E
100
AcDbEntity
  8
0
100
AcDbLine
 10
2.29278666666644
 20
9.678000000000892
 30
0.0
 11
2.526199999999999
 21
8.727800000000002
 31
0.0
  0
LINE
  5
321
330
1E
100
AcDbEntity
  8
0
100
AcDbLine
 10
2.29278666666639
 20
9.678000000001105
 30
0.0
 11
2.526199999999999
 21
8.727800000000002
 31
0.0
  0
LINE
  5
322
330
1E
100
AcDbEntity
  8
0
100
AcDbLine
 10
1.85655
 20
11.8841
 30
0.0
 11
2.29278666666639
 21
9.678000000001105
 31
0.0
  0
LINE
  5
323
330
1E
100
AcDbEntity
  8
0
100
AcDbLine
 10
1.85653
 20
11.8842
 30
0.0
 11
1.89920491240631
 21
11.65301695864009
 31
0.0
  0
LINE
  5
324
330
1E
100
AcDbEntity
  8
0
100
AcDbLine
 10
1.85653
 20
11.8842
 30
0.0
 11
1.89920491240675
 21
11.6530169586377
 31
0.0
  0
LINE
  5
325
330
1E
100
AcDbEntity
  8
0
100
AcDbLine
 10
8.727769999999999
 20
2.526200000000002
 30
0.0
 11
10.1531
 21
2.176100000000005
 31
0.0
  0
LINE
  5
326
330
1E
100
AcDbEntity
  8
0
100
AcDbLine
 10
7.49876
 20
3.021500000000003
 30
0.0
 11
8.727769999999999
 21
2.526200000000002
 31
0.0
  0
LINE
  5
327
330
1E
100
AcDbEntity
  8
0
100
AcDbLine
 10
2.526199999999999
 20
8.727800000000002
 30
0.0
 11
2.773845000000069
 21
8.113299999999796
 31
0.0
  0
LINE
  5
328
330
1E
100
AcDbEntity
  8
0
100
AcDbLine
 10
2.526199999999999
 20
8.727800000000002
 30
0.0
 11
2.773844999999569
 21
8.113300000001004
 31
0.0
  0
LINE
  5
329
330
1E
100
AcDbEntity
  8
0
100
AcDbLine
 10
4.86742
 20
4.867400000000003
 30
0.0
 11
5.68086
 21
4.148700000000005
 31
0.0
  0
LINE
  5
32A
330
1E
100
AcDbEntity
  8
0
100
AcDbLine
 10
4.148699999999999
 20
5.680899999999994
 30
0.0
 11
4.86742
 21
4.867400000000003
 31
0.0
  0
LINE
  5
32B
330
1E
100
AcDbEntity
  8
0
100
AcDbLine
 10
3.525319999999999
 20
6.619699999999994
 30
0.0
 11
4.148699999999999
 21
5.680899999999994
 31
0.0
  0
LINE
  5
32C
330
1E
100
AcDbEntity
  8
0
100
AcDbLine
 10
3.273405000003479
 20
7.059249999993909
 30
0.0
 11
2.773845000000069
 21
8.113299999999796
 31
0.0
  0
LINE
  5
32D
330
1E
100
AcDbEntity
  8
0
100
AcDbLine
 10
3.273405000003479
 20
7.059249999993909
 30
0.0
 11
3.525319999999999
 21
6.619699999999994
 31
0.0
  0
LINE
  5
32E
330
1E
100
AcDbEntity
  8
0
100
AcDbLine
 10
6.619689999999999
 20
3.525300000000001
 30
0.0
 11
7.49876
 21
3.021500000000003
 31
0.0
  0
LINE
  5
32F
330
1E
100
AcDbEntity
  8
0
100
AcDbLine
 10
5.68086
 20
4.148700000000005
 30
0.0
 11
6.619689999999999
 21
3.525300000000001
 31
0.0
  0
LINE
  5
330
330
1E
100
AcDbEntity
  8
0
100
AcDbLine
 10
10.1531
 20
2.176100000000005
 30
0.0
 11
11.8842
 21
1.856499999999996
 31
0.0
  0
ENDSEC
  0
SECTION
  2
OBJECTS
  0
DICTIONARY
  5
C
330
0
100
AcDbDictionary
281
     1
  3
ACAD_GROUP
350
D
  3
ACAD_LAYOUT
350
19
  3
ACAD_MLINESTYLE
350
16
  3
ACAD_PLOTSETTINGS
350
18
  3
ACAD_PLOTSTYLENAME
350
E
  3
AcDbVariableDictionary
350
331
  0
DICTIONARY
  5
D
102
{ACAD_REACTORS
330
C
102
}
330
C
100
AcDbDictionary
281
     1
  0
DICTIONARY
  5
19
102
{ACAD_REACTORS
330
C
102
}
330
C
100
AcDbDictionary
281
     1
  3
Layout1
350
1D
  3
Model
350
21
  0
DICTIONARY
  5
16
102
{ACAD_REACTORS
330
C
102
}
330
C
100
AcDbDictionary
281
     1
  3
Standard
350
17
  0
DICTIONARY
  5
18
102
{ACAD_REACTORS
330
C
102
}
330
C
100
AcDbDictionary
281
     1
  0
ACDBDICTIONARYWDFLT
  5
E
102
{ACAD_REACTORS
330
C
102
}
330
C
100
AcDbDictionary
281
     1
  3
Normal
350
F
100
AcDbDictionaryWithDefault
340
F
  0
DICTIONARY
  5
331
102
{ACAD_REACTORS
330
C
102
}
330
C
100
AcDbDictionary
281
     1
  3
DIMASSOC
350
332
  0
LAYOUT
  5
1D
102
{ACAD_REACTORS
330
19
102
}
330
19
100
AcDbPlotSettings
  1

  2
hp deskjet 980c series
  4

  6

 40
0.0
 41
0.0
 42
0.0
 43
0.0
 44
0.0
 45
0.0
 46
0.0
 47
0.0
 48
0.0
 49
0.0
140
0.0
141
0.0
142
1.0
143
1.0
 70
   688
 72
     0
 73
     0
 74
     5
  7

 75
    16
147
1.0
148
0.0
149
0.0
100
AcDbLayout
  1
Layout1
 70
     1
 71
     1
 10
0.0
 20
0.0
 11
12.0
 21
9.0
 12
0.0
 22
0.0
 32
0.0
 14
1.000000000000000E+20
 24
1.000000000000000E+20
 34
1.000000000000000E+20
 15
-1.000000000000000E+20
 25
-1.000000000000000E+20
 35
-1.000000000000000E+20
146
0.0
 13
0.0
 23
0.0
 33
0.0
 16
1.0
 26
0.0
 36
0.0
 17
0.0
 27
1.0
 37
0.0
 76
     0
330
1A
  0
LAYOUT
  5
21
102
{ACAD_REACTORS
330
19
102
}
330
19
100
AcDbPlotSettings
  1

  2
hp deskjet 980c series
  4

  6

 40
0.0
 41
0.0
 42
0.0
 43
0.0
 44
0.0
 45
0.0
 46
0.0
 47
0.0
 48
0.0
 49
0.0
140
0.0
141
0.0
142
1.0
143
1.0
 70
  1712
 72
     0
 73
     0
 74
     0
  7

 75
     0
147
1.0
148
0.0
149
0.0
100
AcDbLayout
  1
Model
 70
     1
 71
     0
 10
0.0
 20
0.0
 11
12.0
 21
9.0
 12
0.0
 22
0.0
 32
0.0
 14
0.0
 24
0.0
 34
0.0
 15
0.0
 25
0.0
 35
0.0
146
0.0
 13
0.0
 23
0.0
 33
0.0
 16
1.0
 26
0.0
 36
0.0
 17
0.0
 27
1.0
 37
0.0
 76
     0
330
1E
  0
MLINESTYLE
  5
17
102
{ACAD_REACTORS
330
16
102
}
330
16
100
AcDbMlineStyle
  2
STANDARD
 70
     0
  3

 62
   256
 51
90.0
 52
90.0
 71
     2
 49
0.5
 62
   256
  6
BYLAYER
 49
-0.5
 62
   256
  6
BYLAYER
  0
ACDBPLACEHOLDER
  5
F
102
{ACAD_REACTORS
330
E
102
}
330
E
  0
DICTIONARYVAR
  5
332
102
{ACAD_REACTORS
330
331
102
}
330
331
100
DictionaryVariables
280
     0
  1
1
  0
ENDSEC
  0
EOF
