  0
SECTION
  2
HEADER
  9
$ACADVER
  1
AC1015
  9
$ACADMAINTVER
 70
    13
  9
$DWGCODEPAGE
  3
ANSI_1252
  9
$INSBASE
 10
0.0
 20
0.0
 30
0.0
  9
$EXTMIN
 10
-0.0000000000000288
 20
1.000000000000019
 30
0.0
  9
$EXTMAX
 10
518.0
 20
119.0
 30
0.0
  9
$LIMMIN
 10
0.0
 20
0.0
  9
$LIMMAX
 10
12.0
 20
9.0
  9
$ORTHOMODE
 70
     0
  9
$REGENMODE
 70
     1
  9
$FILLMODE
 70
     1
  9
$QTEXTMODE
 70
     0
  9
$MIRRTEXT
 70
     1
  9
$LTSCALE
 40
1.0
  9
$ATTMODE
 70
     1
  9
$TEXTSIZE
 40
0.2
  9
$TRACEWID
 40
0.05
  9
$TEXTSTYLE
  7
Standard
  9
$CLAYER
  8
0
  9
$CELTYPE
  6
Continuous
  9
$CECOLOR
 62
   256
  9
$CELTSCALE
 40
1.0
  9
$DISPSILH
 70
     0
  9
$DIMSCALE
 40
1.0
  9
$DIMASZ
 40
0.18
  9
$DIMEXO
 40
0.0625
  9
$DIMDLI
 40
0.38
  9
$DIMRND
 40
0.0
  9
$DIMDLE
 40
0.0
  9
$DIMEXE
 40
0.18
  9
$DIMTP
 40
0.0
  9
$DIMTM
 40
0.0
  9
$DIMTXT
 40
0.18
  9
$DIMCEN
 40
0.09
  9
$DIMTSZ
 40
0.0
  9
$DIMTOL
 70
     0
  9
$DIMLIM
 70
     0
  9
$DIMTIH
 70
     1
  9
$DIMTOH
 70
     1
  9
$DIMSE1
 70
     0
  9
$DIMSE2
 70
     0
  9
$DIMTAD
 70
     0
  9
$DIMZIN
 70
     0
  9
$DIMBLK
  1

  9
$DIMASO
 70
     1
  9
$DIMSHO
 70
     1
  9
$DIMPOST
  1

  9
$DIMAPOST
  1

  9
$DIMALT
 70
     0
  9
$DIMALTD
 70
     2
  9
$DIMALTF
 40
25.4
  9
$DIMLFAC
 40
1.0
  9
$DIMTOFL
 70
     0
  9
$DIMTVP
 40
0.0
  9
$DIMTIX
 70
     0
  9
$DIMSOXD
 70
     0
  9
$DIMSAH
 70
     0
  9
$DIMBLK1
  1

  9
$DIMBLK2
  1

  9
$DIMSTYLE
  2
Standard
  9
$DIMCLRD
 70
     0
  9
$DIMCLRE
 70
     0
  9
$DIMCLRT
 70
     0
  9
$DIMTFAC
 40
1.0
  9
$DIMGAP
 40
0.09
  9
$DIMJUST
 70
     0
  9
$DIMSD1
 70
     0
  9
$DIMSD2
 70
     0
  9
$DIMTOLJ
 70
     1
  9
$DIMTZIN
 70
     0
  9
$DIMALTZ
 70
     0
  9
$DIMALTTZ
 70
     0
  9
$DIMUPT
 70
     0
  9
$DIMDEC
 70
     4
  9
$DIMTDEC
 70
     4
  9
$DIMALTU
 70
     2
  9
$DIMALTTD
 70
     2
  9
$DIMTXSTY
  7
Standard
  9
$DIMAUNIT
 70
     0
  9
$DIMADEC
 70
     0
  9
$DIMALTRND
 40
0.0
  9
$DIMAZIN
 70
     0
  9
$DIMDSEP
 70
    46
  9
$DIMATFIT
 70
     3
  9
$DIMFRAC
 70
     0
  9
$DIMLDRBLK
  1

  9
$DIMLUNIT
 70
     2
  9
$DIMLWD
 70
    -2
  9
$DIMLWE
 70
    -2
  9
$DIMTMOVE
 70
     0
  9
$LUNITS
 70
     2
  9
$LUPREC
 70
     4
  9
$SKETCHINC
 40
0.1
  9
$FILLETRAD
 40
0.0
  9
$AUNITS
 70
     0
  9
$AUPREC
 70
     0
  9
$MENU
  1
.
  9
$ELEVATION
 40
0.0
  9
$PELEVATION
 40
0.0
  9
$THICKNESS
 40
0.0
  9
$LIMCHECK
 70
     0
  9
$CHAMFERA
 40
0.0
  9
$CHAMFERB
 40
0.0
  9
$CHAMFERC
 40
0.0
  9
$CHAMFERD
 40
0.0
  9
$SKPOLY
 70
     0
  9
$TDCREATE
 40
2454907.629079491
  9
$TDUCREATE
 40
2454907.587412824
  9
$TDUPDATE
 40
2454907.633809490
  9
$TDUUPDATE
 40
2454907.592142824
  9
$TDINDWG
 40
0.0047300000
  9
$TDUSRTIMER
 40
0.0047300000
  9
$USRTIMER
 70
     1
  9
$ANGBASE
 50
0.0
  9
$ANGDIR
 70
     0
  9
$PDMODE
 70
     0
  9
$PDSIZE
 40
0.0
  9
$PLINEWID
 40
0.0
  9
$SPLFRAME
 70
     0
  9
$SPLINETYPE
 70
     6
  9
$SPLINESEGS
 70
     8
  9
$HANDSEED
  5
830
  9
$SURFTAB1
 70
     6
  9
$SURFTAB2
 70
     6
  9
$SURFTYPE
 70
     6
  9
$SURFU
 70
     6
  9
$SURFV
 70
     6
  9
$UCSBASE
  2

  9
$UCSNAME
  2

  9
$UCSORG
 10
0.0
 20
0.0
 30
0.0
  9
$UCSXDIR
 10
1.0
 20
0.0
 30
0.0
  9
$UCSYDIR
 10
0.0
 20
1.0
 30
0.0
  9
$UCSORTHOREF
  2

  9
$UCSORTHOVIEW
 70
     1
  9
$UCSORGTOP
 10
0.0
 20
0.0
 30
0.0
  9
$UCSORGBOTTOM
 10
0.0
 20
0.0
 30
0.0
  9
$UCSORGLEFT
 10
0.0
 20
0.0
 30
0.0
  9
$UCSORGRIGHT
 10
0.0
 20
0.0
 30
0.0
  9
$UCSORGFRONT
 10
0.0
 20
0.0
 30
0.0
  9
$UCSORGBACK
 10
0.0
 20
0.0
 30
0.0
  9
$PUCSBASE
  2

  9
$PUCSNAME
  2

  9
$PUCSORG
 10
0.0
 20
0.0
 30
0.0
  9
$PUCSXDIR
 10
1.0
 20
0.0
 30
0.0
  9
$PUCSYDIR
 10
0.0
 20
1.0
 30
0.0
  9
$PUCSORTHOREF
  2

  9
$PUCSORTHOVIEW
 70
     0
  9
$PUCSORGTOP
 10
0.0
 20
0.0
 30
0.0
  9
$PUCSORGBOTTOM
 10
0.0
 20
0.0
 30
0.0
  9
$PUCSORGLEFT
 10
0.0
 20
0.0
 30
0.0
  9
$PUCSORGRIGHT
 10
0.0
 20
0.0
 30
0.0
  9
$PUCSORGFRONT
 10
0.0
 20
0.0
 30
0.0
  9
$PUCSORGBACK
 10
0.0
 20
0.0
 30
0.0
  9
$USERI1
 70
     0
  9
$USERI2
 70
     0
  9
$USERI3
 70
     0
  9
$USERI4
 70
     0
  9
$USERI5
 70
     0
  9
$USERR1
 40
0.0
  9
$USERR2
 40
0.0
  9
$USERR3
 40
0.0
  9
$USERR4
 40
0.0
  9
$USERR5
 40
0.0
  9
$WORLDVIEW
 70
     1
  9
$SHADEDGE
 70
     3
  9
$SHADEDIF
 70
    70
  9
$TILEMODE
 70
     1
  9
$MAXACTVP
 70
    64
  9
$PINSBASE
 10
0.0
 20
0.0
 30
0.0
  9
$PLIMCHECK
 70
     0
  9
$PEXTMIN
 10
1.000000000000000E+20
 20
1.000000000000000E+20
 30
1.000000000000000E+20
  9
$PEXTMAX
 10
-1.000000000000000E+20
 20
-1.000000000000000E+20
 30
-1.000000000000000E+20
  9
$PLIMMIN
 10
0.0
 20
0.0
  9
$PLIMMAX
 10
12.0
 20
9.0
  9
$UNITMODE
 70
     0
  9
$VISRETAIN
 70
     1
  9
$PLINEGEN
 70
     0
  9
$PSLTSCALE
 70
     1
  9
$TREEDEPTH
 70
  3020
  9
$CMLSTYLE
  2
Standard
  9
$CMLJUST
 70
     0
  9
$CMLSCALE
 40
1.0
  9
$PROXYGRAPHICS
 70
     1
  9
$MEASUREMENT
 70
     0
  9
$CELWEIGHT
370
    -1
  9
$ENDCAPS
280
     0
  9
$JOINSTYLE
280
     0
  9
$LWDISPLAY
290
     0
  9
$INSUNITS
 70
     0
  9
$HYPERLINKBASE
  1

  9
$STYLESHEET
  1

  9
$XEDIT
290
     1
  9
$CEPSNTYPE
380
     0
  9
$PSTYLEMODE
290
     1
  9
$FINGERPRINTGUID
  2
{81C7AD05-E0DF-4C53-81B2-F78159A7E10B}
  9
$VERSIONGUID
  2
{96B069F1-329E-468B-8E63-E7C56F45A22D}
  9
$EXTNAMES
290
     1
  9
$PSVPSCALE
 40
0.0
  9
$OLESTARTUP
290
     0
  0
ENDSEC
  0
SECTION
  2
CLASSES
  0
CLASS
  1
ACDBDICTIONARYWDFLT
  2
AcDbDictionaryWithDefault
  3
AutoCAD 2000
 90
        0
280
     0
281
     0
  0
CLASS
  1
ACDBPLACEHOLDER
  2
AcDbPlaceHolder
  3
AutoCAD 2000
 90
        0
280
     0
281
     0
  0
CLASS
  1
LAYOUT
  2
AcDbLayout
  3
AutoCAD 2000
 90
        0
280
     0
281
     0
  0
CLASS
  1
DICTIONARYVAR
  2
AcDbDictionaryVar
  3
AutoCAD 2000
 90
        0
280
     0
281
     0
  0
ENDSEC
  0
SECTION
  2
TABLES
  0
TABLE
  2
VPORT
  5
8
330
0
100
AcDbSymbolTable
 70
     2
  0
VPORT
  5
82F
330
8
100
AcDbSymbolTableRecord
100
AcDbViewportTableRecord
  2
*Active
 70
     0
 10
0.0
 20
0.0
 11
1.0
 21
1.0
 12
258.9999999999999
 22
60.00000000000001
 13
0.0
 23
0.0
 14
1.0
 24
1.0
 15
0.0
 25
0.0
 16
0.0
 26
0.0
 36
1.0
 17
0.0
 27
0.0
 37
0.0
 40
264.0043428048986
 41
1.968387776606954
 42
50.0
 43
0.0
 44
0.0
 50
0.0
 51
0.0
 71
     0
 72
   100
 73
     1
 74
     3
 75
     0
 76
     0
 77
     0
 78
     0
281
     0
 65
     1
110
0.0
120
0.0
130
0.0
111
1.0
121
0.0
131
0.0
112
0.0
122
1.0
132
0.0
 79
     1
146
0.0
  0
ENDTAB
  0
TABLE
  2
LTYPE
  5
5
330
0
100
AcDbSymbolTable
 70
     1
  0
LTYPE
  5
13
330
5
100
AcDbSymbolTableRecord
100
AcDbLinetypeTableRecord
  2
ByBlock
 70
     0
  3

 72
    65
 73
     0
 40
0.0
  0
LTYPE
  5
14
330
5
100
AcDbSymbolTableRecord
100
AcDbLinetypeTableRecord
  2
ByLayer
 70
     0
  3

 72
    65
 73
     0
 40
0.0
  0
LTYPE
  5
15
330
5
100
AcDbSymbolTableRecord
100
AcDbLinetypeTableRecord
  2
Continuous
 70
     0
  3
Solid line
 72
    65
 73
     0
 40
0.0
  0
ENDTAB
  0
TABLE
  2
LAYER
  5
2
330
0
100
AcDbSymbolTable
 70
     1
  0
LAYER
  5
10
330
2
100
AcDbSymbolTableRecord
100
AcDbLayerTableRecord
  2
0
 70
     0
 62
     7
  6
Continuous
370
    -3
390
F
  0
ENDTAB
  0
TABLE
  2
STYLE
  5
3
330
0
100
AcDbSymbolTable
 70
     1
  0
STYLE
  5
11
330
3
100
AcDbSymbolTableRecord
100
AcDbTextStyleTableRecord
  2
Standard
 70
     0
 40
0.0
 41
1.0
 50
0.0
 71
     0
 42
0.2
  3
txt
  4

  0
ENDTAB
  0
TABLE
  2
VIEW
  5
6
330
0
100
AcDbSymbolTable
 70
     0
  0
ENDTAB
  0
TABLE
  2
UCS
  5
7
330
0
100
AcDbSymbolTable
 70
     0
  0
ENDTAB
  0
TABLE
  2
APPID
  5
9
330
0
100
AcDbSymbolTable
 70
     1
  0
APPID
  5
12
330
9
100
AcDbSymbolTableRecord
100
AcDbRegAppTableRecord
  2
ACAD
 70
     0
  0
ENDTAB
  0
TABLE
  2
DIMSTYLE
  5
A
330
0
100
AcDbSymbolTable
 70
     1
100
AcDbDimStyleTable
 71
     0
  0
DIMSTYLE
105
7DD
330
A
100
AcDbSymbolTableRecord
100
AcDbDimStyleTableRecord
  2
Standard
 70
     0
340
11
  0
ENDTAB
  0
TABLE
  2
BLOCK_RECORD
  5
1
330
0
100
AcDbSymbolTable
 70
     0
  0
BLOCK_RECORD
  5
1E
330
1
100
AcDbSymbolTableRecord
100
AcDbBlockTableRecord
  2
*Model_Space
340
21
  0
BLOCK_RECORD
  5
1A
330
1
100
AcDbSymbolTableRecord
100
AcDbBlockTableRecord
  2
*Paper_Space
340
1D
  0
ENDTAB
  0
ENDSEC
  0
SECTION
  2
BLOCKS
  0
BLOCK
  5
1F
330
1E
100
AcDbEntity
  8
0
100
AcDbBlockBegin
  2
*Model_Space
 70
     0
 10
0.0
 20
0.0
 30
0.0
  3
*Model_Space
  1

  0
ENDBLK
  5
20
330
1E
100
AcDbEntity
  8
0
100
AcDbBlockEnd
  0
BLOCK
  5
1B
330
1A
100
AcDbEntity
 67
     1
  8
0
100
AcDbBlockBegin
  2
*Paper_Space
 70
     0
 10
0.0
 20
0.0
 30
0.0
  3
*Paper_Space
  1

  0
ENDBLK
  5
1C
330
1A
100
AcDbEntity
 67
     1
  8
0
100
AcDbBlockEnd
  0
ENDSEC
  0
SECTION
  2
ENTITIES
  0
LINE
  5
BC
330
1E
100
AcDbEntity
  8
0
100
AcDbLine
 10
95.71060000000001
 20
1.000000000000019
 30
0.0
 11
95.9781
 21
1.000000000000019
 31
0.0
  0
LINE
  5
BD
330
1E
100
AcDbEntity
  8
0
100
AcDbLine
 10
97.53480000000001
 20
1.000000000000019
 30
0.0
 11
98.3103
 21
1.000000000000019
 31
0.0
  0
LINE
  5
BE
330
1E
100
AcDbEntity
  8
0
100
AcDbLine
 10
96.93609999999999
 20
1.000000000000019
 30
0.0
 11
97.53480000000001
 21
1.000000000000019
 31
0.0
  0
LINE
  5
BF
330
1E
100
AcDbEntity
  8
0
100
AcDbLine
 10
96.5768
 20
1.000000000000019
 30
0.0
 11
96.93609999999999
 21
1.000000000000019
 31
0.0
  0
LINE
  5
C0
330
1E
100
AcDbEntity
  8
0
100
AcDbLine
 10
96.29739999999999
 20
1.000000000000019
 30
0.0
 11
96.5768
 21
1.000000000000019
 31
0.0
  0
LINE
  5
C1
330
1E
100
AcDbEntity
  8
0
100
AcDbLine
 10
95.9781
 20
1.000000000000019
 30
0.0
 11
96.29739999999999
 21
1.000000000000019
 31
0.0
  0
LINE
  5
C2
330
1E
100
AcDbEntity
  8
0
100
AcDbLine
 10
95.71060000000001
 20
1.000000000000019
 30
0.0
 11
95.9781
 21
1.000000000000019
 31
0.0
  0
LINE
  5
C3
330
1E
100
AcDbEntity
  8
0
100
AcDbLine
 10
98.3103
 20
1.000000000000019
 30
0.0
 11
102.0418
 21
1.000000000000019
 31
0.0
  0
LINE
  5
FA
330
1E
100
AcDbEntity
  8
0
100
AcDbLine
 10
102.0418
 20
1.000000000000019
 30
0.0
 11
103.607
 21
1.000000000000019
 31
0.0
  0
LINE
  5
FB
330
1E
100
AcDbEntity
  8
0
100
AcDbLine
 10
103.607
 20
1.000000000000019
 30
0.0
 11
106.4799999999999
 21
1.000000000000019
 31
0.0
  0
LINE
  5
FC
330
1E
100
AcDbEntity
  8
0
100
AcDbLine
 10
106.4799999999999
 20
1.000000000000019
 30
0.0
 11
110.8679999999999
 21
1.000000000000019
 31
0.0
  0
LINE
  5
104
330
1E
100
AcDbEntity
  8
0
100
AcDbLine
 10
110.8679999999999
 20
1.000000000000019
 30
0.0
 11
112.2084999999999
 21
1.000000000000019
 31
0.0
  0
LINE
  5
120
330
1E
100
AcDbEntity
  8
0
100
AcDbLine
 10
112.2084999999999
 20
1.000000000000019
 30
0.0
 11
116.7929999999999
 21
1.000000000000019
 31
0.0
  0
LINE
  5
121
330
1E
100
AcDbEntity
  8
0
100
AcDbLine
 10
116.7929999999999
 20
1.000000000000019
 30
0.0
 11
123.414
 21
1.000000000000019
 31
0.0
  0
LINE
  5
20D
330
1E
100
AcDbEntity
  8
0
100
AcDbLine
 10
33.5
 20
4.812500000000019
 30
0.0
 11
48.0
 21
3.00000000000002
 31
0.0
  0
LINE
  5
228
330
1E
100
AcDbEntity
  8
0
100
AcDbLine
 10
32.0
 20
5.000000000000019
 30
0.0
 11
33.5
 21
4.812500000000019
 31
0.0
  0
LINE
  5
229
330
1E
100
AcDbEntity
  8
0
100
AcDbLine
 10
32.0
 20
5.000000000000019
 30
0.0
 11
33.5
 21
4.812500000000019
 31
0.0
  0
LINE
  5
22B
330
1E
100
AcDbEntity
  8
0
100
AcDbLine
 10
12.0
 20
12.0
 30
0.0
 11
16.0
 21
10.0
 31
0.0
  0
LINE
  5
22C
330
1E
100
AcDbEntity
  8
0
100
AcDbLine
 10
16.0
 20
10.0
 30
0.0
 11
23.0
 21
7.000000000000018
 31
0.0
  0
LINE
  5
22D
330
1E
100
AcDbEntity
  8
0
100
AcDbLine
 10
23.0
 20
7.000000000000018
 30
0.0
 11
32.0
 21
5.000000000000019
 31
0.0
  0
LINE
  5
22E
330
1E
100
AcDbEntity
  8
0
100
AcDbLine
 10
18.52
 20
14.0
 30
0.0
 11
21.126
 21
14.0
 31
0.0
  0
LINE
  5
22F
330
1E
100
AcDbEntity
  8
0
100
AcDbLine
 10
16.507
 20
14.0
 30
0.0
 11
18.52
 21
14.0
 31
0.0
  0
LINE
  5
230
330
1E
100
AcDbEntity
  8
0
100
AcDbLine
 10
15.3
 20
14.0
 30
0.0
 11
16.507
 21
14.0
 31
0.0
  0
LINE
  5
231
330
1E
100
AcDbEntity
  8
0
100
AcDbLine
 10
14.36099999999999
 20
14.0
 30
0.0
 11
15.3
 21
14.0
 31
0.0
  0
LINE
  5
232
330
1E
100
AcDbEntity
  8
0
100
AcDbLine
 10
13.287
 20
14.0
 30
0.0
 11
14.36099999999999
 21
14.0
 31
0.0
  0
LINE
  5
233
330
1E
100
AcDbEntity
  8
0
100
AcDbLine
 10
12.214
 20
14.0
 30
0.0
 11
13.287
 21
14.0
 31
0.0
  0
LINE
  5
234
330
1E
100
AcDbEntity
  8
0
100
AcDbLine
 10
10.92699999999999
 20
14.0
 30
0.0
 11
12.214
 21
14.0
 31
0.0
  0
LINE
  5
235
330
1E
100
AcDbEntity
  8
0
100
AcDbLine
 10
10.46399999999999
 20
14.0
 30
0.0
 11
10.92699999999999
 21
14.0
 31
0.0
  0
LINE
  5
236
330
1E
100
AcDbEntity
  8
0
100
AcDbLine
 10
21.126
 20
14.0
 30
0.0
 11
24.583
 21
14.0
 31
0.0
  0
LINE
  5
23A
330
1E
100
AcDbEntity
  8
0
100
AcDbLine
 10
24.583
 20
14.0
 30
0.0
 11
28.337
 21
14.0
 31
0.0
  0
LINE
  5
23B
330
1E
100
AcDbEntity
  8
0
100
AcDbLine
 10
28.337
 20
14.0
 30
0.0
 11
33.16409999999999
 21
14.0
 31
0.0
  0
LINE
  5
23C
330
1E
100
AcDbEntity
  8
0
100
AcDbLine
 10
33.16409999999999
 20
14.0
 30
0.0
 11
38.9298
 21
14.0
 31
0.0
  0
LINE
  5
23D
330
1E
100
AcDbEntity
  8
0
100
AcDbLine
 10
-0.0000000000000288
 20
23.0
 30
0.0
 11
0.999999999999969
 21
20.0
 31
0.0
  0
LINE
  5
23E
330
1E
100
AcDbEntity
  8
0
100
AcDbLine
 10
-0.0000000000000288
 20
23.0
 30
0.0
 11
-0.0000000000000288
 21
24.0
 31
0.0
  0
LINE
  5
23F
330
1E
100
AcDbEntity
  8
0
100
AcDbLine
 10
0.999999999999969
 20
20.0
 30
0.0
 11
3.999999999999979
 21
17.0
 31
0.0
  0
LINE
  5
240
330
1E
100
AcDbEntity
  8
0
100
AcDbLine
 10
3.999999999999979
 20
17.0
 30
0.0
 11
6.99999999999999
 21
15.0
 31
0.0
  0
LINE
  5
241
330
1E
100
AcDbEntity
  8
0
100
AcDbLine
 10
6.99999999999999
 20
15.0
 30
0.0
 11
9.99999999999998
 21
14.0
 31
0.0
  0
LINE
  5
242
330
1E
100
AcDbEntity
  8
0
100
AcDbLine
 10
9.22399999999998
 20
24.0
 30
0.0
 11
12.046
 21
24.0
 31
0.0
  0
LINE
  5
243
330
1E
100
AcDbEntity
  8
0
100
AcDbLine
 10
7.044999999999981
 20
24.0
 30
0.0
 11
9.22399999999998
 21
24.0
 31
0.0
  0
LINE
  5
244
330
1E
100
AcDbEntity
  8
0
100
AcDbLine
 10
5.73799999999998
 20
24.0
 30
0.0
 11
7.044999999999981
 21
24.0
 31
0.0
  0
LINE
  5
245
330
1E
100
AcDbEntity
  8
0
100
AcDbLine
 10
4.72099999999998
 20
24.0
 30
0.0
 11
5.73799999999998
 21
24.0
 31
0.0
  0
LINE
  5
246
330
1E
100
AcDbEntity
  8
0
100
AcDbLine
 10
3.55899999999996
 20
24.0
 30
0.0
 11
4.72099999999998
 21
24.0
 31
0.0
  0
LINE
  5
247
330
1E
100
AcDbEntity
  8
0
100
AcDbLine
 10
2.396999999999999
 20
24.0
 30
0.0
 11
3.55899999999996
 21
24.0
 31
0.0
  0
LINE
  5
248
330
1E
100
AcDbEntity
  8
0
100
AcDbLine
 10
1.00399999999998
 20
24.0
 30
0.0
 11
2.396999999999999
 21
24.0
 31
0.0
  0
LINE
  5
249
330
1E
100
AcDbEntity
  8
0
100
AcDbLine
 10
0.5019999999999481
 20
24.0
 30
0.0
 11
1.00399999999998
 21
24.0
 31
0.0
  0
LINE
  5
24A
330
1E
100
AcDbEntity
  8
0
100
AcDbLine
 10
12.046
 20
24.0
 30
0.0
 11
15.788
 21
24.0
 31
0.0
  0
LINE
  5
24B
330
1E
100
AcDbEntity
  8
0
100
AcDbLine
 10
15.788
 20
24.0
 30
0.0
 11
19.85299999999999
 21
24.0
 31
0.0
  0
LINE
  5
24C
330
1E
100
AcDbEntity
  8
0
100
AcDbLine
 10
19.85299999999999
 20
24.0
 30
0.0
 11
25.078
 21
24.0
 31
0.0
  0
LINE
  5
255
330
1E
100
AcDbEntity
  8
0
100
AcDbLine
 10
25.078
 20
24.0
 30
0.0
 11
31.3206
 21
24.0
 31
0.0
  0
LINE
  5
257
330
1E
100
AcDbEntity
  8
0
100
AcDbLine
 10
31.3206
 20
24.0
 30
0.0
 11
41.7727
 21
24.0
 31
0.0
  0
LINE
  5
258
330
1E
100
AcDbEntity
  8
0
100
AcDbLine
 10
33.64
 20
27.0
 30
0.0
 11
34.4239
 21
27.0
 31
0.0
  0
LINE
  5
259
330
1E
100
AcDbEntity
  8
0
100
AcDbLine
 10
32.7441
 20
27.0
 30
0.0
 11
33.64
 21
27.0
 31
0.0
  0
LINE
  5
25A
330
1E
100
AcDbEntity
  8
0
100
AcDbLine
 10
31.8482
 20
27.0
 30
0.0
 11
32.7441
 21
27.0
 31
0.0
  0
LINE
  5
25B
330
1E
100
AcDbEntity
  8
0
100
AcDbLine
 10
30.774
 20
27.0
 30
0.0
 11
31.8482
 21
27.0
 31
0.0
  0
LINE
  5
25C
330
1E
100
AcDbEntity
  8
0
100
AcDbLine
 10
30.38699999999999
 20
27.0
 30
0.0
 11
30.774
 21
27.0
 31
0.0
  0
LINE
  5
25D
330
1E
100
AcDbEntity
  8
0
100
AcDbLine
 10
30.0
 20
27.0
 30
0.0
 11
30.38699999999999
 21
27.0
 31
0.0
  0
LINE
  5
25F
330
1E
100
AcDbEntity
  8
0
100
AcDbLine
 10
0.999999999999969
 20
25.0
 30
0.0
 11
9.99999999999998
 21
26.0
 31
0.0
  0
LINE
  5
260
330
1E
100
AcDbEntity
  8
0
100
AcDbLine
 10
-0.0000000000000288
 20
24.0
 30
0.0
 11
0.5019999999999481
 21
24.0
 31
0.0
  0
LINE
  5
261
330
1E
100
AcDbEntity
  8
0
100
AcDbLine
 10
-0.0000000000000288
 20
24.0
 30
0.0
 11
0.999999999999969
 21
25.0
 31
0.0
  0
LINE
  5
262
330
1E
100
AcDbEntity
  8
0
100
AcDbLine
 10
-0.0000000000000288
 20
24.0
 30
0.0
 11
-0.0000000000000288
 21
23.0
 31
0.0
  0
LINE
  5
263
330
1E
100
AcDbEntity
  8
0
100
AcDbLine
 10
9.99999999999998
 20
14.0
 30
0.0
 11
10.46399999999999
 21
14.0
 31
0.0
  0
LINE
  5
264
330
1E
100
AcDbEntity
  8
0
100
AcDbLine
 10
9.99999999999998
 20
14.0
 30
0.0
 11
12.0
 21
12.0
 31
0.0
  0
LINE
  5
265
330
1E
100
AcDbEntity
  8
0
100
AcDbLine
 10
37.11149999999999
 20
27.0
 30
0.0
 11
39.28739999999999
 21
27.0
 31
0.0
  0
LINE
  5
266
330
1E
100
AcDbEntity
  8
0
100
AcDbLine
 10
35.4318
 20
27.0
 30
0.0
 11
37.11149999999999
 21
27.0
 31
0.0
  0
LINE
  5
267
330
1E
100
AcDbEntity
  8
0
100
AcDbLine
 10
34.4239
 20
27.0
 30
0.0
 11
35.4318
 21
27.0
 31
0.0
  0
LINE
  5
26C
330
1E
100
AcDbEntity
  8
0
100
AcDbLine
 10
39.28739999999999
 20
27.0
 30
0.0
 11
42.17229999999999
 21
27.0
 31
0.0
  0
LINE
  5
26D
330
1E
100
AcDbEntity
  8
0
100
AcDbLine
 10
41.7727
 20
24.0
 30
0.0
 11
57.741
 21
24.0
 31
0.0
  0
LINE
  5
26E
330
1E
100
AcDbEntity
  8
0
100
AcDbLine
 10
38.9298
 20
14.0
 30
0.0
 11
48.58389999999999
 21
14.0
 31
0.0
  0
LINE
  5
26F
330
1E
100
AcDbEntity
  8
0
100
AcDbLine
 10
42.17229999999999
 20
27.0
 30
0.0
 11
45.3061
 21
27.0
 31
0.0
  0
LINE
  5
285
330
1E
100
AcDbEntity
  8
0
100
AcDbLine
 10
45.3061
 20
27.0
 30
0.0
 11
49.3353
 21
27.0
 31
0.0
  0
LINE
  5
286
330
1E
100
AcDbEntity
  8
0
100
AcDbLine
 10
49.3353
 20
27.0
 30
0.0
 11
54.148
 21
27.0
 31
0.0
  0
LINE
  5
287
330
1E
100
AcDbEntity
  8
0
100
AcDbLine
 10
54.148
 20
27.0
 30
0.0
 11
62.2064
 21
27.0
 31
0.0
  0
LINE
  5
288
330
1E
100
AcDbEntity
  8
0
100
AcDbLine
 10
48.58389999999999
 20
14.0
 30
0.0
 11
63.3333
 21
14.0
 31
0.0
  0
LINE
  5
2C0
330
1E
100
AcDbEntity
  8
0
100
AcDbLine
 10
62.2064
 20
27.0
 30
0.0
 11
74.51789999999999
 21
27.0
 31
0.0
  0
LINE
  5
2C1
330
1E
100
AcDbEntity
  8
0
100
AcDbLine
 10
57.741
 20
24.0
 30
0.0
 11
79.3027
 21
24.0
 31
0.0
  0
LINE
  5
2C3
330
1E
100
AcDbEntity
  8
0
100
AcDbLine
 10
74.51789999999999
 20
27.0
 30
0.0
 11
91.14180000000001
 21
27.0
 31
0.0
  0
LINE
  5
2C4
330
1E
100
AcDbEntity
  8
0
100
AcDbLine
 10
79.3027
 20
24.0
 30
0.0
 11
103.3949999999999
 21
24.0
 31
0.0
  0
LINE
  5
2C5
330
1E
100
AcDbEntity
  8
0
100
AcDbLine
 10
63.3333
 20
14.0
 30
0.0
 11
83.24899999999999
 21
14.0
 31
0.0
  0
LINE
  5
2C6
330
1E
100
AcDbEntity
  8
0
100
AcDbLine
 10
83.24899999999999
 20
14.0
 30
0.0
 11
105.502
 21
14.0
 31
0.0
  0
LINE
  5
2DA
330
1E
100
AcDbEntity
  8
0
100
AcDbLine
 10
91.14180000000001
 20
27.0
 30
0.0
 11
109.716
 21
27.0
 31
0.0
  0
LINE
  5
2F9
330
1E
100
AcDbEntity
  8
0
100
AcDbLine
 10
103.0
 20
27.0
 30
0.0
 11
104.0079999999999
 21
27.0
 31
0.0
  0
LINE
  5
2FA
330
1E
100
AcDbEntity
  8
0
100
AcDbLine
 10
103.0
 20
27.0
 30
0.0
 11
103.0
 21
38.0
 31
0.0
  0
LINE
  5
2FB
330
1E
100
AcDbEntity
  8
0
100
AcDbLine
 10
103.0
 20
38.0
 30
0.0
 11
104.0079999999999
 21
38.0
 31
0.0
  0
LINE
  5
2FC
330
1E
100
AcDbEntity
  8
0
100
AcDbLine
 10
103.0
 20
38.0
 30
0.0
 11
103.0
 21
27.0
 31
0.0
  0
LINE
  5
2FD
330
1E
100
AcDbEntity
  8
0
100
AcDbLine
 10
104.0079999999999
 20
27.0
 30
0.0
 11
106.6959999999999
 21
27.0
 31
0.0
  0
LINE
  5
2FE
330
1E
100
AcDbEntity
  8
0
100
AcDbLine
 10
104.0079999999999
 20
38.0
 30
0.0
 11
106.6959999999999
 21
38.0
 31
0.0
  0
LINE
  5
300
330
1E
100
AcDbEntity
  8
0
100
AcDbLine
 10
103.3949999999999
 20
24.0
 30
0.0
 11
131.0
 21
24.0
 31
0.0
  0
LINE
  5
301
330
1E
100
AcDbEntity
  8
0
100
AcDbLine
 10
113.0
 20
38.0
 30
0.0
 11
113.0
 21
45.5456
 31
0.0
  0
LINE
  5
302
330
1E
100
AcDbEntity
  8
0
100
AcDbLine
 10
117.112
 20
38.0
 30
0.0
 11
123.832
 21
38.0
 31
0.0
  0
LINE
  5
303
330
1E
100
AcDbEntity
  8
0
100
AcDbLine
 10
106.7141
 20
45.5456
 30
0.0
 11
115.0759
 21
60.7355
 31
0.0
  0
LINE
  5
304
330
1E
100
AcDbEntity
  8
0
100
AcDbLine
 10
106.7141
 20
45.5456
 30
0.0
 11
108.1541
 21
45.5456
 31
0.0
  0
LINE
  5
305
330
1E
100
AcDbEntity
  8
0
100
AcDbLine
 10
108.1541
 20
45.5456
 30
0.0
 11
111.9941
 21
45.5456
 31
0.0
  0
LINE
  5
306
330
1E
100
AcDbEntity
  8
0
100
AcDbLine
 10
111.9941
 20
45.5456
 30
0.0
 11
113.0
 21
45.5456
 31
0.0
  0
LINE
  5
307
330
1E
100
AcDbEntity
  8
0
100
AcDbLine
 10
111.9941
 20
45.5456
 30
0.0
 11
118.3940999999999
 21
45.5456
 31
0.0
  0
LINE
  5
308
330
1E
100
AcDbEntity
  8
0
100
AcDbLine
 10
118.3940999999999
 20
45.5456
 30
0.0
 11
126.8741399999999
 21
45.5456
 31
0.0
  0
LINE
  5
309
330
1E
100
AcDbEntity
  8
0
100
AcDbLine
 10
115.0759
 20
60.7355
 30
0.0
 11
125.6263499999999
 21
72.2268
 31
0.0
  0
LINE
  5
30A
330
1E
100
AcDbEntity
  8
0
100
AcDbLine
 10
113.0
 20
45.5456
 30
0.0
 11
113.0
 21
38.0
 31
0.0
  0
LINE
  5
30B
330
1E
100
AcDbEntity
  8
0
100
AcDbLine
 10
111.176
 20
38.0
 30
0.0
 11
117.112
 21
38.0
 31
0.0
  0
LINE
  5
30C
330
1E
100
AcDbEntity
  8
0
100
AcDbLine
 10
106.6959999999999
 20
38.0
 30
0.0
 11
111.176
 21
38.0
 31
0.0
  0
LINE
  5
30D
330
1E
100
AcDbEntity
  8
0
100
AcDbLine
 10
109.716
 20
27.0
 30
0.0
 11
131.0
 21
27.0
 31
0.0
  0
LINE
  5
30E
330
1E
100
AcDbEntity
  8
0
100
AcDbLine
 10
105.502
 20
14.0
 30
0.0
 11
131.0
 21
14.0
 31
0.0
  0
LINE
  5
323
330
1E
100
AcDbEntity
  8
0
100
AcDbLine
 10
123.832
 20
38.0
 30
0.0
 11
131.0
 21
38.0
 31
0.0
  0
LINE
  5
32E
330
1E
100
AcDbEntity
  8
0
100
AcDbLine
 10
126.8741399999999
 20
45.5456
 30
0.0
 11
136.4741399999999
 21
45.5456
 31
0.0
  0
LINE
  5
32F
330
1E
100
AcDbEntity
  8
0
100
AcDbLine
 10
125.6263499999999
 20
72.2268
 30
0.0
 11
141.7766
 21
79.2437
 31
0.0
  0
LINE
  5
3BE
330
1E
100
AcDbEntity
  8
0
100
AcDbLine
 10
131.0
 20
24.0
 30
0.0
 11
158.605
 21
24.0
 31
0.0
  0
LINE
  5
3BF
330
1E
100
AcDbEntity
  8
0
100
AcDbLine
 10
131.0
 20
38.0
 30
0.0
 11
138.168
 21
38.0
 31
0.0
  0
LINE
  5
3C1
330
1E
100
AcDbEntity
  8
0
100
AcDbLine
 10
131.0
 20
27.0
 30
0.0
 11
152.2839999999999
 21
27.0
 31
0.0
  0
LINE
  5
3E1
330
1E
100
AcDbEntity
  8
0
100
AcDbLine
 10
136.4741399999999
 20
45.5456
 30
0.0
 11
146.7140999999999
 21
45.5456
 31
0.0
  0
LINE
  5
3E2
330
1E
100
AcDbEntity
  8
0
100
AcDbLine
 10
138.168
 20
38.0
 30
0.0
 11
144.888
 21
38.0
 31
0.0
  0
LINE
  5
5E5
330
1E
100
AcDbEntity
  8
0
100
AcDbLine
 10
141.7766
 20
79.2437
 30
0.0
 11
164.2233
 21
82.7619000000001
 31
0.0
  0
LINE
  5
5E7
330
1E
100
AcDbEntity
  8
0
100
AcDbLine
 10
149.0
 20
38.0
 30
0.0
 11
149.0
 21
45.481
 31
0.0
  0
LINE
  5
5E8
330
1E
100
AcDbEntity
  8
0
100
AcDbLine
 10
144.888
 20
38.0
 30
0.0
 11
150.8239999999999
 21
38.0
 31
0.0
  0
LINE
  5
5EA
330
1E
100
AcDbEntity
  8
0
100
AcDbLine
 10
148.0791999999999
 20
45.481
 30
0.0
 11
149.3591999999999
 21
45.481
 31
0.0
  0
LINE
  5
5EC
330
1E
100
AcDbEntity
  8
0
100
AcDbLine
 10
146.7140999999999
 20
45.5456
 30
0.0
 11
148.0791999999999
 21
45.481
 31
0.0
  0
LINE
  5
5ED
330
1E
100
AcDbEntity
  8
0
100
AcDbLine
 10
151.6192
 20
45.481
 30
0.0
 11
152.4192
 21
45.481
 31
0.0
  0
LINE
  5
5EE
330
1E
100
AcDbEntity
  8
0
100
AcDbLine
 10
150.5592
 20
45.481
 30
0.0
 11
151.6192
 21
45.481
 31
0.0
  0
LINE
  5
5F0
330
1E
100
AcDbEntity
  8
0
100
AcDbLine
 10
149.3591999999999
 20
45.481
 30
0.0
 11
150.5592
 21
45.481
 31
0.0
  0
LINE
  5
5F1
330
1E
100
AcDbEntity
  8
0
100
AcDbLine
 10
149.0
 20
45.481
 30
0.0
 11
149.0
 21
38.0
 31
0.0
  0
LINE
  5
5F2
330
1E
100
AcDbEntity
  8
0
100
AcDbLine
 10
149.0
 20
45.481
 30
0.0
 11
149.3591999999999
 21
45.481
 31
0.0
  0
LINE
  5
5F3
330
1E
100
AcDbEntity
  8
0
100
AcDbLine
 10
150.8239999999999
 20
38.0
 30
0.0
 11
155.304
 21
38.0
 31
0.0
  0
LINE
  5
5F5
330
1E
100
AcDbEntity
  8
0
100
AcDbLine
 10
158.605
 20
24.0
 30
0.0
 11
220.2273
 21
24.0
 31
0.0
  0
LINE
  5
5F6
330
1E
100
AcDbEntity
  8
0
100
AcDbLine
 10
153.0791999999999
 20
45.481
 30
0.0
 11
153.1785999999999
 21
47.4309
 31
0.0
  0
LINE
  5
5F7
330
1E
100
AcDbEntity
  8
0
100
AcDbLine
 10
153.1785999999999
 20
47.4309
 30
0.0
 11
155.3751
 21
53.0222
 31
0.0
  0
LINE
  5
5F9
330
1E
100
AcDbEntity
  8
0
100
AcDbLine
 10
155.3751
 20
53.0222
 30
0.0
 11
159.8592999999999
 21
56.8294
 31
0.0
  0
LINE
  5
5FA
330
1E
100
AcDbEntity
  8
0
100
AcDbLine
 10
152.8992
 20
45.481
 30
0.0
 11
153.0791999999999
 21
45.481
 31
0.0
  0
LINE
  5
5FB
330
1E
100
AcDbEntity
  8
0
100
AcDbLine
 10
152.4192
 20
45.481
 30
0.0
 11
152.8992
 21
45.481
 31
0.0
  0
LINE
  5
5FC
330
1E
100
AcDbEntity
  8
0
100
AcDbLine
 10
155.304
 20
38.0
 30
0.0
 11
157.992
 21
38.0
 31
0.0
  0
LINE
  5
5FD
330
1E
100
AcDbEntity
  8
0
100
AcDbLine
 10
159.0
 20
38.0
 30
0.0
 11
159.0
 21
27.0
 31
0.0
  0
LINE
  5
5FE
330
1E
100
AcDbEntity
  8
0
100
AcDbLine
 10
159.0
 20
27.0
 30
0.0
 11
159.0
 21
38.0
 31
0.0
  0
LINE
  5
5FF
330
1E
100
AcDbEntity
  8
0
100
AcDbLine
 10
157.992
 20
38.0
 30
0.0
 11
159.0
 21
38.0
 31
0.0
  0
LINE
  5
601
330
1E
100
AcDbEntity
  8
0
100
AcDbLine
 10
152.2839999999999
 20
27.0
 30
0.0
 11
227.5761
 21
27.0
 31
0.0
  0
LINE
  5
602
330
1E
100
AcDbEntity
  8
0
100
AcDbLine
 10
152.2839999999999
 20
27.0
 30
0.0
 11
155.304
 21
27.0
 31
0.0
  0
LINE
  5
608
330
1E
100
AcDbEntity
  8
0
100
AcDbLine
 10
159.8592999999999
 20
56.8294
 30
0.0
 11
167.2902
 21
59.8597
 31
0.0
  0
LINE
  5
609
330
1E
100
AcDbEntity
  8
0
100
AcDbLine
 10
167.2902
 20
59.8597
 30
0.0
 11
181.0
 21
62.0
 31
0.0
  0
LINE
  5
60A
330
1E
100
AcDbEntity
  8
0
100
AcDbLine
 10
164.2233
 20
82.7619000000001
 30
0.0
 11
181.0
 21
84.0
 31
0.0
  0
LINE
  5
611
330
1E
100
AcDbEntity
  8
0
100
AcDbLine
 10
181.0
 20
62.0
 30
0.0
 11
506.0
 21
62.0
 31
0.0
  0
LINE
  5
614
330
1E
100
AcDbEntity
  8
0
100
AcDbLine
 10
181.0
 20
84.0
 30
0.0
 11
506.0
 21
84.0
 31
0.0
  0
LINE
  5
615
330
1E
100
AcDbEntity
  8
0
100
AcDbLine
 10
181.0
 20
62.0
 30
0.0
 11
506.0
 21
62.0
 31
0.0
  0
LINE
  5
616
330
1E
100
AcDbEntity
  8
0
100
AcDbLine
 10
181.0
 20
84.0
 30
0.0
 11
506.0
 21
84.0
 31
0.0
  0
LINE
  5
6BA
330
1E
100
AcDbEntity
  8
0
100
AcDbLine
 10
507.0
 20
27.0
 30
0.0
 11
518.0
 21
27.0
 31
0.0
  0
LINE
  5
6BB
330
1E
100
AcDbEntity
  8
0
100
AcDbLine
 10
506.0
 20
27.64219999999999
 30
0.0
 11
506.3
 21
27.1781
 31
0.0
  0
LINE
  5
6BD
330
1E
100
AcDbEntity
  8
0
100
AcDbLine
 10
506.3
 20
27.1781
 30
0.0
 11
507.0
 21
27.0
 31
0.0
  0
LINE
  5
6BE
330
1E
100
AcDbEntity
  8
0
100
AcDbLine
 10
506.3
 20
27.1781
 30
0.0
 11
506.0
 21
27.64219999999999
 31
0.0
  0
LINE
  5
6BF
330
1E
100
AcDbEntity
  8
0
100
AcDbLine
 10
506.0
 20
27.8414
 30
0.0
 11
506.0
 21
27.64219999999999
 31
0.0
  0
LINE
  5
6C0
330
1E
100
AcDbEntity
  8
0
100
AcDbLine
 10
506.0
 20
27.8414
 30
0.0
 11
506.0
 21
28.2233
 31
0.0
  0
LINE
  5
6C1
330
1E
100
AcDbEntity
  8
0
100
AcDbLine
 10
506.0
 20
27.64219999999999
 30
0.0
 11
506.0
 21
27.8414
 31
0.0
  0
LINE
  5
6C6
330
1E
100
AcDbEntity
  8
0
100
AcDbLine
 10
506.0
 20
28.7037
 30
0.0
 11
506.0
 21
28.2233
 31
0.0
  0
LINE
  5
6C7
330
1E
100
AcDbEntity
  8
0
100
AcDbLine
 10
506.0
 20
28.7037
 30
0.0
 11
506.0
 21
29.2167
 31
0.0
  0
LINE
  5
6C8
330
1E
100
AcDbEntity
  8
0
100
AcDbLine
 10
506.0
 20
28.2233
 30
0.0
 11
506.0
 21
27.8414
 31
0.0
  0
LINE
  5
6C9
330
1E
100
AcDbEntity
  8
0
100
AcDbLine
 10
506.0
 20
28.2233
 30
0.0
 11
506.0
 21
28.7037
 31
0.0
  0
LINE
  5
6CB
330
1E
100
AcDbEntity
  8
0
100
AcDbLine
 10
506.0
 20
29.70919999999999
 30
0.0
 11
506.0
 21
29.2167
 31
0.0
  0
LINE
  5
6CC
330
1E
100
AcDbEntity
  8
0
100
AcDbLine
 10
506.0
 20
29.70919999999999
 30
0.0
 11
506.0
 21
30.0503
 31
0.0
  0
LINE
  5
6CD
330
1E
100
AcDbEntity
  8
0
100
AcDbLine
 10
506.0
 20
29.2167
 30
0.0
 11
506.0
 21
28.7037
 31
0.0
  0
LINE
  5
6CE
330
1E
100
AcDbEntity
  8
0
100
AcDbLine
 10
506.0
 20
29.2167
 30
0.0
 11
506.0
 21
29.70919999999999
 31
0.0
  0
LINE
  5
6D1
330
1E
100
AcDbEntity
  8
0
100
AcDbLine
 10
506.0
 20
30.43509999999999
 30
0.0
 11
506.0
 21
30.0503
 31
0.0
  0
LINE
  5
6D2
330
1E
100
AcDbEntity
  8
0
100
AcDbLine
 10
506.0
 20
30.43509999999999
 30
0.0
 11
506.0
 21
30.9641
 31
0.0
  0
LINE
  5
6D3
330
1E
100
AcDbEntity
  8
0
100
AcDbLine
 10
506.0
 20
30.0503
 30
0.0
 11
506.0
 21
29.70919999999999
 31
0.0
  0
LINE
  5
6D4
330
1E
100
AcDbEntity
  8
0
100
AcDbLine
 10
506.0
 20
30.0503
 30
0.0
 11
506.0
 21
30.43509999999999
 31
0.0
  0
LINE
  5
6D5
330
1E
100
AcDbEntity
  8
0
100
AcDbLine
 10
506.0
 20
30.9641
 30
0.0
 11
506.0
 21
30.43509999999999
 31
0.0
  0
LINE
  5
6D6
330
1E
100
AcDbEntity
  8
0
100
AcDbLine
 10
506.0
 20
30.9641
 30
0.0
 11
506.0
 21
31.5412
 31
0.0
  0
LINE
  5
6DB
330
1E
100
AcDbEntity
  8
0
100
AcDbLine
 10
506.0
 20
32.2385
 30
0.0
 11
506.0
 21
31.5412
 31
0.0
  0
LINE
  5
6DC
330
1E
100
AcDbEntity
  8
0
100
AcDbLine
 10
506.0
 20
32.2385
 30
0.0
 11
506.0
 21
33.1135
 31
0.0
  0
LINE
  5
6DD
330
1E
100
AcDbEntity
  8
0
100
AcDbLine
 10
506.0
 20
31.5412
 30
0.0
 11
506.0
 21
30.9641
 31
0.0
  0
LINE
  5
6DE
330
1E
100
AcDbEntity
  8
0
100
AcDbLine
 10
506.0
 20
31.5412
 30
0.0
 11
506.0
 21
32.2385
 31
0.0
  0
LINE
  5
6DF
330
1E
100
AcDbEntity
  8
0
100
AcDbLine
 10
506.0
 20
34.05469999999999
 30
0.0
 11
506.0
 21
35.1602
 31
0.0
  0
LINE
  5
6E0
330
1E
100
AcDbEntity
  8
0
100
AcDbLine
 10
506.0
 20
34.05469999999999
 30
0.0
 11
506.0
 21
33.1135
 31
0.0
  0
LINE
  5
6E1
330
1E
100
AcDbEntity
  8
0
100
AcDbLine
 10
506.0
 20
35.1602
 30
0.0
 11
506.0
 21
36.14549999999999
 31
0.0
  0
LINE
  5
6E2
330
1E
100
AcDbEntity
  8
0
100
AcDbLine
 10
506.0
 20
35.1602
 30
0.0
 11
506.0
 21
34.05469999999999
 31
0.0
  0
LINE
  5
6E3
330
1E
100
AcDbEntity
  8
0
100
AcDbLine
 10
506.0
 20
36.14549999999999
 30
0.0
 11
506.0
 21
37.56349999999999
 31
0.0
  0
LINE
  5
6E4
330
1E
100
AcDbEntity
  8
0
100
AcDbLine
 10
506.0
 20
36.14549999999999
 30
0.0
 11
506.0
 21
35.1602
 31
0.0
  0
LINE
  5
6E5
330
1E
100
AcDbEntity
  8
0
100
AcDbLine
 10
506.0
 20
37.56349999999999
 30
0.0
 11
506.0
 21
39.1737
 31
0.0
  0
LINE
  5
6E6
330
1E
100
AcDbEntity
  8
0
100
AcDbLine
 10
506.0
 20
37.56349999999999
 30
0.0
 11
506.0
 21
36.14549999999999
 31
0.0
  0
LINE
  5
6E7
330
1E
100
AcDbEntity
  8
0
100
AcDbLine
 10
506.0
 20
39.1737
 30
0.0
 11
506.0
 21
41.18979999999999
 31
0.0
  0
LINE
  5
6E8
330
1E
100
AcDbEntity
  8
0
100
AcDbLine
 10
506.0
 20
39.1737
 30
0.0
 11
506.0
 21
37.56349999999999
 31
0.0
  0
LINE
  5
6E9
330
1E
100
AcDbEntity
  8
0
100
AcDbLine
 10
506.0
 20
41.18979999999999
 30
0.0
 11
506.0
 21
44.82619999999999
 31
0.0
  0
LINE
  5
6EA
330
1E
100
AcDbEntity
  8
0
100
AcDbLine
 10
506.0
 20
41.18979999999999
 30
0.0
 11
506.0
 21
39.1737
 31
0.0
  0
LINE
  5
6EB
330
1E
100
AcDbEntity
  8
0
100
AcDbLine
 10
506.0
 20
44.82619999999999
 30
0.0
 11
506.0
 21
49.3636
 31
0.0
  0
LINE
  5
6EC
330
1E
100
AcDbEntity
  8
0
100
AcDbLine
 10
506.0
 20
44.82619999999999
 30
0.0
 11
506.0
 21
41.18979999999999
 31
0.0
  0
LINE
  5
6ED
330
1E
100
AcDbEntity
  8
0
100
AcDbLine
 10
506.0
 20
49.3636
 30
0.0
 11
506.0
 21
55.9923
 31
0.0
  0
LINE
  5
6EE
330
1E
100
AcDbEntity
  8
0
100
AcDbLine
 10
506.0
 20
49.3636
 30
0.0
 11
506.0
 21
44.82619999999999
 31
0.0
  0
LINE
  5
6EF
330
1E
100
AcDbEntity
  8
0
100
AcDbLine
 10
506.0
 20
62.17999999999999
 30
0.0
 11
506.0
 21
62.66
 31
0.0
  0
LINE
  5
6F0
330
1E
100
AcDbEntity
  8
0
100
AcDbLine
 10
506.0
 20
62.66
 30
0.0
 11
506.0
 21
63.46
 31
0.0
  0
LINE
  5
6F1
330
1E
100
AcDbEntity
  8
0
100
AcDbLine
 10
506.0
 20
63.46
 30
0.0
 11
506.0
 21
64.51999999999999
 31
0.0
  0
LINE
  5
6F2
330
1E
100
AcDbEntity
  8
0
100
AcDbLine
 10
506.0
 20
64.51999999999999
 30
0.0
 11
506.0
 21
65.72
 31
0.0
  0
LINE
  5
6F3
330
1E
100
AcDbEntity
  8
0
100
AcDbLine
 10
506.0
 20
65.72
 30
0.0
 11
506.0
 21
67.0
 31
0.0
  0
LINE
  5
6F4
330
1E
100
AcDbEntity
  8
0
100
AcDbLine
 10
506.0
 20
69.0
 30
0.0
 11
506.0
 21
72.84
 31
0.0
  0
LINE
  5
6F5
330
1E
100
AcDbEntity
  8
0
100
AcDbLine
 10
506.0
 20
67.0
 30
0.0
 11
506.0
 21
69.0
 31
0.0
  0
LINE
  5
6F6
330
1E
100
AcDbEntity
  8
0
100
AcDbLine
 10
506.0
 20
62.0
 30
0.0
 11
506.0
 21
55.9923
 31
0.0
  0
LINE
  5
6F7
330
1E
100
AcDbEntity
  8
0
100
AcDbLine
 10
506.0
 20
62.0
 30
0.0
 11
506.0
 21
62.17999999999999
 31
0.0
  0
LINE
  5
6F8
330
1E
100
AcDbEntity
  8
0
100
AcDbLine
 10
506.0
 20
55.9923
 30
0.0
 11
506.0
 21
63.3769
 31
0.0
  0
LINE
  5
6F9
330
1E
100
AcDbEntity
  8
0
100
AcDbLine
 10
506.0
 20
55.9923
 30
0.0
 11
506.0
 21
49.3636
 31
0.0
  0
LINE
  5
6FA
330
1E
100
AcDbEntity
  8
0
100
AcDbLine
 10
506.0
 20
55.9923
 30
0.0
 11
506.0
 21
62.0
 31
0.0
  0
LINE
  5
6FB
330
1E
100
AcDbEntity
  8
0
100
AcDbLine
 10
506.0
 20
63.3769
 30
0.0
 11
506.0
 21
69.1434
 31
0.0
  0
LINE
  5
6FC
330
1E
100
AcDbEntity
  8
0
100
AcDbLine
 10
506.0
 20
63.3769
 30
0.0
 11
506.0
 21
55.9923
 31
0.0
  0
LINE
  5
6FD
330
1E
100
AcDbEntity
  8
0
100
AcDbLine
 10
506.0
 20
76.44
 30
0.0
 11
506.0
 21
79.62
 31
0.0
  0
LINE
  5
6FE
330
1E
100
AcDbEntity
  8
0
100
AcDbLine
 10
506.0
 20
72.84
 30
0.0
 11
506.0
 21
76.44
 31
0.0
  0
LINE
  5
6FF
330
1E
100
AcDbEntity
  8
0
100
AcDbLine
 10
506.0
 20
83.46
 30
0.0
 11
506.0
 21
84.0
 31
0.0
  0
LINE
  5
700
330
1E
100
AcDbEntity
  8
0
100
AcDbLine
 10
506.0
 20
82.01999999999999
 30
0.0
 11
506.0
 21
83.46
 31
0.0
  0
LINE
  5
701
330
1E
100
AcDbEntity
  8
0
100
AcDbLine
 10
506.0
 20
79.62
 30
0.0
 11
506.0
 21
82.01999999999999
 31
0.0
  0
LINE
  5
702
330
1E
100
AcDbEntity
  8
0
100
AcDbLine
 10
506.0
 20
84.0
 30
0.0
 11
506.0
 21
90.00770000000001
 31
0.0
  0
LINE
  5
703
330
1E
100
AcDbEntity
  8
0
100
AcDbLine
 10
506.0
 20
113.761
 30
0.0
 11
506.0
 21
114.4589999999999
 31
0.0
  0
LINE
  5
704
330
1E
100
AcDbEntity
  8
0
100
AcDbLine
 10
506.0
 20
113.761
 30
0.0
 11
506.0
 21
112.886
 31
0.0
  0
LINE
  5
705
330
1E
100
AcDbEntity
  8
0
100
AcDbLine
 10
506.0
 20
114.4589999999999
 30
0.0
 11
506.0
 21
115.036
 31
0.0
  0
LINE
  5
706
330
1E
100
AcDbEntity
  8
0
100
AcDbLine
 10
506.0
 20
114.4589999999999
 30
0.0
 11
506.0
 21
113.761
 31
0.0
  0
LINE
  5
707
330
1E
100
AcDbEntity
  8
0
100
AcDbLine
 10
506.0
 20
115.036
 30
0.0
 11
506.0
 21
115.565
 31
0.0
  0
LINE
  5
708
330
1E
100
AcDbEntity
  8
0
100
AcDbLine
 10
506.0
 20
115.036
 30
0.0
 11
506.0
 21
114.4589999999999
 31
0.0
  0
LINE
  5
709
330
1E
100
AcDbEntity
  8
0
100
AcDbLine
 10
506.0
 20
115.565
 30
0.0
 11
506.0
 21
115.9499999999999
 31
0.0
  0
LINE
  5
70A
330
1E
100
AcDbEntity
  8
0
100
AcDbLine
 10
506.0
 20
115.565
 30
0.0
 11
506.0
 21
115.036
 31
0.0
  0
LINE
  5
70B
330
1E
100
AcDbEntity
  8
0
100
AcDbLine
 10
506.0
 20
115.9499999999999
 30
0.0
 11
506.0
 21
116.2909999999999
 31
0.0
  0
LINE
  5
70C
330
1E
100
AcDbEntity
  8
0
100
AcDbLine
 10
506.0
 20
115.9499999999999
 30
0.0
 11
506.0
 21
115.565
 31
0.0
  0
LINE
  5
70D
330
1E
100
AcDbEntity
  8
0
100
AcDbLine
 10
506.0
 20
116.2909999999999
 30
0.0
 11
506.0
 21
116.7829999999999
 31
0.0
  0
LINE
  5
70E
330
1E
100
AcDbEntity
  8
0
100
AcDbLine
 10
506.0
 20
116.2909999999999
 30
0.0
 11
506.0
 21
115.9499999999999
 31
0.0
  0
LINE
  5
70F
330
1E
100
AcDbEntity
  8
0
100
AcDbLine
 10
506.0
 20
116.7829999999999
 30
0.0
 11
506.0
 21
117.296
 31
0.0
  0
LINE
  5
710
330
1E
100
AcDbEntity
  8
0
100
AcDbLine
 10
506.0
 20
116.7829999999999
 30
0.0
 11
506.0
 21
116.2909999999999
 31
0.0
  0
LINE
  5
711
330
1E
100
AcDbEntity
  8
0
100
AcDbLine
 10
506.0
 20
117.296
 30
0.0
 11
506.0
 21
117.7769999999999
 31
0.0
  0
LINE
  5
712
330
1E
100
AcDbEntity
  8
0
100
AcDbLine
 10
506.0
 20
117.296
 30
0.0
 11
506.0
 21
116.7829999999999
 31
0.0
  0
LINE
  5
713
330
1E
100
AcDbEntity
  8
0
100
AcDbLine
 10
506.0
 20
117.7769999999999
 30
0.0
 11
506.0
 21
118.1589999999999
 31
0.0
  0
LINE
  5
714
330
1E
100
AcDbEntity
  8
0
100
AcDbLine
 10
506.0
 20
117.7769999999999
 30
0.0
 11
506.0
 21
117.296
 31
0.0
  0
LINE
  5
715
330
1E
100
AcDbEntity
  8
0
100
AcDbLine
 10
506.0
 20
118.1589999999999
 30
0.0
 11
506.0
 21
118.406
 31
0.0
  0
LINE
  5
716
330
1E
100
AcDbEntity
  8
0
100
AcDbLine
 10
506.0
 20
118.1589999999999
 30
0.0
 11
506.0
 21
117.7769999999999
 31
0.0
  0
LINE
  5
717
330
1E
100
AcDbEntity
  8
0
100
AcDbLine
 10
506.0
 20
118.406
 30
0.0
 11
506.3
 21
118.822
 31
0.0
  0
LINE
  5
718
330
1E
100
AcDbEntity
  8
0
100
AcDbLine
 10
506.0
 20
118.406
 30
0.0
 11
506.0
 21
118.1589999999999
 31
0.0
  0
LINE
  5
719
330
1E
100
AcDbEntity
  8
0
100
AcDbLine
 10
506.0
 20
112.886
 30
0.0
 11
506.0
 21
111.945
 31
0.0
  0
LINE
  5
71A
330
1E
100
AcDbEntity
  8
0
100
AcDbLine
 10
506.0
 20
112.886
 30
0.0
 11
506.0
 21
113.761
 31
0.0
  0
LINE
  5
71B
330
1E
100
AcDbEntity
  8
0
100
AcDbLine
 10
506.0
 20
111.945
 30
0.0
 11
506.0
 21
110.84
 31
0.0
  0
LINE
  5
71C
330
1E
100
AcDbEntity
  8
0
100
AcDbLine
 10
506.0
 20
111.945
 30
0.0
 11
506.0
 21
112.886
 31
0.0
  0
LINE
  5
71D
330
1E
100
AcDbEntity
  8
0
100
AcDbLine
 10
506.0
 20
110.84
 30
0.0
 11
506.0
 21
109.854
 31
0.0
  0
LINE
  5
71E
330
1E
100
AcDbEntity
  8
0
100
AcDbLine
 10
506.0
 20
110.84
 30
0.0
 11
506.0
 21
111.945
 31
0.0
  0
LINE
  5
71F
330
1E
100
AcDbEntity
  8
0
100
AcDbLine
 10
506.0
 20
109.854
 30
0.0
 11
506.0
 21
108.437
 31
0.0
  0
LINE
  5
720
330
1E
100
AcDbEntity
  8
0
100
AcDbLine
 10
506.0
 20
109.854
 30
0.0
 11
506.0
 21
110.84
 31
0.0
  0
LINE
  5
721
330
1E
100
AcDbEntity
  8
0
100
AcDbLine
 10
506.0
 20
108.437
 30
0.0
 11
506.0
 21
106.826
 31
0.0
  0
LINE
  5
722
330
1E
100
AcDbEntity
  8
0
100
AcDbLine
 10
506.0
 20
108.437
 30
0.0
 11
506.0
 21
109.854
 31
0.0
  0
LINE
  5
723
330
1E
100
AcDbEntity
  8
0
100
AcDbLine
 10
506.0
 20
106.826
 30
0.0
 11
506.0
 21
104.81
 31
0.0
  0
LINE
  5
724
330
1E
100
AcDbEntity
  8
0
100
AcDbLine
 10
506.0
 20
106.826
 30
0.0
 11
506.0
 21
108.437
 31
0.0
  0
LINE
  5
725
330
1E
100
AcDbEntity
  8
0
100
AcDbLine
 10
506.0
 20
104.81
 30
0.0
 11
506.0
 21
101.1739999999999
 31
0.0
  0
LINE
  5
726
330
1E
100
AcDbEntity
  8
0
100
AcDbLine
 10
506.0
 20
104.81
 30
0.0
 11
506.0
 21
106.826
 31
0.0
  0
LINE
  5
727
330
1E
100
AcDbEntity
  8
0
100
AcDbLine
 10
506.0
 20
101.1739999999999
 30
0.0
 11
506.0
 21
96.6364
 31
0.0
  0
LINE
  5
728
330
1E
100
AcDbEntity
  8
0
100
AcDbLine
 10
506.0
 20
101.1739999999999
 30
0.0
 11
506.0
 21
104.81
 31
0.0
  0
LINE
  5
729
330
1E
100
AcDbEntity
  8
0
100
AcDbLine
 10
506.0
 20
96.6364
 30
0.0
 11
506.0
 21
90.00770000000001
 31
0.0
  0
LINE
  5
72A
330
1E
100
AcDbEntity
  8
0
100
AcDbLine
 10
506.0
 20
96.6364
 30
0.0
 11
506.0
 21
101.1739999999999
 31
0.0
  0
LINE
  5
72B
330
1E
100
AcDbEntity
  8
0
100
AcDbLine
 10
506.0
 20
90.00770000000001
 30
0.0
 11
506.0
 21
82.62309999999999
 31
0.0
  0
LINE
  5
72C
330
1E
100
AcDbEntity
  8
0
100
AcDbLine
 10
506.0
 20
90.00770000000001
 30
0.0
 11
506.0
 21
96.6364
 31
0.0
  0
LINE
  5
72D
330
1E
100
AcDbEntity
  8
0
100
AcDbLine
 10
506.0
 20
90.00770000000001
 30
0.0
 11
506.0
 21
84.0
 31
0.0
  0
LINE
  5
72E
330
1E
100
AcDbEntity
  8
0
100
AcDbLine
 10
506.0
 20
82.62309999999999
 30
0.0
 11
506.0
 21
76.8566
 31
0.0
  0
LINE
  5
72F
330
1E
100
AcDbEntity
  8
0
100
AcDbLine
 10
506.0
 20
82.62309999999999
 30
0.0
 11
506.0
 21
90.00770000000001
 31
0.0
  0
LINE
  5
730
330
1E
100
AcDbEntity
  8
0
100
AcDbLine
 10
506.0
 20
76.8566
 30
0.0
 11
506.0
 21
73.0
 31
0.0
  0
LINE
  5
731
330
1E
100
AcDbEntity
  8
0
100
AcDbLine
 10
506.0
 20
76.8566
 30
0.0
 11
506.0
 21
82.62309999999999
 31
0.0
  0
LINE
  5
732
330
1E
100
AcDbEntity
  8
0
100
AcDbLine
 10
506.0
 20
73.0
 30
0.0
 11
506.0
 21
69.1434
 31
0.0
  0
LINE
  5
733
330
1E
100
AcDbEntity
  8
0
100
AcDbLine
 10
506.0
 20
73.0
 30
0.0
 11
506.0
 21
76.8566
 31
0.0
  0
LINE
  5
734
330
1E
100
AcDbEntity
  8
0
100
AcDbLine
 10
506.0
 20
69.1434
 30
0.0
 11
506.0
 21
73.0
 31
0.0
  0
LINE
  5
735
330
1E
100
AcDbEntity
  8
0
100
AcDbLine
 10
506.0
 20
69.1434
 30
0.0
 11
506.0
 21
63.3769
 31
0.0
  0
LINE
  5
752
330
1E
100
AcDbEntity
  8
0
100
AcDbLine
 10
506.3
 20
118.822
 30
0.0
 11
507.0
 21
119.0
 31
0.0
  0
LINE
  5
76C
330
1E
100
AcDbEntity
  8
0
100
AcDbLine
 10
506.0
 20
33.1135
 30
0.0
 11
506.0
 21
32.2385
 31
0.0
  0
LINE
  5
76D
330
1E
100
AcDbEntity
  8
0
100
AcDbLine
 10
506.0
 20
33.1135
 30
0.0
 11
506.0
 21
34.05469999999999
 31
0.0
  0
LINE
  5
770
330
1E
100
AcDbEntity
  8
0
100
AcDbLine
 10
518.0
 20
33.61569999999999
 30
0.0
 11
518.0
 21
32.6684
 31
0.0
  0
LINE
  5
771
330
1E
100
AcDbEntity
  8
0
100
AcDbLine
 10
518.0
 20
33.61569999999999
 30
0.0
 11
518.0
 21
34.709
 31
0.0
  0
LINE
  5
772
330
1E
100
AcDbEntity
  8
0
100
AcDbLine
 10
518.0
 20
34.709
 30
0.0
 11
518.0
 21
33.61569999999999
 31
0.0
  0
LINE
  5
773
330
1E
100
AcDbEntity
  8
0
100
AcDbLine
 10
518.0
 20
34.709
 30
0.0
 11
518.0
 21
35.7327
 31
0.0
  0
LINE
  5
774
330
1E
100
AcDbEntity
  8
0
100
AcDbLine
 10
518.0
 20
35.7327
 30
0.0
 11
518.0
 21
34.709
 31
0.0
  0
LINE
  5
775
330
1E
100
AcDbEntity
  8
0
100
AcDbLine
 10
518.0
 20
35.7327
 30
0.0
 11
518.0
 21
37.164
 31
0.0
  0
LINE
  5
776
330
1E
100
AcDbEntity
  8
0
100
AcDbLine
 10
518.0
 20
37.164
 30
0.0
 11
518.0
 21
35.7327
 31
0.0
  0
LINE
  5
777
330
1E
100
AcDbEntity
  8
0
100
AcDbLine
 10
518.0
 20
37.164
 30
0.0
 11
518.0
 21
38.82379999999999
 31
0.0
  0
LINE
  5
778
330
1E
100
AcDbEntity
  8
0
100
AcDbLine
 10
518.0
 20
38.82379999999999
 30
0.0
 11
518.0
 21
37.164
 31
0.0
  0
LINE
  5
779
330
1E
100
AcDbEntity
  8
0
100
AcDbLine
 10
518.0
 20
38.82379999999999
 30
0.0
 11
518.0
 21
40.83979999999999
 31
0.0
  0
LINE
  5
77A
330
1E
100
AcDbEntity
  8
0
100
AcDbLine
 10
518.0
 20
40.83979999999999
 30
0.0
 11
518.0
 21
38.82379999999999
 31
0.0
  0
LINE
  5
77B
330
1E
100
AcDbEntity
  8
0
100
AcDbLine
 10
518.0
 20
40.83979999999999
 30
0.0
 11
518.0
 21
44.5671
 31
0.0
  0
LINE
  5
77C
330
1E
100
AcDbEntity
  8
0
100
AcDbLine
 10
518.0
 20
44.5671
 30
0.0
 11
518.0
 21
40.83979999999999
 31
0.0
  0
LINE
  5
77D
330
1E
100
AcDbEntity
  8
0
100
AcDbLine
 10
518.0
 20
44.5671
 30
0.0
 11
518.0
 21
49.1233
 31
0.0
  0
LINE
  5
77E
330
1E
100
AcDbEntity
  8
0
100
AcDbLine
 10
518.0
 20
49.1233
 30
0.0
 11
518.0
 21
44.5671
 31
0.0
  0
LINE
  5
77F
330
1E
100
AcDbEntity
  8
0
100
AcDbLine
 10
518.0
 20
49.1233
 30
0.0
 11
518.0
 21
55.7268
 31
0.0
  0
LINE
  5
780
330
1E
100
AcDbEntity
  8
0
100
AcDbLine
 10
518.0
 20
55.7268
 30
0.0
 11
518.0
 21
49.1233
 31
0.0
  0
LINE
  5
781
330
1E
100
AcDbEntity
  8
0
100
AcDbLine
 10
518.0
 20
55.7268
 30
0.0
 11
518.0
 21
63.2607
 31
0.0
  0
LINE
  5
782
330
1E
100
AcDbEntity
  8
0
100
AcDbLine
 10
518.0
 20
63.2607
 30
0.0
 11
518.0
 21
55.7268
 31
0.0
  0
LINE
  5
783
330
1E
100
AcDbEntity
  8
0
100
AcDbLine
 10
518.0
 20
63.2607
 30
0.0
 11
518.0
 21
69.077
 31
0.0
  0
LINE
  5
784
330
1E
100
AcDbEntity
  8
0
100
AcDbLine
 10
518.0
 20
114.169
 30
0.0
 11
518.0
 21
113.332
 31
0.0
  0
LINE
  5
785
330
1E
100
AcDbEntity
  8
0
100
AcDbLine
 10
518.0
 20
114.169
 30
0.0
 11
518.0
 21
114.8949999999999
 31
0.0
  0
LINE
  5
786
330
1E
100
AcDbEntity
  8
0
100
AcDbLine
 10
518.0
 20
114.8949999999999
 30
0.0
 11
518.0
 21
114.169
 31
0.0
  0
LINE
  5
787
330
1E
100
AcDbEntity
  8
0
100
AcDbLine
 10
518.0
 20
114.8949999999999
 30
0.0
 11
518.0
 21
115.481
 31
0.0
  0
LINE
  5
788
330
1E
100
AcDbEntity
  8
0
100
AcDbLine
 10
518.0
 20
115.481
 30
0.0
 11
518.0
 21
114.8949999999999
 31
0.0
  0
LINE
  5
789
330
1E
100
AcDbEntity
  8
0
100
AcDbLine
 10
518.0
 20
115.481
 30
0.0
 11
518.0
 21
116.0579999999999
 31
0.0
  0
LINE
  5
78A
330
1E
100
AcDbEntity
  8
0
100
AcDbLine
 10
518.0
 20
116.0579999999999
 30
0.0
 11
518.0
 21
115.481
 31
0.0
  0
LINE
  5
78B
330
1E
100
AcDbEntity
  8
0
100
AcDbLine
 10
518.0
 20
116.0579999999999
 30
0.0
 11
518.0
 21
116.466
 31
0.0
  0
LINE
  5
78C
330
1E
100
AcDbEntity
  8
0
100
AcDbLine
 10
518.0
 20
116.466
 30
0.0
 11
518.0
 21
116.0579999999999
 31
0.0
  0
LINE
  5
78D
330
1E
100
AcDbEntity
  8
0
100
AcDbLine
 10
518.0
 20
116.466
 30
0.0
 11
518.0
 21
116.8379999999999
 31
0.0
  0
LINE
  5
78E
330
1E
100
AcDbEntity
  8
0
100
AcDbLine
 10
518.0
 20
116.8379999999999
 30
0.0
 11
518.0
 21
116.466
 31
0.0
  0
LINE
  5
78F
330
1E
100
AcDbEntity
  8
0
100
AcDbLine
 10
518.0
 20
116.8379999999999
 30
0.0
 11
518.0
 21
117.282
 31
0.0
  0
LINE
  5
790
330
1E
100
AcDbEntity
  8
0
100
AcDbLine
 10
518.0
 20
117.282
 30
0.0
 11
518.0
 21
116.8379999999999
 31
0.0
  0
LINE
  5
791
330
1E
100
AcDbEntity
  8
0
100
AcDbLine
 10
518.0
 20
117.282
 30
0.0
 11
518.0
 21
117.825
 31
0.0
  0
LINE
  5
792
330
1E
100
AcDbEntity
  8
0
100
AcDbLine
 10
518.0
 20
117.825
 30
0.0
 11
518.0
 21
117.282
 31
0.0
  0
LINE
  5
793
330
1E
100
AcDbEntity
  8
0
100
AcDbLine
 10
518.0
 20
117.825
 30
0.0
 11
518.0
 21
118.325
 31
0.0
  0
LINE
  5
794
330
1E
100
AcDbEntity
  8
0
100
AcDbLine
 10
518.0
 20
118.325
 30
0.0
 11
518.0
 21
117.825
 31
0.0
  0
LINE
  5
795
330
1E
100
AcDbEntity
  8
0
100
AcDbLine
 10
518.0
 20
118.325
 30
0.0
 11
518.0
 21
118.74
 31
0.0
  0
LINE
  5
796
330
1E
100
AcDbEntity
  8
0
100
AcDbLine
 10
518.0
 20
118.74
 30
0.0
 11
518.0
 21
118.325
 31
0.0
  0
LINE
  5
797
330
1E
100
AcDbEntity
  8
0
100
AcDbLine
 10
518.0
 20
118.74
 30
0.0
 11
518.0
 21
118.9389999999999
 31
0.0
  0
LINE
  5
798
330
1E
100
AcDbEntity
  8
0
100
AcDbLine
 10
507.0
 20
119.0
 30
0.0
 11
518.0
 21
119.0
 31
0.0
  0
LINE
  5
799
330
1E
100
AcDbEntity
  8
0
100
AcDbLine
 10
518.0
 20
118.9389999999999
 30
0.0
 11
518.0
 21
118.74
 31
0.0
  0
LINE
  5
79A
330
1E
100
AcDbEntity
  8
0
100
AcDbLine
 10
518.0
 20
118.9389999999999
 30
0.0
 11
518.0
 21
119.0
 31
0.0
  0
LINE
  5
79B
330
1E
100
AcDbEntity
  8
0
100
AcDbLine
 10
518.0
 20
119.0
 30
0.0
 11
518.0
 21
118.9389999999999
 31
0.0
  0
LINE
  5
79C
330
1E
100
AcDbEntity
  8
0
100
AcDbLine
 10
518.0
 20
113.332
 30
0.0
 11
518.0
 21
112.3839999999999
 31
0.0
  0
LINE
  5
79D
330
1E
100
AcDbEntity
  8
0
100
AcDbLine
 10
518.0
 20
113.332
 30
0.0
 11
518.0
 21
114.169
 31
0.0
  0
LINE
  5
79E
330
1E
100
AcDbEntity
  8
0
100
AcDbLine
 10
518.0
 20
112.3839999999999
 30
0.0
 11
518.0
 21
113.332
 31
0.0
  0
LINE
  5
79F
330
1E
100
AcDbEntity
  8
0
100
AcDbLine
 10
518.0
 20
112.3839999999999
 30
0.0
 11
518.0
 21
111.291
 31
0.0
  0
LINE
  5
7A0
330
1E
100
AcDbEntity
  8
0
100
AcDbLine
 10
518.0
 20
111.291
 30
0.0
 11
518.0
 21
112.3839999999999
 31
0.0
  0
LINE
  5
7A1
330
1E
100
AcDbEntity
  8
0
100
AcDbLine
 10
518.0
 20
111.291
 30
0.0
 11
518.0
 21
110.267
 31
0.0
  0
LINE
  5
7A2
330
1E
100
AcDbEntity
  8
0
100
AcDbLine
 10
518.0
 20
110.267
 30
0.0
 11
518.0
 21
111.291
 31
0.0
  0
LINE
  5
7A3
330
1E
100
AcDbEntity
  8
0
100
AcDbLine
 10
518.0
 20
110.267
 30
0.0
 11
518.0
 21
108.8359999999999
 31
0.0
  0
LINE
  5
7A4
330
1E
100
AcDbEntity
  8
0
100
AcDbLine
 10
518.0
 20
108.8359999999999
 30
0.0
 11
518.0
 21
110.267
 31
0.0
  0
LINE
  5
7A5
330
1E
100
AcDbEntity
  8
0
100
AcDbLine
 10
518.0
 20
108.8359999999999
 30
0.0
 11
518.0
 21
107.176
 31
0.0
  0
LINE
  5
7A6
330
1E
100
AcDbEntity
  8
0
100
AcDbLine
 10
518.0
 20
107.176
 30
0.0
 11
518.0
 21
108.8359999999999
 31
0.0
  0
LINE
  5
7A7
330
1E
100
AcDbEntity
  8
0
100
AcDbLine
 10
518.0
 20
107.176
 30
0.0
 11
518.0
 21
105.16
 31
0.0
  0
LINE
  5
7A8
330
1E
100
AcDbEntity
  8
0
100
AcDbLine
 10
518.0
 20
105.16
 30
0.0
 11
518.0
 21
107.176
 31
0.0
  0
LINE
  5
7A9
330
1E
100
AcDbEntity
  8
0
100
AcDbLine
 10
518.0
 20
105.16
 30
0.0
 11
518.0
 21
101.4329999999999
 31
0.0
  0
LINE
  5
7AA
330
1E
100
AcDbEntity
  8
0
100
AcDbLine
 10
518.0
 20
101.4329999999999
 30
0.0
 11
518.0
 21
105.16
 31
0.0
  0
LINE
  5
7AB
330
1E
100
AcDbEntity
  8
0
100
AcDbLine
 10
518.0
 20
101.4329999999999
 30
0.0
 11
518.0
 21
96.8767
 31
0.0
  0
LINE
  5
7AC
330
1E
100
AcDbEntity
  8
0
100
AcDbLine
 10
518.0
 20
96.8767
 30
0.0
 11
518.0
 21
101.4329999999999
 31
0.0
  0
LINE
  5
7AD
330
1E
100
AcDbEntity
  8
0
100
AcDbLine
 10
518.0
 20
96.8767
 30
0.0
 11
518.0
 21
90.27320000000001
 31
0.0
  0
LINE
  5
7AE
330
1E
100
AcDbEntity
  8
0
100
AcDbLine
 10
518.0
 20
90.27320000000001
 30
0.0
 11
518.0
 21
96.8767
 31
0.0
  0
LINE
  5
7AF
330
1E
100
AcDbEntity
  8
0
100
AcDbLine
 10
518.0
 20
90.27320000000001
 30
0.0
 11
518.0
 21
82.7393
 31
0.0
  0
LINE
  5
7B0
330
1E
100
AcDbEntity
  8
0
100
AcDbLine
 10
518.0
 20
82.7393
 30
0.0
 11
518.0
 21
90.27320000000001
 31
0.0
  0
LINE
  5
7B1
330
1E
100
AcDbEntity
  8
0
100
AcDbLine
 10
518.0
 20
82.7393
 30
0.0
 11
518.0
 21
76.923
 31
0.0
  0
LINE
  5
7B2
330
1E
100
AcDbEntity
  8
0
100
AcDbLine
 10
518.0
 20
76.923
 30
0.0
 11
518.0
 21
82.7393
 31
0.0
  0
LINE
  5
7B3
330
1E
100
AcDbEntity
  8
0
100
AcDbLine
 10
518.0
 20
76.923
 30
0.0
 11
518.0
 21
73.0
 31
0.0
  0
LINE
  5
7B4
330
1E
100
AcDbEntity
  8
0
100
AcDbLine
 10
518.0
 20
69.077
 30
0.0
 11
518.0
 21
63.2607
 31
0.0
  0
LINE
  5
7B5
330
1E
100
AcDbEntity
  8
0
100
AcDbLine
 10
518.0
 20
69.077
 30
0.0
 11
518.0
 21
73.0
 31
0.0
  0
LINE
  5
7B6
330
1E
100
AcDbEntity
  8
0
100
AcDbLine
 10
518.0
 20
73.0
 30
0.0
 11
518.0
 21
69.077
 31
0.0
  0
LINE
  5
7B7
330
1E
100
AcDbEntity
  8
0
100
AcDbLine
 10
518.0
 20
73.0
 30
0.0
 11
518.0
 21
76.923
 31
0.0
  0
LINE
  5
7B8
330
1E
100
AcDbEntity
  8
0
100
AcDbLine
 10
518.0
 20
32.6684
 30
0.0
 11
518.0
 21
31.83139999999999
 31
0.0
  0
LINE
  5
7B9
330
1E
100
AcDbEntity
  8
0
100
AcDbLine
 10
518.0
 20
32.6684
 30
0.0
 11
518.0
 21
33.61569999999999
 31
0.0
  0
LINE
  5
7BE
330
1E
100
AcDbEntity
  8
0
100
AcDbLine
 10
518.0
 20
31.83139999999999
 30
0.0
 11
518.0
 21
32.6684
 31
0.0
  0
LINE
  5
7BF
330
1E
100
AcDbEntity
  8
0
100
AcDbLine
 10
518.0
 20
31.83139999999999
 30
0.0
 11
518.0
 21
31.1054
 31
0.0
  0
LINE
  5
7C0
330
1E
100
AcDbEntity
  8
0
100
AcDbLine
 10
518.0
 20
31.1054
 30
0.0
 11
518.0
 21
31.83139999999999
 31
0.0
  0
LINE
  5
7C1
330
1E
100
AcDbEntity
  8
0
100
AcDbLine
 10
518.0
 20
31.1054
 30
0.0
 11
518.0
 21
30.5187
 31
0.0
  0
LINE
  5
7C2
330
1E
100
AcDbEntity
  8
0
100
AcDbLine
 10
518.0
 20
30.5187
 30
0.0
 11
518.0
 21
31.1054
 31
0.0
  0
LINE
  5
7C3
330
1E
100
AcDbEntity
  8
0
100
AcDbLine
 10
518.0
 20
30.5187
 30
0.0
 11
518.0
 21
29.9419
 31
0.0
  0
LINE
  5
7C4
330
1E
100
AcDbEntity
  8
0
100
AcDbLine
 10
518.0
 20
29.9419
 30
0.0
 11
518.0
 21
30.5187
 31
0.0
  0
LINE
  5
7C5
330
1E
100
AcDbEntity
  8
0
100
AcDbLine
 10
518.0
 20
29.9419
 30
0.0
 11
518.0
 21
29.53419999999999
 31
0.0
  0
LINE
  5
7C6
330
1E
100
AcDbEntity
  8
0
100
AcDbLine
 10
518.0
 20
29.53419999999999
 30
0.0
 11
518.0
 21
29.9419
 31
0.0
  0
LINE
  5
7C7
330
1E
100
AcDbEntity
  8
0
100
AcDbLine
 10
518.0
 20
29.53419999999999
 30
0.0
 11
518.0
 21
29.16199999999999
 31
0.0
  0
LINE
  5
7C8
330
1E
100
AcDbEntity
  8
0
100
AcDbLine
 10
518.0
 20
29.16199999999999
 30
0.0
 11
518.0
 21
29.53419999999999
 31
0.0
  0
LINE
  5
7C9
330
1E
100
AcDbEntity
  8
0
100
AcDbLine
 10
518.0
 20
29.16199999999999
 30
0.0
 11
518.0
 21
28.718
 31
0.0
  0
LINE
  5
7CA
330
1E
100
AcDbEntity
  8
0
100
AcDbLine
 10
518.0
 20
28.718
 30
0.0
 11
518.0
 21
29.16199999999999
 31
0.0
  0
LINE
  5
7CB
330
1E
100
AcDbEntity
  8
0
100
AcDbLine
 10
518.0
 20
28.718
 30
0.0
 11
518.0
 21
28.1747
 31
0.0
  0
LINE
  5
7CC
330
1E
100
AcDbEntity
  8
0
100
AcDbLine
 10
518.0
 20
28.1747
 30
0.0
 11
518.0
 21
28.718
 31
0.0
  0
LINE
  5
7CD
330
1E
100
AcDbEntity
  8
0
100
AcDbLine
 10
518.0
 20
28.1747
 30
0.0
 11
518.0
 21
27.6754
 31
0.0
  0
LINE
  5
7CE
330
1E
100
AcDbEntity
  8
0
100
AcDbLine
 10
518.0
 20
27.6754
 30
0.0
 11
518.0
 21
28.1747
 31
0.0
  0
LINE
  5
7CF
330
1E
100
AcDbEntity
  8
0
100
AcDbLine
 10
518.0
 20
27.6754
 30
0.0
 11
518.0
 21
27.2603
 31
0.0
  0
LINE
  5
7D0
330
1E
100
AcDbEntity
  8
0
100
AcDbLine
 10
518.0
 20
27.2603
 30
0.0
 11
518.0
 21
27.6754
 31
0.0
  0
LINE
  5
7D1
330
1E
100
AcDbEntity
  8
0
100
AcDbLine
 10
518.0
 20
27.2603
 30
0.0
 11
518.0
 21
27.0611
 31
0.0
  0
LINE
  5
7D2
330
1E
100
AcDbEntity
  8
0
100
AcDbLine
 10
518.0
 20
27.0611
 30
0.0
 11
518.0
 21
27.2603
 31
0.0
  0
LINE
  5
7D3
330
1E
100
AcDbEntity
  8
0
100
AcDbLine
 10
518.0
 20
27.0611
 30
0.0
 11
518.0
 21
27.0
 31
0.0
  0
LINE
  5
7D4
330
1E
100
AcDbEntity
  8
0
100
AcDbLine
 10
518.0
 20
27.0
 30
0.0
 11
518.0
 21
27.0611
 31
0.0
  0
LINE
  5
7E1
330
1E
100
AcDbEntity
  8
0
100
AcDbLine
 10
30.0
 20
27.0
 30
0.0
 11
9.99999999999998
 21
26.0
 31
0.0
  0
LINE
  5
7E5
330
1E
100
AcDbEntity
  8
0
100
AcDbLine
 10
48.0
 20
3.00000000000002
 30
0.0
 11
67.8805
 21
1.865970716857162
 31
0.0
  0
LINE
  5
7E6
330
1E
100
AcDbEntity
  8
0
100
AcDbLine
 10
67.8805
 20
1.865970716857162
 30
0.0
 11
95.71060000000001
 21
1.000000000000019
 31
0.0
  0
LINE
  5
7E7
330
1E
100
AcDbEntity
  8
0
100
AcDbLine
 10
178.751
 20
14.0
 30
0.0
 11
156.498
 21
14.0
 31
0.0
  0
LINE
  5
7E8
330
1E
100
AcDbEntity
  8
0
100
AcDbLine
 10
165.0638999999999
 20
1.000000000000019
 30
0.0
 11
164.4651999999999
 21
1.000000000000019
 31
0.0
  0
LINE
  5
7E9
330
1E
100
AcDbEntity
  8
0
100
AcDbLine
 10
246.7
 20
14.0
 30
0.0
 11
245.493
 21
14.0
 31
0.0
  0
LINE
  5
7EA
330
1E
100
AcDbEntity
  8
0
100
AcDbLine
 10
246.0
 20
10.0
 30
0.0
 11
239.0
 21
7.000000000000018
 31
0.0
  0
LINE
  5
7EB
330
1E
100
AcDbEntity
  8
0
100
AcDbLine
 10
252.0
 20
14.0
 30
0.0
 11
250.0
 21
12.0
 31
0.0
  0
LINE
  5
7EC
330
1E
100
AcDbEntity
  8
0
100
AcDbLine
 10
250.0
 20
12.0
 30
0.0
 11
246.0
 21
10.0
 31
0.0
  0
LINE
  5
7ED
330
1E
100
AcDbEntity
  8
0
100
AcDbLine
 10
261.0
 20
20.0
 30
0.0
 11
258.0
 21
17.0
 31
0.0
  0
LINE
  5
7EE
330
1E
100
AcDbEntity
  8
0
100
AcDbLine
 10
258.0
 20
17.0
 30
0.0
 11
255.0
 21
15.0
 31
0.0
  0
LINE
  5
7EF
330
1E
100
AcDbEntity
  8
0
100
AcDbLine
 10
251.073
 20
14.0
 30
0.0
 11
249.786
 21
14.0
 31
0.0
  0
LINE
  5
7F0
330
1E
100
AcDbEntity
  8
0
100
AcDbLine
 10
252.0
 20
14.0
 30
0.0
 11
251.536
 21
14.0
 31
0.0
  0
LINE
  5
7F1
330
1E
100
AcDbEntity
  8
0
100
AcDbLine
 10
251.536
 20
14.0
 30
0.0
 11
251.073
 21
14.0
 31
0.0
  0
LINE
  5
7F2
330
1E
100
AcDbEntity
  8
0
100
AcDbLine
 10
255.0
 20
15.0
 30
0.0
 11
252.0
 21
14.0
 31
0.0
  0
LINE
  5
7F3
330
1E
100
AcDbEntity
  8
0
100
AcDbLine
 10
247.639
 20
14.0
 30
0.0
 11
246.7
 21
14.0
 31
0.0
  0
LINE
  5
7F4
330
1E
100
AcDbEntity
  8
0
100
AcDbLine
 10
249.786
 20
14.0
 30
0.0
 11
248.713
 21
14.0
 31
0.0
  0
LINE
  5
7F5
330
1E
100
AcDbEntity
  8
0
100
AcDbLine
 10
248.713
 20
14.0
 30
0.0
 11
247.639
 21
14.0
 31
0.0
  0
LINE
  5
7F6
330
1E
100
AcDbEntity
  8
0
100
AcDbLine
 10
228.5
 20
4.812500000000019
 30
0.0
 11
214.0
 21
3.00000000000002
 31
0.0
  0
LINE
  5
7F7
330
1E
100
AcDbEntity
  8
0
100
AcDbLine
 10
214.0
 20
3.00000000000002
 30
0.0
 11
194.1195
 21
1.865970716857162
 31
0.0
  0
LINE
  5
7F8
330
1E
100
AcDbEntity
  8
0
100
AcDbLine
 10
194.1195
 20
1.865970716857162
 30
0.0
 11
166.2894
 21
1.000000000000019
 31
0.0
  0
LINE
  5
7F9
330
1E
100
AcDbEntity
  8
0
100
AcDbLine
 10
166.2894
 20
1.000000000000019
 30
0.0
 11
166.0219
 21
1.000000000000019
 31
0.0
  0
LINE
  5
7FA
330
1E
100
AcDbEntity
  8
0
100
AcDbLine
 10
166.0219
 20
1.000000000000019
 30
0.0
 11
165.7026
 21
1.000000000000019
 31
0.0
  0
LINE
  5
7FB
330
1E
100
AcDbEntity
  8
0
100
AcDbLine
 10
165.7026
 20
1.000000000000019
 30
0.0
 11
165.4232
 21
1.000000000000019
 31
0.0
  0
LINE
  5
7FC
330
1E
100
AcDbEntity
  8
0
100
AcDbLine
 10
165.4232
 20
1.000000000000019
 30
0.0
 11
165.0638999999999
 21
1.000000000000019
 31
0.0
  0
LINE
  5
7FD
330
1E
100
AcDbEntity
  8
0
100
AcDbLine
 10
166.2894
 20
1.000000000000019
 30
0.0
 11
166.0219
 21
1.000000000000019
 31
0.0
  0
LINE
  5
7FE
330
1E
100
AcDbEntity
  8
0
100
AcDbLine
 10
213.4161
 20
14.0
 30
0.0
 11
198.6666999999999
 21
14.0
 31
0.0
  0
LINE
  5
7FF
330
1E
100
AcDbEntity
  8
0
100
AcDbLine
 10
239.0
 20
7.000000000000018
 30
0.0
 11
230.0
 21
5.000000000000019
 31
0.0
  0
LINE
  5
800
330
1E
100
AcDbEntity
  8
0
100
AcDbLine
 10
230.0
 20
5.000000000000019
 30
0.0
 11
228.5
 21
4.812500000000019
 31
0.0
  0
LINE
  5
801
330
1E
100
AcDbEntity
  8
0
100
AcDbLine
 10
230.0
 20
5.000000000000019
 30
0.0
 11
228.5
 21
4.812500000000019
 31
0.0
  0
LINE
  5
802
330
1E
100
AcDbEntity
  8
0
100
AcDbLine
 10
228.8359
 20
14.0
 30
0.0
 11
223.0701999999999
 21
14.0
 31
0.0
  0
LINE
  5
803
330
1E
100
AcDbEntity
  8
0
100
AcDbLine
 10
237.4169999999999
 20
14.0
 30
0.0
 11
233.6629999999999
 21
14.0
 31
0.0
  0
LINE
  5
804
330
1E
100
AcDbEntity
  8
0
100
AcDbLine
 10
240.8739999999999
 20
14.0
 30
0.0
 11
237.4169999999999
 21
14.0
 31
0.0
  0
LINE
  5
805
330
1E
100
AcDbEntity
  8
0
100
AcDbLine
 10
245.493
 20
14.0
 30
0.0
 11
243.48
 21
14.0
 31
0.0
  0
LINE
  5
806
330
1E
100
AcDbEntity
  8
0
100
AcDbLine
 10
243.48
 20
14.0
 30
0.0
 11
240.8739999999999
 21
14.0
 31
0.0
  0
LINE
  5
807
330
1E
100
AcDbEntity
  8
0
100
AcDbLine
 10
233.6629999999999
 20
14.0
 30
0.0
 11
228.8359
 21
14.0
 31
0.0
  0
LINE
  5
808
330
1E
100
AcDbEntity
  8
0
100
AcDbLine
 10
223.0701999999999
 20
14.0
 30
0.0
 11
213.4161
 21
14.0
 31
0.0
  0
LINE
  5
809
330
1E
100
AcDbEntity
  8
0
100
AcDbLine
 10
198.6666999999999
 20
14.0
 30
0.0
 11
178.751
 21
14.0
 31
0.0
  0
LINE
  5
80A
330
1E
100
AcDbEntity
  8
0
100
AcDbLine
 10
145.2069999999999
 20
1.000000000000019
 30
0.0
 11
123.414
 21
1.000000000000019
 31
0.0
  0
LINE
  5
80B
330
1E
100
AcDbEntity
  8
0
100
AcDbLine
 10
155.5199999999999
 20
1.000000000000019
 30
0.0
 11
151.1319999999999
 21
1.000000000000019
 31
0.0
  0
LINE
  5
80C
330
1E
100
AcDbEntity
  8
0
100
AcDbLine
 10
159.9582
 20
1.000000000000019
 30
0.0
 11
158.3929999999999
 21
1.000000000000019
 31
0.0
  0
LINE
  5
80D
330
1E
100
AcDbEntity
  8
0
100
AcDbLine
 10
163.6897
 20
1.000000000000019
 30
0.0
 11
159.9582
 21
1.000000000000019
 31
0.0
  0
LINE
  5
80E
330
1E
100
AcDbEntity
  8
0
100
AcDbLine
 10
164.4651999999999
 20
1.000000000000019
 30
0.0
 11
163.6897
 21
1.000000000000019
 31
0.0
  0
LINE
  5
80F
330
1E
100
AcDbEntity
  8
0
100
AcDbLine
 10
158.3929999999999
 20
1.000000000000019
 30
0.0
 11
155.5199999999999
 21
1.000000000000019
 31
0.0
  0
LINE
  5
810
330
1E
100
AcDbEntity
  8
0
100
AcDbLine
 10
149.7914999999999
 20
1.000000000000019
 30
0.0
 11
145.2069999999999
 21
1.000000000000019
 31
0.0
  0
LINE
  5
811
330
1E
100
AcDbEntity
  8
0
100
AcDbLine
 10
151.1319999999999
 20
1.000000000000019
 30
0.0
 11
149.7914999999999
 21
1.000000000000019
 31
0.0
  0
LINE
  5
812
330
1E
100
AcDbEntity
  8
0
100
AcDbLine
 10
156.498
 20
14.0
 30
0.0
 11
131.0
 21
14.0
 31
0.0
  0
LINE
  5
813
330
1E
100
AcDbEntity
  8
0
100
AcDbLine
 10
262.0
 20
23.0
 30
0.0
 11
261.0
 21
20.0
 31
0.0
  0
LINE
  5
814
330
1E
100
AcDbEntity
  8
0
100
AcDbLine
 10
232.0
 20
27.0
 30
0.0
 11
252.0
 21
26.0
 31
0.0
  0
LINE
  5
815
330
1E
100
AcDbEntity
  8
0
100
AcDbLine
 10
246.212
 20
24.0
 30
0.0
 11
242.1469999999999
 21
24.0
 31
0.0
  0
LINE
  5
816
330
1E
100
AcDbEntity
  8
0
100
AcDbLine
 10
261.0
 20
25.0
 30
0.0
 11
252.0
 21
26.0
 31
0.0
  0
LINE
  5
817
330
1E
100
AcDbEntity
  8
0
100
AcDbLine
 10
256.2619999999999
 20
24.0
 30
0.0
 11
254.9549999999999
 21
24.0
 31
0.0
  0
LINE
  5
818
330
1E
100
AcDbEntity
  8
0
100
AcDbLine
 10
262.0
 20
24.0
 30
0.0
 11
261.0
 21
25.0
 31
0.0
  0
LINE
  5
819
330
1E
100
AcDbEntity
  8
0
100
AcDbLine
 10
260.996
 20
24.0
 30
0.0
 11
259.603
 21
24.0
 31
0.0
  0
LINE
  5
81A
330
1E
100
AcDbEntity
  8
0
100
AcDbLine
 10
261.498
 20
24.0
 30
0.0
 11
260.996
 21
24.0
 31
0.0
  0
LINE
  5
81B
330
1E
100
AcDbEntity
  8
0
100
AcDbLine
 10
262.0
 20
24.0
 30
0.0
 11
262.0
 21
23.0
 31
0.0
  0
LINE
  5
81C
330
1E
100
AcDbEntity
  8
0
100
AcDbLine
 10
262.0
 20
23.0
 30
0.0
 11
262.0
 21
24.0
 31
0.0
  0
LINE
  5
81D
330
1E
100
AcDbEntity
  8
0
100
AcDbLine
 10
262.0
 20
24.0
 30
0.0
 11
261.498
 21
24.0
 31
0.0
  0
LINE
  5
81E
330
1E
100
AcDbEntity
  8
0
100
AcDbLine
 10
257.2789999999999
 20
24.0
 30
0.0
 11
256.2619999999999
 21
24.0
 31
0.0
  0
LINE
  5
81F
330
1E
100
AcDbEntity
  8
0
100
AcDbLine
 10
259.603
 20
24.0
 30
0.0
 11
258.441
 21
24.0
 31
0.0
  0
LINE
  5
820
330
1E
100
AcDbEntity
  8
0
100
AcDbLine
 10
258.441
 20
24.0
 30
0.0
 11
257.2789999999999
 21
24.0
 31
0.0
  0
LINE
  5
821
330
1E
100
AcDbEntity
  8
0
100
AcDbLine
 10
252.776
 20
24.0
 30
0.0
 11
249.954
 21
24.0
 31
0.0
  0
LINE
  5
822
330
1E
100
AcDbEntity
  8
0
100
AcDbLine
 10
254.9549999999999
 20
24.0
 30
0.0
 11
252.776
 21
24.0
 31
0.0
  0
LINE
  5
823
330
1E
100
AcDbEntity
  8
0
100
AcDbLine
 10
249.954
 20
24.0
 30
0.0
 11
246.212
 21
24.0
 31
0.0
  0
LINE
  5
824
330
1E
100
AcDbEntity
  8
0
100
AcDbLine
 10
230.6794
 20
24.0
 30
0.0
 11
220.2273
 21
24.0
 31
0.0
  0
LINE
  5
825
330
1E
100
AcDbEntity
  8
0
100
AcDbLine
 10
236.9219999999999
 20
24.0
 30
0.0
 11
230.6794
 21
24.0
 31
0.0
  0
LINE
  5
826
330
1E
100
AcDbEntity
  8
0
100
AcDbLine
 10
242.1469999999999
 20
24.0
 30
0.0
 11
236.9219999999999
 21
24.0
 31
0.0
  0
LINE
  5
827
330
1E
100
AcDbEntity
  8
0
100
AcDbLine
 10
231.226
 20
27.0
 30
0.0
 11
230.1518
 21
27.0
 31
0.0
  0
LINE
  5
828
330
1E
100
AcDbEntity
  8
0
100
AcDbLine
 10
231.613
 20
27.0
 30
0.0
 11
231.226
 21
27.0
 31
0.0
  0
LINE
  5
829
330
1E
100
AcDbEntity
  8
0
100
AcDbLine
 10
232.0
 20
27.0
 30
0.0
 11
231.613
 21
27.0
 31
0.0
  0
LINE
  5
82A
330
1E
100
AcDbEntity
  8
0
100
AcDbLine
 10
229.2559
 20
27.0
 30
0.0
 11
228.36
 21
27.0
 31
0.0
  0
LINE
  5
82B
330
1E
100
AcDbEntity
  8
0
100
AcDbLine
 10
228.36
 20
27.0
 30
0.0
 11
227.5761
 21
27.0
 31
0.0
  0
LINE
  5
82C
330
1E
100
AcDbEntity
  8
0
100
AcDbLine
 10
230.1518
 20
27.0
 30
0.0
 11
229.2559
 21
27.0
 31
0.0
  0
ENDSEC
  0
SECTION
  2
OBJECTS
  0
DICTIONARY
  5
C
330
0
100
AcDbDictionary
281
     1
  3
ACAD_GROUP
350
D
  3
ACAD_LAYOUT
350
19
  3
ACAD_MLINESTYLE
350
16
  3
ACAD_PLOTSETTINGS
350
18
  3
ACAD_PLOTSTYLENAME
350
E
  3
AcDbVariableDictionary
350
82D
  0
DICTIONARY
  5
D
102
{ACAD_REACTORS
330
C
102
}
330
C
100
AcDbDictionary
281
     1
  0
DICTIONARY
  5
19
102
{ACAD_REACTORS
330
C
102
}
330
C
100
AcDbDictionary
281
     1
  3
Layout1
350
1D
  3
Model
350
21
  0
DICTIONARY
  5
16
102
{ACAD_REACTORS
330
C
102
}
330
C
100
AcDbDictionary
281
     1
  3
Standard
350
17
  0
DICTIONARY
  5
18
102
{ACAD_REACTORS
330
C
102
}
330
C
100
AcDbDictionary
281
     1
  0
ACDBDICTIONARYWDFLT
  5
E
102
{ACAD_REACTORS
330
C
102
}
330
C
100
AcDbDictionary
281
     1
  3
Normal
350
F
100
AcDbDictionaryWithDefault
340
F
  0
DICTIONARY
  5
82D
102
{ACAD_REACTORS
330
C
102
}
330
C
100
AcDbDictionary
281
     1
  3
DIMASSOC
350
82E
  0
LAYOUT
  5
1D
102
{ACAD_REACTORS
330
19
102
}
330
19
100
AcDbPlotSettings
  1

  2
hp deskjet 980c series
  4

  6

 40
0.0
 41
0.0
 42
0.0
 43
0.0
 44
0.0
 45
0.0
 46
0.0
 47
0.0
 48
0.0
 49
0.0
140
0.0
141
0.0
142
1.0
143
1.0
 70
   688
 72
     0
 73
     0
 74
     5
  7

 75
    16
147
1.0
148
0.0
149
0.0
100
AcDbLayout
  1
Layout1
 70
     1
 71
     1
 10
0.0
 20
0.0
 11
12.0
 21
9.0
 12
0.0
 22
0.0
 32
0.0
 14
1.000000000000000E+20
 24
1.000000000000000E+20
 34
1.000000000000000E+20
 15
-1.000000000000000E+20
 25
-1.000000000000000E+20
 35
-1.000000000000000E+20
146
0.0
 13
0.0
 23
0.0
 33
0.0
 16
1.0
 26
0.0
 36
0.0
 17
0.0
 27
1.0
 37
0.0
 76
     0
330
1A
  0
LAYOUT
  5
21
102
{ACAD_REACTORS
330
19
102
}
330
19
100
AcDbPlotSettings
  1

  2
hp deskjet 980c series
  4

  6

 40
0.0
 41
0.0
 42
0.0
 43
0.0
 44
0.0
 45
0.0
 46
0.0
 47
0.0
 48
0.0
 49
0.0
140
0.0
141
0.0
142
1.0
143
1.0
 70
  1712
 72
     0
 73
     0
 74
     0
  7

 75
     0
147
1.0
148
0.0
149
0.0
100
AcDbLayout
  1
Model
 70
     1
 71
     0
 10
0.0
 20
0.0
 11
12.0
 21
9.0
 12
0.0
 22
0.0
 32
0.0
 14
0.0
 24
0.0
 34
0.0
 15
0.0
 25
0.0
 35
0.0
146
0.0
 13
0.0
 23
0.0
 33
0.0
 16
1.0
 26
0.0
 36
0.0
 17
0.0
 27
1.0
 37
0.0
 76
     0
330
1E
  0
MLINESTYLE
  5
17
102
{ACAD_REACTORS
330
16
102
}
330
16
100
AcDbMlineStyle
  2
STANDARD
 70
     0
  3

 62
   256
 51
90.0
 52
90.0
 71
     2
 49
0.5
 62
   256
  6
BYLAYER
 49
-0.5
 62
   256
  6
BYLAYER
  0
ACDBPLACEHOLDER
  5
F
102
{ACAD_REACTORS
330
E
102
}
330
E
  0
DICTIONARYVAR
  5
82E
102
{ACAD_REACTORS
330
82D
102
}
330
82D
100
DictionaryVariables
280
     0
  1
1
  0
ENDSEC
  0
EOF
