  0
SECTION
  2
HEADER
  9
$ACADVER
  1
AC1015
  9
$ACADMAINTVER
 70
    13
  9
$DWGCODEPAGE
  3
ANSI_1252
  9
$INSBASE
 10
0.0
 20
0.0
 30
0.0
  9
$EXTMIN
 10
0.0
 20
0.0
 30
0.0
  9
$EXTMAX
 10
120.0
 20
120.0
 30
0.0
  9
$LIMMIN
 10
0.0
 20
0.0
  9
$LIMMAX
 10
12.0
 20
9.0
  9
$ORTHOMODE
 70
     0
  9
$REGENMODE
 70
     1
  9
$FILLMODE
 70
     1
  9
$QTEXTMODE
 70
     0
  9
$MIRRTEXT
 70
     1
  9
$LTSCALE
 40
1.0
  9
$ATTMODE
 70
     1
  9
$TEXTSIZE
 40
0.2
  9
$TRACEWID
 40
0.05
  9
$TEXTSTYLE
  7
Standard
  9
$CLAYER
  8
0
  9
$CELTYPE
  6
Continuous
  9
$CECOLOR
 62
   256
  9
$CELTSCALE
 40
1.0
  9
$DISPSILH
 70
     0
  9
$DIMSCALE
 40
1.0
  9
$DIMASZ
 40
0.18
  9
$DIMEXO
 40
0.0625
  9
$DIMDLI
 40
0.38
  9
$DIMRND
 40
0.0
  9
$DIMDLE
 40
0.0
  9
$DIMEXE
 40
0.18
  9
$DIMTP
 40
0.0
  9
$DIMTM
 40
0.0
  9
$DIMTXT
 40
0.18
  9
$DIMCEN
 40
0.09
  9
$DIMTSZ
 40
0.0
  9
$DIMTOL
 70
     0
  9
$DIMLIM
 70
     0
  9
$DIMTIH
 70
     1
  9
$DIMTOH
 70
     1
  9
$DIMSE1
 70
     0
  9
$DIMSE2
 70
     0
  9
$DIMTAD
 70
     0
  9
$DIMZIN
 70
     0
  9
$DIMBLK
  1

  9
$DIMASO
 70
     1
  9
$DIMSHO
 70
     1
  9
$DIMPOST
  1

  9
$DIMAPOST
  1

  9
$DIMALT
 70
     0
  9
$DIMALTD
 70
     2
  9
$DIMALTF
 40
25.4
  9
$DIMLFAC
 40
1.0
  9
$DIMTOFL
 70
     0
  9
$DIMTVP
 40
0.0
  9
$DIMTIX
 70
     0
  9
$DIMSOXD
 70
     0
  9
$DIMSAH
 70
     0
  9
$DIMBLK1
  1

  9
$DIMBLK2
  1

  9
$DIMSTYLE
  2
Standard
  9
$DIMCLRD
 70
     0
  9
$DIMCLRE
 70
     0
  9
$DIMCLRT
 70
     0
  9
$DIMTFAC
 40
1.0
  9
$DIMGAP
 40
0.09
  9
$DIMJUST
 70
     0
  9
$DIMSD1
 70
     0
  9
$DIMSD2
 70
     0
  9
$DIMTOLJ
 70
     1
  9
$DIMTZIN
 70
     0
  9
$DIMALTZ
 70
     0
  9
$DIMALTTZ
 70
     0
  9
$DIMUPT
 70
     0
  9
$DIMDEC
 70
     4
  9
$DIMTDEC
 70
     4
  9
$DIMALTU
 70
     2
  9
$DIMALTTD
 70
     2
  9
$DIMTXSTY
  7
Standard
  9
$DIMAUNIT
 70
     0
  9
$DIMADEC
 70
     0
  9
$DIMALTRND
 40
0.0
  9
$DIMAZIN
 70
     0
  9
$DIMDSEP
 70
    46
  9
$DIMATFIT
 70
     3
  9
$DIMFRAC
 70
     0
  9
$DIMLDRBLK
  1

  9
$DIMLUNIT
 70
     2
  9
$DIMLWD
 70
    -2
  9
$DIMLWE
 70
    -2
  9
$DIMTMOVE
 70
     0
  9
$LUNITS
 70
     2
  9
$LUPREC
 70
     4
  9
$SKETCHINC
 40
0.1
  9
$FILLETRAD
 40
0.0
  9
$AUNITS
 70
     0
  9
$AUPREC
 70
     0
  9
$MENU
  1
.
  9
$ELEVATION
 40
0.0
  9
$PELEVATION
 40
0.0
  9
$THICKNESS
 40
0.0
  9
$LIMCHECK
 70
     0
  9
$CHAMFERA
 40
0.0
  9
$CHAMFERB
 40
0.0
  9
$CHAMFERC
 40
0.0
  9
$CHAMFERD
 40
0.0
  9
$SKPOLY
 70
     0
  9
$TDCREATE
 40
2454907.638890868
  9
$TDUCREATE
 40
2454907.597224201
  9
$TDUPDATE
 40
2454907.642482453
  9
$TDUUPDATE
 40
2454907.600815787
  9
$TDINDWG
 40
0.0035915856
  9
$TDUSRTIMER
 40
0.0035915856
  9
$USRTIMER
 70
     1
  9
$ANGBASE
 50
0.0
  9
$ANGDIR
 70
     0
  9
$PDMODE
 70
     0
  9
$PDSIZE
 40
0.0
  9
$PLINEWID
 40
0.0
  9
$SPLFRAME
 70
     0
  9
$SPLINETYPE
 70
     6
  9
$SPLINESEGS
 70
     8
  9
$HANDSEED
  5
296
  9
$SURFTAB1
 70
     6
  9
$SURFTAB2
 70
     6
  9
$SURFTYPE
 70
     6
  9
$SURFU
 70
     6
  9
$SURFV
 70
     6
  9
$UCSBASE
  2

  9
$UCSNAME
  2

  9
$UCSORG
 10
0.0
 20
0.0
 30
0.0
  9
$UCSXDIR
 10
1.0
 20
0.0
 30
0.0
  9
$UCSYDIR
 10
0.0
 20
1.0
 30
0.0
  9
$UCSORTHOREF
  2

  9
$UCSORTHOVIEW
 70
     1
  9
$UCSORGTOP
 10
0.0
 20
0.0
 30
0.0
  9
$UCSORGBOTTOM
 10
0.0
 20
0.0
 30
0.0
  9
$UCSORGLEFT
 10
0.0
 20
0.0
 30
0.0
  9
$UCSORGRIGHT
 10
0.0
 20
0.0
 30
0.0
  9
$UCSORGFRONT
 10
0.0
 20
0.0
 30
0.0
  9
$UCSORGBACK
 10
0.0
 20
0.0
 30
0.0
  9
$PUCSBASE
  2

  9
$PUCSNAME
  2

  9
$PUCSORG
 10
0.0
 20
0.0
 30
0.0
  9
$PUCSXDIR
 10
1.0
 20
0.0
 30
0.0
  9
$PUCSYDIR
 10
0.0
 20
1.0
 30
0.0
  9
$PUCSORTHOREF
  2

  9
$PUCSORTHOVIEW
 70
     0
  9
$PUCSORGTOP
 10
0.0
 20
0.0
 30
0.0
  9
$PUCSORGBOTTOM
 10
0.0
 20
0.0
 30
0.0
  9
$PUCSORGLEFT
 10
0.0
 20
0.0
 30
0.0
  9
$PUCSORGRIGHT
 10
0.0
 20
0.0
 30
0.0
  9
$PUCSORGFRONT
 10
0.0
 20
0.0
 30
0.0
  9
$PUCSORGBACK
 10
0.0
 20
0.0
 30
0.0
  9
$USERI1
 70
     0
  9
$USERI2
 70
     0
  9
$USERI3
 70
     0
  9
$USERI4
 70
     0
  9
$USERI5
 70
     0
  9
$USERR1
 40
0.0
  9
$USERR2
 40
0.0
  9
$USERR3
 40
0.0
  9
$USERR4
 40
0.0
  9
$USERR5
 40
0.0
  9
$WORLDVIEW
 70
     1
  9
$SHADEDGE
 70
     3
  9
$SHADEDIF
 70
    70
  9
$TILEMODE
 70
     1
  9
$MAXACTVP
 70
    64
  9
$PINSBASE
 10
0.0
 20
0.0
 30
0.0
  9
$PLIMCHECK
 70
     0
  9
$PEXTMIN
 10
1.000000000000000E+20
 20
1.000000000000000E+20
 30
1.000000000000000E+20
  9
$PEXTMAX
 10
-1.000000000000000E+20
 20
-1.000000000000000E+20
 30
-1.000000000000000E+20
  9
$PLIMMIN
 10
0.0
 20
0.0
  9
$PLIMMAX
 10
12.0
 20
9.0
  9
$UNITMODE
 70
     0
  9
$VISRETAIN
 70
     1
  9
$PLINEGEN
 70
     0
  9
$PSLTSCALE
 70
     1
  9
$TREEDEPTH
 70
  3020
  9
$CMLSTYLE
  2
Standard
  9
$CMLJUST
 70
     0
  9
$CMLSCALE
 40
1.0
  9
$PROXYGRAPHICS
 70
     1
  9
$MEASUREMENT
 70
     0
  9
$CELWEIGHT
370
    -1
  9
$ENDCAPS
280
     0
  9
$JOINSTYLE
280
     0
  9
$LWDISPLAY
290
     0
  9
$INSUNITS
 70
     0
  9
$HYPERLINKBASE
  1

  9
$STYLESHEET
  1

  9
$XEDIT
290
     1
  9
$CEPSNTYPE
380
     0
  9
$PSTYLEMODE
290
     1
  9
$FINGERPRINTGUID
  2
{ADDADDE2-DEC9-45DC-BD4A-6A7E8B67DC87}
  9
$VERSIONGUID
  2
{38A96B3D-C0A5-49FC-B98A-0E6BC0EC20E6}
  9
$EXTNAMES
290
     1
  9
$PSVPSCALE
 40
0.0
  9
$OLESTARTUP
290
     0
  0
ENDSEC
  0
SECTION
  2
CLASSES
  0
CLASS
  1
ACDBDICTIONARYWDFLT
  2
AcDbDictionaryWithDefault
  3
AutoCAD 2000
 90
        0
280
     0
281
     0
  0
CLASS
  1
ACDBPLACEHOLDER
  2
AcDbPlaceHolder
  3
AutoCAD 2000
 90
        0
280
     0
281
     0
  0
CLASS
  1
LAYOUT
  2
AcDbLayout
  3
AutoCAD 2000
 90
        0
280
     0
281
     0
  0
CLASS
  1
DICTIONARYVAR
  2
AcDbDictionaryVar
  3
AutoCAD 2000
 90
        0
280
     0
281
     0
  0
ENDSEC
  0
SECTION
  2
TABLES
  0
TABLE
  2
VPORT
  5
8
330
0
100
AcDbSymbolTable
 70
     2
  0
VPORT
  5
295
330
8
100
AcDbSymbolTableRecord
100
AcDbViewportTableRecord
  2
*Active
 70
     0
 10
0.0
 20
0.0
 11
1.0
 21
1.0
 12
60.0
 22
60.0
 13
0.0
 23
0.0
 14
1.0
 24
1.0
 15
0.0
 25
0.0
 16
0.0
 26
0.0
 36
1.0
 17
0.0
 27
0.0
 37
0.0
 40
120.7578947368421
 41
1.968387776606954
 42
50.0
 43
0.0
 44
0.0
 50
0.0
 51
0.0
 71
     0
 72
   100
 73
     1
 74
     3
 75
     0
 76
     0
 77
     0
 78
     0
281
     0
 65
     1
110
0.0
120
0.0
130
0.0
111
1.0
121
0.0
131
0.0
112
0.0
122
1.0
132
0.0
 79
     1
146
0.0
  0
ENDTAB
  0
TABLE
  2
LTYPE
  5
5
330
0
100
AcDbSymbolTable
 70
     1
  0
LTYPE
  5
13
330
5
100
AcDbSymbolTableRecord
100
AcDbLinetypeTableRecord
  2
ByBlock
 70
     0
  3

 72
    65
 73
     0
 40
0.0
  0
LTYPE
  5
14
330
5
100
AcDbSymbolTableRecord
100
AcDbLinetypeTableRecord
  2
ByLayer
 70
     0
  3

 72
    65
 73
     0
 40
0.0
  0
LTYPE
  5
15
330
5
100
AcDbSymbolTableRecord
100
AcDbLinetypeTableRecord
  2
Continuous
 70
     0
  3
Solid line
 72
    65
 73
     0
 40
0.0
  0
ENDTAB
  0
TABLE
  2
LAYER
  5
2
330
0
100
AcDbSymbolTable
 70
     1
  0
LAYER
  5
10
330
2
100
AcDbSymbolTableRecord
100
AcDbLayerTableRecord
  2
0
 70
     0
 62
     7
  6
Continuous
370
    -3
390
F
  0
ENDTAB
  0
TABLE
  2
STYLE
  5
3
330
0
100
AcDbSymbolTable
 70
     1
  0
STYLE
  5
11
330
3
100
AcDbSymbolTableRecord
100
AcDbTextStyleTableRecord
  2
Standard
 70
     0
 40
0.0
 41
1.0
 50
0.0
 71
     0
 42
0.2
  3
txt
  4

  0
ENDTAB
  0
TABLE
  2
VIEW
  5
6
330
0
100
AcDbSymbolTable
 70
     0
  0
ENDTAB
  0
TABLE
  2
UCS
  5
7
330
0
100
AcDbSymbolTable
 70
     0
  0
ENDTAB
  0
TABLE
  2
APPID
  5
9
330
0
100
AcDbSymbolTable
 70
     1
  0
APPID
  5
12
330
9
100
AcDbSymbolTableRecord
100
AcDbRegAppTableRecord
  2
ACAD
 70
     0
  0
ENDTAB
  0
TABLE
  2
DIMSTYLE
  5
A
330
0
100
AcDbSymbolTable
 70
     1
100
AcDbDimStyleTable
 71
     0
  0
DIMSTYLE
105
22E
330
A
100
AcDbSymbolTableRecord
100
AcDbDimStyleTableRecord
  2
Standard
 70
     0
340
11
  0
ENDTAB
  0
TABLE
  2
BLOCK_RECORD
  5
1
330
0
100
AcDbSymbolTable
 70
     0
  0
BLOCK_RECORD
  5
1E
330
1
100
AcDbSymbolTableRecord
100
AcDbBlockTableRecord
  2
*Model_Space
340
21
  0
BLOCK_RECORD
  5
1A
330
1
100
AcDbSymbolTableRecord
100
AcDbBlockTableRecord
  2
*Paper_Space
340
1D
  0
ENDTAB
  0
ENDSEC
  0
SECTION
  2
BLOCKS
  0
BLOCK
  5
1F
330
1E
100
AcDbEntity
  8
0
100
AcDbBlockBegin
  2
*Model_Space
 70
     0
 10
0.0
 20
0.0
 30
0.0
  3
*Model_Space
  1

  0
ENDBLK
  5
20
330
1E
100
AcDbEntity
  8
0
100
AcDbBlockEnd
  0
BLOCK
  5
1B
330
1A
100
AcDbEntity
 67
     1
  8
0
100
AcDbBlockBegin
  2
*Paper_Space
 70
     0
 10
0.0
 20
0.0
 30
0.0
  3
*Paper_Space
  1

  0
ENDBLK
  5
1C
330
1A
100
AcDbEntity
 67
     1
  8
0
100
AcDbBlockEnd
  0
ENDSEC
  0
SECTION
  2
ENTITIES
  0
LINE
  5
42
330
1E
100
AcDbEntity
  8
0
100
AcDbLine
 10
17.3529
 20
35.4412
 30
0.0
 11
25.1471
 21
25.1471
 31
0.0
  0
LINE
  5
47
330
1E
100
AcDbEntity
  8
0
100
AcDbLine
 10
12.5
 20
47.35289999999999
 30
0.0
 11
17.3529
 21
35.4412
 31
0.0
  0
LINE
  5
4A
330
1E
100
AcDbEntity
  8
0
100
AcDbLine
 10
17.96089999999999
 20
47.44469999999999
 30
0.0
 11
18.82049999999999
 21
48.1972
 31
0.0
  0
LINE
  5
4B
330
1E
100
AcDbEntity
  8
0
100
AcDbLine
 10
17.85739999999999
 20
46.307
 30
0.0
 11
18.60979999999999
 21
45.44749999999999
 31
0.0
  0
LINE
  5
4C
330
1E
100
AcDbEntity
  8
0
100
AcDbLine
 10
17.85739999999999
 20
46.307
 30
0.0
 11
17.96089999999999
 21
47.44469999999999
 31
0.0
  0
LINE
  5
4D
330
1E
100
AcDbEntity
  8
0
100
AcDbLine
 10
18.60979999999999
 20
45.44749999999999
 30
0.0
 11
19.7475
 21
45.34399999999999
 31
0.0
  0
LINE
  5
4E
330
1E
100
AcDbEntity
  8
0
100
AcDbLine
 10
19.7475
 20
45.34399999999999
 30
0.0
 11
20.60709999999999
 21
46.0964
 31
0.0
  0
LINE
  5
50
330
1E
100
AcDbEntity
  8
0
100
AcDbLine
 10
25.1471
 20
25.1471
 30
0.0
 11
35.4412
 21
17.3529
 31
0.0
  0
LINE
  5
51
330
1E
100
AcDbEntity
  8
0
100
AcDbLine
 10
26.7021
 20
31.4313
 30
0.0
 11
27.0703
 21
30.3499
 31
0.0
  0
LINE
  5
52
330
1E
100
AcDbEntity
  8
0
100
AcDbLine
 10
26.7021
 20
31.4313
 30
0.0
 11
27.1813
 21
32.4683
 31
0.0
  0
LINE
  5
53
330
1E
100
AcDbEntity
  8
0
100
AcDbLine
 10
27.0703
 20
30.3499
 30
0.0
 11
28.10729999999999
 21
29.8707
 31
0.0
  0
LINE
  5
56
330
1E
100
AcDbEntity
  8
0
100
AcDbLine
 10
28.10729999999999
 20
29.8707
 30
0.0
 11
29.1887
 21
30.2389
 31
0.0
  0
LINE
  5
57
330
1E
100
AcDbEntity
  8
0
100
AcDbLine
 10
29.1887
 20
30.2389
 30
0.0
 11
29.66789999999999
 21
31.2759
 31
0.0
  0
LINE
  5
58
330
1E
100
AcDbEntity
  8
0
100
AcDbLine
 10
29.2997
 20
32.3573
 30
0.0
 11
29.66789999999999
 21
31.2759
 31
0.0
  0
LINE
  5
59
330
1E
100
AcDbEntity
  8
0
100
AcDbLine
 10
28.2627
 20
32.8365
 30
0.0
 11
29.2997
 21
32.3573
 31
0.0
  0
LINE
  5
5A
330
1E
100
AcDbEntity
  8
0
100
AcDbLine
 10
27.1813
 20
32.4683
 30
0.0
 11
28.2627
 21
32.8365
 31
0.0
  0
LINE
  5
5B
330
1E
100
AcDbEntity
  8
0
100
AcDbLine
 10
20.60709999999999
 20
46.0964
 30
0.0
 11
20.7106
 21
47.2341
 31
0.0
  0
LINE
  5
5C
330
1E
100
AcDbEntity
  8
0
100
AcDbLine
 10
19.9581
 20
48.0936
 30
0.0
 11
20.7106
 21
47.2341
 31
0.0
  0
LINE
  5
5D
330
1E
100
AcDbEntity
  8
0
100
AcDbLine
 10
10.7353
 20
60.0
 30
0.0
 11
12.5
 21
47.35289999999999
 31
0.0
  0
LINE
  5
5E
330
1E
100
AcDbEntity
  8
0
100
AcDbLine
 10
10.7353
 20
60.0
 30
0.0
 11
12.5
 21
72.6471
 31
0.0
  0
LINE
  5
66
330
1E
100
AcDbEntity
  8
0
100
AcDbLine
 10
0.0
 20
60.0
 30
0.0
 11
0.079642
 21
65.1169
 31
0.0
  0
LINE
  5
67
330
1E
100
AcDbEntity
  8
0
100
AcDbLine
 10
16.2692
 20
63.5405
 30
0.0
 11
17.2664
 21
62.9832
 31
0.0
  0
LINE
  5
68
330
1E
100
AcDbEntity
  8
0
100
AcDbLine
 10
0.079642
 20
65.1169
 30
0.0
 11
0.339526
 21
72.7034
 31
0.0
  0
LINE
  5
6A
330
1E
100
AcDbEntity
  8
0
100
AcDbLine
 10
15.9314
 20
64.6318
 30
0.0
 11
16.4887
 21
65.62899999999999
 31
0.0
  0
LINE
  5
6B
330
1E
100
AcDbEntity
  8
0
100
AcDbLine
 10
15.9314
 20
64.6318
 30
0.0
 11
16.2692
 21
63.5405
 31
0.0
  0
LINE
  5
6C
330
1E
100
AcDbEntity
  8
0
100
AcDbLine
 10
16.4887
 20
65.62899999999999
 30
0.0
 11
17.58
 21
65.9668
 31
0.0
  0
LINE
  5
6D
330
1E
100
AcDbEntity
  8
0
100
AcDbLine
 10
0.339526
 20
72.7034
 30
0.0
 11
0.8809509999999999
 21
82.53019999999999
 31
0.0
  0
LINE
  5
6E
330
1E
100
AcDbEntity
  8
0
100
AcDbLine
 10
12.5
 20
72.6471
 30
0.0
 11
17.3529
 21
84.5588
 31
0.0
  0
LINE
  5
6F
330
1E
100
AcDbEntity
  8
0
100
AcDbLine
 10
0.8809509999999999
 20
82.53019999999999
 30
0.0
 11
1.53221
 21
91.14360000000001
 31
0.0
  0
LINE
  5
70
330
1E
100
AcDbEntity
  8
0
100
AcDbLine
 10
17.3529
 20
84.5588
 30
0.0
 11
25.1471
 21
94.8529
 31
0.0
  0
LINE
  5
73
330
1E
100
AcDbEntity
  8
0
100
AcDbLine
 10
1.53221
 20
91.14360000000001
 30
0.0
 11
2.240899999999999
 21
97.08629999999999
 31
0.0
  0
LINE
  5
76
330
1E
100
AcDbEntity
  8
0
100
AcDbLine
 10
0.339526
 20
72.7034
 30
0.0
 11
0.8809509999999999
 21
82.53019999999999
 31
0.0
  0
LINE
  5
77
330
1E
100
AcDbEntity
  8
0
100
AcDbLine
 10
17.58
 20
65.9668
 30
0.0
 11
18.5772
 21
65.40949999999999
 31
0.0
  0
LINE
  5
78
330
1E
100
AcDbEntity
  8
0
100
AcDbLine
 10
21.49
 20
81.0213
 30
0.0
 11
21.6252
 21
82.15569999999999
 31
0.0
  0
LINE
  5
79
330
1E
100
AcDbEntity
  8
0
100
AcDbLine
 10
21.49
 20
81.0213
 30
0.0
 11
22.17429999999999
 21
80.10659999999999
 31
0.0
  0
LINE
  5
7A
330
1E
100
AcDbEntity
  8
0
100
AcDbLine
 10
21.6252
 20
82.15569999999999
 30
0.0
 11
22.54
 21
82.84
 31
0.0
  0
LINE
  5
7B
330
1E
100
AcDbEntity
  8
0
100
AcDbLine
 10
32.1233
 20
69.0577
 30
0.0
 11
32.8757
 21
69.9173
 31
0.0
  0
LINE
  5
7C
330
1E
100
AcDbEntity
  8
0
100
AcDbLine
 10
32.1233
 20
69.0577
 30
0.0
 11
32.22679999999999
 21
67.92
 31
0.0
  0
LINE
  5
7D
330
1E
100
AcDbEntity
  8
0
100
AcDbLine
 10
22.54
 20
82.84
 30
0.0
 11
23.6743
 21
82.70470000000001
 31
0.0
  0
LINE
  5
7E
330
1E
100
AcDbEntity
  8
0
100
AcDbLine
 10
23.6743
 20
82.70470000000001
 30
0.0
 11
24.35859999999999
 21
81.79
 31
0.0
  0
LINE
  5
7F
330
1E
100
AcDbEntity
  8
0
100
AcDbLine
 10
24.2233
 20
80.65569999999999
 30
0.0
 11
24.35859999999999
 21
81.79
 31
0.0
  0
LINE
  5
80
330
1E
100
AcDbEntity
  8
0
100
AcDbLine
 10
23.30859999999999
 20
79.9713
 30
0.0
 11
24.2233
 21
80.65569999999999
 31
0.0
  0
LINE
  5
81
330
1E
100
AcDbEntity
  8
0
100
AcDbLine
 10
22.17429999999999
 20
80.10659999999999
 30
0.0
 11
23.30859999999999
 21
79.9713
 31
0.0
  0
LINE
  5
82
330
1E
100
AcDbEntity
  8
0
100
AcDbLine
 10
18.5772
 20
65.40949999999999
 30
0.0
 11
18.91499999999999
 21
64.3182
 31
0.0
  0
LINE
  5
83
330
1E
100
AcDbEntity
  8
0
100
AcDbLine
 10
18.3577
 20
63.321
 30
0.0
 11
18.91499999999999
 21
64.3182
 31
0.0
  0
LINE
  5
84
330
1E
100
AcDbEntity
  8
0
100
AcDbLine
 10
17.2664
 20
62.9832
 30
0.0
 11
18.3577
 21
63.321
 31
0.0
  0
LINE
  5
85
330
1E
100
AcDbEntity
  8
0
100
AcDbLine
 10
32.22679999999999
 20
67.92
 30
0.0
 11
33.0863
 21
67.16759999999999
 31
0.0
  0
LINE
  5
86
330
1E
100
AcDbEntity
  8
0
100
AcDbLine
 10
32.8757
 20
69.9173
 30
0.0
 11
34.01339999999999
 21
70.02079999999999
 31
0.0
  0
LINE
  5
87
330
1E
100
AcDbEntity
  8
0
100
AcDbLine
 10
33.0863
 20
67.16759999999999
 30
0.0
 11
34.224
 21
67.2711
 31
0.0
  0
LINE
  5
88
330
1E
100
AcDbEntity
  8
0
100
AcDbLine
 10
32.22679999999999
 20
52.08
 30
0.0
 11
33.0863
 21
52.8324
 31
0.0
  0
LINE
  5
89
330
1E
100
AcDbEntity
  8
0
100
AcDbLine
 10
32.1233
 20
50.9423
 30
0.0
 11
32.8757
 21
50.0827
 31
0.0
  0
LINE
  5
8A
330
1E
100
AcDbEntity
  8
0
100
AcDbLine
 10
32.1233
 20
50.9423
 30
0.0
 11
32.22679999999999
 21
52.08
 31
0.0
  0
LINE
  5
8B
330
1E
100
AcDbEntity
  8
0
100
AcDbLine
 10
32.8757
 20
50.0827
 30
0.0
 11
34.01339999999999
 21
49.9792
 31
0.0
  0
LINE
  5
8C
330
1E
100
AcDbEntity
  8
0
100
AcDbLine
 10
34.01339999999999
 20
49.9792
 30
0.0
 11
34.8729
 21
50.7317
 31
0.0
  0
LINE
  5
8D
330
1E
100
AcDbEntity
  8
0
100
AcDbLine
 10
34.01339999999999
 20
70.02079999999999
 30
0.0
 11
34.8729
 21
69.26829999999999
 31
0.0
  0
LINE
  5
8E
330
1E
100
AcDbEntity
  8
0
100
AcDbLine
 10
34.224
 20
67.2711
 30
0.0
 11
34.9764
 21
68.1307
 31
0.0
  0
LINE
  5
8F
330
1E
100
AcDbEntity
  8
0
100
AcDbLine
 10
34.224
 20
52.7289
 30
0.0
 11
34.9764
 21
51.8693
 31
0.0
  0
LINE
  5
90
330
1E
100
AcDbEntity
  8
0
100
AcDbLine
 10
33.0863
 20
52.8324
 30
0.0
 11
34.224
 21
52.7289
 31
0.0
  0
LINE
  5
91
330
1E
100
AcDbEntity
  8
0
100
AcDbLine
 10
18.82049999999999
 20
48.1972
 30
0.0
 11
19.9581
 21
48.0936
 31
0.0
  0
LINE
  5
92
330
1E
100
AcDbEntity
  8
0
100
AcDbLine
 10
35.4412
 20
17.3529
 30
0.0
 11
47.35289999999999
 21
12.5
 31
0.0
  0
LINE
  5
93
330
1E
100
AcDbEntity
  8
0
100
AcDbLine
 10
34.8729
 20
69.26829999999999
 30
0.0
 11
34.9764
 21
68.1307
 31
0.0
  0
LINE
  5
94
330
1E
100
AcDbEntity
  8
0
100
AcDbLine
 10
34.8729
 20
50.7317
 30
0.0
 11
34.9764
 21
51.8693
 31
0.0
  0
LINE
  5
95
330
1E
100
AcDbEntity
  8
0
100
AcDbLine
 10
34.6038
 20
93.1685
 30
0.0
 11
35.71779999999999
 21
93.42159999999999
 31
0.0
  0
LINE
  5
96
330
1E
100
AcDbEntity
  8
0
100
AcDbLine
 10
25.1471
 20
94.8529
 30
0.0
 11
35.4412
 21
102.6469999999999
 31
0.0
  0
LINE
  5
9A
330
1E
100
AcDbEntity
  8
0
100
AcDbLine
 10
3.51816799999583
 20
105.443999999983
 30
0.0
 11
3.837259999999999
 21
106.7429999999999
 31
0.0
  0
LINE
  5
9B
330
1E
100
AcDbEntity
  8
0
100
AcDbLine
 10
4.97225499999496
 20
109.2769999999909
 30
0.0
 11
5.35491
 21
109.945
 31
0.0
  0
LINE
  5
A0
330
1E
100
AcDbEntity
  8
0
100
AcDbLine
 10
6.301819999999999
 20
111.371
 30
0.0
 11
7.39355
 21
112.606
 31
0.0
  0
LINE
  5
A1
330
1E
100
AcDbEntity
  8
0
100
AcDbLine
 10
5.35491
 20
109.945
 30
0.0
 11
6.301819999999999
 21
111.371
 31
0.0
  0
LINE
  5
A2
330
1E
100
AcDbEntity
  8
0
100
AcDbLine
 10
4.97225499999534
 20
109.276999999992
 30
0.0
 11
5.35491
 21
109.945
 31
0.0
  0
LINE
  5
A3
330
1E
100
AcDbEntity
  8
0
100
AcDbLine
 10
3.837259999999999
 20
106.7429999999999
 30
0.0
 11
4.213430000005249
 21
107.676000000013
 31
0.0
  0
LINE
  5
A4
330
1E
100
AcDbEntity
  8
0
100
AcDbLine
 10
3.837259999999999
 20
106.7429999999999
 30
0.0
 11
4.213430000004629
 21
107.676000000012
 31
0.0
  0
LINE
  5
A5
330
1E
100
AcDbEntity
  8
0
100
AcDbLine
 10
3.518167999995589
 20
105.4439999999819
 30
0.0
 11
3.837259999999999
 21
106.7429999999999
 31
0.0
  0
LINE
  5
A6
330
1E
100
AcDbEntity
  8
0
100
AcDbLine
 10
2.82005
 20
101.9479999999999
 30
0.0
 11
3.111284000000579
 21
103.526000000003
 31
0.0
  0
LINE
  5
A7
330
1E
100
AcDbEntity
  8
0
100
AcDbLine
 10
2.82005
 20
101.9479999999999
 30
0.0
 11
3.11128400000087
 21
103.526000000005
 31
0.0
  0
LINE
  5
A8
330
1E
100
AcDbEntity
  8
0
100
AcDbLine
 10
2.240899999999999
 20
97.08629999999999
 30
0.0
 11
2.82005
 21
101.9479999999999
 31
0.0
  0
LINE
  5
AB
330
1E
100
AcDbEntity
  8
0
100
AcDbLine
 10
7.39355
 20
112.606
 30
0.0
 11
8.62916
 21
113.6979999999999
 31
0.0
  0
LINE
  5
AC
330
1E
100
AcDbEntity
  8
0
100
AcDbLine
 10
8.62916
 20
113.6979999999999
 30
0.0
 11
10.05519999999999
 21
114.6449999999999
 31
0.0
  0
LINE
  5
AF
330
1E
100
AcDbEntity
  8
0
100
AcDbLine
 10
10.05519999999999
 20
114.6449999999999
 30
0.0
 11
11.39049999999999
 21
115.4099999999999
 31
0.0
  0
LINE
  5
B0
330
1E
100
AcDbEntity
  8
0
100
AcDbLine
 10
11.39049999999999
 20
115.4099999999999
 30
0.0
 11
13.2574
 21
116.1629999999999
 31
0.0
  0
LINE
  5
B3
330
1E
100
AcDbEntity
  8
0
100
AcDbLine
 10
13.2574
 20
116.1629999999999
 30
0.0
 11
15.4224
 21
116.6949999999999
 31
0.0
  0
LINE
  5
B4
330
1E
100
AcDbEntity
  8
0
100
AcDbLine
 10
15.4224
 20
116.6949999999999
 30
0.0
 11
18.05189999999999
 21
117.18
 31
0.0
  0
LINE
  5
B7
330
1E
100
AcDbEntity
  8
0
100
AcDbLine
 10
18.05189999999999
 20
117.18
 30
0.0
 11
22.9137
 21
117.759
 31
0.0
  0
LINE
  5
B8
330
1E
100
AcDbEntity
  8
0
100
AcDbLine
 10
22.9137
 20
117.759
 30
0.0
 11
28.8564
 21
118.4679999999999
 31
0.0
  0
LINE
  5
BA
330
1E
100
AcDbEntity
  8
0
100
AcDbLine
 10
28.8564
 20
118.4679999999999
 30
0.0
 11
37.4698
 21
119.1189999999999
 31
0.0
  0
LINE
  5
BB
330
1E
100
AcDbEntity
  8
0
100
AcDbLine
 10
33.3695
 20
94.86740000000001
 30
0.0
 11
33.6226
 21
93.75339999999999
 31
0.0
  0
LINE
  5
BC
330
1E
100
AcDbEntity
  8
0
100
AcDbLine
 10
33.3695
 20
94.86740000000001
 30
0.0
 11
33.9544
 21
95.8486
 31
0.0
  0
LINE
  5
BD
330
1E
100
AcDbEntity
  8
0
100
AcDbLine
 10
35.4412
 20
102.6469999999999
 30
0.0
 11
47.35289999999999
 21
107.4999999999999
 31
0.0
  0
LINE
  5
BF
330
1E
100
AcDbEntity
  8
0
100
AcDbLine
 10
35.06839999999999
 20
96.1017
 30
0.0
 11
36.0496
 21
95.51680000000001
 31
0.0
  0
LINE
  5
C0
330
1E
100
AcDbEntity
  8
0
100
AcDbLine
 10
33.9544
 20
95.8486
 30
0.0
 11
35.06839999999999
 21
96.1017
 31
0.0
  0
LINE
  5
C1
330
1E
100
AcDbEntity
  8
0
100
AcDbLine
 10
33.6226
 20
93.75339999999999
 30
0.0
 11
34.6038
 21
93.1685
 31
0.0
  0
LINE
  5
C2
330
1E
100
AcDbEntity
  8
0
100
AcDbLine
 10
35.71779999999999
 20
93.42159999999999
 30
0.0
 11
36.30279999999999
 21
94.40279999999999
 31
0.0
  0
LINE
  5
C5
330
1E
100
AcDbEntity
  8
0
100
AcDbLine
 10
41.2008
 20
20.3577
 30
0.0
 11
41.977
 21
19.5196
 31
0.0
  0
LINE
  5
C6
330
1E
100
AcDbEntity
  8
0
100
AcDbLine
 10
41.2008
 20
20.3577
 30
0.0
 11
41.2167
 21
21.49999999999999
 31
0.0
  0
LINE
  5
C7
330
1E
100
AcDbEntity
  8
0
100
AcDbLine
 10
41.977
 20
19.5196
 30
0.0
 11
43.11919999999999
 21
19.50359999999999
 31
0.0
  0
LINE
  5
C8
330
1E
100
AcDbEntity
  8
0
100
AcDbLine
 10
43.11919999999999
 20
19.50359999999999
 30
0.0
 11
43.95739999999999
 21
20.2798
 31
0.0
  0
LINE
  5
C9
330
1E
100
AcDbEntity
  8
0
100
AcDbLine
 10
47.35289999999999
 20
12.5
 30
0.0
 11
58.0
 21
11.01436792861599
 31
0.0
  0
LINE
  5
CD
330
1E
100
AcDbEntity
  8
0
100
AcDbLine
 10
43.95739999999999
 20
20.2798
 30
0.0
 11
43.97339999999999
 21
21.42199999999999
 31
0.0
  0
LINE
  5
CE
330
1E
100
AcDbEntity
  8
0
100
AcDbLine
 10
43.1972
 20
22.2602
 30
0.0
 11
43.97339999999999
 21
21.42199999999999
 31
0.0
  0
LINE
  5
CF
330
1E
100
AcDbEntity
  8
0
100
AcDbLine
 10
42.1863
 20
37.26789999999999
 30
0.0
 11
42.7712
 21
36.28659999999999
 31
0.0
  0
LINE
  5
D0
330
1E
100
AcDbEntity
  8
0
100
AcDbLine
 10
42.1863
 20
37.26789999999999
 30
0.0
 11
42.4394
 21
38.38179999999999
 31
0.0
  0
LINE
  5
D1
330
1E
100
AcDbEntity
  8
0
100
AcDbLine
 10
42.7712
 20
36.28659999999999
 30
0.0
 11
43.88519999999999
 21
36.03349999999999
 31
0.0
  0
LINE
  5
D2
330
1E
100
AcDbEntity
  8
0
100
AcDbLine
 10
43.88519999999999
 20
36.03349999999999
 30
0.0
 11
44.8664
 21
36.61849999999999
 31
0.0
  0
LINE
  5
D3
330
1E
100
AcDbEntity
  8
0
100
AcDbLine
 10
44.8664
 20
36.61849999999999
 30
0.0
 11
45.1195
 21
37.73239999999999
 31
0.0
  0
LINE
  5
D4
330
1E
100
AcDbEntity
  8
0
100
AcDbLine
 10
44.53459999999999
 20
38.7137
 30
0.0
 11
45.1195
 21
37.73239999999999
 31
0.0
  0
LINE
  5
D5
330
1E
100
AcDbEntity
  8
0
100
AcDbLine
 10
43.4206
 20
38.96679999999999
 30
0.0
 11
44.53459999999999
 21
38.7137
 31
0.0
  0
LINE
  5
D6
330
1E
100
AcDbEntity
  8
0
100
AcDbLine
 10
42.4394
 20
38.38179999999999
 30
0.0
 11
43.4206
 21
38.96679999999999
 31
0.0
  0
LINE
  5
D7
330
1E
100
AcDbEntity
  8
0
100
AcDbLine
 10
42.0549
 20
22.27619999999999
 30
0.0
 11
43.1972
 21
22.2602
 31
0.0
  0
LINE
  5
D8
330
1E
100
AcDbEntity
  8
0
100
AcDbLine
 10
41.2167
 20
21.49999999999999
 30
0.0
 11
42.0549
 21
22.27619999999999
 31
0.0
  0
LINE
  5
D9
330
1E
100
AcDbEntity
  8
0
100
AcDbLine
 10
46.4926
 20
56.71520000000001
 30
0.0
 11
47.3522
 21
57.4677
 31
0.0
  0
LINE
  5
DA
330
1E
100
AcDbEntity
  8
0
100
AcDbLine
 10
46.3891
 20
55.5776
 30
0.0
 11
47.1415
 21
54.718
 31
0.0
  0
LINE
  5
DB
330
1E
100
AcDbEntity
  8
0
100
AcDbLine
 10
46.3891
 20
55.5776
 30
0.0
 11
46.4926
 21
56.71520000000001
 31
0.0
  0
LINE
  5
DC
330
1E
100
AcDbEntity
  8
0
100
AcDbLine
 10
47.1415
 20
54.718
 30
0.0
 11
48.2792
 21
54.6145
 31
0.0
  0
LINE
  5
DD
330
1E
100
AcDbEntity
  8
0
100
AcDbLine
 10
48.2792
 20
54.6145
 30
0.0
 11
49.1388
 21
55.3669
 31
0.0
  0
LINE
  5
E1
330
1E
100
AcDbEntity
  8
0
100
AcDbLine
 10
49.1388
 20
55.3669
 30
0.0
 11
49.2423
 21
56.5046
 31
0.0
  0
LINE
  5
E2
330
1E
100
AcDbEntity
  8
0
100
AcDbLine
 10
48.4898
 20
57.36419999999999
 30
0.0
 11
49.2423
 21
56.5046
 31
0.0
  0
LINE
  5
E3
330
1E
100
AcDbEntity
  8
0
100
AcDbLine
 10
47.3522
 20
57.4677
 30
0.0
 11
48.4898
 21
57.36419999999999
 31
0.0
  0
LINE
  5
E4
330
1E
100
AcDbEntity
  8
0
100
AcDbLine
 10
55.8114
 20
57.2932
 30
0.0
 11
56.6388
 21
56.3002
 31
0.0
  0
LINE
  5
E5
330
1E
100
AcDbEntity
  8
0
100
AcDbLine
 10
58.07199999999999
 20
11.0
 30
0.0
 11
58.26399999999999
 21
11.0
 31
0.0
  0
LINE
  5
E6
330
1E
100
AcDbEntity
  8
0
100
AcDbLine
 10
58.0
 20
11.0
 30
0.0
 11
58.07199999999999
 21
11.0
 31
0.0
  0
LINE
  5
E7
330
1E
100
AcDbEntity
  8
0
100
AcDbLine
 10
58.58399999999999
 20
11.0
 30
0.0
 11
59.008
 21
11.0
 31
0.0
  0
LINE
  5
E8
330
1E
100
AcDbEntity
  8
0
100
AcDbLine
 10
58.26399999999999
 20
11.0
 30
0.0
 11
58.58399999999999
 21
11.0
 31
0.0
  0
LINE
  5
E9
330
1E
100
AcDbEntity
  8
0
100
AcDbLine
 10
58.1029708335694
 20
11.0
 30
0.0
 11
60.0
 21
10.7353
 31
0.0
  0
LINE
  5
EA
330
1E
100
AcDbEntity
  8
0
100
AcDbLine
 10
58.58399999999999
 20
23.0
 30
0.0
 11
59.008
 21
23.0
 31
0.0
  0
LINE
  5
EB
330
1E
100
AcDbEntity
  8
0
100
AcDbLine
 10
58.26399999999999
 20
23.0
 30
0.0
 11
58.58399999999999
 21
23.0
 31
0.0
  0
LINE
  5
EC
330
1E
100
AcDbEntity
  8
0
100
AcDbLine
 10
58.07199999999999
 20
23.0
 30
0.0
 11
58.26399999999999
 21
23.0
 31
0.0
  0
LINE
  5
ED
330
1E
100
AcDbEntity
  8
0
100
AcDbLine
 10
58.0
 20
23.0
 30
0.0
 11
58.07199999999999
 21
23.0
 31
0.0
  0
LINE
  5
EE
330
1E
100
AcDbEntity
  8
0
100
AcDbLine
 10
58.1029708335694
 20
11.0
 30
0.0
 11
60.0
 21
10.7353
 31
0.0
  0
LINE
  5
EF
330
1E
100
AcDbEntity
  8
0
100
AcDbLine
 10
58.95
 20
31.1387
 30
0.0
 11
60.0
 21
30.6887
 31
0.0
  0
LINE
  5
F0
330
1E
100
AcDbEntity
  8
0
100
AcDbLine
 10
58.95
 20
33.2387
 30
0.0
 11
60.0
 21
33.68869999999999
 31
0.0
  0
LINE
  5
F1
330
1E
100
AcDbEntity
  8
0
100
AcDbLine
 10
58.5
 20
32.18869999999999
 30
0.0
 11
58.95
 21
33.2387
 31
0.0
  0
LINE
  5
F2
330
1E
100
AcDbEntity
  8
0
100
AcDbLine
 10
58.5
 20
32.18869999999999
 30
0.0
 11
58.95
 21
31.1387
 31
0.0
  0
LINE
  5
F3
330
1E
100
AcDbEntity
  8
0
100
AcDbLine
 10
58.95
 20
46.1387
 30
0.0
 11
60.0
 21
45.68869999999999
 31
0.0
  0
LINE
  5
F4
330
1E
100
AcDbEntity
  8
0
100
AcDbLine
 10
58.95
 20
48.2387
 30
0.0
 11
60.0
 21
48.6887
 31
0.0
  0
LINE
  5
F5
330
1E
100
AcDbEntity
  8
0
100
AcDbLine
 10
58.5
 20
47.18869999999999
 30
0.0
 11
58.95
 21
48.2387
 31
0.0
  0
LINE
  5
F6
330
1E
100
AcDbEntity
  8
0
100
AcDbLine
 10
58.5
 20
47.18869999999999
 30
0.0
 11
58.95
 21
46.1387
 31
0.0
  0
LINE
  5
F8
330
1E
100
AcDbEntity
  8
0
100
AcDbLine
 10
60.0
 20
11.0
 30
0.0
 11
60.512
 21
11.0
 31
0.0
  0
LINE
  5
F9
330
1E
100
AcDbEntity
  8
0
100
AcDbLine
 10
59.488
 20
11.0
 30
0.0
 11
60.0
 21
11.0
 31
0.0
  0
LINE
  5
FA
330
1E
100
AcDbEntity
  8
0
100
AcDbLine
 10
60.0
 20
23.0
 30
0.0
 11
60.512
 21
23.0
 31
0.0
  0
LINE
  5
FB
330
1E
100
AcDbEntity
  8
0
100
AcDbLine
 10
59.488
 20
23.0
 30
0.0
 11
60.0
 21
23.0
 31
0.0
  0
LINE
  5
FC
330
1E
100
AcDbEntity
  8
0
100
AcDbLine
 10
59.008
 20
23.0
 30
0.0
 11
59.488
 21
23.0
 31
0.0
  0
LINE
  5
FD
330
1E
100
AcDbEntity
  8
0
100
AcDbLine
 10
59.008
 20
11.0
 30
0.0
 11
59.488
 21
11.0
 31
0.0
  0
LINE
  5
FE
330
1E
100
AcDbEntity
  8
0
100
AcDbLine
 10
60.0
 20
10.7353
 30
0.0
 11
61.8970291664306
 21
11.0
 31
0.0
  0
LINE
  5
101
330
1E
100
AcDbEntity
  8
0
100
AcDbLine
 10
60.0
 20
30.6887
 30
0.0
 11
61.05
 21
31.1387
 31
0.0
  0
LINE
  5
102
330
1E
100
AcDbEntity
  8
0
100
AcDbLine
 10
60.512
 20
11.0
 30
0.0
 11
60.99199999999999
 21
11.0
 31
0.0
  0
LINE
  5
103
330
1E
100
AcDbEntity
  8
0
100
AcDbLine
 10
60.99199999999999
 20
11.0
 30
0.0
 11
61.416
 21
11.0
 31
0.0
  0
LINE
  5
104
330
1E
100
AcDbEntity
  8
0
100
AcDbLine
 10
60.512
 20
23.0
 30
0.0
 11
60.99199999999999
 21
23.0
 31
0.0
  0
LINE
  5
105
330
1E
100
AcDbEntity
  8
0
100
AcDbLine
 10
60.99199999999999
 20
23.0
 30
0.0
 11
61.416
 21
23.0
 31
0.0
  0
LINE
  5
106
330
1E
100
AcDbEntity
  8
0
100
AcDbLine
 10
61.05
 20
31.1387
 30
0.0
 11
61.5
 21
32.18869999999999
 31
0.0
  0
LINE
  5
107
330
1E
100
AcDbEntity
  8
0
100
AcDbLine
 10
61.05
 20
33.2387
 30
0.0
 11
61.5
 21
32.18869999999999
 31
0.0
  0
LINE
  5
108
330
1E
100
AcDbEntity
  8
0
100
AcDbLine
 10
60.0
 20
33.68869999999999
 30
0.0
 11
61.05
 21
33.2387
 31
0.0
  0
LINE
  5
109
330
1E
100
AcDbEntity
  8
0
100
AcDbLine
 10
60.0
 20
45.68869999999999
 30
0.0
 11
61.05
 21
46.1387
 31
0.0
  0
LINE
  5
10B
330
1E
100
AcDbEntity
  8
0
100
AcDbLine
 10
61.416
 20
11.0
 30
0.0
 11
61.736
 21
11.0
 31
0.0
  0
LINE
  5
10C
330
1E
100
AcDbEntity
  8
0
100
AcDbLine
 10
61.736
 20
11.0
 30
0.0
 11
61.928
 21
11.0
 31
0.0
  0
LINE
  5
10D
330
1E
100
AcDbEntity
  8
0
100
AcDbLine
 10
61.928
 20
11.0
 30
0.0
 11
62.0
 21
11.0
 31
0.0
  0
LINE
  5
10E
330
1E
100
AcDbEntity
  8
0
100
AcDbLine
 10
62.0
 20
11.01436792861599
 30
0.0
 11
72.6471
 21
12.5
 31
0.0
  0
LINE
  5
10F
330
1E
100
AcDbEntity
  8
0
100
AcDbLine
 10
72.6471
 20
12.5
 30
0.0
 11
84.5588
 21
17.3529
 31
0.0
  0
LINE
  5
110
330
1E
100
AcDbEntity
  8
0
100
AcDbLine
 10
62.0
 20
11.01436792861599
 30
0.0
 11
72.6471
 21
12.5
 31
0.0
  0
LINE
  5
115
330
1E
100
AcDbEntity
  8
0
100
AcDbLine
 10
76.88079999999999
 20
19.50359999999999
 30
0.0
 11
78.02299999999999
 21
19.5196
 31
0.0
  0
LINE
  5
116
330
1E
100
AcDbEntity
  8
0
100
AcDbLine
 10
76.0426
 20
20.2798
 30
0.0
 11
76.88079999999999
 21
19.50359999999999
 31
0.0
  0
LINE
  5
117
330
1E
100
AcDbEntity
  8
0
100
AcDbLine
 10
76.0266
 20
21.42199999999999
 30
0.0
 11
76.8028
 21
22.2602
 31
0.0
  0
LINE
  5
118
330
1E
100
AcDbEntity
  8
0
100
AcDbLine
 10
76.0266
 20
21.42199999999999
 30
0.0
 11
76.0426
 21
20.2798
 31
0.0
  0
LINE
  5
119
330
1E
100
AcDbEntity
  8
0
100
AcDbLine
 10
61.416
 20
23.0
 30
0.0
 11
61.736
 21
23.0
 31
0.0
  0
LINE
  5
11A
330
1E
100
AcDbEntity
  8
0
100
AcDbLine
 10
61.736
 20
23.0
 30
0.0
 11
61.928
 21
23.0
 31
0.0
  0
LINE
  5
11B
330
1E
100
AcDbEntity
  8
0
100
AcDbLine
 10
61.928
 20
23.0
 30
0.0
 11
62.0
 21
23.0
 31
0.0
  0
LINE
  5
11C
330
1E
100
AcDbEntity
  8
0
100
AcDbLine
 10
76.8028
 20
22.2602
 30
0.0
 11
77.94509999999999
 21
22.27619999999999
 31
0.0
  0
LINE
  5
11E
330
1E
100
AcDbEntity
  8
0
100
AcDbLine
 10
84.5588
 20
17.3529
 30
0.0
 11
94.8529
 21
25.1471
 31
0.0
  0
LINE
  5
120
330
1E
100
AcDbEntity
  8
0
100
AcDbLine
 10
78.7833
 20
21.49999999999999
 30
0.0
 11
78.7992
 21
20.3577
 31
0.0
  0
LINE
  5
121
330
1E
100
AcDbEntity
  8
0
100
AcDbLine
 10
78.02299999999999
 20
19.5196
 30
0.0
 11
78.7992
 21
20.3577
 31
0.0
  0
LINE
  5
122
330
1E
100
AcDbEntity
  8
0
100
AcDbLine
 10
77.94509999999999
 20
22.27619999999999
 30
0.0
 11
78.7833
 21
21.49999999999999
 31
0.0
  0
LINE
  5
123
330
1E
100
AcDbEntity
  8
0
100
AcDbLine
 10
90.3321
 20
31.2759
 30
0.0
 11
90.7003
 21
32.3573
 31
0.0
  0
LINE
  5
124
330
1E
100
AcDbEntity
  8
0
100
AcDbLine
 10
90.3321
 20
31.2759
 30
0.0
 11
90.81129999999999
 21
30.2389
 31
0.0
  0
LINE
  5
126
330
1E
100
AcDbEntity
  8
0
100
AcDbLine
 10
94.8529
 20
25.1471
 30
0.0
 11
102.6469999999999
 21
35.4412
 31
0.0
  0
LINE
  5
129
330
1E
100
AcDbEntity
  8
0
100
AcDbLine
 10
91.8927
 20
29.8707
 30
0.0
 11
92.9297
 21
30.3499
 31
0.0
  0
LINE
  5
12A
330
1E
100
AcDbEntity
  8
0
100
AcDbLine
 10
92.81870000000001
 20
32.4683
 30
0.0
 11
93.2979
 21
31.4313
 31
0.0
  0
LINE
  5
12B
330
1E
100
AcDbEntity
  8
0
100
AcDbLine
 10
92.9297
 20
30.3499
 30
0.0
 11
93.2979
 21
31.4313
 31
0.0
  0
LINE
  5
12C
330
1E
100
AcDbEntity
  8
0
100
AcDbLine
 10
90.81129999999999
 20
30.2389
 30
0.0
 11
91.8927
 21
29.8707
 31
0.0
  0
LINE
  5
12D
330
1E
100
AcDbEntity
  8
0
100
AcDbLine
 10
90.7003
 20
32.3573
 30
0.0
 11
91.7373
 21
32.8365
 31
0.0
  0
LINE
  5
12E
330
1E
100
AcDbEntity
  8
0
100
AcDbLine
 10
76.1148
 20
36.03349999999999
 30
0.0
 11
77.2288
 21
36.28659999999999
 31
0.0
  0
LINE
  5
12F
330
1E
100
AcDbEntity
  8
0
100
AcDbLine
 10
75.1336
 20
36.61849999999999
 30
0.0
 11
76.1148
 21
36.03349999999999
 31
0.0
  0
LINE
  5
130
330
1E
100
AcDbEntity
  8
0
100
AcDbLine
 10
74.8805
 20
37.73239999999999
 30
0.0
 11
75.4654
 21
38.7137
 31
0.0
  0
LINE
  5
131
330
1E
100
AcDbEntity
  8
0
100
AcDbLine
 10
74.8805
 20
37.73239999999999
 30
0.0
 11
75.1336
 21
36.61849999999999
 31
0.0
  0
LINE
  5
132
330
1E
100
AcDbEntity
  8
0
100
AcDbLine
 10
75.4654
 20
38.7137
 30
0.0
 11
76.5794
 21
38.96679999999999
 31
0.0
  0
LINE
  5
133
330
1E
100
AcDbEntity
  8
0
100
AcDbLine
 10
77.56059999999999
 20
38.38179999999999
 30
0.0
 11
77.81369999999999
 21
37.26789999999999
 31
0.0
  0
LINE
  5
134
330
1E
100
AcDbEntity
  8
0
100
AcDbLine
 10
77.2288
 20
36.28659999999999
 30
0.0
 11
77.81369999999999
 21
37.26789999999999
 31
0.0
  0
LINE
  5
135
330
1E
100
AcDbEntity
  8
0
100
AcDbLine
 10
76.5794
 20
38.96679999999999
 30
0.0
 11
77.56059999999999
 21
38.38179999999999
 31
0.0
  0
LINE
  5
136
330
1E
100
AcDbEntity
  8
0
100
AcDbLine
 10
91.7373
 20
32.8365
 30
0.0
 11
92.81870000000001
 21
32.4683
 31
0.0
  0
LINE
  5
137
330
1E
100
AcDbEntity
  8
0
100
AcDbLine
 10
61.05
 20
46.1387
 30
0.0
 11
61.5
 21
47.18869999999999
 31
0.0
  0
LINE
  5
138
330
1E
100
AcDbEntity
  8
0
100
AcDbLine
 10
61.05
 20
48.2387
 30
0.0
 11
61.5
 21
47.18869999999999
 31
0.0
  0
LINE
  5
139
330
1E
100
AcDbEntity
  8
0
100
AcDbLine
 10
60.0
 20
48.6887
 30
0.0
 11
61.05
 21
48.2387
 31
0.0
  0
LINE
  5
13A
330
1E
100
AcDbEntity
  8
0
100
AcDbLine
 10
71.7208
 20
54.6145
 30
0.0
 11
72.8585
 21
54.718
 31
0.0
  0
LINE
  5
13B
330
1E
100
AcDbEntity
  8
0
100
AcDbLine
 10
85.9866
 20
49.9792
 30
0.0
 11
87.12430000000001
 21
50.0827
 31
0.0
  0
LINE
  5
13C
330
1E
100
AcDbEntity
  8
0
100
AcDbLine
 10
87.12430000000001
 20
50.0827
 30
0.0
 11
87.8767
 21
50.9423
 31
0.0
  0
LINE
  5
13D
330
1E
100
AcDbEntity
  8
0
100
AcDbLine
 10
87.77320000000001
 20
52.08
 30
0.0
 11
87.8767
 21
50.9423
 31
0.0
  0
LINE
  5
13E
330
1E
100
AcDbEntity
  8
0
100
AcDbLine
 10
86.9137
 20
52.8324
 30
0.0
 11
87.77320000000001
 21
52.08
 31
0.0
  0
LINE
  5
13F
330
1E
100
AcDbEntity
  8
0
100
AcDbLine
 10
85.77600000000002
 20
52.7289
 30
0.0
 11
86.9137
 21
52.8324
 31
0.0
  0
LINE
  5
140
330
1E
100
AcDbEntity
  8
0
100
AcDbLine
 10
85.02360000000001
 20
51.8693
 30
0.0
 11
85.1271
 21
50.7317
 31
0.0
  0
LINE
  5
141
330
1E
100
AcDbEntity
  8
0
100
AcDbLine
 10
85.02360000000001
 20
51.8693
 30
0.0
 11
85.77600000000002
 21
52.7289
 31
0.0
  0
LINE
  5
142
330
1E
100
AcDbEntity
  8
0
100
AcDbLine
 10
85.1271
 20
50.7317
 30
0.0
 11
85.9866
 21
49.9792
 31
0.0
  0
LINE
  5
143
330
1E
100
AcDbEntity
  8
0
100
AcDbLine
 10
72.8585
 20
54.718
 30
0.0
 11
73.6109
 21
55.5776
 31
0.0
  0
LINE
  5
144
330
1E
100
AcDbEntity
  8
0
100
AcDbLine
 10
99.2894
 20
47.2341
 30
0.0
 11
99.39289999999999
 21
46.0964
 31
0.0
  0
LINE
  5
145
330
1E
100
AcDbEntity
  8
0
100
AcDbLine
 10
99.2894
 20
47.2341
 30
0.0
 11
100.042
 21
48.0936
 31
0.0
  0
LINE
  5
149
330
1E
100
AcDbEntity
  8
0
100
AcDbLine
 10
100.252
 20
45.34399999999999
 30
0.0
 11
101.39
 21
45.44749999999999
 31
0.0
  0
LINE
  5
14A
330
1E
100
AcDbEntity
  8
0
100
AcDbLine
 10
101.39
 20
45.44749999999999
 30
0.0
 11
102.1429999999999
 21
46.307
 31
0.0
  0
LINE
  5
14E
330
1E
100
AcDbEntity
  8
0
100
AcDbLine
 10
102.6469999999999
 20
35.4412
 30
0.0
 11
107.4999999999999
 21
47.35289999999999
 31
0.0
  0
LINE
  5
152
330
1E
100
AcDbEntity
  8
0
100
AcDbLine
 10
107.4999999999999
 20
47.35289999999999
 30
0.0
 11
109.265
 21
60.0
 31
0.0
  0
LINE
  5
170
330
1E
100
AcDbEntity
  8
0
100
AcDbLine
 10
102.039
 20
47.44469999999999
 30
0.0
 11
102.1429999999999
 21
46.307
 31
0.0
  0
LINE
  5
173
330
1E
100
AcDbEntity
  8
0
100
AcDbLine
 10
101.18
 20
48.1972
 30
0.0
 11
102.039
 21
47.44469999999999
 31
0.0
  0
LINE
  5
174
330
1E
100
AcDbEntity
  8
0
100
AcDbLine
 10
100.042
 20
48.0936
 30
0.0
 11
101.18
 21
48.1972
 31
0.0
  0
LINE
  5
175
330
1E
100
AcDbEntity
  8
0
100
AcDbLine
 10
99.39289999999999
 20
46.0964
 30
0.0
 11
100.252
 21
45.34399999999999
 31
0.0
  0
LINE
  5
176
330
1E
100
AcDbEntity
  8
0
100
AcDbLine
 10
60.2721
 20
55.0204
 30
0.0
 11
61.5451
 21
55.2447
 31
0.0
  0
LINE
  5
177
330
1E
100
AcDbEntity
  8
0
100
AcDbLine
 10
58.9825
 20
55.10609999999999
 30
0.0
 11
60.2721
 21
55.0204
 31
0.0
  0
LINE
  5
178
330
1E
100
AcDbEntity
  8
0
100
AcDbLine
 10
61.5451
 20
55.2447
 30
0.0
 11
62.7068
 21
55.8114
 31
0.0
  0
LINE
  5
179
330
1E
100
AcDbEntity
  8
0
100
AcDbLine
 10
70.8612
 20
55.3669
 30
0.0
 11
71.7208
 21
54.6145
 31
0.0
  0
LINE
  5
17A
330
1E
100
AcDbEntity
  8
0
100
AcDbLine
 10
62.7068
 20
55.8114
 30
0.0
 11
63.6998
 21
56.6388
 31
0.0
  0
LINE
  5
17B
330
1E
100
AcDbEntity
  8
0
100
AcDbLine
 10
57.7272
 20
55.5393
 30
0.0
 11
58.9825
 21
55.10609999999999
 31
0.0
  0
LINE
  5
17C
330
1E
100
AcDbEntity
  8
0
100
AcDbLine
 10
63.6998
 20
56.6388
 30
0.0
 11
64.4607
 21
57.7272
 31
0.0
  0
LINE
  5
17D
330
1E
100
AcDbEntity
  8
0
100
AcDbLine
 10
73.5074
 20
56.71520000000001
 30
0.0
 11
73.6109
 21
55.5776
 31
0.0
  0
LINE
  5
17E
330
1E
100
AcDbEntity
  8
0
100
AcDbLine
 10
72.6478
 20
57.4677
 30
0.0
 11
73.5074
 21
56.71520000000001
 31
0.0
  0
LINE
  5
17F
330
1E
100
AcDbEntity
  8
0
100
AcDbLine
 10
71.51019999999999
 20
57.36419999999999
 30
0.0
 11
72.6478
 21
57.4677
 31
0.0
  0
LINE
  5
180
330
1E
100
AcDbEntity
  8
0
100
AcDbLine
 10
70.7577
 20
56.5046
 30
0.0
 11
70.8612
 21
55.3669
 31
0.0
  0
LINE
  5
181
330
1E
100
AcDbEntity
  8
0
100
AcDbLine
 10
70.7577
 20
56.5046
 30
0.0
 11
71.51019999999999
 21
57.36419999999999
 31
0.0
  0
LINE
  5
182
330
1E
100
AcDbEntity
  8
0
100
AcDbLine
 10
64.4607
 20
57.7272
 30
0.0
 11
64.8939
 21
58.9825
 31
0.0
  0
LINE
  5
183
330
1E
100
AcDbEntity
  8
0
100
AcDbLine
 10
56.6388
 20
56.3002
 30
0.0
 11
57.7272
 21
55.5393
 31
0.0
  0
LINE
  5
184
330
1E
100
AcDbEntity
  8
0
100
AcDbLine
 10
55.10609999999999
 20
61.0175
 30
0.0
 11
55.5393
 21
62.2728
 31
0.0
  0
LINE
  5
185
330
1E
100
AcDbEntity
  8
0
100
AcDbLine
 10
55.0204
 20
59.72789999999999
 30
0.0
 11
55.2447
 21
58.4549
 31
0.0
  0
LINE
  5
186
330
1E
100
AcDbEntity
  8
0
100
AcDbLine
 10
55.0204
 20
59.72789999999999
 30
0.0
 11
55.10609999999999
 21
61.0175
 31
0.0
  0
LINE
  5
187
330
1E
100
AcDbEntity
  8
0
100
AcDbLine
 10
55.5393
 20
62.2728
 30
0.0
 11
56.3002
 21
63.3612
 31
0.0
  0
LINE
  5
188
330
1E
100
AcDbEntity
  8
0
100
AcDbLine
 10
56.3002
 20
63.3612
 30
0.0
 11
57.2932
 21
64.18859999999999
 31
0.0
  0
LINE
  5
189
330
1E
100
AcDbEntity
  8
0
100
AcDbLine
 10
57.2932
 20
64.18859999999999
 30
0.0
 11
58.4549
 21
64.7553
 31
0.0
  0
LINE
  5
18A
330
1E
100
AcDbEntity
  8
0
100
AcDbLine
 10
58.4549
 20
64.7553
 30
0.0
 11
59.72789999999999
 21
64.9796
 31
0.0
  0
LINE
  5
18B
330
1E
100
AcDbEntity
  8
0
100
AcDbLine
 10
62.2728
 20
64.4607
 30
0.0
 11
63.3612
 21
63.6998
 31
0.0
  0
LINE
  5
18C
330
1E
100
AcDbEntity
  8
0
100
AcDbLine
 10
63.3612
 20
63.6998
 30
0.0
 11
64.18859999999999
 21
62.7068
 31
0.0
  0
LINE
  5
18D
330
1E
100
AcDbEntity
  8
0
100
AcDbLine
 10
64.18859999999999
 20
62.7068
 30
0.0
 11
64.7553
 21
61.5451
 31
0.0
  0
LINE
  5
18E
330
1E
100
AcDbEntity
  8
0
100
AcDbLine
 10
43.4206
 20
81.0332
 30
0.0
 11
44.53459999999999
 21
81.28629999999999
 31
0.0
  0
LINE
  5
190
330
1E
100
AcDbEntity
  8
0
100
AcDbLine
 10
37.4698
 20
119.1189999999999
 30
0.0
 11
47.29659999999999
 21
119.6599999999999
 31
0.0
  0
LINE
  5
191
330
1E
100
AcDbEntity
  8
0
100
AcDbLine
 10
42.1863
 20
82.7321
 30
0.0
 11
42.4394
 21
81.6182
 31
0.0
  0
LINE
  5
192
330
1E
100
AcDbEntity
  8
0
100
AcDbLine
 10
42.1863
 20
82.7321
 30
0.0
 11
42.7712
 21
83.7134
 31
0.0
  0
LINE
  5
193
330
1E
100
AcDbEntity
  8
0
100
AcDbLine
 10
43.88519999999999
 20
83.96649999999999
 30
0.0
 11
44.8664
 21
83.3815
 31
0.0
  0
LINE
  5
194
330
1E
100
AcDbEntity
  8
0
100
AcDbLine
 10
42.7712
 20
83.7134
 30
0.0
 11
43.88519999999999
 21
83.96649999999999
 31
0.0
  0
LINE
  5
195
330
1E
100
AcDbEntity
  8
0
100
AcDbLine
 10
42.4394
 20
81.6182
 30
0.0
 11
43.4206
 21
81.0332
 31
0.0
  0
LINE
  5
196
330
1E
100
AcDbEntity
  8
0
100
AcDbLine
 10
44.53459999999999
 20
81.28629999999999
 30
0.0
 11
45.1195
 21
82.2676
 31
0.0
  0
LINE
  5
197
330
1E
100
AcDbEntity
  8
0
100
AcDbLine
 10
51.003
 20
70.5969
 30
0.0
 11
51.2562
 21
69.4829
 31
0.0
  0
LINE
  5
198
330
1E
100
AcDbEntity
  8
0
100
AcDbLine
 10
51.003
 20
70.5969
 30
0.0
 11
51.588
 21
71.57810000000001
 31
0.0
  0
LINE
  5
199
330
1E
100
AcDbEntity
  8
0
100
AcDbLine
 10
51.2562
 20
69.4829
 30
0.0
 11
52.2374
 21
68.898
 31
0.0
  0
LINE
  5
19A
330
1E
100
AcDbEntity
  8
0
100
AcDbLine
 10
52.2374
 20
68.898
 30
0.0
 11
53.35139999999999
 21
69.1511
 31
0.0
  0
LINE
  5
19B
330
1E
100
AcDbEntity
  8
0
100
AcDbLine
 10
53.35139999999999
 20
69.1511
 30
0.0
 11
53.9363
 21
70.1323
 31
0.0
  0
LINE
  5
19D
330
1E
100
AcDbEntity
  8
0
100
AcDbLine
 10
47.35289999999999
 20
107.4999999999999
 30
0.0
 11
60.0
 21
109.265
 31
0.0
  0
LINE
  5
19F
330
1E
100
AcDbEntity
  8
0
100
AcDbLine
 10
47.29659999999999
 20
119.6599999999999
 30
0.0
 11
54.8831
 21
119.92
 31
0.0
  0
LINE
  5
1A0
330
1E
100
AcDbEntity
  8
0
100
AcDbLine
 10
49.8537
 20
102.685
 30
0.0
 11
50.7872
 21
103.3429999999999
 31
0.0
  0
LINE
  5
1A1
330
1E
100
AcDbEntity
  8
0
100
AcDbLine
 10
49.6318
 20
101.5639999999999
 30
0.0
 11
50.2903
 21
100.6299999999999
 31
0.0
  0
LINE
  5
1A2
330
1E
100
AcDbEntity
  8
0
100
AcDbLine
 10
49.6318
 20
101.5639999999999
 30
0.0
 11
49.8537
 21
102.685
 31
0.0
  0
LINE
  5
1A3
330
1E
100
AcDbEntity
  8
0
100
AcDbLine
 10
50.7872
 20
103.3429999999999
 30
0.0
 11
51.9078
 21
103.121
 31
0.0
  0
LINE
  5
1A4
330
1E
100
AcDbEntity
  8
0
100
AcDbLine
 10
50.2903
 20
100.6299999999999
 30
0.0
 11
51.4109
 21
100.4089999999999
 31
0.0
  0
LINE
  5
1A5
330
1E
100
AcDbEntity
  8
0
100
AcDbLine
 10
51.4109
 20
100.4089999999999
 30
0.0
 11
52.3444
 21
101.067
 31
0.0
  0
LINE
  5
1A6
330
1E
100
AcDbEntity
  8
0
100
AcDbLine
 10
51.9078
 20
103.121
 30
0.0
 11
52.5662
 21
102.1879999999999
 31
0.0
  0
LINE
  5
1A8
330
1E
100
AcDbEntity
  8
0
100
AcDbLine
 10
54.8831
 20
119.92
 30
0.0
 11
60.0
 21
120.0
 31
0.0
  0
LINE
  5
1A9
330
1E
100
AcDbEntity
  8
0
100
AcDbLine
 10
58.95
 20
88.86129999999999
 30
0.0
 11
60.0
 21
89.31130000000001
 31
0.0
  0
LINE
  5
1AA
330
1E
100
AcDbEntity
  8
0
100
AcDbLine
 10
58.5
 20
87.8113
 30
0.0
 11
58.95
 21
86.7613
 31
0.0
  0
LINE
  5
1AB
330
1E
100
AcDbEntity
  8
0
100
AcDbLine
 10
58.5
 20
87.8113
 30
0.0
 11
58.95
 21
88.86129999999999
 31
0.0
  0
LINE
  5
1AC
330
1E
100
AcDbEntity
  8
0
100
AcDbLine
 10
60.0
 20
109.265
 30
0.0
 11
72.6471
 21
107.4999999999999
 31
0.0
  0
LINE
  5
1B0
330
1E
100
AcDbEntity
  8
0
100
AcDbLine
 10
60.0
 20
89.31130000000001
 30
0.0
 11
61.05
 21
88.86129999999999
 31
0.0
  0
LINE
  5
1B1
330
1E
100
AcDbEntity
  8
0
100
AcDbLine
 10
58.95
 20
86.7613
 30
0.0
 11
60.0
 21
86.3113
 31
0.0
  0
LINE
  5
1B2
330
1E
100
AcDbEntity
  8
0
100
AcDbLine
 10
60.0
 20
86.3113
 30
0.0
 11
61.05
 21
86.7613
 31
0.0
  0
LINE
  5
1B3
330
1E
100
AcDbEntity
  8
0
100
AcDbLine
 10
52.3444
 20
101.067
 30
0.0
 11
52.5662
 21
102.1879999999999
 31
0.0
  0
LINE
  5
1B4
330
1E
100
AcDbEntity
  8
0
100
AcDbLine
 10
52.70199999999999
 20
71.83119999999999
 30
0.0
 11
53.6832
 21
71.2463
 31
0.0
  0
LINE
  5
1B5
330
1E
100
AcDbEntity
  8
0
100
AcDbLine
 10
51.588
 20
71.57810000000001
 30
0.0
 11
52.70199999999999
 21
71.83119999999999
 31
0.0
  0
LINE
  5
1B6
330
1E
100
AcDbEntity
  8
0
100
AcDbLine
 10
53.6832
 20
71.2463
 30
0.0
 11
53.9363
 21
70.1323
 31
0.0
  0
LINE
  5
1B7
330
1E
100
AcDbEntity
  8
0
100
AcDbLine
 10
44.8664
 20
83.3815
 30
0.0
 11
45.1195
 21
82.2676
 31
0.0
  0
LINE
  5
1B8
330
1E
100
AcDbEntity
  8
0
100
AcDbLine
 10
59.72789999999999
 20
64.9796
 30
0.0
 11
61.0175
 21
64.8939
 31
0.0
  0
LINE
  5
1B9
330
1E
100
AcDbEntity
  8
0
100
AcDbLine
 10
61.05
 20
88.86129999999999
 30
0.0
 11
61.5
 21
87.8113
 31
0.0
  0
LINE
  5
1BA
330
1E
100
AcDbEntity
  8
0
100
AcDbLine
 10
61.05
 20
86.7613
 30
0.0
 11
61.5
 21
87.8113
 31
0.0
  0
LINE
  5
1BB
330
1E
100
AcDbEntity
  8
0
100
AcDbLine
 10
61.0175
 20
64.8939
 30
0.0
 11
62.2728
 21
64.4607
 31
0.0
  0
LINE
  5
1BC
330
1E
100
AcDbEntity
  8
0
100
AcDbLine
 10
66.3168
 20
71.2463
 30
0.0
 11
67.298
 21
71.83119999999999
 31
0.0
  0
LINE
  5
1BD
330
1E
100
AcDbEntity
  8
0
100
AcDbLine
 10
66.0637
 20
70.1323
 30
0.0
 11
66.6486
 21
69.1511
 31
0.0
  0
LINE
  5
1BE
330
1E
100
AcDbEntity
  8
0
100
AcDbLine
 10
66.0637
 20
70.1323
 30
0.0
 11
66.3168
 21
71.2463
 31
0.0
  0
LINE
  5
1BF
330
1E
100
AcDbEntity
  8
0
100
AcDbLine
 10
68.74379999999999
 20
69.4829
 30
0.0
 11
68.997
 21
70.5969
 31
0.0
  0
LINE
  5
1C0
330
1E
100
AcDbEntity
  8
0
100
AcDbLine
 10
68.41199999999999
 20
71.57810000000001
 30
0.0
 11
68.997
 21
70.5969
 31
0.0
  0
LINE
  5
1C1
330
1E
100
AcDbEntity
  8
0
100
AcDbLine
 10
67.298
 20
71.83119999999999
 30
0.0
 11
68.41199999999999
 21
71.57810000000001
 31
0.0
  0
LINE
  5
1C2
330
1E
100
AcDbEntity
  8
0
100
AcDbLine
 10
66.6486
 20
69.1511
 30
0.0
 11
67.7626
 21
68.898
 31
0.0
  0
LINE
  5
1C3
330
1E
100
AcDbEntity
  8
0
100
AcDbLine
 10
67.7626
 20
68.898
 30
0.0
 11
68.74379999999999
 21
69.4829
 31
0.0
  0
LINE
  5
1C4
330
1E
100
AcDbEntity
  8
0
100
AcDbLine
 10
85.1271
 20
69.26829999999999
 30
0.0
 11
85.9866
 21
70.02079999999999
 31
0.0
  0
LINE
  5
1C5
330
1E
100
AcDbEntity
  8
0
100
AcDbLine
 10
85.02360000000001
 20
68.1307
 30
0.0
 11
85.77600000000002
 21
67.2711
 31
0.0
  0
LINE
  5
1C6
330
1E
100
AcDbEntity
  8
0
100
AcDbLine
 10
85.02360000000001
 20
68.1307
 30
0.0
 11
85.1271
 21
69.26829999999999
 31
0.0
  0
LINE
  5
1C7
330
1E
100
AcDbEntity
  8
0
100
AcDbLine
 10
86.9137
 20
67.16759999999999
 30
0.0
 11
87.77320000000001
 21
67.92
 31
0.0
  0
LINE
  5
1C8
330
1E
100
AcDbEntity
  8
0
100
AcDbLine
 10
87.77320000000001
 20
67.92
 30
0.0
 11
87.8767
 21
69.0577
 31
0.0
  0
LINE
  5
1C9
330
1E
100
AcDbEntity
  8
0
100
AcDbLine
 10
87.12430000000001
 20
69.9173
 30
0.0
 11
87.8767
 21
69.0577
 31
0.0
  0
LINE
  5
1CA
330
1E
100
AcDbEntity
  8
0
100
AcDbLine
 10
85.9866
 20
70.02079999999999
 30
0.0
 11
87.12430000000001
 21
69.9173
 31
0.0
  0
LINE
  5
1CB
330
1E
100
AcDbEntity
  8
0
100
AcDbLine
 10
85.77600000000002
 20
67.2711
 30
0.0
 11
86.9137
 21
67.16759999999999
 31
0.0
  0
LINE
  5
1CC
330
1E
100
AcDbEntity
  8
0
100
AcDbLine
 10
76.1148
 20
83.96649999999999
 30
0.0
 11
77.2288
 21
83.7134
 31
0.0
  0
LINE
  5
1CD
330
1E
100
AcDbEntity
  8
0
100
AcDbLine
 10
75.1336
 20
83.3815
 30
0.0
 11
76.1148
 21
83.96649999999999
 31
0.0
  0
LINE
  5
1CE
330
1E
100
AcDbEntity
  8
0
100
AcDbLine
 10
74.8805
 20
82.2676
 30
0.0
 11
75.4654
 21
81.28629999999999
 31
0.0
  0
LINE
  5
1CF
330
1E
100
AcDbEntity
  8
0
100
AcDbLine
 10
74.8805
 20
82.2676
 30
0.0
 11
75.1336
 21
83.3815
 31
0.0
  0
LINE
  5
1D0
330
1E
100
AcDbEntity
  8
0
100
AcDbLine
 10
75.4654
 20
81.28629999999999
 30
0.0
 11
76.5794
 21
81.0332
 31
0.0
  0
LINE
  5
1D1
330
1E
100
AcDbEntity
  8
0
100
AcDbLine
 10
77.56059999999999
 20
81.6182
 30
0.0
 11
77.81369999999999
 21
82.7321
 31
0.0
  0
LINE
  5
1D2
330
1E
100
AcDbEntity
  8
0
100
AcDbLine
 10
77.2288
 20
83.7134
 30
0.0
 11
77.81369999999999
 21
82.7321
 31
0.0
  0
LINE
  5
1D3
330
1E
100
AcDbEntity
  8
0
100
AcDbLine
 10
76.5794
 20
81.0332
 30
0.0
 11
77.56059999999999
 21
81.6182
 31
0.0
  0
LINE
  5
1D4
330
1E
100
AcDbEntity
  8
0
100
AcDbLine
 10
68.5891
 20
100.4089999999999
 30
0.0
 11
69.7097
 21
100.6299999999999
 31
0.0
  0
LINE
  5
1D7
330
1E
100
AcDbEntity
  8
0
100
AcDbLine
 10
67.43380000000001
 20
102.1879999999999
 30
0.0
 11
67.6556
 21
101.067
 31
0.0
  0
LINE
  5
1D8
330
1E
100
AcDbEntity
  8
0
100
AcDbLine
 10
67.43380000000001
 20
102.1879999999999
 30
0.0
 11
68.0922
 21
103.121
 31
0.0
  0
LINE
  5
1D9
330
1E
100
AcDbEntity
  8
0
100
AcDbLine
 10
70.1463
 20
102.685
 30
0.0
 11
70.3682
 21
101.5639999999999
 31
0.0
  0
LINE
  5
1DA
330
1E
100
AcDbEntity
  8
0
100
AcDbLine
 10
72.6471
 20
107.4999999999999
 30
0.0
 11
84.5588
 21
102.6469999999999
 31
0.0
  0
LINE
  5
1E0
330
1E
100
AcDbEntity
  8
0
100
AcDbLine
 10
69.2128
 20
103.3429999999999
 30
0.0
 11
70.1463
 21
102.685
 31
0.0
  0
LINE
  5
1E1
330
1E
100
AcDbEntity
  8
0
100
AcDbLine
 10
68.0922
 20
103.121
 30
0.0
 11
69.2128
 21
103.3429999999999
 31
0.0
  0
LINE
  5
1E2
330
1E
100
AcDbEntity
  8
0
100
AcDbLine
 10
67.6556
 20
101.067
 30
0.0
 11
68.5891
 21
100.4089999999999
 31
0.0
  0
LINE
  5
1E3
330
1E
100
AcDbEntity
  8
0
100
AcDbLine
 10
69.7097
 20
100.6299999999999
 30
0.0
 11
70.3682
 21
101.5639999999999
 31
0.0
  0
LINE
  5
1E4
330
1E
100
AcDbEntity
  8
0
100
AcDbLine
 10
83.95039999999999
 20
95.51680000000001
 30
0.0
 11
84.93160000000001
 21
96.1017
 31
0.0
  0
LINE
  5
1E5
330
1E
100
AcDbEntity
  8
0
100
AcDbLine
 10
83.69719999999999
 20
94.40279999999999
 30
0.0
 11
84.28220000000001
 21
93.42159999999999
 31
0.0
  0
LINE
  5
1E6
330
1E
100
AcDbEntity
  8
0
100
AcDbLine
 10
83.69719999999999
 20
94.40279999999999
 30
0.0
 11
83.95039999999999
 21
95.51680000000001
 31
0.0
  0
LINE
  5
1E7
330
1E
100
AcDbEntity
  8
0
100
AcDbLine
 10
94.8529
 20
94.8529
 30
0.0
 11
102.6469999999999
 21
84.5588
 31
0.0
  0
LINE
  5
1E9
330
1E
100
AcDbEntity
  8
0
100
AcDbLine
 10
86.37739999999999
 20
93.75339999999999
 30
0.0
 11
86.6305
 21
94.86740000000001
 31
0.0
  0
LINE
  5
1EA
330
1E
100
AcDbEntity
  8
0
100
AcDbLine
 10
86.04559999999999
 20
95.8486
 30
0.0
 11
86.6305
 21
94.86740000000001
 31
0.0
  0
LINE
  5
1EB
330
1E
100
AcDbEntity
  8
0
100
AcDbLine
 10
84.5588
 20
102.6469999999999
 30
0.0
 11
94.8529
 21
94.8529
 31
0.0
  0
LINE
  5
1EE
330
1E
100
AcDbEntity
  8
0
100
AcDbLine
 10
84.93160000000001
 20
96.1017
 30
0.0
 11
86.04559999999999
 21
95.8486
 31
0.0
  0
LINE
  5
1EF
330
1E
100
AcDbEntity
  8
0
100
AcDbLine
 10
84.28220000000001
 20
93.42159999999999
 30
0.0
 11
85.39619999999999
 21
93.1685
 31
0.0
  0
LINE
  5
1F0
330
1E
100
AcDbEntity
  8
0
100
AcDbLine
 10
85.39619999999999
 20
93.1685
 30
0.0
 11
86.37739999999999
 21
93.75339999999999
 31
0.0
  0
LINE
  5
1F1
330
1E
100
AcDbEntity
  8
0
100
AcDbLine
 10
96.32570000000001
 20
82.70470000000001
 30
0.0
 11
97.46
 21
82.84
 31
0.0
  0
LINE
  5
1F2
330
1E
100
AcDbEntity
  8
0
100
AcDbLine
 10
95.6414
 20
81.79
 30
0.0
 11
95.77670000000001
 21
80.65569999999999
 31
0.0
  0
LINE
  5
1F3
330
1E
100
AcDbEntity
  8
0
100
AcDbLine
 10
95.6414
 20
81.79
 30
0.0
 11
96.32570000000001
 21
82.70470000000001
 31
0.0
  0
LINE
  5
1F4
330
1E
100
AcDbEntity
  8
0
100
AcDbLine
 10
95.77670000000001
 20
80.65569999999999
 30
0.0
 11
96.6914
 21
79.9713
 31
0.0
  0
LINE
  5
1F5
330
1E
100
AcDbEntity
  8
0
100
AcDbLine
 10
97.82569999999999
 20
80.10659999999999
 30
0.0
 11
98.51
 21
81.0213
 31
0.0
  0
LINE
  5
1F6
330
1E
100
AcDbEntity
  8
0
100
AcDbLine
 10
102.7339999999999
 20
62.9832
 30
0.0
 11
103.731
 21
63.5405
 31
0.0
  0
LINE
  5
1F9
330
1E
100
AcDbEntity
  8
0
100
AcDbLine
 10
103.731
 20
63.5405
 30
0.0
 11
104.069
 21
64.6318
 31
0.0
  0
LINE
  5
1FA
330
1E
100
AcDbEntity
  8
0
100
AcDbLine
 10
107.4999999999999
 20
72.6471
 30
0.0
 11
109.265
 21
60.0
 31
0.0
  0
LINE
  5
200
330
1E
100
AcDbEntity
  8
0
100
AcDbLine
 10
103.511
 20
65.62899999999999
 30
0.0
 11
104.069
 21
64.6318
 31
0.0
  0
LINE
  5
201
330
1E
100
AcDbEntity
  8
0
100
AcDbLine
 10
102.4199999999999
 20
65.9668
 30
0.0
 11
103.511
 21
65.62899999999999
 31
0.0
  0
LINE
  5
202
330
1E
100
AcDbEntity
  8
0
100
AcDbLine
 10
101.4229999999999
 20
65.40949999999999
 30
0.0
 11
102.4199999999999
 21
65.9668
 31
0.0
  0
LINE
  5
203
330
1E
100
AcDbEntity
  8
0
100
AcDbLine
 10
101.085
 20
64.3182
 30
0.0
 11
101.642
 21
63.321
 31
0.0
  0
LINE
  5
204
330
1E
100
AcDbEntity
  8
0
100
AcDbLine
 10
101.085
 20
64.3182
 30
0.0
 11
101.4229999999999
 21
65.40949999999999
 31
0.0
  0
LINE
  5
205
330
1E
100
AcDbEntity
  8
0
100
AcDbLine
 10
101.642
 20
63.321
 30
0.0
 11
102.7339999999999
 21
62.9832
 31
0.0
  0
LINE
  5
206
330
1E
100
AcDbEntity
  8
0
100
AcDbLine
 10
98.37470000000001
 20
82.15569999999999
 30
0.0
 11
98.51
 21
81.0213
 31
0.0
  0
LINE
  5
207
330
1E
100
AcDbEntity
  8
0
100
AcDbLine
 10
102.6469999999999
 20
84.5588
 30
0.0
 11
107.4999999999999
 21
72.6471
 31
0.0
  0
LINE
  5
228
330
1E
100
AcDbEntity
  8
0
100
AcDbLine
 10
97.46
 20
82.84
 30
0.0
 11
98.37470000000001
 21
82.15569999999999
 31
0.0
  0
LINE
  5
229
330
1E
100
AcDbEntity
  8
0
100
AcDbLine
 10
96.6914
 20
79.9713
 30
0.0
 11
97.82569999999999
 21
80.10659999999999
 31
0.0
  0
LINE
  5
22A
330
1E
100
AcDbEntity
  8
0
100
AcDbLine
 10
64.8939
 20
58.9825
 30
0.0
 11
64.9796
 21
60.2721
 31
0.0
  0
LINE
  5
22B
330
1E
100
AcDbEntity
  8
0
100
AcDbLine
 10
64.7553
 20
61.5451
 30
0.0
 11
64.9796
 21
60.2721
 31
0.0
  0
LINE
  5
22C
330
1E
100
AcDbEntity
  8
0
100
AcDbLine
 10
55.2447
 20
58.4549
 30
0.0
 11
55.8114
 21
57.2932
 31
0.0
  0
LINE
  5
22D
330
1E
100
AcDbEntity
  8
0
100
AcDbLine
 10
36.0496
 20
95.51680000000001
 30
0.0
 11
36.30279999999999
 21
94.40279999999999
 31
0.0
  0
LINE
  5
232
330
1E
100
AcDbEntity
  8
0
100
AcDbLine
 10
4.97225499999534
 20
109.276999999992
 30
0.0
 11
4.213430000005249
 21
107.676000000013
 31
0.0
  0
LINE
  5
233
330
1E
100
AcDbEntity
  8
0
100
AcDbLine
 10
3.518167999995589
 20
105.4439999999819
 30
0.0
 11
3.11128400000087
 21
103.526000000005
 31
0.0
  0
LINE
  5
234
330
1E
100
AcDbEntity
  8
0
100
AcDbLine
 10
101.9481
 20
117.18
 30
0.0
 11
97.08629999999999
 21
117.759
 31
0.0
  0
LINE
  5
235
330
1E
100
AcDbEntity
  8
0
100
AcDbLine
 10
106.7425999999999
 20
116.1629999999999
 30
0.0
 11
104.5776
 21
116.6949999999999
 31
0.0
  0
LINE
  5
236
330
1E
100
AcDbEntity
  8
0
100
AcDbLine
 10
108.6095
 20
115.4099999999999
 30
0.0
 11
106.7425999999999
 21
116.1629999999999
 31
0.0
  0
LINE
  5
237
330
1E
100
AcDbEntity
  8
0
100
AcDbLine
 10
109.9447999999999
 20
114.6449999999999
 30
0.0
 11
108.6095
 21
115.4099999999999
 31
0.0
  0
LINE
  5
238
330
1E
100
AcDbEntity
  8
0
100
AcDbLine
 10
111.3708399999999
 20
113.6979999999999
 30
0.0
 11
109.9447999999999
 21
114.6449999999999
 31
0.0
  0
LINE
  5
239
330
1E
100
AcDbEntity
  8
0
100
AcDbLine
 10
104.5776
 20
116.6949999999999
 30
0.0
 11
101.9481
 21
117.18
 31
0.0
  0
LINE
  5
23A
330
1E
100
AcDbEntity
  8
0
100
AcDbLine
 10
82.53020000000001
 20
119.1189999999999
 30
0.0
 11
72.7034
 21
119.6599999999999
 31
0.0
  0
LINE
  5
23B
330
1E
100
AcDbEntity
  8
0
100
AcDbLine
 10
91.14359999999999
 20
118.4679999999999
 30
0.0
 11
82.53020000000001
 21
119.1189999999999
 31
0.0
  0
LINE
  5
23C
330
1E
100
AcDbEntity
  8
0
100
AcDbLine
 10
97.08629999999999
 20
117.759
 30
0.0
 11
91.14359999999999
 21
118.4679999999999
 31
0.0
  0
LINE
  5
23D
330
1E
100
AcDbEntity
  8
0
100
AcDbLine
 10
72.7034
 20
119.6599999999999
 30
0.0
 11
65.1169
 21
119.92
 31
0.0
  0
LINE
  5
23E
330
1E
100
AcDbEntity
  8
0
100
AcDbLine
 10
65.1169
 20
119.92
 30
0.0
 11
60.0
 21
120.0
 31
0.0
  0
LINE
  5
23F
330
1E
100
AcDbEntity
  8
0
100
AcDbLine
 10
117.7591
 20
97.08629999999999
 30
0.0
 11
117.17995
 21
101.9479999999999
 31
0.0
  0
LINE
  5
240
330
1E
100
AcDbEntity
  8
0
100
AcDbLine
 10
118.46779
 20
91.14360000000001
 30
0.0
 11
117.7591
 21
97.08629999999999
 31
0.0
  0
LINE
  5
241
330
1E
100
AcDbEntity
  8
0
100
AcDbLine
 10
116.4818320000044
 20
105.4439999999819
 30
0.0
 11
116.1627399999999
 21
106.7429999999999
 31
0.0
  0
LINE
  5
242
330
1E
100
AcDbEntity
  8
0
100
AcDbLine
 10
116.4818320000041
 20
105.443999999983
 30
0.0
 11
116.1627399999999
 21
106.7429999999999
 31
0.0
  0
LINE
  5
243
330
1E
100
AcDbEntity
  8
0
100
AcDbLine
 10
117.17995
 20
101.9479999999999
 30
0.0
 11
116.8887159999991
 21
103.526000000005
 31
0.0
  0
LINE
  5
244
330
1E
100
AcDbEntity
  8
0
100
AcDbLine
 10
117.17995
 20
101.9479999999999
 30
0.0
 11
116.8887159999994
 21
103.526000000003
 31
0.0
  0
LINE
  5
245
330
1E
100
AcDbEntity
  8
0
100
AcDbLine
 10
116.4818320000044
 20
105.4439999999819
 30
0.0
 11
116.8887159999991
 21
103.526000000005
 31
0.0
  0
LINE
  5
246
330
1E
100
AcDbEntity
  8
0
100
AcDbLine
 10
116.1627399999999
 20
106.7429999999999
 30
0.0
 11
115.7865699999953
 21
107.676000000012
 31
0.0
  0
LINE
  5
247
330
1E
100
AcDbEntity
  8
0
100
AcDbLine
 10
116.1627399999999
 20
106.7429999999999
 30
0.0
 11
115.7865699999947
 21
107.676000000013
 31
0.0
  0
LINE
  5
248
330
1E
100
AcDbEntity
  8
0
100
AcDbLine
 10
112.60645
 20
112.606
 30
0.0
 11
111.3708399999999
 21
113.6979999999999
 31
0.0
  0
LINE
  5
249
330
1E
100
AcDbEntity
  8
0
100
AcDbLine
 10
113.69818
 20
111.371
 30
0.0
 11
112.60645
 21
112.606
 31
0.0
  0
LINE
  5
24A
330
1E
100
AcDbEntity
  8
0
100
AcDbLine
 10
114.64509
 20
109.945
 30
0.0
 11
113.69818
 21
111.371
 31
0.0
  0
LINE
  5
24B
330
1E
100
AcDbEntity
  8
0
100
AcDbLine
 10
115.0277450000046
 20
109.276999999992
 30
0.0
 11
115.7865699999947
 21
107.676000000013
 31
0.0
  0
LINE
  5
24C
330
1E
100
AcDbEntity
  8
0
100
AcDbLine
 10
115.0277450000046
 20
109.276999999992
 30
0.0
 11
114.64509
 21
109.945
 31
0.0
  0
LINE
  5
24D
330
1E
100
AcDbEntity
  8
0
100
AcDbLine
 10
115.027745000005
 20
109.2769999999909
 30
0.0
 11
114.64509
 21
109.945
 31
0.0
  0
LINE
  5
24E
330
1E
100
AcDbEntity
  8
0
100
AcDbLine
 10
120.0
 20
60.0
 30
0.0
 11
119.920358
 21
65.1169
 31
0.0
  0
LINE
  5
24F
330
1E
100
AcDbEntity
  8
0
100
AcDbLine
 10
119.6604739999999
 20
72.7034
 30
0.0
 11
119.119049
 21
82.53019999999999
 31
0.0
  0
LINE
  5
250
330
1E
100
AcDbEntity
  8
0
100
AcDbLine
 10
119.6604739999999
 20
72.7034
 30
0.0
 11
119.119049
 21
82.53019999999999
 31
0.0
  0
LINE
  5
251
330
1E
100
AcDbEntity
  8
0
100
AcDbLine
 10
119.920358
 20
65.1169
 30
0.0
 11
119.6604739999999
 21
72.7034
 31
0.0
  0
LINE
  5
252
330
1E
100
AcDbEntity
  8
0
100
AcDbLine
 10
119.119049
 20
82.53019999999999
 30
0.0
 11
118.46779
 21
91.14360000000001
 31
0.0
  0
LINE
  5
253
330
1E
100
AcDbEntity
  8
0
100
AcDbLine
 10
65.1169
 20
0.0799999999999983
 30
0.0
 11
60.0
 21
0.0
 31
0.0
  0
LINE
  5
254
330
1E
100
AcDbEntity
  8
0
100
AcDbLine
 10
18.05189999999999
 20
2.819999999999993
 30
0.0
 11
22.9137
 21
2.240999999999999
 31
0.0
  0
LINE
  5
255
330
1E
100
AcDbEntity
  8
0
100
AcDbLine
 10
13.2574
 20
3.837000000000003
 30
0.0
 11
15.4224
 21
3.305000000000006
 31
0.0
  0
LINE
  5
256
330
1E
100
AcDbEntity
  8
0
100
AcDbLine
 10
11.39049999999999
 20
4.590000000000003
 30
0.0
 11
13.2574
 21
3.837000000000003
 31
0.0
  0
LINE
  5
257
330
1E
100
AcDbEntity
  8
0
100
AcDbLine
 10
7.39355
 20
7.393999999999991
 30
0.0
 11
8.62916
 21
6.302000000000006
 31
0.0
  0
LINE
  5
258
330
1E
100
AcDbEntity
  8
0
100
AcDbLine
 10
10.05519999999999
 20
5.355000000000003
 30
0.0
 11
11.39049999999999
 21
4.590000000000003
 31
0.0
  0
LINE
  5
259
330
1E
100
AcDbEntity
  8
0
100
AcDbLine
 10
8.62916
 20
6.302000000000006
 30
0.0
 11
10.05519999999999
 21
5.355000000000003
 31
0.0
  0
LINE
  5
25A
330
1E
100
AcDbEntity
  8
0
100
AcDbLine
 10
15.4224
 20
3.305000000000006
 30
0.0
 11
18.05189999999999
 21
2.819999999999993
 31
0.0
  0
LINE
  5
25B
330
1E
100
AcDbEntity
  8
0
100
AcDbLine
 10
37.4698
 20
0.8810000000000002
 30
0.0
 11
47.29659999999999
 21
0.3400000000000034
 31
0.0
  0
LINE
  5
25C
330
1E
100
AcDbEntity
  8
0
100
AcDbLine
 10
28.8564
 20
1.53200000000001
 30
0.0
 11
37.4698
 21
0.8810000000000002
 31
0.0
  0
LINE
  5
25D
330
1E
100
AcDbEntity
  8
0
100
AcDbLine
 10
22.9137
 20
2.240999999999999
 30
0.0
 11
28.8564
 21
1.53200000000001
 31
0.0
  0
LINE
  5
25E
330
1E
100
AcDbEntity
  8
0
100
AcDbLine
 10
47.29659999999999
 20
0.3400000000000034
 30
0.0
 11
54.8831
 21
0.0799999999999983
 31
0.0
  0
LINE
  5
25F
330
1E
100
AcDbEntity
  8
0
100
AcDbLine
 10
54.8831
 20
0.0799999999999983
 30
0.0
 11
60.0
 21
0.0
 31
0.0
  0
LINE
  5
260
330
1E
100
AcDbEntity
  8
0
100
AcDbLine
 10
101.9481
 20
2.819999999999993
 30
0.0
 11
97.08629999999999
 21
2.240999999999999
 31
0.0
  0
LINE
  5
261
330
1E
100
AcDbEntity
  8
0
100
AcDbLine
 10
82.53020000000001
 20
0.8810000000000002
 30
0.0
 11
72.7034
 21
0.3400000000000034
 31
0.0
  0
LINE
  5
262
330
1E
100
AcDbEntity
  8
0
100
AcDbLine
 10
72.7034
 20
0.3400000000000034
 30
0.0
 11
65.1169
 21
0.0799999999999983
 31
0.0
  0
LINE
  5
263
330
1E
100
AcDbEntity
  8
0
100
AcDbLine
 10
91.14359999999999
 20
1.53200000000001
 30
0.0
 11
82.53020000000001
 21
0.8810000000000002
 31
0.0
  0
LINE
  5
264
330
1E
100
AcDbEntity
  8
0
100
AcDbLine
 10
97.08629999999999
 20
2.240999999999999
 30
0.0
 11
91.14359999999999
 21
1.53200000000001
 31
0.0
  0
LINE
  5
265
330
1E
100
AcDbEntity
  8
0
100
AcDbLine
 10
106.7425999999999
 20
3.837000000000003
 30
0.0
 11
104.5776
 21
3.305000000000006
 31
0.0
  0
LINE
  5
266
330
1E
100
AcDbEntity
  8
0
100
AcDbLine
 10
108.6095
 20
4.590000000000003
 30
0.0
 11
106.7425999999999
 21
3.837000000000003
 31
0.0
  0
LINE
  5
267
330
1E
100
AcDbEntity
  8
0
100
AcDbLine
 10
112.60645
 20
7.393999999999991
 30
0.0
 11
111.3708399999999
 21
6.302000000000006
 31
0.0
  0
LINE
  5
268
330
1E
100
AcDbEntity
  8
0
100
AcDbLine
 10
109.9447999999999
 20
5.355000000000003
 30
0.0
 11
108.6095
 21
4.590000000000003
 31
0.0
  0
LINE
  5
269
330
1E
100
AcDbEntity
  8
0
100
AcDbLine
 10
111.3708399999999
 20
6.302000000000006
 30
0.0
 11
109.9447999999999
 21
5.355000000000003
 31
0.0
  0
LINE
  5
26A
330
1E
100
AcDbEntity
  8
0
100
AcDbLine
 10
104.5776
 20
3.305000000000006
 30
0.0
 11
101.9481
 21
2.819999999999993
 31
0.0
  0
LINE
  5
26B
330
1E
100
AcDbEntity
  8
0
100
AcDbLine
 10
120.0
 20
60.0
 30
0.0
 11
119.920358
 21
54.8831
 31
0.0
  0
LINE
  5
26C
330
1E
100
AcDbEntity
  8
0
100
AcDbLine
 10
117.7591
 20
22.9137
 30
0.0
 11
117.17995
 21
18.052
 31
0.0
  0
LINE
  5
26D
330
1E
100
AcDbEntity
  8
0
100
AcDbLine
 10
119.6604739999999
 20
47.29659999999999
 30
0.0
 11
119.119049
 21
37.4698
 31
0.0
  0
LINE
  5
26E
330
1E
100
AcDbEntity
  8
0
100
AcDbLine
 10
119.6604739999999
 20
47.29659999999999
 30
0.0
 11
119.119049
 21
37.4698
 31
0.0
  0
LINE
  5
26F
330
1E
100
AcDbEntity
  8
0
100
AcDbLine
 10
119.920358
 20
54.8831
 30
0.0
 11
119.6604739999999
 21
47.29659999999999
 31
0.0
  0
LINE
  5
270
330
1E
100
AcDbEntity
  8
0
100
AcDbLine
 10
119.119049
 20
37.4698
 30
0.0
 11
118.46779
 21
28.85639999999999
 31
0.0
  0
LINE
  5
271
330
1E
100
AcDbEntity
  8
0
100
AcDbLine
 10
118.46779
 20
28.85639999999999
 30
0.0
 11
117.7591
 21
22.9137
 31
0.0
  0
LINE
  5
272
330
1E
100
AcDbEntity
  8
0
100
AcDbLine
 10
116.4818320000041
 20
14.55600000001699
 30
0.0
 11
116.1627399999999
 21
13.257
 31
0.0
  0
LINE
  5
273
330
1E
100
AcDbEntity
  8
0
100
AcDbLine
 10
116.4818320000044
 20
14.556000000018
 30
0.0
 11
116.1627399999999
 21
13.257
 31
0.0
  0
LINE
  5
274
330
1E
100
AcDbEntity
  8
0
100
AcDbLine
 10
116.1627399999999
 20
13.257
 30
0.0
 11
115.7865699999947
 21
12.32399999998699
 31
0.0
  0
LINE
  5
275
330
1E
100
AcDbEntity
  8
0
100
AcDbLine
 10
116.1627399999999
 20
13.257
 30
0.0
 11
115.7865699999953
 21
12.323999999988
 31
0.0
  0
LINE
  5
276
330
1E
100
AcDbEntity
  8
0
100
AcDbLine
 10
113.69818
 20
8.62899999999999
 30
0.0
 11
112.60645
 21
7.393999999999991
 31
0.0
  0
LINE
  5
277
330
1E
100
AcDbEntity
  8
0
100
AcDbLine
 10
114.64509
 20
10.055
 30
0.0
 11
113.69818
 21
8.62899999999999
 31
0.0
  0
LINE
  5
278
330
1E
100
AcDbEntity
  8
0
100
AcDbLine
 10
115.0277450000046
 20
10.72300000000798
 30
0.0
 11
115.7865699999947
 21
12.32399999998699
 31
0.0
  0
LINE
  5
279
330
1E
100
AcDbEntity
  8
0
100
AcDbLine
 10
115.027745000005
 20
10.723000000009
 30
0.0
 11
114.64509
 21
10.055
 31
0.0
  0
LINE
  5
27A
330
1E
100
AcDbEntity
  8
0
100
AcDbLine
 10
115.0277450000046
 20
10.72300000000798
 30
0.0
 11
114.64509
 21
10.055
 31
0.0
  0
LINE
  5
27B
330
1E
100
AcDbEntity
  8
0
100
AcDbLine
 10
117.17995
 20
18.052
 30
0.0
 11
116.8887159999994
 21
16.473999999997
 31
0.0
  0
LINE
  5
27C
330
1E
100
AcDbEntity
  8
0
100
AcDbLine
 10
117.17995
 20
18.052
 30
0.0
 11
116.8887159999991
 21
16.473999999995
 31
0.0
  0
LINE
  5
27D
330
1E
100
AcDbEntity
  8
0
100
AcDbLine
 10
116.4818320000044
 20
14.556000000018
 30
0.0
 11
116.8887159999991
 21
16.473999999995
 31
0.0
  0
LINE
  5
27E
330
1E
100
AcDbEntity
  8
0
100
AcDbLine
 10
0.0
 20
60.0
 30
0.0
 11
0.079642
 21
54.8831
 31
0.0
  0
LINE
  5
27F
330
1E
100
AcDbEntity
  8
0
100
AcDbLine
 10
2.240899999999999
 20
22.9137
 30
0.0
 11
2.82005
 21
18.052
 31
0.0
  0
LINE
  5
280
330
1E
100
AcDbEntity
  8
0
100
AcDbLine
 10
0.339526
 20
47.29659999999999
 30
0.0
 11
0.8809509999999999
 21
37.4698
 31
0.0
  0
LINE
  5
281
330
1E
100
AcDbEntity
  8
0
100
AcDbLine
 10
0.339526
 20
47.29659999999999
 30
0.0
 11
0.8809509999999999
 21
37.4698
 31
0.0
  0
LINE
  5
282
330
1E
100
AcDbEntity
  8
0
100
AcDbLine
 10
0.079642
 20
54.8831
 30
0.0
 11
0.339526
 21
47.29659999999999
 31
0.0
  0
LINE
  5
283
330
1E
100
AcDbEntity
  8
0
100
AcDbLine
 10
0.8809509999999999
 20
37.4698
 30
0.0
 11
1.53221
 21
28.85639999999999
 31
0.0
  0
LINE
  5
284
330
1E
100
AcDbEntity
  8
0
100
AcDbLine
 10
1.53221
 20
28.85639999999999
 30
0.0
 11
2.240899999999999
 21
22.9137
 31
0.0
  0
LINE
  5
285
330
1E
100
AcDbEntity
  8
0
100
AcDbLine
 10
3.518167999995589
 20
14.556000000018
 30
0.0
 11
3.837259999999999
 21
13.257
 31
0.0
  0
LINE
  5
286
330
1E
100
AcDbEntity
  8
0
100
AcDbLine
 10
3.51816799999583
 20
14.55600000001699
 30
0.0
 11
3.837259999999999
 21
13.257
 31
0.0
  0
LINE
  5
287
330
1E
100
AcDbEntity
  8
0
100
AcDbLine
 10
2.82005
 20
18.052
 30
0.0
 11
3.11128400000087
 21
16.473999999995
 31
0.0
  0
LINE
  5
288
330
1E
100
AcDbEntity
  8
0
100
AcDbLine
 10
2.82005
 20
18.052
 30
0.0
 11
3.111284000000579
 21
16.473999999997
 31
0.0
  0
LINE
  5
289
330
1E
100
AcDbEntity
  8
0
100
AcDbLine
 10
3.518167999995589
 20
14.556000000018
 30
0.0
 11
3.11128400000087
 21
16.473999999995
 31
0.0
  0
LINE
  5
28A
330
1E
100
AcDbEntity
  8
0
100
AcDbLine
 10
3.837259999999999
 20
13.257
 30
0.0
 11
4.213430000004629
 21
12.323999999988
 31
0.0
  0
LINE
  5
28B
330
1E
100
AcDbEntity
  8
0
100
AcDbLine
 10
3.837259999999999
 20
13.257
 30
0.0
 11
4.213430000005249
 21
12.32399999998699
 31
0.0
  0
LINE
  5
28C
330
1E
100
AcDbEntity
  8
0
100
AcDbLine
 10
6.301819999999999
 20
8.62899999999999
 30
0.0
 11
7.39355
 21
7.393999999999991
 31
0.0
  0
LINE
  5
28D
330
1E
100
AcDbEntity
  8
0
100
AcDbLine
 10
5.35491
 20
10.055
 30
0.0
 11
6.301819999999999
 21
8.62899999999999
 31
0.0
  0
LINE
  5
28E
330
1E
100
AcDbEntity
  8
0
100
AcDbLine
 10
4.97225499999534
 20
10.72300000000798
 30
0.0
 11
4.213430000005249
 21
12.32399999998699
 31
0.0
  0
LINE
  5
28F
330
1E
100
AcDbEntity
  8
0
100
AcDbLine
 10
4.97225499999534
 20
10.72300000000798
 30
0.0
 11
5.35491
 21
10.055
 31
0.0
  0
LINE
  5
290
330
1E
100
AcDbEntity
  8
0
100
AcDbLine
 10
4.97225499999496
 20
10.723000000009
 30
0.0
 11
5.35491
 21
10.055
 31
0.0
  0
LINE
  5
291
330
1E
100
AcDbEntity
  8
0
100
AcDbLine
 10
62.0
 20
23.0
 30
0.0
 11
61.8970291664306
 21
11.0
 31
0.0
  0
LINE
  5
292
330
1E
100
AcDbEntity
  8
0
100
AcDbLine
 10
58.0
 20
23.0
 30
0.0
 11
58.0
 21
11.01436792861599
 31
0.0
  0
ENDSEC
  0
SECTION
  2
OBJECTS
  0
DICTIONARY
  5
C
330
0
100
AcDbDictionary
281
     1
  3
ACAD_GROUP
350
D
  3
ACAD_LAYOUT
350
19
  3
ACAD_MLINESTYLE
350
16
  3
ACAD_PLOTSETTINGS
350
18
  3
ACAD_PLOTSTYLENAME
350
E
  3
AcDbVariableDictionary
350
293
  0
DICTIONARY
  5
D
102
{ACAD_REACTORS
330
C
102
}
330
C
100
AcDbDictionary
281
     1
  0
DICTIONARY
  5
19
102
{ACAD_REACTORS
330
C
102
}
330
C
100
AcDbDictionary
281
     1
  3
Layout1
350
1D
  3
Model
350
21
  0
DICTIONARY
  5
16
102
{ACAD_REACTORS
330
C
102
}
330
C
100
AcDbDictionary
281
     1
  3
Standard
350
17
  0
DICTIONARY
  5
18
102
{ACAD_REACTORS
330
C
102
}
330
C
100
AcDbDictionary
281
     1
  0
ACDBDICTIONARYWDFLT
  5
E
102
{ACAD_REACTORS
330
C
102
}
330
C
100
AcDbDictionary
281
     1
  3
Normal
350
F
100
AcDbDictionaryWithDefault
340
F
  0
DICTIONARY
  5
293
102
{ACAD_REACTORS
330
C
102
}
330
C
100
AcDbDictionary
281
     1
  3
DIMASSOC
350
294
  0
LAYOUT
  5
1D
102
{ACAD_REACTORS
330
19
102
}
330
19
100
AcDbPlotSettings
  1

  2
hp deskjet 980c series
  4

  6

 40
0.0
 41
0.0
 42
0.0
 43
0.0
 44
0.0
 45
0.0
 46
0.0
 47
0.0
 48
0.0
 49
0.0
140
0.0
141
0.0
142
1.0
143
1.0
 70
   688
 72
     0
 73
     0
 74
     5
  7

 75
    16
147
1.0
148
0.0
149
0.0
100
AcDbLayout
  1
Layout1
 70
     1
 71
     1
 10
0.0
 20
0.0
 11
12.0
 21
9.0
 12
0.0
 22
0.0
 32
0.0
 14
1.000000000000000E+20
 24
1.000000000000000E+20
 34
1.000000000000000E+20
 15
-1.000000000000000E+20
 25
-1.000000000000000E+20
 35
-1.000000000000000E+20
146
0.0
 13
0.0
 23
0.0
 33
0.0
 16
1.0
 26
0.0
 36
0.0
 17
0.0
 27
1.0
 37
0.0
 76
     0
330
1A
  0
LAYOUT
  5
21
102
{ACAD_REACTORS
330
19
102
}
330
19
100
AcDbPlotSettings
  1

  2
hp deskjet 980c series
  4

  6

 40
0.0
 41
0.0
 42
0.0
 43
0.0
 44
0.0
 45
0.0
 46
0.0
 47
0.0
 48
0.0
 49
0.0
140
0.0
141
0.0
142
1.0
143
1.0
 70
  1712
 72
     0
 73
     0
 74
     0
  7

 75
     0
147
1.0
148
0.0
149
0.0
100
AcDbLayout
  1
Model
 70
     1
 71
     0
 10
0.0
 20
0.0
 11
12.0
 21
9.0
 12
0.0
 22
0.0
 32
0.0
 14
0.0
 24
0.0
 34
0.0
 15
0.0
 25
0.0
 35
0.0
146
0.0
 13
0.0
 23
0.0
 33
0.0
 16
1.0
 26
0.0
 36
0.0
 17
0.0
 27
1.0
 37
0.0
 76
     0
330
1E
  0
MLINESTYLE
  5
17
102
{ACAD_REACTORS
330
16
102
}
330
16
100
AcDbMlineStyle
  2
STANDARD
 70
     0
  3

 62
   256
 51
90.0
 52
90.0
 71
     2
 49
0.5
 62
   256
  6
BYLAYER
 49
-0.5
 62
   256
  6
BYLAYER
  0
ACDBPLACEHOLDER
  5
F
102
{ACAD_REACTORS
330
E
102
}
330
E
  0
DICTIONARYVAR
  5
294
102
{ACAD_REACTORS
330
293
102
}
330
293
100
DictionaryVariables
280
     0
  1
1
  0
ENDSEC
  0
EOF
