  0
SECTION
  2
HEADER
  9
$ACADVER
  1
AC1015
  9
$ACADMAINTVER
 70
    13
  9
$DWGCODEPAGE
  3
ANSI_1252
  9
$INSBASE
 10
0.0
 20
0.0
 30
0.0
  9
$EXTMIN
 10
0.180000000000016
 20
-0.0000000000000067
 30
0.0
  9
$EXTMAX
 10
252.82
 20
995.0
 30
0.0
  9
$LIMMIN
 10
0.0
 20
0.0
  9
$LIMMAX
 10
12.0
 20
9.0
  9
$ORTHOMODE
 70
     0
  9
$REGENMODE
 70
     1
  9
$FILLMODE
 70
     1
  9
$QTEXTMODE
 70
     0
  9
$MIRRTEXT
 70
     1
  9
$LTSCALE
 40
1.0
  9
$ATTMODE
 70
     1
  9
$TEXTSIZE
 40
0.2
  9
$TRACEWID
 40
0.05
  9
$TEXTSTYLE
  7
Standard
  9
$CLAYER
  8
0
  9
$CELTYPE
  6
Continuous
  9
$CECOLOR
 62
   256
  9
$CELTSCALE
 40
1.0
  9
$DISPSILH
 70
     0
  9
$DIMSCALE
 40
1.0
  9
$DIMASZ
 40
0.18
  9
$DIMEXO
 40
0.0625
  9
$DIMDLI
 40
0.38
  9
$DIMRND
 40
0.0
  9
$DIMDLE
 40
0.0
  9
$DIMEXE
 40
0.18
  9
$DIMTP
 40
0.0
  9
$DIMTM
 40
0.0
  9
$DIMTXT
 40
0.18
  9
$DIMCEN
 40
0.09
  9
$DIMTSZ
 40
0.0
  9
$DIMTOL
 70
     0
  9
$DIMLIM
 70
     0
  9
$DIMTIH
 70
     1
  9
$DIMTOH
 70
     1
  9
$DIMSE1
 70
     0
  9
$DIMSE2
 70
     0
  9
$DIMTAD
 70
     0
  9
$DIMZIN
 70
     0
  9
$DIMBLK
  1

  9
$DIMASO
 70
     1
  9
$DIMSHO
 70
     1
  9
$DIMPOST
  1

  9
$DIMAPOST
  1

  9
$DIMALT
 70
     0
  9
$DIMALTD
 70
     2
  9
$DIMALTF
 40
25.4
  9
$DIMLFAC
 40
1.0
  9
$DIMTOFL
 70
     0
  9
$DIMTVP
 40
0.0
  9
$DIMTIX
 70
     0
  9
$DIMSOXD
 70
     0
  9
$DIMSAH
 70
     0
  9
$DIMBLK1
  1

  9
$DIMBLK2
  1

  9
$DIMSTYLE
  2
Standard
  9
$DIMCLRD
 70
     0
  9
$DIMCLRE
 70
     0
  9
$DIMCLRT
 70
     0
  9
$DIMTFAC
 40
1.0
  9
$DIMGAP
 40
0.09
  9
$DIMJUST
 70
     0
  9
$DIMSD1
 70
     0
  9
$DIMSD2
 70
     0
  9
$DIMTOLJ
 70
     1
  9
$DIMTZIN
 70
     0
  9
$DIMALTZ
 70
     0
  9
$DIMALTTZ
 70
     0
  9
$DIMUPT
 70
     0
  9
$DIMDEC
 70
     4
  9
$DIMTDEC
 70
     4
  9
$DIMALTU
 70
     2
  9
$DIMALTTD
 70
     2
  9
$DIMTXSTY
  7
Standard
  9
$DIMAUNIT
 70
     0
  9
$DIMADEC
 70
     0
  9
$DIMALTRND
 40
0.0
  9
$DIMAZIN
 70
     0
  9
$DIMDSEP
 70
    46
  9
$DIMATFIT
 70
     3
  9
$DIMFRAC
 70
     0
  9
$DIMLDRBLK
  1

  9
$DIMLUNIT
 70
     2
  9
$DIMLWD
 70
    -2
  9
$DIMLWE
 70
    -2
  9
$DIMTMOVE
 70
     0
  9
$LUNITS
 70
     2
  9
$LUPREC
 70
     4
  9
$SKETCHINC
 40
0.1
  9
$FILLETRAD
 40
0.0
  9
$AUNITS
 70
     0
  9
$AUPREC
 70
     0
  9
$MENU
  1
.
  9
$ELEVATION
 40
0.0
  9
$PELEVATION
 40
0.0
  9
$THICKNESS
 40
0.0
  9
$LIMCHECK
 70
     0
  9
$CHAMFERA
 40
0.0
  9
$CHAMFERB
 40
0.0
  9
$CHAMFERC
 40
0.0
  9
$CHAMFERD
 40
0.0
  9
$SKPOLY
 70
     0
  9
$TDCREATE
 40
2454907.849295601
  9
$TDUCREATE
 40
2454907.807628935
  9
$TDUPDATE
 40
2454907.852811770
  9
$TDUUPDATE
 40
2454907.811145104
  9
$TDINDWG
 40
0.0035161690
  9
$TDUSRTIMER
 40
0.0035161690
  9
$USRTIMER
 70
     1
  9
$ANGBASE
 50
0.0
  9
$ANGDIR
 70
     0
  9
$PDMODE
 70
     0
  9
$PDSIZE
 40
0.0
  9
$PLINEWID
 40
0.0
  9
$SPLFRAME
 70
     0
  9
$SPLINETYPE
 70
     6
  9
$SPLINESEGS
 70
     8
  9
$HANDSEED
  5
786
  9
$SURFTAB1
 70
     6
  9
$SURFTAB2
 70
     6
  9
$SURFTYPE
 70
     6
  9
$SURFU
 70
     6
  9
$SURFV
 70
     6
  9
$UCSBASE
  2

  9
$UCSNAME
  2

  9
$UCSORG
 10
0.0
 20
0.0
 30
0.0
  9
$UCSXDIR
 10
1.0
 20
0.0
 30
0.0
  9
$UCSYDIR
 10
0.0
 20
1.0
 30
0.0
  9
$UCSORTHOREF
  2

  9
$UCSORTHOVIEW
 70
     1
  9
$UCSORGTOP
 10
0.0
 20
0.0
 30
0.0
  9
$UCSORGBOTTOM
 10
0.0
 20
0.0
 30
0.0
  9
$UCSORGLEFT
 10
0.0
 20
0.0
 30
0.0
  9
$UCSORGRIGHT
 10
0.0
 20
0.0
 30
0.0
  9
$UCSORGFRONT
 10
0.0
 20
0.0
 30
0.0
  9
$UCSORGBACK
 10
0.0
 20
0.0
 30
0.0
  9
$PUCSBASE
  2

  9
$PUCSNAME
  2

  9
$PUCSORG
 10
0.0
 20
0.0
 30
0.0
  9
$PUCSXDIR
 10
1.0
 20
0.0
 30
0.0
  9
$PUCSYDIR
 10
0.0
 20
1.0
 30
0.0
  9
$PUCSORTHOREF
  2

  9
$PUCSORTHOVIEW
 70
     0
  9
$PUCSORGTOP
 10
0.0
 20
0.0
 30
0.0
  9
$PUCSORGBOTTOM
 10
0.0
 20
0.0
 30
0.0
  9
$PUCSORGLEFT
 10
0.0
 20
0.0
 30
0.0
  9
$PUCSORGRIGHT
 10
0.0
 20
0.0
 30
0.0
  9
$PUCSORGFRONT
 10
0.0
 20
0.0
 30
0.0
  9
$PUCSORGBACK
 10
0.0
 20
0.0
 30
0.0
  9
$USERI1
 70
     0
  9
$USERI2
 70
     0
  9
$USERI3
 70
     0
  9
$USERI4
 70
     0
  9
$USERI5
 70
     0
  9
$USERR1
 40
0.0
  9
$USERR2
 40
0.0
  9
$USERR3
 40
0.0
  9
$USERR4
 40
0.0
  9
$USERR5
 40
0.0
  9
$WORLDVIEW
 70
     1
  9
$SHADEDGE
 70
     3
  9
$SHADEDIF
 70
    70
  9
$TILEMODE
 70
     1
  9
$MAXACTVP
 70
    64
  9
$PINSBASE
 10
0.0
 20
0.0
 30
0.0
  9
$PLIMCHECK
 70
     0
  9
$PEXTMIN
 10
1.000000000000000E+20
 20
1.000000000000000E+20
 30
1.000000000000000E+20
  9
$PEXTMAX
 10
-1.000000000000000E+20
 20
-1.000000000000000E+20
 30
-1.000000000000000E+20
  9
$PLIMMIN
 10
0.0
 20
0.0
  9
$PLIMMAX
 10
12.0
 20
9.0
  9
$UNITMODE
 70
     0
  9
$VISRETAIN
 70
     1
  9
$PLINEGEN
 70
     0
  9
$PSLTSCALE
 70
     1
  9
$TREEDEPTH
 70
  3020
  9
$CMLSTYLE
  2
Standard
  9
$CMLJUST
 70
     0
  9
$CMLSCALE
 40
1.0
  9
$PROXYGRAPHICS
 70
     1
  9
$MEASUREMENT
 70
     0
  9
$CELWEIGHT
370
    -1
  9
$ENDCAPS
280
     0
  9
$JOINSTYLE
280
     0
  9
$LWDISPLAY
290
     0
  9
$INSUNITS
 70
     0
  9
$HYPERLINKBASE
  1

  9
$STYLESHEET
  1

  9
$XEDIT
290
     1
  9
$CEPSNTYPE
380
     0
  9
$PSTYLEMODE
290
     1
  9
$FINGERPRINTGUID
  2
{8D2EE0F1-7590-420C-9368-DF5923DC2C38}
  9
$VERSIONGUID
  2
{ACC63AE5-DBDC-4C91-AEB3-C559C1ECB591}
  9
$EXTNAMES
290
     1
  9
$PSVPSCALE
 40
0.0
  9
$OLESTARTUP
290
     0
  0
ENDSEC
  0
SECTION
  2
CLASSES
  0
CLASS
  1
ACDBDICTIONARYWDFLT
  2
AcDbDictionaryWithDefault
  3
AutoCAD 2000
 90
        0
280
     0
281
     0
  0
CLASS
  1
ACDBPLACEHOLDER
  2
AcDbPlaceHolder
  3
AutoCAD 2000
 90
        0
280
     0
281
     0
  0
CLASS
  1
LAYOUT
  2
AcDbLayout
  3
AutoCAD 2000
 90
        0
280
     0
281
     0
  0
CLASS
  1
DICTIONARYVAR
  2
AcDbDictionaryVar
  3
AutoCAD 2000
 90
        0
280
     0
281
     0
  0
ENDSEC
  0
SECTION
  2
TABLES
  0
TABLE
  2
VPORT
  5
8
330
0
100
AcDbSymbolTable
 70
     2
  0
VPORT
  5
785
330
8
100
AcDbSymbolTableRecord
100
AcDbViewportTableRecord
  2
*Active
 70
     0
 10
0.0
 20
0.0
 11
1.0
 21
1.0
 12
126.5
 22
497.5
 13
0.0
 23
0.0
 14
1.0
 24
1.0
 15
0.0
 25
0.0
 16
0.0
 26
0.0
 36
1.0
 17
0.0
 27
0.0
 37
0.0
 40
1001.284210526315
 41
1.968387776606954
 42
50.0
 43
0.0
 44
0.0
 50
0.0
 51
0.0
 71
     0
 72
   100
 73
     1
 74
     3
 75
     0
 76
     0
 77
     0
 78
     0
281
     0
 65
     1
110
0.0
120
0.0
130
0.0
111
1.0
121
0.0
131
0.0
112
0.0
122
1.0
132
0.0
 79
     1
146
0.0
  0
ENDTAB
  0
TABLE
  2
LTYPE
  5
5
330
0
100
AcDbSymbolTable
 70
     1
  0
LTYPE
  5
13
330
5
100
AcDbSymbolTableRecord
100
AcDbLinetypeTableRecord
  2
ByBlock
 70
     0
  3

 72
    65
 73
     0
 40
0.0
  0
LTYPE
  5
14
330
5
100
AcDbSymbolTableRecord
100
AcDbLinetypeTableRecord
  2
ByLayer
 70
     0
  3

 72
    65
 73
     0
 40
0.0
  0
LTYPE
  5
15
330
5
100
AcDbSymbolTableRecord
100
AcDbLinetypeTableRecord
  2
Continuous
 70
     0
  3
Solid line
 72
    65
 73
     0
 40
0.0
  0
ENDTAB
  0
TABLE
  2
LAYER
  5
2
330
0
100
AcDbSymbolTable
 70
     1
  0
LAYER
  5
10
330
2
100
AcDbSymbolTableRecord
100
AcDbLayerTableRecord
  2
0
 70
     0
 62
     7
  6
Continuous
370
    -3
390
F
  0
ENDTAB
  0
TABLE
  2
STYLE
  5
3
330
0
100
AcDbSymbolTable
 70
     1
  0
STYLE
  5
11
330
3
100
AcDbSymbolTableRecord
100
AcDbTextStyleTableRecord
  2
Standard
 70
     0
 40
0.0
 41
1.0
 50
0.0
 71
     0
 42
0.2
  3
txt
  4

  0
ENDTAB
  0
TABLE
  2
VIEW
  5
6
330
0
100
AcDbSymbolTable
 70
     0
  0
ENDTAB
  0
TABLE
  2
UCS
  5
7
330
0
100
AcDbSymbolTable
 70
     0
  0
ENDTAB
  0
TABLE
  2
APPID
  5
9
330
0
100
AcDbSymbolTable
 70
     1
  0
APPID
  5
12
330
9
100
AcDbSymbolTableRecord
100
AcDbRegAppTableRecord
  2
ACAD
 70
     0
  0
ENDTAB
  0
TABLE
  2
DIMSTYLE
  5
A
330
0
100
AcDbSymbolTable
 70
     1
100
AcDbDimStyleTable
 71
     0
  0
DIMSTYLE
105
77A
330
A
100
AcDbSymbolTableRecord
100
AcDbDimStyleTableRecord
  2
Standard
 70
     0
340
11
  0
ENDTAB
  0
TABLE
  2
BLOCK_RECORD
  5
1
330
0
100
AcDbSymbolTable
 70
     0
  0
BLOCK_RECORD
  5
1E
330
1
100
AcDbSymbolTableRecord
100
AcDbBlockTableRecord
  2
*Model_Space
340
21
  0
BLOCK_RECORD
  5
1A
330
1
100
AcDbSymbolTableRecord
100
AcDbBlockTableRecord
  2
*Paper_Space
340
1D
  0
ENDTAB
  0
ENDSEC
  0
SECTION
  2
BLOCKS
  0
BLOCK
  5
1F
330
1E
100
AcDbEntity
  8
0
100
AcDbBlockBegin
  2
*Model_Space
 70
     0
 10
0.0
 20
0.0
 30
0.0
  3
*Model_Space
  1

  0
ENDBLK
  5
20
330
1E
100
AcDbEntity
  8
0
100
AcDbBlockEnd
  0
BLOCK
  5
1B
330
1A
100
AcDbEntity
 67
     1
  8
0
100
AcDbBlockBegin
  2
*Paper_Space
 70
     0
 10
0.0
 20
0.0
 30
0.0
  3
*Paper_Space
  1

  0
ENDBLK
  5
1C
330
1A
100
AcDbEntity
 67
     1
  8
0
100
AcDbBlockEnd
  0
ENDSEC
  0
SECTION
  2
ENTITIES
  0
LINE
  5
22
330
1E
100
AcDbEntity
  8
0
100
AcDbLine
 10
25.907
 20
882.1489999999998
 30
0.0
 11
26.239
 21
881.779
 31
0.0
  0
LINE
  5
23
330
1E
100
AcDbEntity
  8
0
100
AcDbLine
 10
27.065
 20
880.8849999999999
 30
0.0
 11
27.508
 21
880.4160000000001
 31
0.0
  0
LINE
  5
24
330
1E
100
AcDbEntity
  8
0
100
AcDbLine
 10
26.631
 20
881.351
 30
0.0
 11
27.065
 21
880.8849999999999
 31
0.0
  0
LINE
  5
25
330
1E
100
AcDbEntity
  8
0
100
AcDbLine
 10
26.239
 20
881.779
 30
0.0
 11
26.631
 21
881.351
 31
0.0
  0
LINE
  5
26
330
1E
100
AcDbEntity
  8
0
100
AcDbLine
 10
3.36899999999999
 20
912.3879999999999
 30
0.0
 11
3.457999999999979
 21
912.2200000000001
 31
0.0
  0
LINE
  5
27
330
1E
100
AcDbEntity
  8
0
100
AcDbLine
 10
3.457999999999979
 20
912.2200000000001
 30
0.0
 11
3.56700000000002
 21
912.0219999999999
 31
0.0
  0
LINE
  5
28
330
1E
100
AcDbEntity
  8
0
100
AcDbLine
 10
3.406000000000009
 20
912.4210000000001
 30
0.0
 11
3.506000000000009
 21
912.265
 31
0.0
  0
LINE
  5
29
330
1E
100
AcDbEntity
  8
0
100
AcDbLine
 10
3.506000000000009
 20
912.265
 30
0.0
 11
3.62600000000002
 21
912.068
 31
0.0
  0
LINE
  5
2A
330
1E
100
AcDbEntity
  8
0
100
AcDbLine
 10
3.336
 20
912.5249999999999
 30
0.0
 11
3.406000000000009
 21
912.4210000000001
 31
0.0
  0
LINE
  5
2B
330
1E
100
AcDbEntity
  8
0
100
AcDbLine
 10
3.286000000000029
 20
912.569
 30
0.0
 11
3.310000000000009
 21
912.508
 31
0.0
  0
LINE
  5
2C
330
1E
100
AcDbEntity
  8
0
100
AcDbLine
 10
3.310000000000009
 20
912.508
 30
0.0
 11
3.36899999999999
 21
912.3879999999999
 31
0.0
  0
LINE
  5
2D
330
1E
100
AcDbEntity
  8
0
100
AcDbLine
 10
3.82000000000002
 20
911.5809999999999
 30
0.0
 11
3.948
 21
911.3660000000001
 31
0.0
  0
LINE
  5
2E
330
1E
100
AcDbEntity
  8
0
100
AcDbLine
 10
3.883999999999999
 20
911.63
 30
0.0
 11
4.007000000000009
 21
911.4130000000001
 31
0.0
  0
LINE
  5
2F
330
1E
100
AcDbEntity
  8
0
100
AcDbLine
 10
3.901000000000029
 20
911.6150000000001
 30
0.0
 11
4.025000000000019
 21
911.396
 31
0.0
  0
LINE
  5
30
330
1E
100
AcDbEntity
  8
0
100
AcDbLine
 10
8.99988617884121
 20
903.6517804878309
 30
0.0
 11
9.172000000000009
 21
903.4310000000001
 31
0.0
  0
LINE
  5
31
330
1E
100
AcDbEntity
  8
0
100
AcDbLine
 10
8.999886178841197
 20
903.6517804878309
 30
0.0
 11
9.172000000000009
 21
903.4310000000001
 31
0.0
  0
LINE
  5
32
330
1E
100
AcDbEntity
  8
0
100
AcDbLine
 10
9.244000000000029
 20
903.3789999999999
 30
0.0
 11
9.367000000000009
 21
903.212
 31
0.0
  0
LINE
  5
33
330
1E
100
AcDbEntity
  8
0
100
AcDbLine
 10
9.896
 20
902.6760000000001
 30
0.0
 11
10.04100000000009
 21
902.4860000000002
 31
0.0
  0
LINE
  5
34
330
1E
100
AcDbEntity
  8
0
100
AcDbLine
 10
9.829999999999991
 20
902.6189999999999
 30
0.0
 11
9.986000000000018
 21
902.429
 31
0.0
  0
LINE
  5
35
330
1E
100
AcDbEntity
  8
0
100
AcDbLine
 10
9.578000000000018
 20
903.078
 30
0.0
 11
9.73799999999999
 21
902.8780000000001
 31
0.0
  0
LINE
  5
36
330
1E
100
AcDbEntity
  8
0
100
AcDbLine
 10
9.73799999999999
 20
902.8780000000001
 30
0.0
 11
9.896
 21
902.6760000000001
 31
0.0
  0
LINE
  5
37
330
1E
100
AcDbEntity
  8
0
100
AcDbLine
 10
9.670000000000008
 20
902.82
 30
0.0
 11
9.829999999999991
 21
902.6189999999999
 31
0.0
  0
LINE
  5
38
330
1E
100
AcDbEntity
  8
0
100
AcDbLine
 10
9.511000000000009
 20
903.0219999999999
 30
0.0
 11
9.670000000000008
 21
902.82
 31
0.0
  0
LINE
  5
39
330
1E
100
AcDbEntity
  8
0
100
AcDbLine
 10
9.367000000000009
 20
903.212
 30
0.0
 11
9.511000000000009
 21
903.0219999999999
 31
0.0
  0
LINE
  5
3A
330
1E
100
AcDbEntity
  8
0
100
AcDbLine
 10
9.286000000000019
 20
903.4270000000001
 30
0.0
 11
9.421999999999989
 21
903.268
 31
0.0
  0
LINE
  5
3B
330
1E
100
AcDbEntity
  8
0
100
AcDbLine
 10
9.421999999999989
 20
903.268
 30
0.0
 11
9.578000000000018
 21
903.078
 31
0.0
  0
LINE
  5
3C
330
1E
100
AcDbEntity
  8
0
100
AcDbLine
 10
9.271000000000039
 20
903.3049999999999
 30
0.0
 11
9.329999999999991
 21
903.2289999999999
 31
0.0
  0
LINE
  5
3D
330
1E
100
AcDbEntity
  8
0
100
AcDbLine
 10
9.09600000000003
 20
903.5989999999999
 30
0.0
 11
9.149000000000029
 21
903.513
 31
0.0
  0
LINE
  5
3E
330
1E
100
AcDbEntity
  8
0
100
AcDbLine
 10
9.149000000000029
 20
903.513
 30
0.0
 11
9.244000000000029
 21
903.3789999999999
 31
0.0
  0
LINE
  5
3F
330
1E
100
AcDbEntity
  8
0
100
AcDbLine
 10
9.085000000000018
 20
903.631
 30
0.0
 11
9.542564893884369
 21
903.992788706779
 31
0.0
  0
LINE
  5
40
330
1E
100
AcDbEntity
  8
0
100
AcDbLine
 10
9.11300000000001
 20
903.6139999999999
 30
0.0
 11
9.184000000000018
 21
903.542
 31
0.0
  0
LINE
  5
41
330
1E
100
AcDbEntity
  8
0
100
AcDbLine
 10
9.184000000000018
 20
903.542
 30
0.0
 11
9.286000000000019
 21
903.4270000000001
 31
0.0
  0
LINE
  5
42
330
1E
100
AcDbEntity
  8
0
100
AcDbLine
 10
9.172000000000009
 20
903.4310000000001
 30
0.0
 11
9.271000000000039
 21
903.3049999999999
 31
0.0
  0
LINE
  5
43
330
1E
100
AcDbEntity
  8
0
100
AcDbLine
 10
9.04200000000003
 20
903.598
 30
0.0
 11
9.172000000000009
 21
903.4310000000001
 31
0.0
  0
LINE
  5
44
330
1E
100
AcDbEntity
  8
0
100
AcDbLine
 10
8.894
 20
903.7869999999999
 30
0.0
 11
9.04200000000003
 21
903.598
 31
0.0
  0
LINE
  5
45
330
1E
100
AcDbEntity
  8
0
100
AcDbLine
 10
8.737
 20
903.9889999999999
 30
0.0
 11
8.894
 21
903.7869999999999
 31
0.0
  0
LINE
  5
46
330
1E
100
AcDbEntity
  8
0
100
AcDbLine
 10
4.653
 20
910.7310000000001
 30
0.0
 11
4.701999999999999
 21
910.599
 31
0.0
  0
LINE
  5
47
330
1E
100
AcDbEntity
  8
0
100
AcDbLine
 10
4.54200000000003
 20
910.636
 30
0.0
 11
4.631000000000019
 21
910.541
 31
0.0
  0
LINE
  5
48
330
1E
100
AcDbEntity
  8
0
100
AcDbLine
 10
4.631000000000019
 20
910.541
 30
0.0
 11
4.68799999999999
 21
910.505
 31
0.0
  0
LINE
  5
49
330
1E
100
AcDbEntity
  8
0
100
AcDbLine
 10
6.05683309040373
 20
909.0188446832311
 30
0.0
 11
6.963999999999999
 21
907.4810000000001
 31
0.0
  0
LINE
  5
4A
330
1E
100
AcDbEntity
  8
0
100
AcDbLine
 10
6.05683309040373
 20
909.0188446832311
 30
0.0
 11
6.963999999999999
 21
907.4810000000001
 31
0.0
  0
LINE
  5
4B
330
1E
100
AcDbEntity
  8
0
100
AcDbLine
 10
6.963999999999999
 20
907.4810000000001
 30
0.0
 11
8.621256597901869
 21
905.1225621015339
 31
0.0
  0
LINE
  5
4C
330
1E
100
AcDbEntity
  8
0
100
AcDbLine
 10
8.038999999999999
 20
907.62
 30
0.0
 11
8.146000000000029
 21
907.4169999999998
 31
0.0
  0
LINE
  5
4D
330
1E
100
AcDbEntity
  8
0
100
AcDbLine
 10
7.91999999999999
 20
908.0210000000001
 30
0.0
 11
7.922999999999999
 21
907.9299999999999
 31
0.0
  0
LINE
  5
4E
330
1E
100
AcDbEntity
  8
0
100
AcDbLine
 10
8.033999999999998
 20
908.0249999999999
 30
0.0
 11
8.13700000000003
 21
907.947
 31
0.0
  0
LINE
  5
4F
330
1E
100
AcDbEntity
  8
0
100
AcDbLine
 10
7.95899999999999
 20
908.0519999999999
 30
0.0
 11
8.440798328295981
 21
908.371434056489
 31
0.0
  0
LINE
  5
50
330
1E
100
AcDbEntity
  8
0
100
AcDbLine
 10
7.95899999999999
 20
908.0519999999999
 30
0.0
 11
8.033999999999998
 21
908.0249999999999
 31
0.0
  0
LINE
  5
51
330
1E
100
AcDbEntity
  8
0
100
AcDbLine
 10
7.95899999999999
 20
908.0519999999999
 30
0.0
 11
8.440798328295969
 21
908.371434056489
 31
0.0
  0
LINE
  5
52
330
1E
100
AcDbEntity
  8
0
100
AcDbLine
 10
7.922999999999999
 20
907.9299999999999
 30
0.0
 11
7.96399999999999
 21
907.793
 31
0.0
  0
LINE
  5
53
330
1E
100
AcDbEntity
  8
0
100
AcDbLine
 10
7.96399999999999
 20
907.793
 30
0.0
 11
8.038999999999999
 21
907.62
 31
0.0
  0
LINE
  5
54
330
1E
100
AcDbEntity
  8
0
100
AcDbLine
 10
6.103000000000019
 20
909.0019999999999
 30
0.0
 11
6.143000000000019
 21
909.0329999999999
 31
0.0
  0
LINE
  5
55
330
1E
100
AcDbEntity
  8
0
100
AcDbLine
 10
6.103000000000019
 20
909.0019999999999
 30
0.0
 11
6.903878644496469
 21
909.5328206043239
 31
0.0
  0
LINE
  5
56
330
1E
100
AcDbEntity
  8
0
100
AcDbLine
 10
6.103000000000019
 20
909.0019999999999
 30
0.0
 11
6.903878644496469
 21
909.5328206043239
 31
0.0
  0
LINE
  5
57
330
1E
100
AcDbEntity
  8
0
100
AcDbLine
 10
6.140000000000009
 20
909.1230000000001
 30
0.0
 11
6.143000000000019
 21
909.0329999999999
 31
0.0
  0
LINE
  5
58
330
1E
100
AcDbEntity
  8
0
100
AcDbLine
 10
6.09799999999999
 20
909.26
 30
0.0
 11
6.140000000000009
 21
909.1230000000001
 31
0.0
  0
LINE
  5
59
330
1E
100
AcDbEntity
  8
0
100
AcDbLine
 10
5.926000000000009
 20
909.107
 30
0.0
 11
6.029000000000009
 21
909.0289999999999
 31
0.0
  0
LINE
  5
5A
330
1E
100
AcDbEntity
  8
0
100
AcDbLine
 10
6.029000000000009
 20
909.0289999999999
 30
0.0
 11
6.103000000000019
 21
909.0019999999999
 31
0.0
  0
LINE
  5
5B
330
1E
100
AcDbEntity
  8
0
100
AcDbLine
 10
5.797000000000019
 20
909.237
 30
0.0
 11
5.926000000000009
 21
909.107
 31
0.0
  0
LINE
  5
5C
330
1E
100
AcDbEntity
  8
0
100
AcDbLine
 10
5.502
 20
909.609
 30
0.0
 11
5.655000000000029
 21
909.406
 31
0.0
  0
LINE
  5
5D
330
1E
100
AcDbEntity
  8
0
100
AcDbLine
 10
5.789000000000019
 20
909.852
 30
0.0
 11
5.91700000000003
 21
909.636
 31
0.0
  0
LINE
  5
5E
330
1E
100
AcDbEntity
  8
0
100
AcDbLine
 10
6.024000000000009
 20
909.434
 30
0.0
 11
6.09799999999999
 21
909.26
 31
0.0
  0
LINE
  5
5F
330
1E
100
AcDbEntity
  8
0
100
AcDbLine
 10
5.91700000000003
 20
909.636
 30
0.0
 11
6.024000000000009
 21
909.434
 31
0.0
  0
LINE
  5
60
330
1E
100
AcDbEntity
  8
0
100
AcDbLine
 10
5.655000000000029
 20
909.406
 30
0.0
 11
5.797000000000019
 21
909.237
 31
0.0
  0
LINE
  5
61
330
1E
100
AcDbEntity
  8
0
100
AcDbLine
 10
5.355
 20
909.83
 30
0.0
 11
5.502
 21
909.609
 31
0.0
  0
LINE
  5
62
330
1E
100
AcDbEntity
  8
0
100
AcDbLine
 10
5.48899999999999
 20
910.2769999999999
 30
0.0
 11
5.641000000000049
 21
910.073
 31
0.0
  0
LINE
  5
63
330
1E
100
AcDbEntity
  8
0
100
AcDbLine
 10
5.641000000000049
 20
910.073
 30
0.0
 11
5.789000000000019
 21
909.852
 31
0.0
  0
LINE
  5
64
330
1E
100
AcDbEntity
  8
0
100
AcDbLine
 10
5.226000000000009
 20
910.0459999999999
 30
0.0
 11
5.355
 21
909.83
 31
0.0
  0
LINE
  5
65
330
1E
100
AcDbEntity
  8
0
100
AcDbLine
 10
5.119000000000009
 20
910.2479999999999
 30
0.0
 11
5.226000000000009
 21
910.0459999999999
 31
0.0
  0
LINE
  5
66
330
1E
100
AcDbEntity
  8
0
100
AcDbLine
 10
4.701999999999999
 20
910.599
 30
0.0
 11
4.713000000000009
 21
910.5219999999999
 31
0.0
  0
LINE
  5
67
330
1E
100
AcDbEntity
  8
0
100
AcDbLine
 10
5.00100000000003
 20
910.65
 30
0.0
 11
5.003
 21
910.5589999999999
 31
0.0
  0
LINE
  5
68
330
1E
100
AcDbEntity
  8
0
100
AcDbLine
 10
5.11500000000003
 20
910.654
 30
0.0
 11
5.218000000000009
 21
910.576
 31
0.0
  0
LINE
  5
69
330
1E
100
AcDbEntity
  8
0
100
AcDbLine
 10
5.218000000000009
 20
910.576
 30
0.0
 11
5.346000000000019
 21
910.4449999999999
 31
0.0
  0
LINE
  5
6A
330
1E
100
AcDbEntity
  8
0
100
AcDbLine
 10
5.346000000000019
 20
910.4449999999999
 30
0.0
 11
5.48899999999999
 21
910.2769999999999
 31
0.0
  0
LINE
  5
6B
330
1E
100
AcDbEntity
  8
0
100
AcDbLine
 10
5.040000000000019
 20
910.6810000000001
 30
0.0
 11
5.704919595937049
 21
911.121707245933
 31
0.0
  0
LINE
  5
6C
330
1E
100
AcDbEntity
  8
0
100
AcDbLine
 10
5.040000000000019
 20
910.6810000000001
 30
0.0
 11
5.11500000000003
 21
910.654
 31
0.0
  0
LINE
  5
6D
330
1E
100
AcDbEntity
  8
0
100
AcDbLine
 10
5.040000000000019
 20
910.6810000000001
 30
0.0
 11
5.704919595937049
 21
911.121707245933
 31
0.0
  0
LINE
  5
6E
330
1E
100
AcDbEntity
  8
0
100
AcDbLine
 10
5.003
 20
910.5589999999999
 30
0.0
 11
5.045000000000019
 21
910.4219999999999
 31
0.0
  0
LINE
  5
6F
330
1E
100
AcDbEntity
  8
0
100
AcDbLine
 10
5.045000000000019
 20
910.4219999999999
 30
0.0
 11
5.119000000000009
 21
910.2479999999999
 31
0.0
  0
LINE
  5
70
330
1E
100
AcDbEntity
  8
0
100
AcDbLine
 10
4.68799999999999
 20
910.505
 30
0.0
 11
5.05021767355454
 21
910.7252761574001
 31
0.0
  0
LINE
  5
71
330
1E
100
AcDbEntity
  8
0
100
AcDbLine
 10
4.68799999999999
 20
910.505
 30
0.0
 11
5.352534690239669
 21
910.9091248086791
 31
0.0
  0
LINE
  5
72
330
1E
100
AcDbEntity
  8
0
100
AcDbLine
 10
4.28100000000002
 20
910.857
 30
0.0
 11
4.346657204044629
 21
910.895110055357
 31
0.0
  0
LINE
  5
73
330
1E
100
AcDbEntity
  8
0
100
AcDbLine
 10
4.573000000000009
 20
910.903
 30
0.0
 11
4.653
 21
910.7310000000001
 31
0.0
  0
LINE
  5
74
330
1E
100
AcDbEntity
  8
0
100
AcDbLine
 10
4.346657204044629
 20
910.895110055357
 30
0.0
 11
4.43099999999999
 21
910.776
 31
0.0
  0
LINE
  5
75
330
1E
100
AcDbEntity
  8
0
100
AcDbLine
 10
4.43099999999999
 20
910.776
 30
0.0
 11
4.54200000000003
 21
910.636
 31
0.0
  0
LINE
  5
76
330
1E
100
AcDbEntity
  8
0
100
AcDbLine
 10
8.146000000000029
 20
907.4169999999998
 30
0.0
 11
8.274000000000018
 21
907.202
 31
0.0
  0
LINE
  5
77
330
1E
100
AcDbEntity
  8
0
100
AcDbLine
 10
8.13700000000003
 20
907.947
 30
0.0
 11
8.266000000000019
 21
907.816
 31
0.0
  0
LINE
  5
78
330
1E
100
AcDbEntity
  8
0
100
AcDbLine
 10
8.121000000000018
 20
904.7769999999999
 30
0.0
 11
8.60595697668406
 21
905.15579570958
 31
0.0
  0
LINE
  5
79
330
1E
100
AcDbEntity
  8
0
100
AcDbLine
 10
8.143000000000009
 20
904.7489999999999
 30
0.0
 11
8.202000000000008
 21
904.673
 31
0.0
  0
LINE
  5
7A
330
1E
100
AcDbEntity
  8
0
100
AcDbLine
 10
8.421000000000018
 20
906.9810000000002
 30
0.0
 11
8.574000000000019
 21
906.7769999999999
 31
0.0
  0
LINE
  5
7B
330
1E
100
AcDbEntity
  8
0
100
AcDbLine
 10
8.274000000000018
 20
907.202
 30
0.0
 11
8.421000000000018
 21
906.9810000000002
 31
0.0
  0
LINE
  5
7C
330
1E
100
AcDbEntity
  8
0
100
AcDbLine
 10
8.266000000000019
 20
907.816
 30
0.0
 11
8.40800000000001
 21
907.648
 31
0.0
  0
LINE
  5
7D
330
1E
100
AcDbEntity
  8
0
100
AcDbLine
 10
8.40800000000001
 20
907.648
 30
0.0
 11
8.561000000000008
 21
907.4439999999999
 31
0.0
  0
LINE
  5
7E
330
1E
100
AcDbEntity
  8
0
100
AcDbLine
 10
8.202000000000008
 20
904.673
 30
0.0
 11
8.301000000000041
 21
904.5469999999999
 31
0.0
  0
LINE
  5
7F
330
1E
100
AcDbEntity
  8
0
100
AcDbLine
 10
8.202000000000008
 20
904.673
 30
0.0
 11
8.394599999986009
 21
904.426760000018
 31
0.0
  0
LINE
  5
80
330
1E
100
AcDbEntity
  8
0
100
AcDbLine
 10
8.202000000000008
 20
904.673
 30
0.0
 11
8.394599999986018
 21
904.426760000018
 31
0.0
  0
LINE
  5
81
330
1E
100
AcDbEntity
  8
0
100
AcDbLine
 10
8.301000000000041
 20
904.5469999999999
 30
0.0
 11
8.431
 21
904.38
 31
0.0
  0
LINE
  5
82
330
1E
100
AcDbEntity
  8
0
100
AcDbLine
 10
8.717000000000041
 20
906.6089999999999
 30
0.0
 11
8.845
 21
906.478
 31
0.0
  0
LINE
  5
83
330
1E
100
AcDbEntity
  8
0
100
AcDbLine
 10
8.574000000000019
 20
906.7769999999999
 30
0.0
 11
8.717000000000041
 21
906.6089999999999
 31
0.0
  0
LINE
  5
84
330
1E
100
AcDbEntity
  8
0
100
AcDbLine
 10
8.561000000000008
 20
907.4439999999999
 30
0.0
 11
8.708000000000009
 21
907.2230000000001
 31
0.0
  0
LINE
  5
85
330
1E
100
AcDbEntity
  8
0
100
AcDbLine
 10
8.708000000000009
 20
907.2230000000001
 30
0.0
 11
8.836999999999999
 21
907.008
 31
0.0
  0
LINE
  5
86
330
1E
100
AcDbEntity
  8
0
100
AcDbLine
 10
8.845
 20
906.478
 30
0.0
 11
8.948
 21
906.4
 31
0.0
  0
LINE
  5
87
330
1E
100
AcDbEntity
  8
0
100
AcDbLine
 10
8.948
 20
906.4
 30
0.0
 11
9.023000000000019
 21
906.3730000000001
 31
0.0
  0
LINE
  5
88
330
1E
100
AcDbEntity
  8
0
100
AcDbLine
 10
8.943999999999999
 20
906.8049999999999
 30
0.0
 11
9.01799999999999
 21
906.6319999999999
 31
0.0
  0
LINE
  5
89
330
1E
100
AcDbEntity
  8
0
100
AcDbLine
 10
8.836999999999999
 20
907.008
 30
0.0
 11
8.943999999999999
 21
906.8049999999999
 31
0.0
  0
LINE
  5
8A
330
1E
100
AcDbEntity
  8
0
100
AcDbLine
 10
9.023000000000019
 20
906.3730000000001
 30
0.0
 11
9.415156580807821
 21
906.63292051935
 31
0.0
  0
LINE
  5
8B
330
1E
100
AcDbEntity
  8
0
100
AcDbLine
 10
9.059000000000009
 20
906.4949999999999
 30
0.0
 11
9.06200000000001
 21
906.404
 31
0.0
  0
LINE
  5
8C
330
1E
100
AcDbEntity
  8
0
100
AcDbLine
 10
9.01799999999999
 20
906.6319999999999
 30
0.0
 11
9.059000000000009
 21
906.4949999999999
 31
0.0
  0
LINE
  5
8D
330
1E
100
AcDbEntity
  8
0
100
AcDbLine
 10
8.431
 20
904.38
 30
0.0
 11
8.579000000000018
 21
904.1909999999999
 31
0.0
  0
LINE
  5
8E
330
1E
100
AcDbEntity
  8
0
100
AcDbLine
 10
8.431
 20
904.38
 30
0.0
 11
8.737
 21
903.9889999999999
 31
0.0
  0
LINE
  5
8F
330
1E
100
AcDbEntity
  8
0
100
AcDbLine
 10
8.579000000000018
 20
904.1909999999999
 30
0.0
 11
8.737
 21
903.9889999999999
 31
0.0
  0
LINE
  5
90
330
1E
100
AcDbEntity
  8
0
100
AcDbLine
 10
10.04100000000009
 20
902.4860000000002
 30
0.0
 11
10.16399999999999
 21
902.3189999999999
 31
0.0
  0
LINE
  5
91
330
1E
100
AcDbEntity
  8
0
100
AcDbLine
 10
9.986000000000018
 20
902.429
 30
0.0
 11
10.12099999999999
 21
902.27
 31
0.0
  0
LINE
  5
92
330
1E
100
AcDbEntity
  8
0
100
AcDbLine
 10
10.16399999999999
 20
902.3189999999999
 30
0.0
 11
10.258
 21
902.1839999999999
 31
0.0
  0
LINE
  5
93
330
1E
100
AcDbEntity
  8
0
100
AcDbLine
 10
10.258
 20
902.1839999999999
 30
0.0
 11
10.312
 21
902.0980000000001
 31
0.0
  0
LINE
  5
94
330
1E
100
AcDbEntity
  8
0
100
AcDbLine
 10
10.22399999999999
 20
902.1549999999999
 30
0.0
 11
10.295
 21
902.0830000000001
 31
0.0
  0
LINE
  5
95
330
1E
100
AcDbEntity
  8
0
100
AcDbLine
 10
10.32299999999999
 20
902.0660000000001
 30
0.0
 11
10.6185518256038
 21
902.2998763648681
 31
0.0
  0
LINE
  5
96
330
1E
100
AcDbEntity
  8
0
100
AcDbLine
 10
10.32299999999999
 20
902.0660000000001
 30
0.0
 11
10.703033122631
 21
902.3667281889359
 31
0.0
  0
LINE
  5
97
330
1E
100
AcDbEntity
  8
0
100
AcDbLine
 10
10.12099999999999
 20
902.27
 30
0.0
 11
10.22399999999999
 21
902.1549999999999
 31
0.0
  0
LINE
  5
98
330
1E
100
AcDbEntity
  8
0
100
AcDbLine
 10
20.78961943320439
 20
888.1372388663899
 30
0.0
 11
21.153
 21
887.7039999999999
 31
0.0
  0
LINE
  5
99
330
1E
100
AcDbEntity
  8
0
100
AcDbLine
 10
20.8478086124481
 20
888.068162679416
 30
0.0
 11
21.00194240839069
 21
887.8845445026019
 31
0.0
  0
LINE
  5
9A
330
1E
100
AcDbEntity
  8
0
100
AcDbLine
 10
20.8478086124481
 20
888.068162679416
 30
0.0
 11
21.0019424083906
 21
887.8845445026019
 31
0.0
  0
LINE
  5
9B
330
1E
100
AcDbEntity
  8
0
100
AcDbLine
 10
20.78961943320439
 20
888.1372388663899
 30
0.0
 11
21.153
 21
887.7039999999999
 31
0.0
  0
LINE
  5
9C
330
1E
100
AcDbEntity
  8
0
100
AcDbLine
 10
21.083
 20
887.8999999999999
 30
0.0
 11
21.25
 21
887.705
 31
0.0
  0
LINE
  5
9D
330
1E
100
AcDbEntity
  8
0
100
AcDbLine
 10
21.75499999999999
 20
887.162
 30
0.0
 11
22.3077640347288
 21
887.630308939587
 31
0.0
  0
LINE
  5
9E
330
1E
100
AcDbEntity
  8
0
100
AcDbLine
 10
22.193
 20
887.1110000000001
 30
0.0
 11
22.63205668231219
 21
887.4931689394209
 31
0.0
  0
LINE
  5
9F
330
1E
100
AcDbEntity
  8
0
100
AcDbLine
 10
23.221
 20
886.0219999999999
 30
0.0
 11
23.34699999999999
 21
885.861
 31
0.0
  0
LINE
  5
A0
330
1E
100
AcDbEntity
  8
0
100
AcDbLine
 10
23.138
 20
885.9349999999999
 30
0.0
 11
23.279
 21
885.7899999999998
 31
0.0
  0
LINE
  5
A1
330
1E
100
AcDbEntity
  8
0
100
AcDbLine
 10
25.373
 20
884.037
 30
0.0
 11
25.52599999999999
 21
883.854
 31
0.0
  0
LINE
  5
A2
330
1E
100
AcDbEntity
  8
0
100
AcDbLine
 10
25.245
 20
884.2
 30
0.0
 11
25.373
 21
884.037
 31
0.0
  0
LINE
  5
A3
330
1E
100
AcDbEntity
  8
0
100
AcDbLine
 10
25.343
 20
884.299
 30
0.0
 11
25.493
 21
884.1569999999999
 31
0.0
  0
LINE
  5
A4
330
1E
100
AcDbEntity
  8
0
100
AcDbLine
 10
25.493
 20
884.1569999999999
 30
0.0
 11
25.66
 21
883.9889999999998
 31
0.0
  0
LINE
  5
A5
330
1E
100
AcDbEntity
  8
0
100
AcDbLine
 10
25.096
 20
884.467
 30
0.0
 11
25.50689920031089
 21
884.841052261153
 31
0.0
  0
LINE
  5
A6
330
1E
100
AcDbEntity
  8
0
100
AcDbLine
 10
25.224
 20
884.3999999999999
 30
0.0
 11
25.343
 21
884.299
 31
0.0
  0
LINE
  5
A7
330
1E
100
AcDbEntity
  8
0
100
AcDbLine
 10
25.139
 20
884.458
 30
0.0
 11
25.224
 21
884.3999999999999
 31
0.0
  0
LINE
  5
A8
330
1E
100
AcDbEntity
  8
0
100
AcDbLine
 10
25.103
 20
884.4219999999999
 30
0.0
 11
25.155
 21
884.3300000000001
 31
0.0
  0
LINE
  5
A9
330
1E
100
AcDbEntity
  8
0
100
AcDbLine
 10
25.155
 20
884.3300000000001
 30
0.0
 11
25.245
 21
884.2
 31
0.0
  0
LINE
  5
AA
330
1E
100
AcDbEntity
  8
0
100
AcDbLine
 10
23.506
 20
885.603
 30
0.0
 11
24.01382057438369
 21
886.0453606465229
 31
0.0
  0
LINE
  5
AB
330
1E
100
AcDbEntity
  8
0
100
AcDbLine
 10
23.34699999999999
 20
885.861
 30
0.0
 11
23.44199999999999
 21
885.7310000000001
 31
0.0
  0
LINE
  5
AC
330
1E
100
AcDbEntity
  8
0
100
AcDbLine
 10
23.7143890193156
 20
885.7845269131709
 30
0.0
 11
29.62027826229249
 21
879.393156270134
 31
0.0
  0
LINE
  5
AD
330
1E
100
AcDbEntity
  8
0
100
AcDbLine
 10
23.44199999999999
 20
885.7310000000001
 30
0.0
 11
23.498
 21
885.641
 31
0.0
  0
LINE
  5
AE
330
1E
100
AcDbEntity
  8
0
100
AcDbLine
 10
23.394
 20
885.6799999999999
 30
0.0
 11
23.46999999999999
 21
885.618
 31
0.0
  0
LINE
  5
AF
330
1E
100
AcDbEntity
  8
0
100
AcDbLine
 10
23.279
 20
885.7899999999998
 30
0.0
 11
23.394
 21
885.6799999999999
 31
0.0
  0
LINE
  5
B0
330
1E
100
AcDbEntity
  8
0
100
AcDbLine
 10
22.902
 20
886.4029999999999
 30
0.0
 11
23.069
 21
886.208
 31
0.0
  0
LINE
  5
B1
330
1E
100
AcDbEntity
  8
0
100
AcDbLine
 10
23.069
 20
886.208
 30
0.0
 11
23.221
 21
886.0219999999999
 31
0.0
  0
LINE
  5
B2
330
1E
100
AcDbEntity
  8
0
100
AcDbLine
 10
22.97199999999999
 20
886.1139999999998
 30
0.0
 11
23.138
 21
885.9349999999999
 31
0.0
  0
LINE
  5
B3
330
1E
100
AcDbEntity
  8
0
100
AcDbLine
 10
22.79699999999999
 20
886.312
 30
0.0
 11
22.97199999999999
 21
886.1139999999998
 31
0.0
  0
LINE
  5
B4
330
1E
100
AcDbEntity
  8
0
100
AcDbLine
 10
22.35199999999999
 20
886.8530000000001
 30
0.0
 11
22.478
 21
886.692
 31
0.0
  0
LINE
  5
B5
330
1E
100
AcDbEntity
  8
0
100
AcDbLine
 10
22.23
 20
887.096
 30
0.0
 11
22.30599999999999
 21
887.034
 31
0.0
  0
LINE
  5
B6
330
1E
100
AcDbEntity
  8
0
100
AcDbLine
 10
22.25699999999999
 20
886.983
 30
0.0
 11
22.35199999999999
 21
886.8530000000001
 31
0.0
  0
LINE
  5
B7
330
1E
100
AcDbEntity
  8
0
100
AcDbLine
 10
22.30599999999999
 20
887.034
 30
0.0
 11
22.42
 21
886.9239999999999
 31
0.0
  0
LINE
  5
B8
330
1E
100
AcDbEntity
  8
0
100
AcDbLine
 10
22.42
 20
886.9239999999999
 30
0.0
 11
22.56199999999999
 21
886.7789999999999
 31
0.0
  0
LINE
  5
B9
330
1E
100
AcDbEntity
  8
0
100
AcDbLine
 10
22.56199999999999
 20
886.7789999999999
 30
0.0
 11
22.728
 21
886.5999999999999
 31
0.0
  0
LINE
  5
BA
330
1E
100
AcDbEntity
  8
0
100
AcDbLine
 10
22.728
 20
886.5999999999999
 30
0.0
 11
22.902
 21
886.4029999999999
 31
0.0
  0
LINE
  5
BB
330
1E
100
AcDbEntity
  8
0
100
AcDbLine
 10
23.677
 20
886.9289999999999
 30
0.0
 11
23.815
 21
886.8109999999999
 31
0.0
  0
LINE
  5
BC
330
1E
100
AcDbEntity
  8
0
100
AcDbLine
 10
23.815
 20
886.8109999999999
 30
0.0
 11
23.92199999999999
 21
886.7319999999999
 31
0.0
  0
LINE
  5
BD
330
1E
100
AcDbEntity
  8
0
100
AcDbLine
 10
23.92199999999999
 20
886.7319999999999
 30
0.0
 11
23.991
 21
886.701
 31
0.0
  0
LINE
  5
BE
330
1E
100
AcDbEntity
  8
0
100
AcDbLine
 10
23.991
 20
886.701
 30
0.0
 11
24.6028971354675
 21
887.2736783666198
 31
0.0
  0
LINE
  5
BF
330
1E
100
AcDbEntity
  8
0
100
AcDbLine
 10
23.98099999999999
 20
886.794
 30
0.0
 11
24.01
 21
886.7230000000001
 31
0.0
  0
LINE
  5
C0
330
1E
100
AcDbEntity
  8
0
100
AcDbLine
 10
23.91199999999999
 20
886.9049999999999
 30
0.0
 11
23.98099999999999
 21
886.794
 31
0.0
  0
LINE
  5
C1
330
1E
100
AcDbEntity
  8
0
100
AcDbLine
 10
23.513
 20
887.0830000000001
 30
0.0
 11
23.677
 21
886.9289999999999
 31
0.0
  0
LINE
  5
C2
330
1E
100
AcDbEntity
  8
0
100
AcDbLine
 10
23.658
 20
887.226
 30
0.0
 11
23.799
 21
887.054
 31
0.0
  0
LINE
  5
C3
330
1E
100
AcDbEntity
  8
0
100
AcDbLine
 10
23.799
 20
887.054
 30
0.0
 11
23.91199999999999
 21
886.9049999999999
 31
0.0
  0
LINE
  5
C4
330
1E
100
AcDbEntity
  8
0
100
AcDbLine
 10
22.478
 20
886.692
 30
0.0
 11
22.631
 21
886.5060000000001
 31
0.0
  0
LINE
  5
C5
330
1E
100
AcDbEntity
  8
0
100
AcDbLine
 10
22.631
 20
886.5060000000001
 30
0.0
 11
22.79699999999999
 21
886.312
 31
0.0
  0
LINE
  5
C6
330
1E
100
AcDbEntity
  8
0
100
AcDbLine
 10
22.20099999999999
 20
887.073
 30
0.0
 11
22.25699999999999
 21
886.983
 31
0.0
  0
LINE
  5
C7
330
1E
100
AcDbEntity
  8
0
100
AcDbLine
 10
21.684
 20
887.2739999999998
 30
0.0
 11
21.74199999999999
 21
887.1920000000001
 31
0.0
  0
LINE
  5
C8
330
1E
100
AcDbEntity
  8
0
100
AcDbLine
 10
21.583
 20
887.404
 30
0.0
 11
21.684
 21
887.2739999999998
 31
0.0
  0
LINE
  5
C9
330
1E
100
AcDbEntity
  8
0
100
AcDbLine
 10
23.338
 20
887.2589999999998
 30
0.0
 11
23.513
 21
887.0830000000001
 31
0.0
  0
LINE
  5
CA
330
1E
100
AcDbEntity
  8
0
100
AcDbLine
 10
22.17562203644869
 20
887.5183565056339
 30
0.0
 11
22.37905435325589
 21
887.2729476430331
 31
0.0
  0
LINE
  5
CB
330
1E
100
AcDbEntity
  8
0
100
AcDbLine
 10
23.15599999999999
 20
887.453
 30
0.0
 11
23.338
 21
887.2589999999998
 31
0.0
  0
LINE
  5
CC
330
1E
100
AcDbEntity
  8
0
100
AcDbLine
 10
23.488
 20
887.419
 30
0.0
 11
23.658
 21
887.226
 31
0.0
  0
LINE
  5
CD
330
1E
100
AcDbEntity
  8
0
100
AcDbLine
 10
21.65599999999999
 20
887.2510000000001
 30
0.0
 11
21.728
 21
887.18
 31
0.0
  0
LINE
  5
CE
330
1E
100
AcDbEntity
  8
0
100
AcDbLine
 10
21.551
 20
887.3639999999999
 30
0.0
 11
21.65599999999999
 21
887.2510000000001
 31
0.0
  0
LINE
  5
CF
330
1E
100
AcDbEntity
  8
0
100
AcDbLine
 10
21.45399999999999
 20
887.5659999999999
 30
0.0
 11
21.583
 21
887.404
 31
0.0
  0
LINE
  5
D0
330
1E
100
AcDbEntity
  8
0
100
AcDbLine
 10
22.98599999999999
 20
887.645
 30
0.0
 11
23.15599999999999
 21
887.453
 31
0.0
  0
LINE
  5
D1
330
1E
100
AcDbEntity
  8
0
100
AcDbLine
 10
23.306
 20
887.612
 30
0.0
 11
23.488
 21
887.419
 31
0.0
  0
LINE
  5
D2
330
1E
100
AcDbEntity
  8
0
100
AcDbLine
 10
21.41099999999999
 20
887.5199999999999
 30
0.0
 11
21.551
 21
887.3639999999999
 31
0.0
  0
LINE
  5
D3
330
1E
100
AcDbEntity
  8
0
100
AcDbLine
 10
21.177
 20
887.676
 30
0.0
 11
21.2339179788979
 21
887.723778407874
 31
0.0
  0
LINE
  5
D4
330
1E
100
AcDbEntity
  8
0
100
AcDbLine
 10
21.25
 20
887.705
 30
0.0
 11
21.41099999999999
 21
887.5199999999999
 31
0.0
  0
LINE
  5
D5
330
1E
100
AcDbEntity
  8
0
100
AcDbLine
 10
21.30199999999999
 20
887.7499999999999
 30
0.0
 11
21.45399999999999
 21
887.5659999999999
 31
0.0
  0
LINE
  5
D6
330
1E
100
AcDbEntity
  8
0
100
AcDbLine
 10
22.844
 20
887.818
 30
0.0
 11
22.98599999999999
 21
887.645
 31
0.0
  0
LINE
  5
D7
330
1E
100
AcDbEntity
  8
0
100
AcDbLine
 10
23.13099999999999
 20
887.7880000000001
 30
0.0
 11
23.306
 21
887.612
 31
0.0
  0
LINE
  5
D8
330
1E
100
AcDbEntity
  8
0
100
AcDbLine
 10
21.09199999999999
 20
887.7769999999999
 30
0.0
 11
21.153
 21
887.7039999999999
 31
0.0
  0
LINE
  5
D9
330
1E
100
AcDbEntity
  8
0
100
AcDbLine
 10
20.918
 20
888.0969999999999
 30
0.0
 11
21.083
 21
887.8999999999999
 31
0.0
  0
LINE
  5
DA
330
1E
100
AcDbEntity
  8
0
100
AcDbLine
 10
20.971
 20
888.142
 30
0.0
 11
21.13699999999999
 21
887.9469999999999
 31
0.0
  0
LINE
  5
DB
330
1E
100
AcDbEntity
  8
0
100
AcDbLine
 10
21.13699999999999
 20
887.9469999999999
 30
0.0
 11
21.30199999999999
 21
887.7499999999999
 31
0.0
  0
LINE
  5
DC
330
1E
100
AcDbEntity
  8
0
100
AcDbLine
 10
22.653
 20
888.17
 30
0.0
 11
23.1360086809273
 21
888.622383733549
 31
0.0
  0
LINE
  5
DD
330
1E
100
AcDbEntity
  8
0
100
AcDbLine
 10
22.653
 20
888.17
 30
0.0
 11
22.72199999999999
 21
888.1389999999999
 31
0.0
  0
LINE
  5
DE
330
1E
100
AcDbEntity
  8
0
100
AcDbLine
 10
22.634
 20
888.1479999999999
 30
0.0
 11
22.663
 21
888.077
 31
0.0
  0
LINE
  5
DF
330
1E
100
AcDbEntity
  8
0
100
AcDbLine
 10
22.732
 20
887.9659999999999
 30
0.0
 11
22.844
 21
887.818
 31
0.0
  0
LINE
  5
E0
330
1E
100
AcDbEntity
  8
0
100
AcDbLine
 10
22.96699999999999
 20
887.9419999999999
 30
0.0
 11
23.13099999999999
 21
887.7880000000001
 31
0.0
  0
LINE
  5
E1
330
1E
100
AcDbEntity
  8
0
100
AcDbLine
 10
22.829
 20
888.0599999999999
 30
0.0
 11
22.96699999999999
 21
887.9419999999999
 31
0.0
  0
LINE
  5
E2
330
1E
100
AcDbEntity
  8
0
100
AcDbLine
 10
22.72199999999999
 20
888.1389999999999
 30
0.0
 11
22.829
 21
888.0599999999999
 31
0.0
  0
LINE
  5
E3
330
1E
100
AcDbEntity
  8
0
100
AcDbLine
 10
22.663
 20
888.077
 30
0.0
 11
22.732
 21
887.9659999999999
 31
0.0
  0
LINE
  5
E4
330
1E
100
AcDbEntity
  8
0
100
AcDbLine
 10
20.98899999999999
 20
887.8999999999999
 30
0.0
 11
21.09199999999999
 21
887.7769999999999
 31
0.0
  0
LINE
  5
E5
330
1E
100
AcDbEntity
  8
0
100
AcDbLine
 10
20.853
 20
888.062
 30
0.0
 11
20.98899999999999
 21
887.8999999999999
 31
0.0
  0
LINE
  5
E6
330
1E
100
AcDbEntity
  8
0
100
AcDbLine
 10
20.63699999999999
 20
888.442
 30
0.0
 11
20.767
 21
888.281
 31
0.0
  0
LINE
  5
E7
330
1E
100
AcDbEntity
  8
0
100
AcDbLine
 10
20.767
 20
888.281
 30
0.0
 11
20.918
 21
888.0969999999999
 31
0.0
  0
LINE
  5
E8
330
1E
100
AcDbEntity
  8
0
100
AcDbLine
 10
20.537
 20
888.572
 30
0.0
 11
20.63699999999999
 21
888.442
 31
0.0
  0
LINE
  5
E9
330
1E
100
AcDbEntity
  8
0
100
AcDbLine
 10
20.564
 20
888.596
 30
0.0
 11
20.66899999999999
 21
888.483
 31
0.0
  0
LINE
  5
EA
330
1E
100
AcDbEntity
  8
0
100
AcDbLine
 10
20.66899999999999
 20
888.483
 30
0.0
 11
20.809
 21
888.3269999999999
 31
0.0
  0
LINE
  5
EB
330
1E
100
AcDbEntity
  8
0
100
AcDbLine
 10
20.809
 20
888.3269999999999
 30
0.0
 11
20.971
 21
888.142
 31
0.0
  0
LINE
  5
EC
330
1E
100
AcDbEntity
  8
0
100
AcDbLine
 10
20.698
 20
888.2460000000001
 30
0.0
 11
20.853
 21
888.062
 31
0.0
  0
LINE
  5
ED
330
1E
100
AcDbEntity
  8
0
100
AcDbLine
 10
20.534
 20
888.442
 30
0.0
 11
20.698
 21
888.2460000000001
 31
0.0
  0
LINE
  5
EE
330
1E
100
AcDbEntity
  8
0
100
AcDbLine
 10
20.079
 20
888.985
 30
0.0
 11
20.215
 21
888.822
 31
0.0
  0
LINE
  5
EF
330
1E
100
AcDbEntity
  8
0
100
AcDbLine
 10
19.976
 20
889.1069999999999
 30
0.0
 11
20.1898638132355
 21
888.852126459137
 31
0.0
  0
LINE
  5
F0
330
1E
100
AcDbEntity
  8
0
100
AcDbLine
 10
19.976
 20
889.1069999999999
 30
0.0
 11
20.1898638132355
 21
888.852126459137
 31
0.0
  0
LINE
  5
F1
330
1E
100
AcDbEntity
  8
0
100
AcDbLine
 10
19.976
 20
889.1069999999999
 30
0.0
 11
20.079
 21
888.985
 31
0.0
  0
LINE
  5
F2
330
1E
100
AcDbEntity
  8
0
100
AcDbLine
 10
14.06
 20
896.3119999999999
 30
0.0
 11
14.179
 21
896.164
 31
0.0
  0
LINE
  5
F3
330
1E
100
AcDbEntity
  8
0
100
AcDbLine
 10
14.07499999999999
 20
896.3279999999999
 30
0.0
 11
14.197
 21
896.188
 31
0.0
  0
LINE
  5
F4
330
1E
100
AcDbEntity
  8
0
100
AcDbLine
 10
13.99
 20
896.422
 30
0.0
 11
14.07499999999999
 21
896.3279999999999
 31
0.0
  0
LINE
  5
F5
330
1E
100
AcDbEntity
  8
0
100
AcDbLine
 10
13.94099999999999
 20
896.4669999999999
 30
0.0
 11
13.978
 21
896.415
 31
0.0
  0
LINE
  5
F6
330
1E
100
AcDbEntity
  8
0
100
AcDbLine
 10
13.978
 20
896.415
 30
0.0
 11
14.06
 21
896.3119999999999
 31
0.0
  0
LINE
  5
F7
330
1E
100
AcDbEntity
  8
0
100
AcDbLine
 10
14.676
 20
895.6239999999999
 30
0.0
 11
14.835
 21
895.432
 31
0.0
  0
LINE
  5
F8
330
1E
100
AcDbEntity
  8
0
100
AcDbLine
 10
14.649
 20
895.601
 30
0.0
 11
14.811
 21
895.41
 31
0.0
  0
LINE
  5
F9
330
1E
100
AcDbEntity
  8
0
100
AcDbLine
 10
15.17999999999999
 20
895.0079999999999
 30
0.0
 11
15.217
 21
894.9559999999999
 31
0.0
  0
LINE
  5
FA
330
1E
100
AcDbEntity
  8
0
100
AcDbLine
 10
15.216
 20
894.951
 30
0.0
 11
15.3406278225807
 21
895.0558339919361
 31
0.0
  0
LINE
  5
FB
330
1E
100
AcDbEntity
  8
0
100
AcDbLine
 10
15.429
 20
894.946
 30
0.0
 11
15.589
 21
894.754
 31
0.0
  0
LINE
  5
FC
330
1E
100
AcDbEntity
  8
0
100
AcDbLine
 10
15.499
 20
895.015
 30
0.0
 11
15.669
 21
894.823
 31
0.0
  0
LINE
  5
FD
330
1E
100
AcDbEntity
  8
0
100
AcDbLine
 10
16.13799999999999
 20
894.26
 30
0.0
 11
16.25099999999999
 21
894.1130000000001
 31
0.0
  0
LINE
  5
FE
330
1E
100
AcDbEntity
  8
0
100
AcDbLine
 10
16.082
 20
894.1959999999999
 30
0.0
 11
16.206
 21
894.0660000000001
 31
0.0
  0
LINE
  5
FF
330
1E
100
AcDbEntity
  8
0
100
AcDbLine
 10
16.364
 20
893.942
 30
0.0
 11
16.78283322793669
 21
894.301157781212
 31
0.0
  0
LINE
  5
100
330
1E
100
AcDbEntity
  8
0
100
AcDbLine
 10
17.773
 20
892.6119999999999
 30
0.0
 11
17.87099999999999
 21
892.5310000000001
 31
0.0
  0
LINE
  5
101
330
1E
100
AcDbEntity
  8
0
100
AcDbLine
 10
17.712
 20
892.65
 30
0.0
 11
17.773
 21
892.6119999999999
 31
0.0
  0
LINE
  5
102
330
1E
100
AcDbEntity
  8
0
100
AcDbLine
 10
17.694
 20
892.6349999999999
 30
0.0
 11
17.72599999999999
 21
892.567
 31
0.0
  0
LINE
  5
103
330
1E
100
AcDbEntity
  8
0
100
AcDbLine
 10
17.694
 20
892.6349999999999
 30
0.0
 11
18.17902069901879
 21
893.0663103531539
 31
0.0
  0
LINE
  5
104
330
1E
100
AcDbEntity
  8
0
100
AcDbLine
 10
17.72599999999999
 20
892.567
 30
0.0
 11
17.8
 21
892.4549999999999
 31
0.0
  0
LINE
  5
105
330
1E
100
AcDbEntity
  8
0
100
AcDbLine
 10
19.03
 20
891.168
 30
0.0
 11
19.5156143818455
 21
891.599802177007
 31
0.0
  0
LINE
  5
106
330
1E
100
AcDbEntity
  8
0
100
AcDbLine
 10
18.814
 20
891.4939999999999
 30
0.0
 11
18.924
 21
891.3480000000001
 31
0.0
  0
LINE
  5
107
330
1E
100
AcDbEntity
  8
0
100
AcDbLine
 10
19.09921935614489
 20
891.2295489775258
 30
0.0
 11
20.4350687450792
 21
889.6180583142468
 31
0.0
  0
LINE
  5
108
330
1E
100
AcDbEntity
  8
0
100
AcDbLine
 10
18.998
 20
891.2360000000001
 30
0.0
 11
19.03
 21
891.168
 31
0.0
  0
LINE
  5
109
330
1E
100
AcDbEntity
  8
0
100
AcDbLine
 10
18.924
 20
891.3480000000001
 30
0.0
 11
18.998
 21
891.2360000000001
 31
0.0
  0
LINE
  5
10A
330
1E
100
AcDbEntity
  8
0
100
AcDbLine
 10
18.85299999999999
 20
891.2729999999999
 30
0.0
 11
18.951
 21
891.191
 31
0.0
  0
LINE
  5
10B
330
1E
100
AcDbEntity
  8
0
100
AcDbLine
 10
18.951
 20
891.191
 30
0.0
 11
19.012
 21
891.154
 31
0.0
  0
LINE
  5
10C
330
1E
100
AcDbEntity
  8
0
100
AcDbLine
 10
18.719
 20
891.3989999999998
 30
0.0
 11
18.85299999999999
 21
891.2729999999999
 31
0.0
  0
LINE
  5
10D
330
1E
100
AcDbEntity
  8
0
100
AcDbLine
 10
18.38899999999999
 20
891.745
 30
0.0
 11
18.563
 21
891.558
 31
0.0
  0
LINE
  5
10E
330
1E
100
AcDbEntity
  8
0
100
AcDbLine
 10
18.335
 20
892.059
 30
0.0
 11
18.51099999999999
 21
891.8599999999999
 31
0.0
  0
LINE
  5
10F
330
1E
100
AcDbEntity
  8
0
100
AcDbLine
 10
18.51099999999999
 20
891.8599999999999
 30
0.0
 11
18.672
 21
891.67
 31
0.0
  0
LINE
  5
110
330
1E
100
AcDbEntity
  8
0
100
AcDbLine
 10
18.672
 20
891.67
 30
0.0
 11
18.814
 21
891.4939999999999
 31
0.0
  0
LINE
  5
111
330
1E
100
AcDbEntity
  8
0
100
AcDbLine
 10
18.563
 20
891.558
 30
0.0
 11
18.719
 21
891.3989999999998
 31
0.0
  0
LINE
  5
112
330
1E
100
AcDbEntity
  8
0
100
AcDbLine
 10
18.213
 20
891.943
 30
0.0
 11
18.38899999999999
 21
891.745
 31
0.0
  0
LINE
  5
113
330
1E
100
AcDbEntity
  8
0
100
AcDbLine
 10
17.909
 20
892.309
 30
0.0
 11
18.05099999999999
 21
892.1330000000001
 31
0.0
  0
LINE
  5
114
330
1E
100
AcDbEntity
  8
0
100
AcDbLine
 10
17.87099999999999
 20
892.5310000000001
 30
0.0
 11
18.00499999999999
 21
892.4039999999999
 31
0.0
  0
LINE
  5
115
330
1E
100
AcDbEntity
  8
0
100
AcDbLine
 10
18.00499999999999
 20
892.4039999999999
 30
0.0
 11
18.16
 21
892.246
 31
0.0
  0
LINE
  5
116
330
1E
100
AcDbEntity
  8
0
100
AcDbLine
 10
18.16
 20
892.246
 30
0.0
 11
18.335
 21
892.059
 31
0.0
  0
LINE
  5
117
330
1E
100
AcDbEntity
  8
0
100
AcDbLine
 10
18.05099999999999
 20
892.1330000000001
 30
0.0
 11
18.213
 21
891.943
 31
0.0
  0
LINE
  5
118
330
1E
100
AcDbEntity
  8
0
100
AcDbLine
 10
17.8
 20
892.4549999999999
 30
0.0
 11
17.909
 21
892.309
 31
0.0
  0
LINE
  5
119
330
1E
100
AcDbEntity
  8
0
100
AcDbLine
 10
16.6484947958013
 20
894.185959917244
 30
0.0
 11
17.8322530334636
 21
892.7579431337848
 31
0.0
  0
LINE
  5
11A
330
1E
100
AcDbEntity
  8
0
100
AcDbLine
 10
16.33
 20
894.002
 30
0.0
 11
16.364
 21
893.942
 31
0.0
  0
LINE
  5
11B
330
1E
100
AcDbEntity
  8
0
100
AcDbLine
 10
16.25099999999999
 20
894.1130000000001
 30
0.0
 11
16.33
 21
894.002
 31
0.0
  0
LINE
  5
11C
330
1E
100
AcDbEntity
  8
0
100
AcDbLine
 10
16.3
 20
893.9739999999998
 30
0.0
 11
16.352
 21
893.9349999999999
 31
0.0
  0
LINE
  5
11D
330
1E
100
AcDbEntity
  8
0
100
AcDbLine
 10
16.206
 20
894.0660000000001
 30
0.0
 11
16.3
 21
893.9739999999998
 31
0.0
  0
LINE
  5
11E
330
1E
100
AcDbEntity
  8
0
100
AcDbLine
 10
15.758
 20
894.557
 30
0.0
 11
15.92799999999999
 21
894.3649999999999
 31
0.0
  0
LINE
  5
11F
330
1E
100
AcDbEntity
  8
0
100
AcDbLine
 10
15.669
 20
894.823
 30
0.0
 11
15.837
 21
894.626
 31
0.0
  0
LINE
  5
120
330
1E
100
AcDbEntity
  8
0
100
AcDbLine
 10
15.998
 20
894.434
 30
0.0
 11
16.13799999999999
 21
894.26
 31
0.0
  0
LINE
  5
121
330
1E
100
AcDbEntity
  8
0
100
AcDbLine
 10
15.837
 20
894.626
 30
0.0
 11
15.998
 21
894.434
 31
0.0
  0
LINE
  5
122
330
1E
100
AcDbEntity
  8
0
100
AcDbLine
 10
15.92799999999999
 20
894.3649999999999
 30
0.0
 11
16.082
 21
894.1959999999999
 31
0.0
  0
LINE
  5
123
330
1E
100
AcDbEntity
  8
0
100
AcDbLine
 10
15.589
 20
894.754
 30
0.0
 11
15.758
 21
894.557
 31
0.0
  0
LINE
  5
124
330
1E
100
AcDbEntity
  8
0
100
AcDbLine
 10
15.3406278225807
 20
895.0558339919361
 30
0.0
 11
15.429
 21
894.946
 31
0.0
  0
LINE
  5
125
330
1E
100
AcDbEntity
  8
0
100
AcDbLine
 10
15.16799999999999
 20
895.001
 30
0.0
 11
15.216
 21
894.951
 31
0.0
  0
LINE
  5
126
330
1E
100
AcDbEntity
  8
0
100
AcDbLine
 10
14.835
 20
895.432
 30
0.0
 11
14.979
 21
895.2580000000001
 31
0.0
  0
LINE
  5
127
330
1E
100
AcDbEntity
  8
0
100
AcDbLine
 10
15.098
 20
895.1110000000001
 30
0.0
 11
15.17999999999999
 21
895.0079999999999
 31
0.0
  0
LINE
  5
128
330
1E
100
AcDbEntity
  8
0
100
AcDbLine
 10
15.289
 20
895.12
 30
0.0
 11
15.429
 21
894.946
 31
0.0
  0
LINE
  5
129
330
1E
100
AcDbEntity
  8
0
100
AcDbLine
 10
14.979
 20
895.2580000000001
 30
0.0
 11
15.098
 21
895.1110000000001
 31
0.0
  0
LINE
  5
12A
330
1E
100
AcDbEntity
  8
0
100
AcDbLine
 10
15.097
 20
895.378
 30
0.0
 11
15.17599999999999
 21
895.2669999999999
 31
0.0
  0
LINE
  5
12B
330
1E
100
AcDbEntity
  8
0
100
AcDbLine
 10
15.17599999999999
 20
895.2669999999999
 30
0.0
 11
15.289
 21
895.12
 31
0.0
  0
LINE
  5
12C
330
1E
100
AcDbEntity
  8
0
100
AcDbLine
 10
15.075
 20
895.4450000000001
 30
0.0
 11
15.127
 21
895.406
 31
0.0
  0
LINE
  5
12D
330
1E
100
AcDbEntity
  8
0
100
AcDbLine
 10
15.06299999999999
 20
895.438
 30
0.0
 11
15.097
 21
895.378
 31
0.0
  0
LINE
  5
12E
330
1E
100
AcDbEntity
  8
0
100
AcDbLine
 10
15.06299999999999
 20
895.438
 30
0.0
 11
15.50525862617
 21
895.817245523761
 31
0.0
  0
LINE
  5
12F
330
1E
100
AcDbEntity
  8
0
100
AcDbLine
 10
15.127
 20
895.406
 30
0.0
 11
15.221
 21
895.3139999999999
 31
0.0
  0
LINE
  5
130
330
1E
100
AcDbEntity
  8
0
100
AcDbLine
 10
15.221
 20
895.3139999999999
 30
0.0
 11
15.345
 21
895.184
 31
0.0
  0
LINE
  5
131
330
1E
100
AcDbEntity
  8
0
100
AcDbLine
 10
15.345
 20
895.184
 30
0.0
 11
15.499
 21
895.015
 31
0.0
  0
LINE
  5
132
330
1E
100
AcDbEntity
  8
0
100
AcDbLine
 10
14.961
 20
895.235
 30
0.0
 11
15.083
 21
895.095
 31
0.0
  0
LINE
  5
133
330
1E
100
AcDbEntity
  8
0
100
AcDbLine
 10
15.083
 20
895.095
 30
0.0
 11
15.16799999999999
 21
895.001
 31
0.0
  0
LINE
  5
134
330
1E
100
AcDbEntity
  8
0
100
AcDbLine
 10
14.811
 20
895.41
 30
0.0
 11
14.961
 21
895.235
 31
0.0
  0
LINE
  5
135
330
1E
100
AcDbEntity
  8
0
100
AcDbLine
 10
14.323
 20
895.9900000000001
 30
0.0
 11
14.482
 21
895.799
 31
0.0
  0
LINE
  5
136
330
1E
100
AcDbEntity
  8
0
100
AcDbLine
 10
14.197
 20
896.188
 30
0.0
 11
14.348
 21
896.0130000000001
 31
0.0
  0
LINE
  5
137
330
1E
100
AcDbEntity
  8
0
100
AcDbLine
 10
14.348
 20
896.0130000000001
 30
0.0
 11
14.51
 21
895.822
 31
0.0
  0
LINE
  5
138
330
1E
100
AcDbEntity
  8
0
100
AcDbLine
 10
14.51
 20
895.822
 30
0.0
 11
14.676
 21
895.6239999999999
 31
0.0
  0
LINE
  5
139
330
1E
100
AcDbEntity
  8
0
100
AcDbLine
 10
14.482
 20
895.799
 30
0.0
 11
14.649
 21
895.601
 31
0.0
  0
LINE
  5
13A
330
1E
100
AcDbEntity
  8
0
100
AcDbLine
 10
14.179
 20
896.164
 30
0.0
 11
14.323
 21
895.9900000000001
 31
0.0
  0
LINE
  5
13B
330
1E
100
AcDbEntity
  8
0
100
AcDbLine
 10
10.60967350327769
 20
902.292850762007
 30
0.0
 11
10.9105384835001
 21
901.8646905286571
 31
0.0
  0
LINE
  5
13C
330
1E
100
AcDbEntity
  8
0
100
AcDbLine
 10
10.77299999999999
 20
901.707
 30
0.0
 11
10.84999999999999
 21
901.6469999999999
 31
0.0
  0
LINE
  5
13D
330
1E
100
AcDbEntity
  8
0
100
AcDbLine
 10
10.734
 20
901.72
 30
0.0
 11
10.9105384835001
 21
901.8646905286571
 31
0.0
  0
LINE
  5
13E
330
1E
100
AcDbEntity
  8
0
100
AcDbLine
 10
10.734
 20
901.72
 30
0.0
 11
11.2790131974128
 21
902.1666915433698
 31
0.0
  0
LINE
  5
13F
330
1E
100
AcDbEntity
  8
0
100
AcDbLine
 10
10.738
 20
901.679
 30
0.0
 11
10.78799999999999
 21
901.585
 31
0.0
  0
LINE
  5
140
330
1E
100
AcDbEntity
  8
0
100
AcDbLine
 10
10.84999999999999
 20
901.6469999999999
 30
0.0
 11
10.964
 21
901.5360000000001
 31
0.0
  0
LINE
  5
141
330
1E
100
AcDbEntity
  8
0
100
AcDbLine
 10
10.78799999999999
 20
901.585
 30
0.0
 11
10.877
 21
901.449
 31
0.0
  0
LINE
  5
142
330
1E
100
AcDbEntity
  8
0
100
AcDbLine
 10
10.877
 20
901.449
 30
0.0
 11
10.99599999999999
 21
901.2819999999999
 31
0.0
  0
LINE
  5
143
330
1E
100
AcDbEntity
  8
0
100
AcDbLine
 10
11.142
 20
901.0900000000001
 30
0.0
 11
11.302
 21
900.89
 31
0.0
  0
LINE
  5
144
330
1E
100
AcDbEntity
  8
0
100
AcDbLine
 10
11.264
 20
901.2059999999999
 30
0.0
 11
11.43299999999999
 21
901.004
 31
0.0
  0
LINE
  5
145
330
1E
100
AcDbEntity
  8
0
100
AcDbLine
 10
11.47099999999999
 20
900.689
 30
0.0
 11
11.633
 21
900.506
 31
0.0
  0
LINE
  5
146
330
1E
100
AcDbEntity
  8
0
100
AcDbLine
 10
11.43299999999999
 20
901.004
 30
0.0
 11
11.59299999999999
 21
900.8039999999999
 31
0.0
  0
LINE
  5
147
330
1E
100
AcDbEntity
  8
0
100
AcDbLine
 10
11.302
 20
900.89
 30
0.0
 11
11.47099999999999
 21
900.689
 31
0.0
  0
LINE
  5
148
330
1E
100
AcDbEntity
  8
0
100
AcDbLine
 10
10.964
 20
901.5360000000001
 30
0.0
 11
11.103
 21
901.388
 31
0.0
  0
LINE
  5
149
330
1E
100
AcDbEntity
  8
0
100
AcDbLine
 10
11.103
 20
901.388
 30
0.0
 11
11.264
 21
901.2059999999999
 31
0.0
  0
LINE
  5
14A
330
1E
100
AcDbEntity
  8
0
100
AcDbLine
 10
10.99599999999999
 20
901.2819999999999
 30
0.0
 11
11.142
 21
901.0900000000001
 31
0.0
  0
LINE
  5
14B
330
1E
100
AcDbEntity
  8
0
100
AcDbLine
 10
11.885
 20
900.247
 30
0.0
 11
11.96199999999999
 21
900.187
 31
0.0
  0
LINE
  5
14C
330
1E
100
AcDbEntity
  8
0
100
AcDbLine
 10
11.947
 20
900.3099999999999
 30
0.0
 11
11.99699999999999
 21
900.215
 31
0.0
  0
LINE
  5
14D
330
1E
100
AcDbEntity
  8
0
100
AcDbLine
 10
11.85799999999999
 20
900.445
 30
0.0
 11
11.947
 21
900.3099999999999
 31
0.0
  0
LINE
  5
14E
330
1E
100
AcDbEntity
  8
0
100
AcDbLine
 10
11.771
 20
900.3580000000001
 30
0.0
 11
11.885
 21
900.247
 31
0.0
  0
LINE
  5
14F
330
1E
100
AcDbEntity
  8
0
100
AcDbLine
 10
14.597
 20
897.71
 30
0.0
 11
14.744
 21
897.522
 31
0.0
  0
LINE
  5
150
330
1E
100
AcDbEntity
  8
0
100
AcDbLine
 10
14.47499999999999
 20
897.8799999999999
 30
0.0
 11
14.597
 21
897.71
 31
0.0
  0
LINE
  5
151
330
1E
100
AcDbEntity
  8
0
100
AcDbLine
 10
14.59999999999999
 20
898.0010000000001
 30
0.0
 11
14.749
 21
897.8589999999998
 31
0.0
  0
LINE
  5
152
330
1E
100
AcDbEntity
  8
0
100
AcDbLine
 10
14.345
 20
898.163
 30
0.0
 11
14.8493688392685
 21
898.5997834148061
 31
0.0
  0
LINE
  5
153
330
1E
100
AcDbEntity
  8
0
100
AcDbLine
 10
14.345
 20
898.163
 30
0.0
 11
14.34599999999999
 21
898.112
 31
0.0
  0
LINE
  5
154
330
1E
100
AcDbEntity
  8
0
100
AcDbLine
 10
14.48
 20
898.1010000000001
 30
0.0
 11
14.59999999999999
 21
898.0010000000001
 31
0.0
  0
LINE
  5
155
330
1E
100
AcDbEntity
  8
0
100
AcDbLine
 10
14.392
 20
898.1580000000001
 30
0.0
 11
14.48
 21
898.1010000000001
 31
0.0
  0
LINE
  5
156
330
1E
100
AcDbEntity
  8
0
100
AcDbLine
 10
14.34599999999999
 20
898.112
 30
0.0
 11
14.392
 21
898.015
 31
0.0
  0
LINE
  5
157
330
1E
100
AcDbEntity
  8
0
100
AcDbLine
 10
14.392
 20
898.015
 30
0.0
 11
14.47499999999999
 21
897.8799999999999
 31
0.0
  0
LINE
  5
158
330
1E
100
AcDbEntity
  8
0
100
AcDbLine
 10
12.00099999999999
 20
900.1739999999999
 30
0.0
 11
12.4398523471926
 21
900.5331645020481
 31
0.0
  0
LINE
  5
159
330
1E
100
AcDbEntity
  8
0
100
AcDbLine
 10
12.00099999999999
 20
900.1739999999999
 30
0.0
 11
12.4398523471926
 21
900.5331645020481
 31
0.0
  0
LINE
  5
15A
330
1E
100
AcDbEntity
  8
0
100
AcDbLine
 10
12.0629479855672
 20
900.2246993241151
 30
0.0
 11
14.402
 21
896.896
 31
0.0
  0
LINE
  5
15B
330
1E
100
AcDbEntity
  8
0
100
AcDbLine
 10
11.739
 20
900.6119999999999
 30
0.0
 11
11.85799999999999
 21
900.445
 31
0.0
  0
LINE
  5
15C
330
1E
100
AcDbEntity
  8
0
100
AcDbLine
 10
12.936
 20
902.809
 30
0.0
 11
13.095
 21
902.651
 31
0.0
  0
LINE
  5
15D
330
1E
100
AcDbEntity
  8
0
100
AcDbLine
 10
12.773
 20
902.996
 30
0.0
 11
12.936
 21
902.809
 31
0.0
  0
LINE
  5
15E
330
1E
100
AcDbEntity
  8
0
100
AcDbLine
 10
13.095
 20
902.651
 30
0.0
 11
13.238
 21
902.5369999999998
 31
0.0
  0
LINE
  5
15F
330
1E
100
AcDbEntity
  8
0
100
AcDbLine
 10
13.238
 20
902.5369999999998
 30
0.0
 11
13.35799999999999
 21
902.4689999999999
 31
0.0
  0
LINE
  5
160
330
1E
100
AcDbEntity
  8
0
100
AcDbLine
 10
13.35799999999999
 20
902.4689999999999
 30
0.0
 11
13.447
 21
902.4550000000001
 31
0.0
  0
LINE
  5
161
330
1E
100
AcDbEntity
  8
0
100
AcDbLine
 10
12.613
 20
903.207
 30
0.0
 11
12.773
 21
902.996
 31
0.0
  0
LINE
  5
162
330
1E
100
AcDbEntity
  8
0
100
AcDbLine
 10
12.47099999999999
 20
903.423
 30
0.0
 11
12.613
 21
903.207
 31
0.0
  0
LINE
  5
163
330
1E
100
AcDbEntity
  8
0
100
AcDbLine
 10
12.36099999999999
 20
903.622
 30
0.0
 11
12.47099999999999
 21
903.423
 31
0.0
  0
LINE
  5
164
330
1E
100
AcDbEntity
  8
0
100
AcDbLine
 10
12.97
 20
903.5399999999999
 30
0.0
 11
13.13099999999999
 21
903.3289999999999
 31
0.0
  0
LINE
  5
165
330
1E
100
AcDbEntity
  8
0
100
AcDbLine
 10
13.13099999999999
 20
903.3289999999999
 30
0.0
 11
13.273
 21
903.1139999999998
 31
0.0
  0
LINE
  5
166
330
1E
100
AcDbEntity
  8
0
100
AcDbLine
 10
13.273
 20
903.1139999999998
 30
0.0
 11
13.383
 21
902.9139999999999
 31
0.0
  0
LINE
  5
167
330
1E
100
AcDbEntity
  8
0
100
AcDbLine
 10
13.447
 20
902.4550000000001
 30
0.0
 11
13.494
 21
902.5010000000001
 31
0.0
  0
LINE
  5
168
330
1E
100
AcDbEntity
  8
0
100
AcDbLine
 10
13.447
 20
902.4550000000001
 30
0.0
 11
14.0715357208403
 21
902.9222958838479
 31
0.0
  0
LINE
  5
169
330
1E
100
AcDbEntity
  8
0
100
AcDbLine
 10
13.494
 20
902.5010000000001
 30
0.0
 11
13.497
 21
902.598
 31
0.0
  0
LINE
  5
16A
330
1E
100
AcDbEntity
  8
0
100
AcDbLine
 10
13.46099999999999
 20
902.7369999999999
 30
0.0
 11
13.497
 21
902.598
 31
0.0
  0
LINE
  5
16B
330
1E
100
AcDbEntity
  8
0
100
AcDbLine
 10
13.383
 20
902.9139999999999
 30
0.0
 11
13.46099999999999
 21
902.7369999999999
 31
0.0
  0
LINE
  5
16C
330
1E
100
AcDbEntity
  8
0
100
AcDbLine
 10
11.59299999999999
 20
900.8039999999999
 30
0.0
 11
11.739
 21
900.6119999999999
 31
0.0
  0
LINE
  5
16D
330
1E
100
AcDbEntity
  8
0
100
AcDbLine
 10
11.633
 20
900.506
 30
0.0
 11
11.771
 21
900.3580000000001
 31
0.0
  0
LINE
  5
16E
330
1E
100
AcDbEntity
  8
0
100
AcDbLine
 10
12.282
 20
903.799
 30
0.0
 11
12.36099999999999
 21
903.622
 31
0.0
  0
LINE
  5
16F
330
1E
100
AcDbEntity
  8
0
100
AcDbLine
 10
12.648
 20
903.885
 30
0.0
 11
12.807
 21
903.7269999999999
 31
0.0
  0
LINE
  5
170
330
1E
100
AcDbEntity
  8
0
100
AcDbLine
 10
12.807
 20
903.7269999999999
 30
0.0
 11
12.97
 21
903.5399999999999
 31
0.0
  0
LINE
  5
171
330
1E
100
AcDbEntity
  8
0
100
AcDbLine
 10
12.249
 20
904.035
 30
0.0
 11
12.296
 21
904.081
 31
0.0
  0
LINE
  5
172
330
1E
100
AcDbEntity
  8
0
100
AcDbLine
 10
12.505
 20
903.9989999999999
 30
0.0
 11
12.648
 21
903.885
 31
0.0
  0
LINE
  5
173
330
1E
100
AcDbEntity
  8
0
100
AcDbLine
 10
12.385
 20
904.067
 30
0.0
 11
12.505
 21
903.9989999999999
 31
0.0
  0
LINE
  5
174
330
1E
100
AcDbEntity
  8
0
100
AcDbLine
 10
12.296
 20
904.081
 30
0.0
 11
12.7504934478776
 21
904.4212843984759
 31
0.0
  0
LINE
  5
175
330
1E
100
AcDbEntity
  8
0
100
AcDbLine
 10
12.296
 20
904.081
 30
0.0
 11
12.385
 21
904.067
 31
0.0
  0
LINE
  5
176
330
1E
100
AcDbEntity
  8
0
100
AcDbLine
 10
12.24599999999999
 20
903.9379999999999
 30
0.0
 11
12.282
 21
903.799
 31
0.0
  0
LINE
  5
177
330
1E
100
AcDbEntity
  8
0
100
AcDbLine
 10
12.24599999999999
 20
903.9379999999999
 30
0.0
 11
12.249
 21
904.035
 31
0.0
  0
LINE
  5
178
330
1E
100
AcDbEntity
  8
0
100
AcDbLine
 10
15.253
 20
896.954
 30
0.0
 11
15.402
 21
896.8110000000001
 31
0.0
  0
LINE
  5
179
330
1E
100
AcDbEntity
  8
0
100
AcDbLine
 10
15.089
 20
897.1249999999999
 30
0.0
 11
15.253
 21
896.954
 31
0.0
  0
LINE
  5
17A
330
1E
100
AcDbEntity
  8
0
100
AcDbLine
 10
14.913
 20
897.32
 30
0.0
 11
15.089
 21
897.1249999999999
 31
0.0
  0
LINE
  5
17B
330
1E
100
AcDbEntity
  8
0
100
AcDbLine
 10
14.744
 20
897.522
 30
0.0
 11
14.913
 21
897.32
 31
0.0
  0
LINE
  5
17C
330
1E
100
AcDbEntity
  8
0
100
AcDbLine
 10
14.749
 20
897.8589999999998
 30
0.0
 11
14.913
 21
897.6879999999999
 31
0.0
  0
LINE
  5
17D
330
1E
100
AcDbEntity
  8
0
100
AcDbLine
 10
14.913
 20
897.6879999999999
 30
0.0
 11
15.089
 21
897.493
 31
0.0
  0
LINE
  5
17E
330
1E
100
AcDbEntity
  8
0
100
AcDbLine
 10
15.089
 20
897.493
 30
0.0
 11
15.258
 21
897.291
 31
0.0
  0
LINE
  5
17F
330
1E
100
AcDbEntity
  8
0
100
AcDbLine
 10
15.258
 20
897.291
 30
0.0
 11
15.40499999999999
 21
897.103
 31
0.0
  0
LINE
  5
180
330
1E
100
AcDbEntity
  8
0
100
AcDbLine
 10
15.402
 20
896.8110000000001
 30
0.0
 11
15.522
 21
896.7119999999999
 31
0.0
  0
LINE
  5
181
330
1E
100
AcDbEntity
  8
0
100
AcDbLine
 10
15.522
 20
896.7119999999999
 30
0.0
 11
15.60999999999999
 21
896.6549999999999
 31
0.0
  0
LINE
  5
182
330
1E
100
AcDbEntity
  8
0
100
AcDbLine
 10
15.657
 20
896.6499999999999
 30
0.0
 11
16.14317800777999
 21
897.0707496549669
 31
0.0
  0
LINE
  5
183
330
1E
100
AcDbEntity
  8
0
100
AcDbLine
 10
15.65599999999999
 20
896.701
 30
0.0
 11
15.657
 21
896.6499999999999
 31
0.0
  0
LINE
  5
184
330
1E
100
AcDbEntity
  8
0
100
AcDbLine
 10
15.60999999999999
 20
896.798
 30
0.0
 11
15.65599999999999
 21
896.701
 31
0.0
  0
LINE
  5
185
330
1E
100
AcDbEntity
  8
0
100
AcDbLine
 10
18.312
 20
898.164
 30
0.0
 11
18.454
 21
897.948
 31
0.0
  0
LINE
  5
186
330
1E
100
AcDbEntity
  8
0
100
AcDbLine
 10
18.202
 20
898.3630000000001
 30
0.0
 11
18.312
 21
898.164
 31
0.0
  0
LINE
  5
187
330
1E
100
AcDbEntity
  8
0
100
AcDbLine
 10
18.123
 20
898.54
 30
0.0
 11
18.202
 21
898.3630000000001
 31
0.0
  0
LINE
  5
188
330
1E
100
AcDbEntity
  8
0
100
AcDbLine
 10
18.777
 20
897.55
 30
0.0
 11
18.936
 21
897.3919999999999
 31
0.0
  0
LINE
  5
189
330
1E
100
AcDbEntity
  8
0
100
AcDbLine
 10
18.936
 20
897.3919999999999
 30
0.0
 11
19.079
 21
897.278
 31
0.0
  0
LINE
  5
18A
330
1E
100
AcDbEntity
  8
0
100
AcDbLine
 10
19.079
 20
897.278
 30
0.0
 11
19.199
 21
897.2100000000001
 31
0.0
  0
LINE
  5
18B
330
1E
100
AcDbEntity
  8
0
100
AcDbLine
 10
19.199
 20
897.2100000000001
 30
0.0
 11
19.288
 21
897.1960000000001
 31
0.0
  0
LINE
  5
18C
330
1E
100
AcDbEntity
  8
0
100
AcDbLine
 10
19.288
 20
897.1960000000001
 30
0.0
 11
19.335
 21
897.2419999999999
 31
0.0
  0
LINE
  5
18D
330
1E
100
AcDbEntity
  8
0
100
AcDbLine
 10
19.288
 20
897.1960000000001
 30
0.0
 11
19.8520683840995
 21
897.6180524548119
 31
0.0
  0
LINE
  5
18E
330
1E
100
AcDbEntity
  8
0
100
AcDbLine
 10
19.335
 20
897.2419999999999
 30
0.0
 11
19.338
 21
897.339
 31
0.0
  0
LINE
  5
18F
330
1E
100
AcDbEntity
  8
0
100
AcDbLine
 10
19.302
 20
897.478
 30
0.0
 11
19.338
 21
897.339
 31
0.0
  0
LINE
  5
190
330
1E
100
AcDbEntity
  8
0
100
AcDbLine
 10
18.614
 20
897.737
 30
0.0
 11
18.777
 21
897.55
 31
0.0
  0
LINE
  5
191
330
1E
100
AcDbEntity
  8
0
100
AcDbLine
 10
18.454
 20
897.948
 30
0.0
 11
18.614
 21
897.737
 31
0.0
  0
LINE
  5
192
330
1E
100
AcDbEntity
  8
0
100
AcDbLine
 10
18.489
 20
898.6260000000001
 30
0.0
 11
18.64799999999999
 21
898.468
 31
0.0
  0
LINE
  5
193
330
1E
100
AcDbEntity
  8
0
100
AcDbLine
 10
18.64799999999999
 20
898.468
 30
0.0
 11
18.81099999999999
 21
898.281
 31
0.0
  0
LINE
  5
194
330
1E
100
AcDbEntity
  8
0
100
AcDbLine
 10
18.81099999999999
 20
898.281
 30
0.0
 11
18.972
 21
898.07
 31
0.0
  0
LINE
  5
195
330
1E
100
AcDbEntity
  8
0
100
AcDbLine
 10
18.972
 20
898.07
 30
0.0
 11
19.114
 21
897.8539999999998
 31
0.0
  0
LINE
  5
196
330
1E
100
AcDbEntity
  8
0
100
AcDbLine
 10
19.114
 20
897.8539999999998
 30
0.0
 11
19.224
 21
897.6549999999999
 31
0.0
  0
LINE
  5
197
330
1E
100
AcDbEntity
  8
0
100
AcDbLine
 10
19.224
 20
897.6549999999999
 30
0.0
 11
19.302
 21
897.478
 31
0.0
  0
LINE
  5
198
330
1E
100
AcDbEntity
  8
0
100
AcDbLine
 10
18.346
 20
898.74
 30
0.0
 11
18.489
 21
898.6260000000001
 31
0.0
  0
LINE
  5
199
330
1E
100
AcDbEntity
  8
0
100
AcDbLine
 10
18.22599999999999
 20
898.808
 30
0.0
 11
18.346
 21
898.74
 31
0.0
  0
LINE
  5
19A
330
1E
100
AcDbEntity
  8
0
100
AcDbLine
 10
18.09
 20
898.7760000000001
 30
0.0
 11
18.137
 21
898.822
 31
0.0
  0
LINE
  5
19B
330
1E
100
AcDbEntity
  8
0
100
AcDbLine
 10
18.137
 20
898.822
 30
0.0
 11
18.78223747226189
 21
899.304680866815
 31
0.0
  0
LINE
  5
19C
330
1E
100
AcDbEntity
  8
0
100
AcDbLine
 10
18.137
 20
898.822
 30
0.0
 11
18.22599999999999
 21
898.808
 31
0.0
  0
LINE
  5
19D
330
1E
100
AcDbEntity
  8
0
100
AcDbLine
 10
18.08699999999999
 20
898.6789999999999
 30
0.0
 11
18.123
 21
898.54
 31
0.0
  0
LINE
  5
19E
330
1E
100
AcDbEntity
  8
0
100
AcDbLine
 10
18.08699999999999
 20
898.6789999999999
 30
0.0
 11
18.09
 21
898.7760000000001
 31
0.0
  0
LINE
  5
19F
330
1E
100
AcDbEntity
  8
0
100
AcDbLine
 10
15.52599999999999
 20
896.9329999999999
 30
0.0
 11
15.60999999999999
 21
896.798
 31
0.0
  0
LINE
  5
1A0
330
1E
100
AcDbEntity
  8
0
100
AcDbLine
 10
15.40499999999999
 20
897.103
 30
0.0
 11
15.52599999999999
 21
896.9329999999999
 31
0.0
  0
LINE
  5
1A1
330
1E
100
AcDbEntity
  8
0
100
AcDbLine
 10
13.943
 20
896.4719999999999
 30
0.0
 11
14.434286777598
 21
896.885258877627
 31
0.0
  0
LINE
  5
1A2
330
1E
100
AcDbEntity
  8
0
100
AcDbLine
 10
13.943
 20
896.4719999999999
 30
0.0
 11
13.99
 21
896.422
 31
0.0
  0
LINE
  5
1A3
330
1E
100
AcDbEntity
  8
0
100
AcDbLine
 10
13.943
 20
896.4719999999999
 30
0.0
 11
14.48734842789289
 21
896.9298930893449
 31
0.0
  0
LINE
  5
1A4
330
1E
100
AcDbEntity
  8
0
100
AcDbLine
 10
13.943
 20
896.4719999999999
 30
0.0
 11
14.48734842789289
 21
896.9298930893449
 31
0.0
  0
LINE
  5
1A5
330
1E
100
AcDbEntity
  8
0
100
AcDbLine
 10
19.89099999999999
 20
889.2080000000001
 30
0.0
 11
20.4268547941166
 21
889.6578102253489
 31
0.0
  0
LINE
  5
1A6
330
1E
100
AcDbEntity
  8
0
100
AcDbLine
 10
19.89099999999999
 20
889.2080000000001
 30
0.0
 11
20.2119921011023
 21
888.8256050552969
 31
0.0
  0
LINE
  5
1A7
330
1E
100
AcDbEntity
  8
0
100
AcDbLine
 10
19.89099999999999
 20
889.2080000000001
 30
0.0
 11
20.2119921011022
 21
888.8256050552969
 31
0.0
  0
LINE
  5
1A8
330
1E
100
AcDbEntity
  8
0
100
AcDbLine
 10
19.914
 20
889.1810000000001
 30
0.0
 11
19.976
 21
889.1069999999999
 31
0.0
  0
LINE
  5
1A9
330
1E
100
AcDbEntity
  8
0
100
AcDbLine
 10
20.46499999999999
 20
888.6839999999999
 30
0.0
 11
21.02626083371319
 21
889.1595075391199
 31
0.0
  0
LINE
  5
1AA
330
1E
100
AcDbEntity
  8
0
100
AcDbLine
 10
20.46499999999999
 20
888.6839999999999
 30
0.0
 11
21.02626083371319
 21
889.1595075391199
 31
0.0
  0
LINE
  5
1AB
330
1E
100
AcDbEntity
  8
0
100
AcDbLine
 10
20.47899999999999
 20
888.6549999999999
 30
0.0
 11
20.537
 21
888.572
 31
0.0
  0
LINE
  5
1AC
330
1E
100
AcDbEntity
  8
0
100
AcDbLine
 10
20.49199999999999
 20
888.6669999999998
 30
0.0
 11
20.564
 21
888.596
 31
0.0
  0
LINE
  5
1AD
330
1E
100
AcDbEntity
  8
0
100
AcDbLine
 10
23.554
 20
889.7489999999999
 30
0.0
 11
23.728
 21
889.5839999999999
 31
0.0
  0
LINE
  5
1AE
330
1E
100
AcDbEntity
  8
0
100
AcDbLine
 10
23.728
 20
889.5839999999999
 30
0.0
 11
23.884
 21
889.4519999999999
 31
0.0
  0
LINE
  5
1AF
330
1E
100
AcDbEntity
  8
0
100
AcDbLine
 10
23.884
 20
889.4519999999999
 30
0.0
 11
24.014
 21
889.357
 31
0.0
  0
LINE
  5
1B0
330
1E
100
AcDbEntity
  8
0
100
AcDbLine
 10
24.014
 20
889.357
 30
0.0
 11
24.11
 21
889.3079999999999
 31
0.0
  0
LINE
  5
1B1
330
1E
100
AcDbEntity
  8
0
100
AcDbLine
 10
23.37599999999999
 20
889.9320000000001
 30
0.0
 11
23.554
 21
889.7489999999999
 31
0.0
  0
LINE
  5
1B2
330
1E
100
AcDbEntity
  8
0
100
AcDbLine
 10
23.199
 20
890.1279999999999
 30
0.0
 11
23.37599999999999
 21
889.9320000000001
 31
0.0
  0
LINE
  5
1B3
330
1E
100
AcDbEntity
  8
0
100
AcDbLine
 10
23.58
 20
890.1530000000001
 30
0.0
 11
23.75699999999999
 21
889.957
 31
0.0
  0
LINE
  5
1B4
330
1E
100
AcDbEntity
  8
0
100
AcDbLine
 10
23.75699999999999
 20
889.957
 30
0.0
 11
23.913
 21
889.7669999999999
 31
0.0
  0
LINE
  5
1B5
330
1E
100
AcDbEntity
  8
0
100
AcDbLine
 10
23.913
 20
889.7669999999999
 30
0.0
 11
24.035
 21
889.602
 31
0.0
  0
LINE
  5
1B6
330
1E
100
AcDbEntity
  8
0
100
AcDbLine
 10
24.11
 20
889.3079999999999
 30
0.0
 11
24.161
 21
889.3119999999999
 31
0.0
  0
LINE
  5
1B7
330
1E
100
AcDbEntity
  8
0
100
AcDbLine
 10
24.161
 20
889.3119999999999
 30
0.0
 11
24.16199999999999
 21
889.367
 31
0.0
  0
LINE
  5
1B8
330
1E
100
AcDbEntity
  8
0
100
AcDbLine
 10
24.161
 20
889.3119999999999
 30
0.0
 11
24.7564975099521
 21
889.867138757549
 31
0.0
  0
LINE
  5
1B9
330
1E
100
AcDbEntity
  8
0
100
AcDbLine
 10
24.122
 20
889.4630000000001
 30
0.0
 11
24.16199999999999
 21
889.367
 31
0.0
  0
LINE
  5
1BA
330
1E
100
AcDbEntity
  8
0
100
AcDbLine
 10
24.035
 20
889.602
 30
0.0
 11
24.122
 21
889.4630000000001
 31
0.0
  0
LINE
  5
1BB
330
1E
100
AcDbEntity
  8
0
100
AcDbLine
 10
23.043
 20
890.318
 30
0.0
 11
23.199
 21
890.1279999999999
 31
0.0
  0
LINE
  5
1BC
330
1E
100
AcDbEntity
  8
0
100
AcDbLine
 10
22.92199999999999
 20
890.484
 30
0.0
 11
23.043
 21
890.318
 31
0.0
  0
LINE
  5
1BD
330
1E
100
AcDbEntity
  8
0
100
AcDbLine
 10
22.83399999999999
 20
890.6219999999999
 30
0.0
 11
22.92199999999999
 21
890.484
 31
0.0
  0
LINE
  5
1BE
330
1E
100
AcDbEntity
  8
0
100
AcDbLine
 10
23.228
 20
890.501
 30
0.0
 11
23.40199999999999
 21
890.3360000000001
 31
0.0
  0
LINE
  5
1BF
330
1E
100
AcDbEntity
  8
0
100
AcDbLine
 10
23.40199999999999
 20
890.3360000000001
 30
0.0
 11
23.58
 21
890.1530000000001
 31
0.0
  0
LINE
  5
1C0
330
1E
100
AcDbEntity
  8
0
100
AcDbLine
 10
23.073
 20
890.633
 30
0.0
 11
23.228
 21
890.501
 31
0.0
  0
LINE
  5
1C1
330
1E
100
AcDbEntity
  8
0
100
AcDbLine
 10
22.94199999999999
 20
890.728
 30
0.0
 11
23.073
 21
890.633
 31
0.0
  0
LINE
  5
1C2
330
1E
100
AcDbEntity
  8
0
100
AcDbLine
 10
22.846
 20
890.778
 30
0.0
 11
22.94199999999999
 21
890.728
 31
0.0
  0
LINE
  5
1C3
330
1E
100
AcDbEntity
  8
0
100
AcDbLine
 10
22.795
 20
890.773
 30
0.0
 11
23.47543155978479
 21
891.4068781911471
 31
0.0
  0
LINE
  5
1C4
330
1E
100
AcDbEntity
  8
0
100
AcDbLine
 10
22.795
 20
890.773
 30
0.0
 11
22.846
 21
890.778
 31
0.0
  0
LINE
  5
1C5
330
1E
100
AcDbEntity
  8
0
100
AcDbLine
 10
22.794
 20
890.7189999999999
 30
0.0
 11
22.83399999999999
 21
890.6219999999999
 31
0.0
  0
LINE
  5
1C6
330
1E
100
AcDbEntity
  8
0
100
AcDbLine
 10
22.794
 20
890.7189999999999
 30
0.0
 11
22.795
 21
890.773
 31
0.0
  0
LINE
  5
1C7
330
1E
100
AcDbEntity
  8
0
100
AcDbLine
 10
20.215
 20
888.822
 30
0.0
 11
20.369
 21
888.638
 31
0.0
  0
LINE
  5
1C8
330
1E
100
AcDbEntity
  8
0
100
AcDbLine
 10
20.369
 20
888.638
 30
0.0
 11
20.534
 21
888.442
 31
0.0
  0
LINE
  5
1CA
330
1E
100
AcDbEntity
  8
0
100
AcDbLine
 10
23.69499999999999
 20
909.8129999999999
 30
0.0
 11
28.068
 21
905.8749999999999
 31
0.0
  0
LINE
  5
1CB
330
1E
100
AcDbEntity
  8
0
100
AcDbLine
 10
4.264000000000009
 20
910.927
 30
0.0
 11
4.288
 21
910.865
 31
0.0
  0
LINE
  5
1CC
330
1E
100
AcDbEntity
  8
0
100
AcDbLine
 10
4.205000000000029
 20
911.0460000000001
 30
0.0
 11
4.264000000000009
 21
910.927
 31
0.0
  0
LINE
  5
1CD
330
1E
100
AcDbEntity
  8
0
100
AcDbLine
 10
4.46899999999999
 20
911.1030000000001
 30
0.0
 11
4.573000000000009
 21
910.903
 31
0.0
  0
LINE
  5
1CE
330
1E
100
AcDbEntity
  8
0
100
AcDbLine
 10
4.299999999999999
 20
910.9609999999999
 30
0.0
 11
4.43099999999999
 21
910.776
 31
0.0
  0
LINE
  5
1CF
330
1E
100
AcDbEntity
  8
0
100
AcDbLine
 10
4.238
 20
910.9099999999999
 30
0.0
 11
4.28100000000002
 21
910.857
 31
0.0
  0
LINE
  5
1D0
330
1E
100
AcDbEntity
  8
0
100
AcDbLine
 10
4.16799999999999
 20
911.0139999999999
 30
0.0
 11
4.238
 21
910.9099999999999
 31
0.0
  0
LINE
  5
1D1
330
1E
100
AcDbEntity
  8
0
100
AcDbLine
 10
4.116000000000039
 20
911.2149999999999
 30
0.0
 11
4.205000000000029
 21
911.0460000000001
 31
0.0
  0
LINE
  5
1D2
330
1E
100
AcDbEntity
  8
0
100
AcDbLine
 10
4.159000000000009
 20
911.176
 30
0.0
 11
4.299999999999999
 21
910.9609999999999
 31
0.0
  0
LINE
  5
1D3
330
1E
100
AcDbEntity
  8
0
100
AcDbLine
 10
4.007000000000009
 20
911.4130000000001
 30
0.0
 11
4.116000000000039
 21
911.2149999999999
 31
0.0
  0
LINE
  5
1D4
330
1E
100
AcDbEntity
  8
0
100
AcDbLine
 10
4.025000000000019
 20
911.396
 30
0.0
 11
4.159000000000009
 21
911.176
 31
0.0
  0
LINE
  5
1D5
330
1E
100
AcDbEntity
  8
0
100
AcDbLine
 10
4.070000000000019
 20
911.756
 30
0.0
 11
4.21100000000004
 21
911.5419999999998
 31
0.0
  0
LINE
  5
1D6
330
1E
100
AcDbEntity
  8
0
100
AcDbLine
 10
4.21100000000004
 20
911.5419999999998
 30
0.0
 11
4.345000000000029
 21
911.321
 31
0.0
  0
LINE
  5
1D7
330
1E
100
AcDbEntity
  8
0
100
AcDbLine
 10
4.345000000000029
 20
911.321
 30
0.0
 11
4.46899999999999
 21
911.1030000000001
 31
0.0
  0
LINE
  5
1D8
330
1E
100
AcDbEntity
  8
0
100
AcDbLine
 10
4.068000000000009
 20
911.1699999999999
 30
0.0
 11
4.16799999999999
 21
911.0139999999999
 31
0.0
  0
LINE
  5
1D9
330
1E
100
AcDbEntity
  8
0
100
AcDbLine
 10
3.948
 20
911.3660000000001
 30
0.0
 11
4.068000000000009
 21
911.1699999999999
 31
0.0
  0
LINE
  5
1DA
330
1E
100
AcDbEntity
  8
0
100
AcDbLine
 10
3.754000000000009
 20
911.8530000000001
 30
0.0
 11
3.883999999999999
 21
911.63
 31
0.0
  0
LINE
  5
1DB
330
1E
100
AcDbEntity
  8
0
100
AcDbLine
 10
3.62600000000002
 20
912.068
 30
0.0
 11
3.754000000000009
 21
911.8530000000001
 31
0.0
  0
LINE
  5
1DC
330
1E
100
AcDbEntity
  8
0
100
AcDbLine
 10
3.71700000000004
 20
911.987
 30
0.0
 11
3.796999999999999
 21
911.8149999999999
 31
0.0
  0
LINE
  5
1DD
330
1E
100
AcDbEntity
  8
0
100
AcDbLine
 10
3.796999999999999
 20
911.8149999999999
 30
0.0
 11
3.901000000000029
 21
911.6150000000001
 31
0.0
  0
LINE
  5
1DE
330
1E
100
AcDbEntity
  8
0
100
AcDbLine
 10
3.681999999999999
 20
912.213
 30
0.0
 11
4.29042469971602
 21
912.582643998472
 31
0.0
  0
LINE
  5
1DF
330
1E
100
AcDbEntity
  8
0
100
AcDbLine
 10
3.681999999999999
 20
912.213
 30
0.0
 11
3.738999999999999
 21
912.1769999999999
 31
0.0
  0
LINE
  5
1E0
330
1E
100
AcDbEntity
  8
0
100
AcDbLine
 10
3.657000000000039
 20
912.1959999999999
 30
0.0
 11
3.66799999999999
 21
912.1189999999998
 31
0.0
  0
LINE
  5
1E1
330
1E
100
AcDbEntity
  8
0
100
AcDbLine
 10
3.66799999999999
 20
912.1189999999998
 30
0.0
 11
3.71700000000004
 21
911.987
 31
0.0
  0
LINE
  5
1E2
330
1E
100
AcDbEntity
  8
0
100
AcDbLine
 10
3.738999999999999
 20
912.1769999999999
 30
0.0
 11
3.82799999999999
 21
912.081
 31
0.0
  0
LINE
  5
1E3
330
1E
100
AcDbEntity
  8
0
100
AcDbLine
 10
3.82799999999999
 20
912.081
 30
0.0
 11
3.93899999999997
 21
911.9419999999999
 31
0.0
  0
LINE
  5
1E4
330
1E
100
AcDbEntity
  8
0
100
AcDbLine
 10
3.93899999999997
 20
911.9419999999999
 30
0.0
 11
4.070000000000019
 21
911.756
 31
0.0
  0
LINE
  5
1E5
330
1E
100
AcDbEntity
  8
0
100
AcDbLine
 10
3.690000000000029
 20
911.805
 30
0.0
 11
3.82000000000002
 21
911.5809999999999
 31
0.0
  0
LINE
  5
1E6
330
1E
100
AcDbEntity
  8
0
100
AcDbLine
 10
3.56700000000002
 20
912.0219999999999
 30
0.0
 11
3.690000000000029
 21
911.805
 31
0.0
  0
LINE
  5
1E7
330
1E
100
AcDbEntity
  8
0
100
AcDbLine
 10
2.468999999999999
 20
915.1010000000001
 30
0.0
 11
3.78786429870817
 21
912.8652389419009
 31
0.0
  0
LINE
  5
1E8
330
1E
100
AcDbEntity
  8
0
100
AcDbLine
 10
2.468999999999999
 20
915.1010000000001
 30
0.0
 11
3.78786429870817
 21
912.8652389419009
 31
0.0
  0
LINE
  5
1E9
330
1E
100
AcDbEntity
  8
0
100
AcDbLine
 10
0.338999999999992
 20
921.376
 30
0.0
 11
2.468999999999999
 21
915.1010000000001
 31
0.0
  0
LINE
  5
1EA
330
1E
100
AcDbEntity
  8
0
100
AcDbLine
 10
0.180000000000016
 20
925.7430000000001
 30
0.0
 11
1.249000000000019
 21
928.677
 31
0.0
  0
LINE
  5
1EB
330
1E
100
AcDbEntity
  8
0
100
AcDbLine
 10
0.180000000000016
 20
925.7430000000001
 30
0.0
 11
0.338999999999992
 21
921.376
 31
0.0
  0
LINE
  5
1EC
330
1E
100
AcDbEntity
  8
0
100
AcDbLine
 10
1.249000000000019
 20
928.677
 30
0.0
 11
1.918
 21
929.42
 31
0.0
  0
LINE
  5
1ED
330
1E
100
AcDbEntity
  8
0
100
AcDbLine
 10
1.918
 20
929.42
 30
0.0
 11
2.07300000000003
 21
929.2810000000001
 31
0.0
  0
LINE
  5
1EE
330
1E
100
AcDbEntity
  8
0
100
AcDbLine
 10
1.918
 20
929.42
 30
0.0
 11
2.838999999999979
 21
929.962
 31
0.0
  0
LINE
  5
1EF
330
1E
100
AcDbEntity
  8
0
100
AcDbLine
 10
2.41500000000002
 20
928.972
 30
0.0
 11
3.005000000000009
 21
928.4410000000001
 31
0.0
  0
LINE
  5
1F2
330
1E
100
AcDbEntity
  8
0
100
AcDbLine
 10
3.005000000000009
 20
928.4410000000001
 30
0.0
 11
3.61900000000002
 21
927.888
 31
0.0
  0
LINE
  5
1F4
330
1E
100
AcDbEntity
  8
0
100
AcDbLine
 10
2.838999999999979
 20
929.962
 30
0.0
 11
5.757000000000029
 21
928.6839999999999
 31
0.0
  0
LINE
  5
1F6
330
1E
100
AcDbEntity
  8
0
100
AcDbLine
 10
2.07300000000003
 20
929.2810000000001
 30
0.0
 11
2.41500000000002
 21
928.972
 31
0.0
  0
LINE
  5
1F7
330
1E
100
AcDbEntity
  8
0
100
AcDbLine
 10
3.61900000000002
 20
927.888
 30
0.0
 11
4.48199999999999
 21
927.1119999999999
 31
0.0
  0
LINE
  5
1F8
330
1E
100
AcDbEntity
  8
0
100
AcDbLine
 10
5.46399999999998
 20
926.2269999999999
 30
0.0
 11
6.326000000000009
 21
925.4509999999999
 31
0.0
  0
LINE
  5
1FB
330
1E
100
AcDbEntity
  8
0
100
AcDbLine
 10
4.48199999999999
 20
927.1119999999999
 30
0.0
 11
5.46399999999998
 21
926.2269999999999
 31
0.0
  0
LINE
  5
1FC
330
1E
100
AcDbEntity
  8
0
100
AcDbLine
 10
7.24100000000004
 20
924.628
 30
0.0
 11
8.539999999999999
 21
923.4569999999999
 31
0.0
  0
LINE
  5
1FE
330
1E
100
AcDbEntity
  8
0
100
AcDbLine
 10
8.539999999999999
 20
923.4569999999999
 30
0.0
 11
10.16699999999999
 21
921.9930000000001
 31
0.0
  0
LINE
  5
200
330
1E
100
AcDbEntity
  8
0
100
AcDbLine
 10
14.37
 20
918.209
 30
0.0
 11
16.879
 21
915.9489999999999
 31
0.0
  0
LINE
  5
202
330
1E
100
AcDbEntity
  8
0
100
AcDbLine
 10
16.879
 20
915.9489999999999
 30
0.0
 11
19.52499999999999
 21
913.5670000000001
 31
0.0
  0
LINE
  5
204
330
1E
100
AcDbEntity
  8
0
100
AcDbLine
 10
12.07699999999999
 20
920.273
 30
0.0
 11
14.37
 21
918.209
 31
0.0
  0
LINE
  5
206
330
1E
100
AcDbEntity
  8
0
100
AcDbLine
 10
10.16699999999999
 20
921.9930000000001
 30
0.0
 11
12.07699999999999
 21
920.273
 31
0.0
  0
LINE
  5
207
330
1E
100
AcDbEntity
  8
0
100
AcDbLine
 10
5.757000000000029
 20
928.6839999999999
 30
0.0
 11
11.49499999999999
 21
924.8549999999999
 31
0.0
  0
LINE
  5
20B
330
1E
100
AcDbEntity
  8
0
100
AcDbLine
 10
6.326000000000009
 20
925.4509999999999
 30
0.0
 11
7.24100000000004
 21
924.628
 31
0.0
  0
LINE
  5
20C
330
1E
100
AcDbEntity
  8
0
100
AcDbLine
 10
11.49499999999999
 20
924.8549999999999
 30
0.0
 11
23.173
 21
915.6649999999999
 31
0.0
  0
LINE
  5
20D
330
1E
100
AcDbEntity
  8
0
100
AcDbLine
 10
23.173
 20
915.6649999999999
 30
0.0
 11
34.655
 21
905.9989999999999
 31
0.0
  0
LINE
  5
20F
330
1E
100
AcDbEntity
  8
0
100
AcDbLine
 10
19.52499999999999
 20
913.5670000000001
 30
0.0
 11
23.69499999999999
 21
909.8129999999999
 31
0.0
  0
LINE
  5
210
330
1E
100
AcDbEntity
  8
0
100
AcDbLine
 10
3.293000000000009
 20
912.578
 30
0.0
 11
3.80788286865369
 21
912.876858516933
 31
0.0
  0
LINE
  5
211
330
1E
100
AcDbEntity
  8
0
100
AcDbLine
 10
3.293000000000009
 20
912.578
 30
0.0
 11
3.336
 21
912.5249999999999
 31
0.0
  0
LINE
  5
212
330
1E
100
AcDbEntity
  8
0
100
AcDbLine
 10
3.293000000000009
 20
912.578
 30
0.0
 11
3.831219039400309
 21
912.890403759559
 31
0.0
  0
LINE
  5
213
330
1E
100
AcDbEntity
  8
0
100
AcDbLine
 10
3.293000000000009
 20
912.578
 30
0.0
 11
3.831219039400309
 21
912.890403759559
 31
0.0
  0
LINE
  5
214
330
1E
100
AcDbEntity
  8
0
100
AcDbLine
 10
25.52599999999999
 20
883.854
 30
0.0
 11
25.701
 21
883.657
 31
0.0
  0
LINE
  5
215
330
1E
100
AcDbEntity
  8
0
100
AcDbLine
 10
25.502
 20
882.6499999999999
 30
0.0
 11
26.1017893124315
 21
883.2139748510851
 31
0.0
  0
LINE
  5
216
330
1E
100
AcDbEntity
  8
0
100
AcDbLine
 10
25.519
 20
882.6069999999999
 30
0.0
 11
25.65599999999999
 21
882.437
 31
0.0
  0
LINE
  5
217
330
1E
100
AcDbEntity
  8
0
100
AcDbLine
 10
26.048
 20
883.2970000000001
 30
0.0
 11
26.198
 21
883.155
 31
0.0
  0
LINE
  5
218
330
1E
100
AcDbEntity
  8
0
100
AcDbLine
 10
25.881
 20
883.4649999999999
 30
0.0
 11
26.048
 21
883.2970000000001
 31
0.0
  0
LINE
  5
219
330
1E
100
AcDbEntity
  8
0
100
AcDbLine
 10
25.701
 20
883.657
 30
0.0
 11
25.881
 21
883.4649999999999
 31
0.0
  0
LINE
  5
21A
330
1E
100
AcDbEntity
  8
0
100
AcDbLine
 10
25.66
 20
883.9889999999998
 30
0.0
 11
25.84
 21
883.797
 31
0.0
  0
LINE
  5
21B
330
1E
100
AcDbEntity
  8
0
100
AcDbLine
 10
25.84
 20
883.797
 30
0.0
 11
26.015
 21
883.6
 31
0.0
  0
LINE
  5
21C
330
1E
100
AcDbEntity
  8
0
100
AcDbLine
 10
26.015
 20
883.6
 30
0.0
 11
26.168
 21
883.4169999999998
 31
0.0
  0
LINE
  5
21D
330
1E
100
AcDbEntity
  8
0
100
AcDbLine
 10
26.198
 20
883.155
 30
0.0
 11
26.31699999999999
 21
883.055
 31
0.0
  0
LINE
  5
21E
330
1E
100
AcDbEntity
  8
0
100
AcDbLine
 10
26.31699999999999
 20
883.055
 30
0.0
 11
26.402
 21
882.9960000000001
 31
0.0
  0
LINE
  5
21F
330
1E
100
AcDbEntity
  8
0
100
AcDbLine
 10
26.445
 20
882.9869999999999
 30
0.0
 11
26.88421937423369
 21
883.3868328542619
 31
0.0
  0
LINE
  5
220
330
1E
100
AcDbEntity
  8
0
100
AcDbLine
 10
26.387
 20
883.125
 30
0.0
 11
26.439
 21
883.033
 31
0.0
  0
LINE
  5
221
330
1E
100
AcDbEntity
  8
0
100
AcDbLine
 10
26.29599999999999
 20
883.2539999999999
 30
0.0
 11
26.387
 21
883.125
 31
0.0
  0
LINE
  5
222
330
1E
100
AcDbEntity
  8
0
100
AcDbLine
 10
26.168
 20
883.4169999999998
 30
0.0
 11
26.29599999999999
 21
883.2539999999999
 31
0.0
  0
LINE
  5
223
330
1E
100
AcDbEntity
  8
0
100
AcDbLine
 10
27.366
 20
890.5930000000001
 30
0.0
 11
27.41699999999999
 21
890.6469999999998
 31
0.0
  0
LINE
  5
224
330
1E
100
AcDbEntity
  8
0
100
AcDbLine
 10
27.358
 20
890.4939999999999
 30
0.0
 11
27.366
 21
890.5930000000001
 31
0.0
  0
LINE
  5
225
330
1E
100
AcDbEntity
  8
0
100
AcDbLine
 10
27.358
 20
890.4939999999999
 30
0.0
 11
27.399
 21
890.351
 31
0.0
  0
LINE
  5
226
330
1E
100
AcDbEntity
  8
0
100
AcDbLine
 10
25.65599999999999
 20
882.437
 30
0.0
 11
25.907
 21
882.1489999999998
 31
0.0
  0
LINE
  5
227
330
1E
100
AcDbEntity
  8
0
100
AcDbLine
 10
28.82
 20
879.0869999999999
 30
0.0
 11
28.909
 21
879.0180000000001
 31
0.0
  0
LINE
  5
228
330
1E
100
AcDbEntity
  8
0
100
AcDbLine
 10
44.8188
 20
864.8999999999999
 30
0.0
 11
45.18869999999999
 21
864.6419999999999
 31
0.0
  0
LINE
  5
229
330
1E
100
AcDbEntity
  8
0
100
AcDbLine
 10
42.11199999999999
 20
867.13
 30
0.0
 11
42.45199999999999
 21
866.8129999999999
 31
0.0
  0
LINE
  5
22A
330
1E
100
AcDbEntity
  8
0
100
AcDbLine
 10
41.869
 20
867.3760000000001
 30
0.0
 11
42.11199999999999
 21
867.13
 31
0.0
  0
LINE
  5
22B
330
1E
100
AcDbEntity
  8
0
100
AcDbLine
 10
41.748
 20
867.5319999999999
 30
0.0
 11
41.869
 21
867.3760000000001
 31
0.0
  0
LINE
  5
22C
330
1E
100
AcDbEntity
  8
0
100
AcDbLine
 10
41.946
 20
869.03
 30
0.0
 11
42.053
 21
868.904
 31
0.0
  0
LINE
  5
22D
330
1E
100
AcDbEntity
  8
0
100
AcDbLine
 10
41.891
 20
869.1189999999998
 30
0.0
 11
41.946
 21
869.03
 31
0.0
  0
LINE
  5
22E
330
1E
100
AcDbEntity
  8
0
100
AcDbLine
 10
41.89
 20
869.1649999999999
 30
0.0
 11
42.47758129963579
 21
869.867251592583
 31
0.0
  0
LINE
  5
22F
330
1E
100
AcDbEntity
  8
0
100
AcDbLine
 10
42.053
 20
868.904
 30
0.0
 11
42.198
 21
868.7560000000001
 31
0.0
  0
LINE
  5
230
330
1E
100
AcDbEntity
  8
0
100
AcDbLine
 10
42.172
 20
869.0520000000001
 30
0.0
 11
42.347
 21
868.9339999999999
 31
0.0
  0
LINE
  5
231
330
1E
100
AcDbEntity
  8
0
100
AcDbLine
 10
42.035
 20
869.13
 30
0.0
 11
42.172
 21
869.0520000000001
 31
0.0
  0
LINE
  5
232
330
1E
100
AcDbEntity
  8
0
100
AcDbLine
 10
41.93699999999999
 20
869.171
 30
0.0
 11
42.035
 21
869.13
 31
0.0
  0
LINE
  5
233
330
1E
100
AcDbEntity
  8
0
100
AcDbLine
 10
41.76899999999999
 20
867.575
 30
0.0
 11
41.921
 21
867.5089999999999
 31
0.0
  0
LINE
  5
234
330
1E
100
AcDbEntity
  8
0
100
AcDbLine
 10
41.76899999999999
 20
867.575
 30
0.0
 11
42.37970700649629
 21
868.3279397550661
 31
0.0
  0
LINE
  5
235
330
1E
100
AcDbEntity
  8
0
100
AcDbLine
 10
41.921
 20
867.5089999999999
 30
0.0
 11
42.183
 21
867.3489999999999
 31
0.0
  0
LINE
  5
236
330
1E
100
AcDbEntity
  8
0
100
AcDbLine
 10
42.45199999999999
 20
866.8129999999999
 30
0.0
 11
42.8812
 21
866.4369999999999
 31
0.0
  0
LINE
  5
237
330
1E
100
AcDbEntity
  8
0
100
AcDbLine
 10
42.8812
 20
866.4369999999999
 30
0.0
 11
43.36039999999999
 21
866.0339999999999
 31
0.0
  0
LINE
  5
238
330
1E
100
AcDbEntity
  8
0
100
AcDbLine
 10
43.36039999999999
 20
866.0339999999999
 30
0.0
 11
43.8764
 21
865.6160000000001
 31
0.0
  0
LINE
  5
239
330
1E
100
AcDbEntity
  8
0
100
AcDbLine
 10
43.8764
 20
865.6160000000001
 30
0.0
 11
44.3785
 21
865.2260000000001
 31
0.0
  0
LINE
  5
23A
330
1E
100
AcDbEntity
  8
0
100
AcDbLine
 10
44.3785
 20
865.2260000000001
 30
0.0
 11
44.8188
 21
864.8999999999999
 31
0.0
  0
LINE
  5
23B
330
1E
100
AcDbEntity
  8
0
100
AcDbLine
 10
44.49019999999999
 20
865.554
 30
0.0
 11
44.91929999999999
 21
865.178
 31
0.0
  0
LINE
  5
23C
330
1E
100
AcDbEntity
  8
0
100
AcDbLine
 10
44.011
 20
865.957
 30
0.0
 11
44.49019999999999
 21
865.554
 31
0.0
  0
LINE
  5
23D
330
1E
100
AcDbEntity
  8
0
100
AcDbLine
 10
43.4949
 20
866.375
 30
0.0
 11
44.011
 21
865.957
 31
0.0
  0
LINE
  5
23E
330
1E
100
AcDbEntity
  8
0
100
AcDbLine
 10
42.9929
 20
866.7639999999998
 30
0.0
 11
43.4949
 21
866.375
 31
0.0
  0
LINE
  5
23F
330
1E
100
AcDbEntity
  8
0
100
AcDbLine
 10
43.13709999999999
 20
867.9969999999999
 30
0.0
 11
43.27409999999999
 21
867.919
 31
0.0
  0
LINE
  5
240
330
1E
100
AcDbEntity
  8
0
100
AcDbLine
 10
43.27409999999999
 20
867.919
 30
0.0
 11
43.3725
 21
867.8780000000001
 31
0.0
  0
LINE
  5
241
330
1E
100
AcDbEntity
  8
0
100
AcDbLine
 10
42.765
 20
868.2630000000001
 30
0.0
 11
42.9622
 21
868.115
 31
0.0
  0
LINE
  5
242
330
1E
100
AcDbEntity
  8
0
100
AcDbLine
 10
42.9622
 20
868.115
 30
0.0
 11
43.13709999999999
 21
867.9969999999999
 31
0.0
  0
LINE
  5
243
330
1E
100
AcDbEntity
  8
0
100
AcDbLine
 10
42.371
 20
868.593
 30
0.0
 11
42.56499999999999
 21
868.425
 31
0.0
  0
LINE
  5
244
330
1E
100
AcDbEntity
  8
0
100
AcDbLine
 10
42.198
 20
868.7560000000001
 30
0.0
 11
42.371
 21
868.593
 31
0.0
  0
LINE
  5
245
330
1E
100
AcDbEntity
  8
0
100
AcDbLine
 10
42.56499999999999
 20
868.425
 30
0.0
 11
42.765
 21
868.2630000000001
 31
0.0
  0
LINE
  5
246
330
1E
100
AcDbEntity
  8
0
100
AcDbLine
 10
42.74399999999999
 20
868.6239999999999
 30
0.0
 11
42.93829999999999
 21
868.4560000000001
 31
0.0
  0
LINE
  5
247
330
1E
100
AcDbEntity
  8
0
100
AcDbLine
 10
42.545
 20
868.786
 30
0.0
 11
42.74399999999999
 21
868.6239999999999
 31
0.0
  0
LINE
  5
248
330
1E
100
AcDbEntity
  8
0
100
AcDbLine
 10
42.347
 20
868.9339999999999
 30
0.0
 11
42.545
 21
868.786
 31
0.0
  0
LINE
  5
249
330
1E
100
AcDbEntity
  8
0
100
AcDbLine
 10
42.93829999999999
 20
868.4560000000001
 30
0.0
 11
43.11189999999999
 21
868.293
 31
0.0
  0
LINE
  5
24A
330
1E
100
AcDbEntity
  8
0
100
AcDbLine
 10
43.11189999999999
 20
868.293
 30
0.0
 11
43.257
 21
868.1449999999999
 31
0.0
  0
LINE
  5
24B
330
1E
100
AcDbEntity
  8
0
100
AcDbLine
 10
43.257
 20
868.1449999999999
 30
0.0
 11
43.3637
 21
868.0189999999999
 31
0.0
  0
LINE
  5
24C
330
1E
100
AcDbEntity
  8
0
100
AcDbLine
 10
43.3637
 20
868.0189999999999
 30
0.0
 11
43.4184
 21
867.9299999999999
 31
0.0
  0
LINE
  5
24D
330
1E
100
AcDbEntity
  8
0
100
AcDbLine
 10
43.4193
 20
867.8839999999999
 30
0.0
 11
43.80782136006859
 21
868.348380331292
 31
0.0
  0
LINE
  5
24E
330
1E
100
AcDbEntity
  8
0
100
AcDbLine
 10
42.553
 20
867.0910000000001
 30
0.0
 11
42.9929
 21
866.7639999999998
 31
0.0
  0
LINE
  5
24F
330
1E
100
AcDbEntity
  8
0
100
AcDbLine
 10
42.183
 20
867.3489999999999
 30
0.0
 11
42.553
 21
867.0910000000001
 31
0.0
  0
LINE
  5
250
330
1E
100
AcDbEntity
  8
0
100
AcDbLine
 10
44.91929999999999
 20
865.178
 30
0.0
 11
45.2597
 21
864.8610000000001
 31
0.0
  0
LINE
  5
251
330
1E
100
AcDbEntity
  8
0
100
AcDbLine
 10
45.57879999999999
 20
864.0080000000001
 30
0.0
 11
46.052276174379
 21
864.6305624739149
 31
0.0
  0
LINE
  5
252
330
1E
100
AcDbEntity
  8
0
100
AcDbLine
 10
45.57879999999999
 20
864.0080000000001
 30
0.0
 11
45.6572
 21
863.9269999999999
 31
0.0
  0
LINE
  5
253
330
1E
100
AcDbEntity
  8
0
100
AcDbLine
 10
45.6572
 20
863.9269999999999
 30
0.0
 11
45.87279999999999
 21
863.743
 31
0.0
  0
LINE
  5
254
330
1E
100
AcDbEntity
  8
0
100
AcDbLine
 10
45.87279999999999
 20
863.743
 30
0.0
 11
46.19349999999999
 21
863.483
 31
0.0
  0
LINE
  5
255
330
1E
100
AcDbEntity
  8
0
100
AcDbLine
 10
46.19349999999999
 20
863.483
 30
0.0
 11
46.6203
 21
863.1449999999999
 31
0.0
  0
LINE
  5
256
330
1E
100
AcDbEntity
  8
0
100
AcDbLine
 10
46.6203
 20
863.1449999999999
 30
0.0
 11
47.11619999999999
 21
862.761
 31
0.0
  0
LINE
  5
257
330
1E
100
AcDbEntity
  8
0
100
AcDbLine
 10
47.7077
 20
864.0679999999999
 30
0.0
 11
48.08415059266121
 21
864.550194448776
 31
0.0
  0
LINE
  5
258
330
1E
100
AcDbEntity
  8
0
100
AcDbLine
 10
47.4228
 20
864.183
 30
0.0
 11
47.56399999999999
 21
864.104
 31
0.0
  0
LINE
  5
259
330
1E
100
AcDbEntity
  8
0
100
AcDbLine
 10
47.25039999999999
 20
864.2939999999999
 30
0.0
 11
47.4228
 21
864.183
 31
0.0
  0
LINE
  5
25A
330
1E
100
AcDbEntity
  8
0
100
AcDbLine
 10
47.5297
 20
864.3159999999999
 30
0.0
 11
47.6398
 21
864.198
 31
0.0
  0
LINE
  5
25B
330
1E
100
AcDbEntity
  8
0
100
AcDbLine
 10
47.6398
 20
864.198
 30
0.0
 11
47.70259999999999
 21
864.1119999999999
 31
0.0
  0
LINE
  5
25C
330
1E
100
AcDbEntity
  8
0
100
AcDbLine
 10
47.56399999999999
 20
864.104
 30
0.0
 11
47.6588
 21
864.067
 31
0.0
  0
LINE
  5
25D
330
1E
100
AcDbEntity
  8
0
100
AcDbLine
 10
47.11619999999999
 20
862.761
 30
0.0
 11
47.6287
 21
862.3699999999999
 31
0.0
  0
LINE
  5
25E
330
1E
100
AcDbEntity
  8
0
100
AcDbLine
 10
47.6287
 20
862.3699999999999
 30
0.0
 11
48.1373
 21
861.987
 31
0.0
  0
LINE
  5
25F
330
1E
100
AcDbEntity
  8
0
100
AcDbLine
 10
55.8166
 20
856.7660000000001
 30
0.0
 11
55.9564
 21
856.6799999999998
 31
0.0
  0
LINE
  5
260
330
1E
100
AcDbEntity
  8
0
100
AcDbLine
 10
54.8597
 20
857.487
 30
0.0
 11
55.0586
 21
857.356
 31
0.0
  0
LINE
  5
261
330
1E
100
AcDbEntity
  8
0
100
AcDbLine
 10
54.818
 20
857.44
 30
0.0
 11
55.0192
 21
857.299
 31
0.0
  0
LINE
  5
262
330
1E
100
AcDbEntity
  8
0
100
AcDbLine
 10
55.0192
 20
857.299
 30
0.0
 11
55.2306
 21
857.153
 31
0.0
  0
LINE
  5
263
330
1E
100
AcDbEntity
  8
0
100
AcDbLine
 10
55.0586
 20
857.356
 30
0.0
 11
55.27129999999999
 21
857.2119999999999
 31
0.0
  0
LINE
  5
264
330
1E
100
AcDbEntity
  8
0
100
AcDbLine
 10
54.9983
 20
857.2230000000001
 30
0.0
 11
55.0399151489838
 21
857.284693416501
 31
0.0
  0
LINE
  5
265
330
1E
100
AcDbEntity
  8
0
100
AcDbLine
 10
55.0281
 20
857.2029999999999
 30
0.0
 11
55.1077
 21
857.1489999999998
 31
0.0
  0
LINE
  5
266
330
1E
100
AcDbEntity
  8
0
100
AcDbLine
 10
55.2306
 20
857.153
 30
0.0
 11
55.4433
 21
857.01
 31
0.0
  0
LINE
  5
267
330
1E
100
AcDbEntity
  8
0
100
AcDbLine
 10
55.27129999999999
 20
857.2119999999999
 30
0.0
 11
55.4828
 21
857.0669999999999
 31
0.0
  0
LINE
  5
268
330
1E
100
AcDbEntity
  8
0
100
AcDbLine
 10
55.1077
 20
857.1489999999998
 30
0.0
 11
55.2404
 21
857.0599999999998
 31
0.0
  0
LINE
  5
269
330
1E
100
AcDbEntity
  8
0
100
AcDbLine
 10
55.1077
 20
857.1489999999998
 30
0.0
 11
55.37287922945409
 21
856.9702730318439
 31
0.0
  0
LINE
  5
26A
330
1E
100
AcDbEntity
  8
0
100
AcDbLine
 10
55.1077
 20
857.1489999999998
 30
0.0
 11
55.37287922945409
 21
856.9702730318439
 31
0.0
  0
LINE
  5
26B
330
1E
100
AcDbEntity
  8
0
100
AcDbLine
 10
55.2404
 20
857.0599999999998
 30
0.0
 11
55.4161
 21
856.9410000000001
 31
0.0
  0
LINE
  5
26C
330
1E
100
AcDbEntity
  8
0
100
AcDbLine
 10
55.6422
 20
856.8789999999999
 30
0.0
 11
55.8166
 21
856.7660000000001
 31
0.0
  0
LINE
  5
26D
330
1E
100
AcDbEntity
  8
0
100
AcDbLine
 10
55.4433
 20
857.01
 30
0.0
 11
55.6422
 21
856.8789999999999
 31
0.0
  0
LINE
  5
26E
330
1E
100
AcDbEntity
  8
0
100
AcDbLine
 10
55.684
 20
856.9259999999999
 30
0.0
 11
55.8534
 21
856.803
 31
0.0
  0
LINE
  5
26F
330
1E
100
AcDbEntity
  8
0
100
AcDbLine
 10
55.4828
 20
857.0669999999999
 30
0.0
 11
55.684
 21
856.9259999999999
 31
0.0
  0
LINE
  5
270
330
1E
100
AcDbEntity
  8
0
100
AcDbLine
 10
55.4161
 20
856.9410000000001
 30
0.0
 11
55.6151
 21
856.807
 31
0.0
  0
LINE
  5
271
330
1E
100
AcDbEntity
  8
0
100
AcDbLine
 10
55.4161
 20
856.9410000000001
 30
0.0
 11
55.8273
 21
856.6639999999999
 31
0.0
  0
LINE
  5
272
330
1E
100
AcDbEntity
  8
0
100
AcDbLine
 10
55.6151
 20
856.807
 30
0.0
 11
55.8273
 21
856.6639999999999
 31
0.0
  0
LINE
  5
273
330
1E
100
AcDbEntity
  8
0
100
AcDbLine
 10
64.50169999999999
 20
850.9479999999999
 30
0.0
 11
64.9004275511856
 21
851.5378505064861
 31
0.0
  0
LINE
  5
274
330
1E
100
AcDbEntity
  8
0
100
AcDbLine
 10
64.44729999999999
 20
850.99
 30
0.0
 11
64.50169999999999
 21
850.9479999999999
 31
0.0
  0
LINE
  5
275
330
1E
100
AcDbEntity
  8
0
100
AcDbLine
 10
64.3449
 20
851.065
 30
0.0
 11
64.44729999999999
 21
850.99
 31
0.0
  0
LINE
  5
276
330
1E
100
AcDbEntity
  8
0
100
AcDbLine
 10
64.44119999999999
 20
850.9780000000001
 30
0.0
 11
64.4969
 21
850.946
 31
0.0
  0
LINE
  5
277
330
1E
100
AcDbEntity
  8
0
100
AcDbLine
 10
64.3301
 20
851.0479999999999
 30
0.0
 11
64.44119999999999
 21
850.9780000000001
 31
0.0
  0
LINE
  5
278
330
1E
100
AcDbEntity
  8
0
100
AcDbLine
 10
64.1928
 20
851.172
 30
0.0
 11
64.3449
 21
851.065
 31
0.0
  0
LINE
  5
279
330
1E
100
AcDbEntity
  8
0
100
AcDbLine
 10
64.00279999999999
 20
851.303
 30
0.0
 11
64.1928
 21
851.172
 31
0.0
  0
LINE
  5
27A
330
1E
100
AcDbEntity
  8
0
100
AcDbLine
 10
64.1712
 20
851.1510000000001
 30
0.0
 11
64.3301
 21
851.0479999999999
 31
0.0
  0
LINE
  5
27B
330
1E
100
AcDbEntity
  8
0
100
AcDbLine
 10
63.983
 20
851.276
 30
0.0
 11
64.1712
 21
851.1510000000001
 31
0.0
  0
LINE
  5
27C
330
1E
100
AcDbEntity
  8
0
100
AcDbLine
 10
61.9143
 20
852.998
 30
0.0
 11
62.0726
 21
852.8999999999999
 31
0.0
  0
LINE
  5
27D
330
1E
100
AcDbEntity
  8
0
100
AcDbLine
 10
61.87219999999999
 20
852.9479999999999
 30
0.0
 11
62.0146
 21
852.838
 31
0.0
  0
LINE
  5
27E
330
1E
100
AcDbEntity
  8
0
100
AcDbLine
 10
62.0726
 20
852.8999999999999
 30
0.0
 11
62.2602
 21
852.7789999999999
 31
0.0
  0
LINE
  5
27F
330
1E
100
AcDbEntity
  8
0
100
AcDbLine
 10
62.0146
 20
852.838
 30
0.0
 11
62.1986
 21
852.702
 31
0.0
  0
LINE
  5
280
330
1E
100
AcDbEntity
  8
0
100
AcDbLine
 10
62.1986
 20
852.702
 30
0.0
 11
62.408
 21
852.5529999999999
 31
0.0
  0
LINE
  5
281
330
1E
100
AcDbEntity
  8
0
100
AcDbLine
 10
62.2602
 20
852.7789999999999
 30
0.0
 11
62.4683
 21
852.64
 31
0.0
  0
LINE
  5
282
330
1E
100
AcDbEntity
  8
0
100
AcDbLine
 10
61.79590000000001
 20
853.0650000000001
 30
0.0
 11
61.9143
 21
852.998
 31
0.0
  0
LINE
  5
283
330
1E
100
AcDbEntity
  8
0
100
AcDbLine
 10
61.7266
 20
853.0789999999999
 30
0.0
 11
61.7716
 21
853.0319999999999
 31
0.0
  0
LINE
  5
284
330
1E
100
AcDbEntity
  8
0
100
AcDbLine
 10
60.2943
 20
854.278
 30
0.0
 11
60.7122981499545
 21
854.861202999678
 31
0.0
  0
LINE
  5
285
330
1E
100
AcDbEntity
  8
0
100
AcDbLine
 10
60.1716
 20
854.443
 30
0.0
 11
60.2631
 21
854.354
 31
0.0
  0
LINE
  5
286
330
1E
100
AcDbEntity
  8
0
100
AcDbLine
 10
60.40180533876419
 20
854.4279945300129
 30
0.0
 11
61.94527879930899
 21
853.4003008077451
 31
0.0
  0
LINE
  5
287
330
1E
100
AcDbEntity
  8
0
100
AcDbLine
 10
60.2631
 20
854.354
 30
0.0
 11
60.3067
 21
854.297
 31
0.0
  0
LINE
  5
288
330
1E
100
AcDbEntity
  8
0
100
AcDbLine
 10
60.2232
 20
854.302
 30
0.0
 11
60.2943
 21
854.278
 31
0.0
  0
LINE
  5
289
330
1E
100
AcDbEntity
  8
0
100
AcDbLine
 10
60.10419999999999
 20
854.3649999999999
 30
0.0
 11
60.2232
 21
854.302
 31
0.0
  0
LINE
  5
28A
330
1E
100
AcDbEntity
  8
0
100
AcDbLine
 10
61.73259999999999
 20
853.092
 30
0.0
 11
61.94527879930899
 21
853.4003008077451
 31
0.0
  0
LINE
  5
28B
330
1E
100
AcDbEntity
  8
0
100
AcDbLine
 10
61.73259999999999
 20
853.092
 30
0.0
 11
61.79590000000001
 21
853.0650000000001
 31
0.0
  0
LINE
  5
28C
330
1E
100
AcDbEntity
  8
0
100
AcDbLine
 10
61.73259999999999
 20
853.092
 30
0.0
 11
62.0825149368212
 21
853.5992393582001
 31
0.0
  0
LINE
  5
28D
330
1E
100
AcDbEntity
  8
0
100
AcDbLine
 10
61.7716
 20
853.0319999999999
 30
0.0
 11
61.87219999999999
 21
852.9479999999999
 31
0.0
  0
LINE
  5
28E
330
1E
100
AcDbEntity
  8
0
100
AcDbLine
 10
62.6208
 20
852.406
 30
0.0
 11
62.8289
 21
852.2669999999999
 31
0.0
  0
LINE
  5
28F
330
1E
100
AcDbEntity
  8
0
100
AcDbLine
 10
62.8289
 20
852.2669999999999
 30
0.0
 11
63.0166
 21
852.1460000000001
 31
0.0
  0
LINE
  5
290
330
1E
100
AcDbEntity
  8
0
100
AcDbLine
 10
62.6811
 20
852.4930000000001
 30
0.0
 11
62.8906
 21
852.3439999999999
 31
0.0
  0
LINE
  5
291
330
1E
100
AcDbEntity
  8
0
100
AcDbLine
 10
62.7304
 20
853.381
 30
0.0
 11
65.15182043497439
 21
852.0687088957419
 31
0.0
  0
LINE
  5
292
330
1E
100
AcDbEntity
  8
0
100
AcDbLine
 10
62.4683
 20
852.64
 30
0.0
 11
62.6811
 21
852.4930000000001
 31
0.0
  0
LINE
  5
293
330
1E
100
AcDbEntity
  8
0
100
AcDbLine
 10
62.408
 20
852.5529999999999
 30
0.0
 11
62.6208
 21
852.406
 31
0.0
  0
LINE
  5
294
330
1E
100
AcDbEntity
  8
0
100
AcDbLine
 10
58.76619999999999
 20
855.4289999999999
 30
0.0
 11
58.88519999999999
 21
855.366
 31
0.0
  0
LINE
  5
295
330
1E
100
AcDbEntity
  8
0
100
AcDbLine
 10
58.7263
 20
855.377
 30
0.0
 11
58.8177
 21
855.288
 31
0.0
  0
LINE
  5
296
330
1E
100
AcDbEntity
  8
0
100
AcDbLine
 10
58.68269999999999
 20
855.4339999999999
 30
0.0
 11
58.7263
 21
855.377
 31
0.0
  0
LINE
  5
297
330
1E
100
AcDbEntity
  8
0
100
AcDbLine
 10
58.6951
 20
855.4529999999999
 30
0.0
 11
58.76619999999999
 21
855.4289999999999
 31
0.0
  0
LINE
  5
298
330
1E
100
AcDbEntity
  8
0
100
AcDbLine
 10
58.6951
 20
855.4529999999999
 30
0.0
 11
59.08777880992079
 21
856.0005385352351
 31
0.0
  0
LINE
  5
299
330
1E
100
AcDbEntity
  8
0
100
AcDbLine
 10
59.0422
 20
855.273
 30
0.0
 11
59.2319
 21
855.15
 31
0.0
  0
LINE
  5
29A
330
1E
100
AcDbEntity
  8
0
100
AcDbLine
 10
58.88519999999999
 20
855.366
 30
0.0
 11
59.0422
 21
855.273
 31
0.0
  0
LINE
  5
29B
330
1E
100
AcDbEntity
  8
0
100
AcDbLine
 10
58.8177
 20
855.288
 30
0.0
 11
58.9579
 21
855.1680000000001
 31
0.0
  0
LINE
  5
29C
330
1E
100
AcDbEntity
  8
0
100
AcDbLine
 10
58.9579
 20
855.1680000000001
 30
0.0
 11
59.1315
 21
855.03
 31
0.0
  0
LINE
  5
29D
330
1E
100
AcDbEntity
  8
0
100
AcDbLine
 10
59.3357
 20
854.8760000000001
 30
0.0
 11
59.5516
 21
854.7209999999999
 31
0.0
  0
LINE
  5
29E
330
1E
100
AcDbEntity
  8
0
100
AcDbLine
 10
59.6537
 20
854.855
 30
0.0
 11
59.8579
 21
854.701
 31
0.0
  0
LINE
  5
29F
330
1E
100
AcDbEntity
  8
0
100
AcDbLine
 10
59.4378
 20
855.01
 30
0.0
 11
59.6537
 21
854.855
 31
0.0
  0
LINE
  5
2A0
330
1E
100
AcDbEntity
  8
0
100
AcDbLine
 10
59.2319
 20
855.15
 30
0.0
 11
59.4378
 21
855.01
 31
0.0
  0
LINE
  5
2A1
330
1E
100
AcDbEntity
  8
0
100
AcDbLine
 10
59.1315
 20
855.03
 30
0.0
 11
59.3357
 21
854.8760000000001
 31
0.0
  0
LINE
  5
2A2
330
1E
100
AcDbEntity
  8
0
100
AcDbLine
 10
59.5516
 20
854.7209999999999
 30
0.0
 11
59.7575
 21
854.5810000000001
 31
0.0
  0
LINE
  5
2A3
330
1E
100
AcDbEntity
  8
0
100
AcDbLine
 10
60.55394092366429
 20
854.6402584586481
 30
0.0
 11
63.74649999999999
 21
852.466
 31
0.0
  0
LINE
  5
2A4
330
1E
100
AcDbEntity
  8
0
100
AcDbLine
 10
60.0315
 20
854.563
 30
0.0
 11
60.1716
 21
854.443
 31
0.0
  0
LINE
  5
2A5
330
1E
100
AcDbEntity
  8
0
100
AcDbLine
 10
60.6189031756001
 20
854.7308956545279
 30
0.0
 11
63.1461
 21
853.007
 31
0.0
  0
LINE
  5
2A6
330
1E
100
AcDbEntity
  8
0
100
AcDbLine
 10
60.45977877310489
 20
854.933835344201
 30
0.0
 11
62.7304
 21
853.381
 31
0.0
  0
LINE
  5
2A7
330
1E
100
AcDbEntity
  8
0
100
AcDbLine
 10
59.8579
 20
854.701
 30
0.0
 11
60.0315
 21
854.563
 31
0.0
  0
LINE
  5
2A8
330
1E
100
AcDbEntity
  8
0
100
AcDbLine
 10
59.7575
 20
854.5810000000001
 30
0.0
 11
59.9471
 21
854.4580000000001
 31
0.0
  0
LINE
  5
2A9
330
1E
100
AcDbEntity
  8
0
100
AcDbLine
 10
59.9471
 20
854.4580000000001
 30
0.0
 11
60.10419999999999
 21
854.3649999999999
 31
0.0
  0
LINE
  5
2AA
330
1E
100
AcDbEntity
  8
0
100
AcDbLine
 10
62.86100000000001
 20
852.058
 30
0.0
 11
62.91669999999999
 21
852.025
 31
0.0
  0
LINE
  5
2AB
330
1E
100
AcDbEntity
  8
0
100
AcDbLine
 10
62.91669999999999
 20
852.025
 30
0.0
 11
63.0278
 21
851.955
 31
0.0
  0
LINE
  5
2AC
330
1E
100
AcDbEntity
  8
0
100
AcDbLine
 10
63.0278
 20
851.955
 30
0.0
 11
63.1867
 21
851.852
 31
0.0
  0
LINE
  5
2AD
330
1E
100
AcDbEntity
  8
0
100
AcDbLine
 10
62.9106
 20
852.0129999999999
 30
0.0
 11
63.0129
 21
851.9389999999999
 31
0.0
  0
LINE
  5
2AE
330
1E
100
AcDbEntity
  8
0
100
AcDbLine
 10
63.0166
 20
852.1460000000001
 30
0.0
 11
63.17479999999999
 21
852.048
 31
0.0
  0
LINE
  5
2AF
330
1E
100
AcDbEntity
  8
0
100
AcDbLine
 10
63.0745
 20
852.208
 30
0.0
 11
63.2169
 21
852.0980000000001
 31
0.0
  0
LINE
  5
2B0
330
1E
100
AcDbEntity
  8
0
100
AcDbLine
 10
63.1461
 20
853.007
 30
0.0
 11
74.0847
 21
847.0449999999999
 31
0.0
  0
LINE
  5
2B1
330
1E
100
AcDbEntity
  8
0
100
AcDbLine
 10
62.8906
 20
852.3439999999999
 30
0.0
 11
63.0745
 21
852.208
 31
0.0
  0
LINE
  5
2B2
330
1E
100
AcDbEntity
  8
0
100
AcDbLine
 10
62.8562
 20
852.055
 30
0.0
 11
62.94772692729379
 21
852.19039873094
 31
0.0
  0
LINE
  5
2B3
330
1E
100
AcDbEntity
  8
0
100
AcDbLine
 10
62.8562
 20
852.055
 30
0.0
 11
62.9106
 21
852.0129999999999
 31
0.0
  0
LINE
  5
2B4
330
1E
100
AcDbEntity
  8
0
100
AcDbLine
 10
63.0129
 20
851.9389999999999
 30
0.0
 11
63.1651
 21
851.8319999999999
 31
0.0
  0
LINE
  5
2B5
330
1E
100
AcDbEntity
  8
0
100
AcDbLine
 10
63.1867
 20
851.852
 30
0.0
 11
63.3748
 21
851.7280000000001
 31
0.0
  0
LINE
  5
2B6
330
1E
100
AcDbEntity
  8
0
100
AcDbLine
 10
63.3748
 20
851.7280000000001
 30
0.0
 11
63.5819
 21
851.5889999999998
 31
0.0
  0
LINE
  5
2B7
330
1E
100
AcDbEntity
  8
0
100
AcDbLine
 10
63.3566
 20
851.9539999999999
 30
0.0
 11
63.68762698298709
 21
852.4338169282589
 31
0.0
  0
LINE
  5
2B8
330
1E
100
AcDbEntity
  8
0
100
AcDbLine
 10
63.3176
 20
852.0139999999999
 30
0.0
 11
63.3626
 21
851.9669999999999
 31
0.0
  0
LINE
  5
2B9
330
1E
100
AcDbEntity
  8
0
100
AcDbLine
 10
63.2932
 20
851.9819999999999
 30
0.0
 11
63.3566
 21
851.9539999999999
 31
0.0
  0
LINE
  5
2BA
330
1E
100
AcDbEntity
  8
0
100
AcDbLine
 10
63.17479999999999
 20
852.048
 30
0.0
 11
63.2932
 21
851.9819999999999
 31
0.0
  0
LINE
  5
2BB
330
1E
100
AcDbEntity
  8
0
100
AcDbLine
 10
63.2169
 20
852.0980000000001
 30
0.0
 11
63.3176
 21
852.0139999999999
 31
0.0
  0
LINE
  5
2BC
330
1E
100
AcDbEntity
  8
0
100
AcDbLine
 10
63.1651
 20
851.8319999999999
 30
0.0
 11
63.35499999999999
 21
851.7000000000001
 31
0.0
  0
LINE
  5
2BD
330
1E
100
AcDbEntity
  8
0
100
AcDbLine
 10
63.35499999999999
 20
851.7000000000001
 30
0.0
 11
63.5618
 21
851.5589999999999
 31
0.0
  0
LINE
  5
2BE
330
1E
100
AcDbEntity
  8
0
100
AcDbLine
 10
63.7961
 20
851.444
 30
0.0
 11
64.00279999999999
 21
851.303
 31
0.0
  0
LINE
  5
2BF
330
1E
100
AcDbEntity
  8
0
100
AcDbLine
 10
63.5819
 20
851.5889999999998
 30
0.0
 11
63.7961
 21
851.444
 31
0.0
  0
LINE
  5
2C0
330
1E
100
AcDbEntity
  8
0
100
AcDbLine
 10
63.74649999999999
 20
852.466
 30
0.0
 11
68.6444810903962
 21
849.7967919549608
 31
0.0
  0
LINE
  5
2C1
330
1E
100
AcDbEntity
  8
0
100
AcDbLine
 10
63.689308331122
 20
852.4362540084331
 30
0.0
 11
63.7215520070552
 21
852.482990565684
 31
0.0
  0
LINE
  5
2C2
330
1E
100
AcDbEntity
  8
0
100
AcDbLine
 10
63.5618
 20
851.5589999999999
 30
0.0
 11
63.77600000000001
 21
851.4139999999999
 31
0.0
  0
LINE
  5
2C3
330
1E
100
AcDbEntity
  8
0
100
AcDbLine
 10
63.77600000000001
 20
851.4139999999999
 30
0.0
 11
63.983
 21
851.276
 31
0.0
  0
LINE
  5
2C4
330
1E
100
AcDbEntity
  8
0
100
AcDbLine
 10
64.6868
 20
852.435
 30
0.0
 11
64.8442
 21
852.302
 31
0.0
  0
LINE
  5
2C5
330
1E
100
AcDbEntity
  8
0
100
AcDbLine
 10
64.57519999999999
 20
852.5439999999999
 30
0.0
 11
64.6868
 21
852.435
 31
0.0
  0
LINE
  5
2C6
330
1E
100
AcDbEntity
  8
0
100
AcDbLine
 10
64.5099
 20
852.626
 30
0.0
 11
64.57519999999999
 21
852.5439999999999
 31
0.0
  0
LINE
  5
2C7
330
1E
100
AcDbEntity
  8
0
100
AcDbLine
 10
64.49989999999999
 20
852.672
 30
0.0
 11
64.5501
 21
852.6760000000001
 31
0.0
  0
LINE
  5
2C8
330
1E
100
AcDbEntity
  8
0
100
AcDbLine
 10
64.49989999999999
 20
852.672
 30
0.0
 11
64.86752220047529
 21
853.1991172647289
 31
0.0
  0
LINE
  5
2C9
330
1E
100
AcDbEntity
  8
0
100
AcDbLine
 10
64.5501
 20
852.6760000000001
 30
0.0
 11
64.6517
 21
852.641
 31
0.0
  0
LINE
  5
2CA
330
1E
100
AcDbEntity
  8
0
100
AcDbLine
 10
64.6517
 20
852.641
 30
0.0
 11
64.795
 21
852.5719999999999
 31
0.0
  0
LINE
  5
2CB
330
1E
100
AcDbEntity
  8
0
100
AcDbLine
 10
64.8759
 20
851.449
 30
0.0
 11
68.4304278585215
 21
849.471135311073
 31
0.0
  0
LINE
  5
2CC
330
1E
100
AcDbEntity
  8
0
100
AcDbLine
 10
64.8442
 20
852.302
 30
0.0
 11
65.0312
 21
852.156
 31
0.0
  0
LINE
  5
2CD
330
1E
100
AcDbEntity
  8
0
100
AcDbLine
 10
65.0312
 20
852.156
 30
0.0
 11
65.24399999999999
 21
852.0019999999998
 31
0.0
  0
LINE
  5
2CE
330
1E
100
AcDbEntity
  8
0
100
AcDbLine
 10
65.24399999999999
 20
852.0019999999998
 30
0.0
 11
65.4624
 21
851.8550000000001
 31
0.0
  0
LINE
  5
2CF
330
1E
100
AcDbEntity
  8
0
100
AcDbLine
 10
65.4624
 20
851.8550000000001
 30
0.0
 11
65.6649
 21
851.7289999999999
 31
0.0
  0
LINE
  5
2D0
330
1E
100
AcDbEntity
  8
0
100
AcDbLine
 10
65.39719999999999
 20
852.195
 30
0.0
 11
65.60999999999999
 21
852.041
 31
0.0
  0
LINE
  5
2D1
330
1E
100
AcDbEntity
  8
0
100
AcDbLine
 10
65.17879999999999
 20
852.3419999999999
 30
0.0
 11
65.39719999999999
 21
852.195
 31
0.0
  0
LINE
  5
2D2
330
1E
100
AcDbEntity
  8
0
100
AcDbLine
 10
64.97620000000001
 20
852.468
 30
0.0
 11
65.17879999999999
 21
852.3419999999999
 31
0.0
  0
LINE
  5
2D3
330
1E
100
AcDbEntity
  8
0
100
AcDbLine
 10
64.795
 20
852.5719999999999
 30
0.0
 11
64.97620000000001
 21
852.468
 31
0.0
  0
LINE
  5
2D4
330
1E
100
AcDbEntity
  8
0
100
AcDbLine
 10
64.8948
 20
856.0110000000001
 30
0.0
 11
65.06870000000001
 21
855.8689999999998
 31
0.0
  0
LINE
  5
2D5
330
1E
100
AcDbEntity
  8
0
100
AcDbLine
 10
65.06870000000001
 20
855.8689999999998
 30
0.0
 11
65.27129999999999
 21
855.727
 31
0.0
  0
LINE
  5
2D6
330
1E
100
AcDbEntity
  8
0
100
AcDbLine
 10
65.27129999999999
 20
855.727
 30
0.0
 11
65.4982
 21
855.5889999999999
 31
0.0
  0
LINE
  5
2D7
330
1E
100
AcDbEntity
  8
0
100
AcDbLine
 10
65.6649
 20
851.7289999999999
 30
0.0
 11
65.846
 21
851.6249999999999
 31
0.0
  0
LINE
  5
2D8
330
1E
100
AcDbEntity
  8
0
100
AcDbLine
 10
65.60999999999999
 20
852.041
 30
0.0
 11
65.79689999999999
 21
851.895
 31
0.0
  0
LINE
  5
2D9
330
1E
100
AcDbEntity
  8
0
100
AcDbLine
 10
65.4982
 20
855.5889999999999
 30
0.0
 11
65.72759999999999
 21
855.47
 31
0.0
  0
LINE
  5
2DA
330
1E
100
AcDbEntity
  8
0
100
AcDbLine
 10
64.7667
 20
856.141
 30
0.0
 11
64.8948
 21
856.0110000000001
 31
0.0
  0
LINE
  5
2DB
330
1E
100
AcDbEntity
  8
0
100
AcDbLine
 10
65.5654
 20
856.117
 30
0.0
 11
65.79229999999999
 21
855.9789999999999
 31
0.0
  0
LINE
  5
2DC
330
1E
100
AcDbEntity
  8
0
100
AcDbLine
 10
56.6563
 20
856.1049999999999
 30
0.0
 11
57.04725942727121
 21
856.6845875629608
 31
0.0
  0
LINE
  5
2DD
330
1E
100
AcDbEntity
  8
0
100
AcDbLine
 10
64.6864
 20
856.253
 30
0.0
 11
64.7667
 21
856.141
 31
0.0
  0
LINE
  5
2DE
330
1E
100
AcDbEntity
  8
0
100
AcDbLine
 10
64.66339999999999
 20
856.3399999999999
 30
0.0
 11
64.7041
 21
856.3919999999999
 31
0.0
  0
LINE
  5
2DF
330
1E
100
AcDbEntity
  8
0
100
AcDbLine
 10
64.66339999999999
 20
856.3399999999999
 30
0.0
 11
65.0239305708441
 21
856.9447562736868
 31
0.0
  0
LINE
  5
2E0
330
1E
100
AcDbEntity
  8
0
100
AcDbLine
 10
64.66339999999999
 20
856.3399999999999
 30
0.0
 11
64.6864
 21
856.253
 31
0.0
  0
LINE
  5
2E1
330
1E
100
AcDbEntity
  8
0
100
AcDbLine
 10
65.33599999999999
 20
856.235
 30
0.0
 11
65.5654
 21
856.117
 31
0.0
  0
LINE
  5
2E2
330
1E
100
AcDbEntity
  8
0
100
AcDbLine
 10
65.12649999999999
 20
856.324
 30
0.0
 11
65.33599999999999
 21
856.235
 31
0.0
  0
LINE
  5
2E3
330
1E
100
AcDbEntity
  8
0
100
AcDbLine
 10
64.7041
 20
856.3919999999999
 30
0.0
 11
64.80039999999999
 21
856.4049999999999
 31
0.0
  0
LINE
  5
2E4
330
1E
100
AcDbEntity
  8
0
100
AcDbLine
 10
64.80039999999999
 20
856.4049999999999
 30
0.0
 11
64.9422
 21
856.3839999999999
 31
0.0
  0
LINE
  5
2E5
330
1E
100
AcDbEntity
  8
0
100
AcDbLine
 10
64.9422
 20
856.3839999999999
 30
0.0
 11
65.12649999999999
 21
856.324
 31
0.0
  0
LINE
  5
2E6
330
1E
100
AcDbEntity
  8
0
100
AcDbLine
 10
56.4142
 20
856.268
 30
0.0
 11
56.5469
 21
856.179
 31
0.0
  0
LINE
  5
2E7
330
1E
100
AcDbEntity
  8
0
100
AcDbLine
 10
56.5469
 20
856.179
 30
0.0
 11
56.6265
 21
856.1249999999999
 31
0.0
  0
LINE
  5
2E8
330
1E
100
AcDbEntity
  8
0
100
AcDbLine
 10
56.2385
 20
856.3869999999999
 30
0.0
 11
56.4142
 21
856.268
 31
0.0
  0
LINE
  5
2E9
330
1E
100
AcDbEntity
  8
0
100
AcDbLine
 10
56.0752
 20
856.6210000000001
 30
0.0
 11
56.48934345961079
 21
857.228876495137
 31
0.0
  0
LINE
  5
2EA
330
1E
100
AcDbEntity
  8
0
100
AcDbLine
 10
57.00666586568719
 20
856.6885863781379
 30
0.0
 11
58.749159446151
 21
855.5283787299272
 31
0.0
  0
LINE
  5
2EB
330
1E
100
AcDbEntity
  8
0
100
AcDbLine
 10
57.00666586568719
 20
856.6885863781379
 30
0.0
 11
58.749159446151
 21
855.5283787299272
 31
0.0
  0
LINE
  5
2EC
330
1E
100
AcDbEntity
  8
0
100
AcDbLine
 10
55.9564
 20
856.6799999999998
 30
0.0
 11
56.0442
 21
856.6310000000001
 31
0.0
  0
LINE
  5
2ED
330
1E
100
AcDbEntity
  8
0
100
AcDbLine
 10
55.9768
 20
856.7099999999999
 30
0.0
 11
56.0549
 21
856.6460000000001
 31
0.0
  0
LINE
  5
2EE
330
1E
100
AcDbEntity
  8
0
100
AcDbLine
 10
55.8534
 20
856.803
 30
0.0
 11
55.9768
 21
856.7099999999999
 31
0.0
  0
LINE
  5
2EF
330
1E
100
AcDbEntity
  8
0
100
AcDbLine
 10
56.0395
 20
856.521
 30
0.0
 11
56.2385
 21
856.3869999999999
 31
0.0
  0
LINE
  5
2F0
330
1E
100
AcDbEntity
  8
0
100
AcDbLine
 10
55.8273
 20
856.6639999999999
 30
0.0
 11
56.0395
 21
856.521
 31
0.0
  0
LINE
  5
2F1
330
1E
100
AcDbEntity
  8
0
100
AcDbLine
 10
55.8273
 20
856.6639999999999
 30
0.0
 11
56.4142
 21
856.268
 31
0.0
  0
LINE
  5
2F2
330
1E
100
AcDbEntity
  8
0
100
AcDbLine
 10
55.8273
 20
856.6639999999999
 30
0.0
 11
56.28172077049271
 21
856.3577269681919
 31
0.0
  0
LINE
  5
2F3
330
1E
100
AcDbEntity
  8
0
100
AcDbLine
 10
55.8273
 20
856.6639999999999
 30
0.0
 11
56.28172077049271
 21
856.3577269681919
 31
0.0
  0
LINE
  5
2F4
330
1E
100
AcDbEntity
  8
0
100
AcDbLine
 10
54.4578
 20
857.7339999999999
 30
0.0
 11
54.5456
 21
857.685
 31
0.0
  0
LINE
  5
2F5
330
1E
100
AcDbEntity
  8
0
100
AcDbLine
 10
54.447
 20
857.7189999999999
 30
0.0
 11
54.52519999999999
 21
857.656
 31
0.0
  0
LINE
  5
2F6
330
1E
100
AcDbEntity
  8
0
100
AcDbLine
 10
54.42669999999999
 20
857.7439999999999
 30
0.0
 11
54.7488948697666
 21
858.2169571040109
 31
0.0
  0
LINE
  5
2F7
330
1E
100
AcDbEntity
  8
0
100
AcDbLine
 10
54.42669999999999
 20
857.7439999999999
 30
0.0
 11
54.8349762298987
 21
858.3433178707949
 31
0.0
  0
LINE
  5
2F8
330
1E
100
AcDbEntity
  8
0
100
AcDbLine
 10
54.5456
 20
857.685
 30
0.0
 11
54.6853
 21
857.5989999999999
 31
0.0
  0
LINE
  5
2F9
330
1E
100
AcDbEntity
  8
0
100
AcDbLine
 10
54.6853
 20
857.5989999999999
 30
0.0
 11
54.8597
 21
857.487
 31
0.0
  0
LINE
  5
2FA
330
1E
100
AcDbEntity
  8
0
100
AcDbLine
 10
54.52519999999999
 20
857.656
 30
0.0
 11
54.6485
 21
857.563
 31
0.0
  0
LINE
  5
2FB
330
1E
100
AcDbEntity
  8
0
100
AcDbLine
 10
54.6485
 20
857.563
 30
0.0
 11
54.818
 21
857.44
 31
0.0
  0
LINE
  5
2FC
330
1E
100
AcDbEntity
  8
0
100
AcDbLine
 10
66.09100000000001
 20
851.5210000000001
 30
0.0
 11
66.1413
 21
851.5249999999999
 31
0.0
  0
LINE
  5
2FD
330
1E
100
AcDbEntity
  8
0
100
AcDbLine
 10
66.14507542256871
 20
851.5304134119618
 30
0.0
 11
73.5764
 21
847.503
 31
0.0
  0
LINE
  5
2FE
330
1E
100
AcDbEntity
  8
0
100
AcDbLine
 10
66.1413
 20
851.5249999999999
 30
0.0
 11
66.5231018694906
 21
852.0724488669459
 31
0.0
  0
LINE
  5
2FF
330
1E
100
AcDbEntity
  8
0
100
AcDbLine
 10
65.9894
 20
851.556
 30
0.0
 11
66.09100000000001
 21
851.5210000000001
 31
0.0
  0
LINE
  5
300
330
1E
100
AcDbEntity
  8
0
100
AcDbLine
 10
65.79689999999999
 20
851.895
 30
0.0
 11
65.9542
 21
851.7619999999999
 31
0.0
  0
LINE
  5
301
330
1E
100
AcDbEntity
  8
0
100
AcDbLine
 10
65.9542
 20
851.7619999999999
 30
0.0
 11
66.066
 21
851.6529999999999
 31
0.0
  0
LINE
  5
302
330
1E
100
AcDbEntity
  8
0
100
AcDbLine
 10
66.066
 20
851.6529999999999
 30
0.0
 11
66.13120000000001
 21
851.571
 31
0.0
  0
LINE
  5
303
330
1E
100
AcDbEntity
  8
0
100
AcDbLine
 10
65.846
 20
851.6249999999999
 30
0.0
 11
65.9894
 21
851.556
 31
0.0
  0
LINE
  5
304
330
1E
100
AcDbEntity
  8
0
100
AcDbLine
 10
66.3595
 20
855.3139999999999
 30
0.0
 11
66.40019999999999
 21
855.3650000000001
 31
0.0
  0
LINE
  5
305
330
1E
100
AcDbEntity
  8
0
100
AcDbLine
 10
66.2633
 20
855.301
 30
0.0
 11
66.3595
 21
855.3139999999999
 31
0.0
  0
LINE
  5
306
330
1E
100
AcDbEntity
  8
0
100
AcDbLine
 10
65.9371
 20
855.381
 30
0.0
 11
66.1214
 21
855.3219999999999
 31
0.0
  0
LINE
  5
307
330
1E
100
AcDbEntity
  8
0
100
AcDbLine
 10
65.72759999999999
 20
855.47
 30
0.0
 11
65.9371
 21
855.381
 31
0.0
  0
LINE
  5
308
330
1E
100
AcDbEntity
  8
0
100
AcDbLine
 10
65.995
 20
855.837
 30
0.0
 11
66.1688
 21
855.695
 31
0.0
  0
LINE
  5
309
330
1E
100
AcDbEntity
  8
0
100
AcDbLine
 10
65.79229999999999
 20
855.9789999999999
 30
0.0
 11
65.995
 21
855.837
 31
0.0
  0
LINE
  5
30A
330
1E
100
AcDbEntity
  8
0
100
AcDbLine
 10
66.1688
 20
855.695
 30
0.0
 11
66.2969
 21
855.5649999999999
 31
0.0
  0
LINE
  5
30B
330
1E
100
AcDbEntity
  8
0
100
AcDbLine
 10
66.2969
 20
855.5649999999999
 30
0.0
 11
66.3772
 21
855.4529999999999
 31
0.0
  0
LINE
  5
30C
330
1E
100
AcDbEntity
  8
0
100
AcDbLine
 10
66.3772
 20
855.4529999999999
 30
0.0
 11
66.40019999999999
 21
855.3650000000001
 31
0.0
  0
LINE
  5
30D
330
1E
100
AcDbEntity
  8
0
100
AcDbLine
 10
66.40019999999999
 20
855.3650000000001
 30
0.0
 11
66.8128485460099
 21
856.057179296871
 31
0.0
  0
LINE
  5
30E
330
1E
100
AcDbEntity
  8
0
100
AcDbLine
 10
66.1214
 20
855.3219999999999
 30
0.0
 11
66.2633
 21
855.301
 31
0.0
  0
LINE
  5
30F
330
1E
100
AcDbEntity
  8
0
100
AcDbLine
 10
53.4716
 20
858.692
 30
0.0
 11
53.68249999999999
 21
858.547
 31
0.0
  0
LINE
  5
310
330
1E
100
AcDbEntity
  8
0
100
AcDbLine
 10
53.68249999999999
 20
858.547
 30
0.0
 11
53.8829
 21
858.4149999999999
 31
0.0
  0
LINE
  5
311
330
1E
100
AcDbEntity
  8
0
100
AcDbLine
 10
53.8829
 20
858.4149999999999
 30
0.0
 11
54.0565
 21
858.3060000000001
 31
0.0
  0
LINE
  5
312
330
1E
100
AcDbEntity
  8
0
100
AcDbLine
 10
53.961
 20
858.5069999999999
 30
0.0
 11
54.1203
 21
858.3810000000001
 31
0.0
  0
LINE
  5
313
330
1E
100
AcDbEntity
  8
0
100
AcDbLine
 10
53.7654
 20
858.6529999999999
 30
0.0
 11
53.961
 21
858.5069999999999
 31
0.0
  0
LINE
  5
314
330
1E
100
AcDbEntity
  8
0
100
AcDbLine
 10
53.55109999999999
 20
858.806
 30
0.0
 11
53.7654
 21
858.6529999999999
 31
0.0
  0
LINE
  5
315
330
1E
100
AcDbEntity
  8
0
100
AcDbLine
 10
52.1319
 20
860.3760000000001
 30
0.0
 11
53.0111258798318
 21
859.777212550629
 31
0.0
  0
LINE
  5
316
330
1E
100
AcDbEntity
  8
0
100
AcDbLine
 10
51.3164
 20
860.9060000000001
 30
0.0
 11
51.3836
 21
860.828
 31
0.0
  0
LINE
  5
317
330
1E
100
AcDbEntity
  8
0
100
AcDbLine
 10
51.45607690308839
 20
860.866458503521
 30
0.0
 11
52.1319
 21
860.3760000000001
 31
0.0
  0
LINE
  5
318
330
1E
100
AcDbEntity
  8
0
100
AcDbLine
 10
51.3969
 20
860.786
 30
0.0
 11
51.72585334469629
 21
861.2332537841799
 31
0.0
  0
LINE
  5
319
330
1E
100
AcDbEntity
  8
0
100
AcDbLine
 10
51.2541
 20
860.8299999999999
 30
0.0
 11
51.3509
 21
860.787
 31
0.0
  0
LINE
  5
31A
330
1E
100
AcDbEntity
  8
0
100
AcDbLine
 10
51.51227550921829
 20
860.9428676346711
 30
0.0
 11
58.97932465816279
 21
855.8493136005219
 31
0.0
  0
LINE
  5
31B
330
1E
100
AcDbEntity
  8
0
100
AcDbLine
 10
51.11600000000001
 20
860.9060000000001
 30
0.0
 11
51.2541
 21
860.8299999999999
 31
0.0
  0
LINE
  5
31C
330
1E
100
AcDbEntity
  8
0
100
AcDbLine
 10
52.8264
 20
859.2730000000001
 30
0.0
 11
52.9662
 21
859.192
 31
0.0
  0
LINE
  5
31D
330
1E
100
AcDbEntity
  8
0
100
AcDbLine
 10
52.9662
 20
859.192
 30
0.0
 11
53.1397
 21
859.084
 31
0.0
  0
LINE
  5
31E
330
1E
100
AcDbEntity
  8
0
100
AcDbLine
 10
52.7809
 20
859.22
 30
0.0
 11
52.9023
 21
859.1169999999999
 31
0.0
  0
LINE
  5
31F
330
1E
100
AcDbEntity
  8
0
100
AcDbLine
 10
52.73109999999999
 20
859.3189999999999
 30
0.0
 11
52.8264
 21
859.2730000000001
 31
0.0
  0
LINE
  5
320
330
1E
100
AcDbEntity
  8
0
100
AcDbLine
 10
52.712
 20
859.288
 30
0.0
 11
52.7809
 21
859.22
 31
0.0
  0
LINE
  5
321
330
1E
100
AcDbEntity
  8
0
100
AcDbLine
 10
52.6931
 20
859.3239999999999
 30
0.0
 11
52.8584024378273
 21
859.559569317542
 31
0.0
  0
LINE
  5
322
330
1E
100
AcDbEntity
  8
0
100
AcDbLine
 10
52.6931
 20
859.3239999999999
 30
0.0
 11
53.0790984707926
 21
859.87407897967
 31
0.0
  0
LINE
  5
323
330
1E
100
AcDbEntity
  8
0
100
AcDbLine
 10
52.9023
 20
859.1169999999999
 30
0.0
 11
53.0616
 21
858.9919999999999
 31
0.0
  0
LINE
  5
324
330
1E
100
AcDbEntity
  8
0
100
AcDbLine
 10
53.3401
 20
858.951
 30
0.0
 11
53.55109999999999
 21
858.806
 31
0.0
  0
LINE
  5
325
330
1E
100
AcDbEntity
  8
0
100
AcDbLine
 10
53.1397
 20
859.084
 30
0.0
 11
53.3401
 21
858.951
 31
0.0
  0
LINE
  5
326
330
1E
100
AcDbEntity
  8
0
100
AcDbLine
 10
53.86199999999999
 20
859.7569999999999
 30
0.0
 11
53.9935
 21
859.631
 31
0.0
  0
LINE
  5
327
330
1E
100
AcDbEntity
  8
0
100
AcDbLine
 10
53.7724
 20
859.8550000000001
 30
0.0
 11
53.86199999999999
 21
859.7569999999999
 31
0.0
  0
LINE
  5
328
330
1E
100
AcDbEntity
  8
0
100
AcDbLine
 10
53.73409999999999
 20
859.9199999999999
 30
0.0
 11
54.2399059087004
 21
860.5884752483031
 31
0.0
  0
LINE
  5
329
330
1E
100
AcDbEntity
  8
0
100
AcDbLine
 10
53.73409999999999
 20
859.9199999999999
 30
0.0
 11
53.7724
 21
859.8550000000001
 31
0.0
  0
LINE
  5
32A
330
1E
100
AcDbEntity
  8
0
100
AcDbLine
 10
53.7545
 20
859.941
 30
0.0
 11
53.8277
 21
859.9199999999999
 31
0.0
  0
LINE
  5
32B
330
1E
100
AcDbEntity
  8
0
100
AcDbLine
 10
53.8277
 20
859.9199999999999
 30
0.0
 11
53.945
 21
859.862
 31
0.0
  0
LINE
  5
32C
330
1E
100
AcDbEntity
  8
0
100
AcDbLine
 10
53.9935
 20
859.631
 30
0.0
 11
54.16389999999999
 21
859.485
 31
0.0
  0
LINE
  5
32D
330
1E
100
AcDbEntity
  8
0
100
AcDbLine
 10
53.945
 20
859.862
 30
0.0
 11
54.10479999999999
 21
859.7669999999999
 31
0.0
  0
LINE
  5
32E
330
1E
100
AcDbEntity
  8
0
100
AcDbLine
 10
53.0616
 20
858.9919999999999
 30
0.0
 11
53.2572
 21
858.8449999999999
 31
0.0
  0
LINE
  5
32F
330
1E
100
AcDbEntity
  8
0
100
AcDbLine
 10
53.2572
 20
858.8449999999999
 30
0.0
 11
53.4716
 21
858.692
 31
0.0
  0
LINE
  5
330
330
1E
100
AcDbEntity
  8
0
100
AcDbLine
 10
54.3296
 20
858.1749999999999
 30
0.0
 11
54.7311791127295
 21
858.7471328660679
 31
0.0
  0
LINE
  5
331
330
1E
100
AcDbEntity
  8
0
100
AcDbLine
 10
54.471219890005
 20
858.3767669519961
 30
0.0
 11
54.73714328941979
 21
858.199706694617
 31
0.0
  0
LINE
  5
332
330
1E
100
AcDbEntity
  8
0
100
AcDbLine
 10
54.55524506725179
 20
858.7256065743151
 30
0.0
 11
58.9134679524248
 21
855.7574851562959
 31
0.0
  0
LINE
  5
333
330
1E
100
AcDbEntity
  8
0
100
AcDbLine
 10
54.24179999999999
 20
858.2790000000001
 30
0.0
 11
54.3106
 21
858.21
 31
0.0
  0
LINE
  5
334
330
1E
100
AcDbEntity
  8
0
100
AcDbLine
 10
54.1203
 20
858.3810000000001
 30
0.0
 11
54.24179999999999
 21
858.2790000000001
 31
0.0
  0
LINE
  5
335
330
1E
100
AcDbEntity
  8
0
100
AcDbLine
 10
54.5689
 20
859.168
 30
0.0
 11
54.7779
 21
859.0199999999999
 31
0.0
  0
LINE
  5
336
330
1E
100
AcDbEntity
  8
0
100
AcDbLine
 10
54.7779
 20
859.0199999999999
 30
0.0
 11
54.96439999999999
 21
858.8969999999999
 31
0.0
  0
LINE
  5
337
330
1E
100
AcDbEntity
  8
0
100
AcDbLine
 10
55.33509999999999
 20
858.7430000000001
 30
0.0
 11
55.7338293419364
 21
859.270294868933
 31
0.0
  0
LINE
  5
338
330
1E
100
AcDbEntity
  8
0
100
AcDbLine
 10
55.2414
 20
858.7430000000001
 30
0.0
 11
55.3147
 21
858.722
 31
0.0
  0
LINE
  5
339
330
1E
100
AcDbEntity
  8
0
100
AcDbLine
 10
54.96439999999999
 20
858.8969999999999
 30
0.0
 11
55.1242
 21
858.801
 31
0.0
  0
LINE
  5
33A
330
1E
100
AcDbEntity
  8
0
100
AcDbLine
 10
54.90529999999999
 20
859.1779999999999
 30
0.0
 11
55.0757
 21
859.032
 31
0.0
  0
LINE
  5
33B
330
1E
100
AcDbEntity
  8
0
100
AcDbLine
 10
55.0757
 20
859.032
 30
0.0
 11
55.2072
 21
858.9060000000001
 31
0.0
  0
LINE
  5
33C
330
1E
100
AcDbEntity
  8
0
100
AcDbLine
 10
55.2072
 20
858.9060000000001
 30
0.0
 11
55.2967
 21
858.8079999999999
 31
0.0
  0
LINE
  5
33D
330
1E
100
AcDbEntity
  8
0
100
AcDbLine
 10
55.2967
 20
858.8079999999999
 30
0.0
 11
55.33509999999999
 21
858.7430000000001
 31
0.0
  0
LINE
  5
33E
330
1E
100
AcDbEntity
  8
0
100
AcDbLine
 10
55.1242
 20
858.801
 30
0.0
 11
55.2414
 21
858.7430000000001
 31
0.0
  0
LINE
  5
33F
330
1E
100
AcDbEntity
  8
0
100
AcDbLine
 10
54.16389999999999
 20
859.485
 30
0.0
 11
54.3573
 21
859.3289999999999
 31
0.0
  0
LINE
  5
340
330
1E
100
AcDbEntity
  8
0
100
AcDbLine
 10
54.3573
 20
859.3289999999999
 30
0.0
 11
54.5689
 21
859.168
 31
0.0
  0
LINE
  5
341
330
1E
100
AcDbEntity
  8
0
100
AcDbLine
 10
54.7118
 20
859.335
 30
0.0
 11
54.90529999999999
 21
859.1779999999999
 31
0.0
  0
LINE
  5
342
330
1E
100
AcDbEntity
  8
0
100
AcDbLine
 10
54.5003
 20
859.495
 30
0.0
 11
54.7118
 21
859.335
 31
0.0
  0
LINE
  5
343
330
1E
100
AcDbEntity
  8
0
100
AcDbLine
 10
54.29120000000001
 20
859.6439999999999
 30
0.0
 11
54.5003
 21
859.495
 31
0.0
  0
LINE
  5
344
330
1E
100
AcDbEntity
  8
0
100
AcDbLine
 10
54.10479999999999
 20
859.7669999999999
 30
0.0
 11
54.29120000000001
 21
859.6439999999999
 31
0.0
  0
LINE
  5
345
330
1E
100
AcDbEntity
  8
0
100
AcDbLine
 10
57.8551
 20
859.1489999999998
 30
0.0
 11
57.9089
 21
859.1569999999999
 31
0.0
  0
LINE
  5
346
330
1E
100
AcDbEntity
  8
0
100
AcDbLine
 10
57.9089
 20
859.1569999999999
 30
0.0
 11
58.4675663530729
 21
859.8993825381461
 31
0.0
  0
LINE
  5
347
330
1E
100
AcDbEntity
  8
0
100
AcDbLine
 10
57.60819999999999
 20
859.252
 30
0.0
 11
57.7547
 21
859.1799999999999
 31
0.0
  0
LINE
  5
348
330
1E
100
AcDbEntity
  8
0
100
AcDbLine
 10
57.2255
 20
859.491
 30
0.0
 11
57.4307
 21
859.3560000000001
 31
0.0
  0
LINE
  5
349
330
1E
100
AcDbEntity
  8
0
100
AcDbLine
 10
57.4307
 20
859.3560000000001
 30
0.0
 11
57.60819999999999
 21
859.252
 31
0.0
  0
LINE
  5
34A
330
1E
100
AcDbEntity
  8
0
100
AcDbLine
 10
56.3735
 20
860.2209999999999
 30
0.0
 11
56.4817
 21
860.101
 31
0.0
  0
LINE
  5
34B
330
1E
100
AcDbEntity
  8
0
100
AcDbLine
 10
56.3142
 20
860.312
 30
0.0
 11
56.3735
 21
860.2209999999999
 31
0.0
  0
LINE
  5
34C
330
1E
100
AcDbEntity
  8
0
100
AcDbLine
 10
56.3134
 20
860.3619999999999
 30
0.0
 11
56.3674
 21
860.3689999999998
 31
0.0
  0
LINE
  5
34D
330
1E
100
AcDbEntity
  8
0
100
AcDbLine
 10
56.3134
 20
860.3619999999999
 30
0.0
 11
56.8027909924438
 21
861.012380829389
 31
0.0
  0
LINE
  5
34E
330
1E
100
AcDbEntity
  8
0
100
AcDbLine
 10
56.3134
 20
860.3619999999999
 30
0.0
 11
56.3142
 21
860.312
 31
0.0
  0
LINE
  5
34F
330
1E
100
AcDbEntity
  8
0
100
AcDbLine
 10
56.3674
 20
860.3689999999998
 30
0.0
 11
56.4676
 21
860.3389999999999
 31
0.0
  0
LINE
  5
350
330
1E
100
AcDbEntity
  8
0
100
AcDbLine
 10
56.6291
 20
859.96
 30
0.0
 11
56.81119999999999
 21
859.8039999999999
 31
0.0
  0
LINE
  5
351
330
1E
100
AcDbEntity
  8
0
100
AcDbLine
 10
56.4817
 20
860.101
 30
0.0
 11
56.6291
 21
859.96
 31
0.0
  0
LINE
  5
352
330
1E
100
AcDbEntity
  8
0
100
AcDbLine
 10
56.81119999999999
 20
859.8039999999999
 30
0.0
 11
57.0119
 21
859.646
 31
0.0
  0
LINE
  5
353
330
1E
100
AcDbEntity
  8
0
100
AcDbLine
 10
57.0119
 20
859.646
 30
0.0
 11
57.2255
 21
859.491
 31
0.0
  0
LINE
  5
354
330
1E
100
AcDbEntity
  8
0
100
AcDbLine
 10
57.4112
 20
859.7139999999999
 30
0.0
 11
57.5933
 21
859.5589999999999
 31
0.0
  0
LINE
  5
355
330
1E
100
AcDbEntity
  8
0
100
AcDbLine
 10
57.2105
 20
859.8730000000001
 30
0.0
 11
57.4112
 21
859.7139999999999
 31
0.0
  0
LINE
  5
356
330
1E
100
AcDbEntity
  8
0
100
AcDbLine
 10
56.9968
 20
860.0279999999999
 30
0.0
 11
57.2105
 21
859.8730000000001
 31
0.0
  0
LINE
  5
357
330
1E
100
AcDbEntity
  8
0
100
AcDbLine
 10
56.7917
 20
860.163
 30
0.0
 11
56.9968
 21
860.0279999999999
 31
0.0
  0
LINE
  5
358
330
1E
100
AcDbEntity
  8
0
100
AcDbLine
 10
56.61419999999999
 20
860.2669999999999
 30
0.0
 11
56.7917
 21
860.163
 31
0.0
  0
LINE
  5
359
330
1E
100
AcDbEntity
  8
0
100
AcDbLine
 10
56.4676
 20
860.3389999999999
 30
0.0
 11
56.61419999999999
 21
860.2669999999999
 31
0.0
  0
LINE
  5
35A
330
1E
100
AcDbEntity
  8
0
100
AcDbLine
 10
57.5933
 20
859.5589999999999
 30
0.0
 11
57.7407
 21
859.4179999999999
 31
0.0
  0
LINE
  5
35B
330
1E
100
AcDbEntity
  8
0
100
AcDbLine
 10
57.7407
 20
859.4179999999999
 30
0.0
 11
57.8489
 21
859.298
 31
0.0
  0
LINE
  5
35C
330
1E
100
AcDbEntity
  8
0
100
AcDbLine
 10
57.8489
 20
859.298
 30
0.0
 11
57.9081
 21
859.2069999999999
 31
0.0
  0
LINE
  5
35D
330
1E
100
AcDbEntity
  8
0
100
AcDbLine
 10
57.9081
 20
859.2069999999999
 30
0.0
 11
57.9089
 21
859.1569999999999
 31
0.0
  0
LINE
  5
35E
330
1E
100
AcDbEntity
  8
0
100
AcDbLine
 10
57.7547
 20
859.1799999999999
 30
0.0
 11
57.8551
 21
859.1489999999998
 31
0.0
  0
LINE
  5
35F
330
1E
100
AcDbEntity
  8
0
100
AcDbLine
 10
54.1961
 20
858.2260000000001
 30
0.0
 11
54.29149999999999
 21
858.1789999999999
 31
0.0
  0
LINE
  5
360
330
1E
100
AcDbEntity
  8
0
100
AcDbLine
 10
54.0565
 20
858.3060000000001
 30
0.0
 11
54.1961
 21
858.2260000000001
 31
0.0
  0
LINE
  5
361
330
1E
100
AcDbEntity
  8
0
100
AcDbLine
 10
72.1009
 20
846.8189999999999
 30
0.0
 11
72.5218
 21
846.5559999999999
 31
0.0
  0
LINE
  5
362
330
1E
100
AcDbEntity
  8
0
100
AcDbLine
 10
72.28545153967509
 20
846.7039384116899
 30
0.0
 11
72.5218
 21
846.5559999999999
 31
0.0
  0
LINE
  5
363
330
1E
100
AcDbEntity
  8
0
100
AcDbLine
 10
72.28545153967509
 20
846.7039384116899
 30
0.0
 11
72.5218
 21
846.5559999999999
 31
0.0
  0
LINE
  5
364
330
1E
100
AcDbEntity
  8
0
100
AcDbLine
 10
71.8618
 20
846.9969999999999
 30
0.0
 11
72.00610000000001
 21
846.917
 31
0.0
  0
LINE
  5
365
330
1E
100
AcDbEntity
  8
0
100
AcDbLine
 10
71.9055
 20
847.0449999999999
 30
0.0
 11
72.03109999999999
 21
846.954
 31
0.0
  0
LINE
  5
366
330
1E
100
AcDbEntity
  8
0
100
AcDbLine
 10
71.7046
 20
847.067
 30
0.0
 11
71.78530000000001
 21
847.0169999999999
 31
0.0
  0
LINE
  5
367
330
1E
100
AcDbEntity
  8
0
100
AcDbLine
 10
71.78530000000001
 20
847.0169999999999
 30
0.0
 11
71.921
 21
846.9319999999999
 31
0.0
  0
LINE
  5
368
330
1E
100
AcDbEntity
  8
0
100
AcDbLine
 10
72.12990000000001
 20
846.865
 30
0.0
 11
72.4835898367929
 21
847.4241894920369
 31
0.0
  0
LINE
  5
369
330
1E
100
AcDbEntity
  8
0
100
AcDbLine
 10
72.00610000000001
 20
846.917
 30
0.0
 11
72.09699999999999
 21
846.873
 31
0.0
  0
LINE
  5
36A
330
1E
100
AcDbEntity
  8
0
100
AcDbLine
 10
72.03109999999999
 20
846.954
 30
0.0
 11
72.1103
 21
846.8919999999998
 31
0.0
  0
LINE
  5
36B
330
1E
100
AcDbEntity
  8
0
100
AcDbLine
 10
71.921
 20
846.9319999999999
 30
0.0
 11
72.1009
 21
846.8189999999999
 31
0.0
  0
LINE
  5
36C
330
1E
100
AcDbEntity
  8
0
100
AcDbLine
 10
72.1009
 20
846.8189999999999
 30
0.0
 11
72.30459999999999
 21
846.692
 31
0.0
  0
LINE
  5
36D
330
1E
100
AcDbEntity
  8
0
100
AcDbLine
 10
72.1009
 20
846.8189999999999
 30
0.0
 11
72.5218
 21
846.5559999999999
 31
0.0
  0
LINE
  5
36E
330
1E
100
AcDbEntity
  8
0
100
AcDbLine
 10
72.30459999999999
 20
846.692
 30
0.0
 11
72.5218
 21
846.5559999999999
 31
0.0
  0
LINE
  5
36F
330
1E
100
AcDbEntity
  8
0
100
AcDbLine
 10
72.5218
 20
846.5559999999999
 30
0.0
 11
72.9427
 21
846.293
 31
0.0
  0
LINE
  5
370
330
1E
100
AcDbEntity
  8
0
100
AcDbLine
 10
72.5218
 20
846.5559999999999
 30
0.0
 11
72.73899999999999
 21
846.4210000000001
 31
0.0
  0
LINE
  5
371
330
1E
100
AcDbEntity
  8
0
100
AcDbLine
 10
73.12260000000001
 20
846.1809999999999
 30
0.0
 11
73.25749999999999
 21
846.0969999999999
 31
0.0
  0
LINE
  5
372
330
1E
100
AcDbEntity
  8
0
100
AcDbLine
 10
78.6523
 20
843.5089999999998
 30
0.0
 11
78.824
 21
843.3760000000001
 31
0.0
  0
LINE
  5
373
330
1E
100
AcDbEntity
  8
0
100
AcDbLine
 10
78.824
 20
843.3760000000001
 30
0.0
 11
79.3128
 21
843.0089999999999
 31
0.0
  0
LINE
  5
374
330
1E
100
AcDbEntity
  8
0
100
AcDbLine
 10
78.6851
 20
843.8029999999999
 30
0.0
 11
78.9121
 21
843.6989999999999
 31
0.0
  0
LINE
  5
375
330
1E
100
AcDbEntity
  8
0
100
AcDbLine
 10
78.9121
 20
843.6989999999999
 30
0.0
 11
79.125
 21
843.613
 31
0.0
  0
LINE
  5
376
330
1E
100
AcDbEntity
  8
0
100
AcDbLine
 10
79.125
 20
843.613
 30
0.0
 11
79.3052
 21
843.5579999999999
 31
0.0
  0
LINE
  5
377
330
1E
100
AcDbEntity
  8
0
100
AcDbLine
 10
79.3128
 20
843.0089999999999
 30
0.0
 11
80.50029999999999
 21
842.121
 31
0.0
  0
LINE
  5
378
330
1E
100
AcDbEntity
  8
0
100
AcDbLine
 10
190.7062999999999
 20
561.826
 30
0.0
 11
191.1082999999999
 21
39.9216
 31
0.0
  0
LINE
  5
379
330
1E
100
AcDbEntity
  8
0
100
AcDbLine
 10
190.7062999999999
 20
561.826
 30
0.0
 11
191.1082999999999
 21
39.9216
 31
0.0
  0
LINE
  5
37A
330
1E
100
AcDbEntity
  8
0
100
AcDbLine
 10
200.0243
 20
36.4841
 30
0.0
 11
202.9303
 21
36.9924
 31
0.0
  0
LINE
  5
37B
330
1E
100
AcDbEntity
  8
0
100
AcDbLine
 10
205.3223
 20
37.9434
 30
0.0
 11
206.7512999999999
 21
39.3172
 31
0.0
  0
LINE
  5
37C
330
1E
100
AcDbEntity
  8
0
100
AcDbLine
 10
202.9303
 20
36.9924
 30
0.0
 11
205.3223
 21
37.9434
 31
0.0
  0
LINE
  5
37D
330
1E
100
AcDbEntity
  8
0
100
AcDbLine
 10
196.8813
 20
36.613
 30
0.0
 11
200.0243
 21
36.4841
 31
0.0
  0
LINE
  5
37E
330
1E
100
AcDbEntity
  8
0
100
AcDbLine
 10
194.0823
 20
37.3157
 30
0.0
 11
196.8813
 21
36.613
 31
0.0
  0
LINE
  5
37F
330
1E
100
AcDbEntity
  8
0
100
AcDbLine
 10
204.0483
 20
43.46269999999999
 30
0.0
 11
205.9842999999999
 21
42.2866
 31
0.0
  0
LINE
  5
380
330
1E
100
AcDbEntity
  8
0
100
AcDbLine
 10
201.2542999999999
 20
44.16649999999999
 30
0.0
 11
204.0483
 21
43.46269999999999
 31
0.0
  0
LINE
  5
381
330
1E
100
AcDbEntity
  8
0
100
AcDbLine
 10
198.1113
 20
44.2976
 30
0.0
 11
201.2542999999999
 21
44.16649999999999
 31
0.0
  0
LINE
  5
382
330
1E
100
AcDbEntity
  8
0
100
AcDbLine
 10
195.2012999999999
 20
43.7924
 30
0.0
 11
198.1113
 21
44.2976
 31
0.0
  0
LINE
  5
383
330
1E
100
AcDbEntity
  8
0
100
AcDbLine
 10
192.8063
 20
42.8403
 30
0.0
 11
195.2012999999999
 21
43.7924
 31
0.0
  0
LINE
  5
384
330
1E
100
AcDbEntity
  8
0
100
AcDbLine
 10
191.3733
 20
41.46659999999999
 30
0.0
 11
192.8063
 21
42.8403
 31
0.0
  0
LINE
  5
385
330
1E
100
AcDbEntity
  8
0
100
AcDbLine
 10
192.1423
 20
38.4919
 30
0.0
 11
194.0823
 21
37.3157
 31
0.0
  0
LINE
  5
386
330
1E
100
AcDbEntity
  8
0
100
AcDbLine
 10
191.1082999999999
 20
39.9216
 30
0.0
 11
192.1423
 21
38.4919
 31
0.0
  0
LINE
  5
387
330
1E
100
AcDbEntity
  8
0
100
AcDbLine
 10
191.1082999999999
 20
39.9216
 30
0.0
 11
191.3733
 21
41.46659999999999
 31
0.0
  0
LINE
  5
388
330
1E
100
AcDbEntity
  8
0
100
AcDbLine
 10
204.7063
 20
596.232
 30
0.0
 11
206.7063
 21
561.831
 31
0.0
  0
LINE
  5
389
330
1E
100
AcDbEntity
  8
0
100
AcDbLine
 10
188.9053
 20
593.427
 30
0.0
 11
190.7062999999999
 21
561.826
 31
0.0
  0
LINE
  5
38A
330
1E
100
AcDbEntity
  8
0
100
AcDbLine
 10
201.0063
 20
620.629
 30
0.0
 11
204.7063
 21
596.232
 31
0.0
  0
LINE
  5
38B
330
1E
100
AcDbEntity
  8
0
100
AcDbLine
 10
186.0063
 20
615.124
 30
0.0
 11
188.9053
 21
593.427
 31
0.0
  0
LINE
  5
38C
330
1E
100
AcDbEntity
  8
0
100
AcDbLine
 10
195.9063
 20
646.0259999999999
 30
0.0
 11
201.0063
 21
620.629
 31
0.0
  0
LINE
  5
38D
330
1E
100
AcDbEntity
  8
0
100
AcDbLine
 10
181.4073
 20
639.331
 30
0.0
 11
186.0063
 21
615.124
 31
0.0
  0
LINE
  5
38E
330
1E
100
AcDbEntity
  8
0
100
AcDbLine
 10
175.2073
 20
663.728
 30
0.0
 11
181.4073
 21
639.331
 31
0.0
  0
LINE
  5
38F
330
1E
100
AcDbEntity
  8
0
100
AcDbLine
 10
189.1063
 20
671.7339999999999
 30
0.0
 11
195.9063
 21
646.0259999999999
 31
0.0
  0
LINE
  5
390
330
1E
100
AcDbEntity
  8
0
100
AcDbLine
 10
195.4793
 20
674.6419999999999
 30
0.0
 11
198.2350999999999
 21
671.4089999999999
 31
0.0
  0
LINE
  5
391
330
1E
100
AcDbEntity
  8
0
100
AcDbLine
 10
195.4879
 20
674.6419999999999
 30
0.0
 11
198.2350999999999
 21
671.4089999999999
 31
0.0
  0
LINE
  5
392
330
1E
100
AcDbEntity
  8
0
100
AcDbLine
 10
195.3546254254709
 20
674.845228925248
 30
0.0
 11
195.4633
 21
674.6419999999999
 31
0.0
  0
LINE
  5
393
330
1E
100
AcDbEntity
  8
0
100
AcDbLine
 10
195.4633
 20
674.6419999999999
 30
0.0
 11
198.2350999999999
 21
671.4089999999999
 31
0.0
  0
LINE
  5
394
330
1E
100
AcDbEntity
  8
0
100
AcDbLine
 10
198.2350999999999
 20
671.4089999999999
 30
0.0
 11
200.7515
 21
669.6979999999999
 31
0.0
  0
LINE
  5
395
330
1E
100
AcDbEntity
  8
0
100
AcDbLine
 10
200.7515
 20
669.6979999999999
 30
0.0
 11
202.9449999999999
 21
668.5679999999999
 31
0.0
  0
LINE
  5
396
330
1E
100
AcDbEntity
  8
0
100
AcDbLine
 10
204.5359999999999
 20
661.052
 30
0.0
 11
206.6159999999999
 21
658.296
 31
0.0
  0
LINE
  5
397
330
1E
100
AcDbEntity
  8
0
100
AcDbLine
 10
203.7192
 20
675.443
 30
0.0
 11
205.1384999999999
 21
674.8619999999999
 31
0.0
  0
LINE
  5
398
330
1E
100
AcDbEntity
  8
0
100
AcDbLine
 10
205.1384999999999
 20
674.8619999999999
 30
0.0
 11
206.6159999999999
 21
676.7039999999999
 31
0.0
  0
LINE
  5
399
330
1E
100
AcDbEntity
  8
0
100
AcDbLine
 10
202.9449999999999
 20
668.5679999999999
 30
0.0
 11
205.1384999999999
 21
674.8619999999999
 31
0.0
  0
LINE
  5
39A
330
1E
100
AcDbEntity
  8
0
100
AcDbLine
 10
203.288
 20
664.172
 30
0.0
 11
204.5359999999999
 21
661.052
 31
0.0
  0
LINE
  5
39B
330
1E
100
AcDbEntity
  8
0
100
AcDbLine
 10
202.82
 20
667.4999999999999
 30
0.0
 11
203.288
 21
664.172
 31
0.0
  0
LINE
  5
39C
330
1E
100
AcDbEntity
  8
0
100
AcDbLine
 10
202.82
 20
667.4999999999999
 30
0.0
 11
202.9449999999999
 21
668.5679999999999
 31
0.0
  0
LINE
  5
39D
330
1E
100
AcDbEntity
  8
0
100
AcDbLine
 10
139.81111
 20
732.931
 30
0.0
 11
140.46582
 21
733.3089999999999
 31
0.0
  0
LINE
  5
39E
330
1E
100
AcDbEntity
  8
0
100
AcDbLine
 10
139.81111
 20
732.931
 30
0.0
 11
140.3357779713559
 21
733.229837402465
 31
0.0
  0
LINE
  5
39F
330
1E
100
AcDbEntity
  8
0
100
AcDbLine
 10
140.3336059141
 20
733.2326655550239
 30
0.0
 11
156.6227
 21
708.0169999999999
 31
0.0
  0
LINE
  5
3A0
330
1E
100
AcDbEntity
  8
0
100
AcDbLine
 10
140.46582
 20
733.3089999999999
 30
0.0
 11
141.6325396658629
 21
733.9826063815519
 31
0.0
  0
LINE
  5
3A1
330
1E
100
AcDbEntity
  8
0
100
AcDbLine
 10
140.67011
 20
733.448
 30
0.0
 11
141.6227399999999
 21
733.998
 31
0.0
  0
LINE
  5
3A2
330
1E
100
AcDbEntity
  8
0
100
AcDbLine
 10
141.6227399999999
 20
733.998
 30
0.0
 11
143.268186
 21
734.9479999999999
 31
0.0
  0
LINE
  5
3A3
330
1E
100
AcDbEntity
  8
0
100
AcDbLine
 10
143.268186
 20
734.9479999999999
 30
0.0
 11
145.34665
 21
736.148
 31
0.0
  0
LINE
  5
3A4
330
1E
100
AcDbEntity
  8
0
100
AcDbLine
 10
142.339731
 20
734.383
 30
0.0
 11
144.7264999999999
 21
735.7610000000001
 31
0.0
  0
LINE
  5
3A5
330
1E
100
AcDbEntity
  8
0
100
AcDbLine
 10
142.339731
 20
734.383
 30
0.0
 11
168.3397
 21
689.35
 31
0.0
  0
LINE
  5
3A6
330
1E
100
AcDbEntity
  8
0
100
AcDbLine
 10
142.339731
 20
734.383
 30
0.0
 11
143.282968462063
 21
734.9275783900909
 31
0.0
  0
LINE
  5
3A7
330
1E
100
AcDbEntity
  8
0
100
AcDbLine
 10
145.34665
 20
736.148
 30
0.0
 11
147.68492
 21
737.498
 31
0.0
  0
LINE
  5
3A8
330
1E
100
AcDbEntity
  8
0
100
AcDbLine
 10
144.7264999999999
 20
735.7610000000001
 30
0.0
 11
147.4285
 21
737.321
 31
0.0
  0
LINE
  5
3A9
330
1E
100
AcDbEntity
  8
0
100
AcDbLine
 10
147.68492
 20
737.498
 30
0.0
 11
150.2829899999999
 21
738.998
 31
0.0
  0
LINE
  5
3AA
330
1E
100
AcDbEntity
  8
0
100
AcDbLine
 10
147.4285
 20
737.321
 30
0.0
 11
150.3106299999999
 21
738.985
 31
0.0
  0
LINE
  5
3AB
330
1E
100
AcDbEntity
  8
0
100
AcDbLine
 10
160.1112072423109
 20
703.602082929676
 30
0.0
 11
167.3062999999999
 21
686.5239999999999
 31
0.0
  0
LINE
  5
3AD
330
1E
100
AcDbEntity
  8
0
100
AcDbLine
 10
156.6227
 20
708.0169999999999
 30
0.0
 11
156.9690999999999
 21
708.2169999999999
 31
0.0
  0
LINE
  5
3AE
330
1E
100
AcDbEntity
  8
0
100
AcDbLine
 10
156.9690999999999
 20
708.2169999999999
 30
0.0
 11
157.3273591920929
 21
708.423820572728
 31
0.0
  0
LINE
  5
3AF
330
1E
100
AcDbEntity
  8
0
100
AcDbLine
 10
114.8360999999999
 20
781.995
 30
0.0
 11
124.5339999999999
 21
761.088
 31
0.0
  0
LINE
  5
3B0
330
1E
100
AcDbEntity
  8
0
100
AcDbLine
 10
124.5339999999999
 20
761.088
 30
0.0
 11
139.81111
 21
732.931
 31
0.0
  0
LINE
  5
3B1
330
1E
100
AcDbEntity
  8
0
100
AcDbLine
 10
108.1682
 20
797.478
 30
0.0
 11
114.8360999999999
 21
781.995
 31
0.0
  0
LINE
  5
3B2
330
1E
100
AcDbEntity
  8
0
100
AcDbLine
 10
103.6497
 20
808.7669999999999
 30
0.0
 11
108.1682
 21
797.478
 31
0.0
  0
LINE
  5
3B3
330
1E
100
AcDbEntity
  8
0
100
AcDbLine
 10
99.6802
 20
819.7180000000001
 30
0.0
 11
103.6497
 21
808.7669999999999
 31
0.0
  0
LINE
  5
3B4
330
1E
100
AcDbEntity
  8
0
100
AcDbLine
 10
94.48399999999999
 20
828.9839999999999
 30
0.0
 11
94.6320699025715
 21
829.1479621496678
 31
0.0
  0
LINE
  5
3B5
330
1E
100
AcDbEntity
  8
0
100
AcDbLine
 10
92.54659999999999
 20
831.548
 30
0.0
 11
93.6401
 21
830.09
 31
0.0
  0
LINE
  5
3B6
330
1E
100
AcDbEntity
  8
0
100
AcDbLine
 10
93.6401
 20
830.09
 30
0.0
 11
94.23959999999999
 21
829.2589999999998
 31
0.0
  0
LINE
  5
3B7
330
1E
100
AcDbEntity
  8
0
100
AcDbLine
 10
94.23959999999999
 20
829.2589999999998
 30
0.0
 11
94.48399999999999
 21
828.9839999999999
 31
0.0
  0
LINE
  5
3B8
330
1E
100
AcDbEntity
  8
0
100
AcDbLine
 10
95.85799999999998
 20
827.4079999999999
 30
0.0
 11
99.6802
 21
819.7180000000001
 31
0.0
  0
LINE
  5
3B9
330
1E
100
AcDbEntity
  8
0
100
AcDbLine
 10
91.0025
 20
833.3760000000001
 30
0.0
 11
92.54659999999999
 21
831.548
 31
0.0
  0
LINE
  5
3BA
330
1E
100
AcDbEntity
  8
0
100
AcDbLine
 10
89.06200000000001
 20
835.2689999999999
 30
0.0
 11
91.0025
 21
833.3760000000001
 31
0.0
  0
LINE
  5
3BB
330
1E
100
AcDbEntity
  8
0
100
AcDbLine
 10
84.89960000000001
 20
838.743
 30
0.0
 11
86.7505
 21
837.2769999999999
 31
0.0
  0
LINE
  5
3BC
330
1E
100
AcDbEntity
  8
0
100
AcDbLine
 10
86.7505
 20
837.2769999999999
 30
0.0
 11
89.06200000000001
 21
835.2689999999999
 31
0.0
  0
LINE
  5
3BD
330
1E
100
AcDbEntity
  8
0
100
AcDbLine
 10
81.8914
 20
841.051
 30
0.0
 11
83.5191
 21
839.822
 31
0.0
  0
LINE
  5
3BE
330
1E
100
AcDbEntity
  8
0
100
AcDbLine
 10
83.5191
 20
839.822
 30
0.0
 11
84.89960000000001
 21
838.743
 31
0.0
  0
LINE
  5
3C0
330
1E
100
AcDbEntity
  8
0
100
AcDbLine
 10
80.50029999999999
 20
842.121
 30
0.0
 11
81.8914
 21
841.051
 31
0.0
  0
LINE
  5
3C1
330
1E
100
AcDbEntity
  8
0
100
AcDbLine
 10
87.69240000000001
 20
842.7230000000001
 30
0.0
 11
92.4732
 21
842.641
 31
0.0
  0
LINE
  5
3C2
330
1E
100
AcDbEntity
  8
0
100
AcDbLine
 10
92.4732
 20
842.641
 30
0.0
 11
95.29389999999999
 21
843.9989999999999
 31
0.0
  0
LINE
  5
3C8
330
1E
100
AcDbEntity
  8
0
100
AcDbLine
 10
103.7207999999999
 20
840.015
 30
0.0
 11
107.3855
 21
835.8039999999999
 31
0.0
  0
LINE
  5
3C9
330
1E
100
AcDbEntity
  8
0
100
AcDbLine
 10
103.6367999999999
 20
840.1089999999999
 30
0.0
 11
103.7207999999999
 21
840.015
 31
0.0
  0
LINE
  5
3CE
330
1E
100
AcDbEntity
  8
0
100
AcDbLine
 10
107.3855
 20
835.8039999999999
 30
0.0
 11
112.9248999999999
 21
828.1749999999998
 31
0.0
  0
LINE
  5
3D1
330
1E
100
AcDbEntity
  8
0
100
AcDbLine
 10
112.9248999999999
 20
828.1749999999998
 30
0.0
 11
119.2504
 21
818.443
 31
0.0
  0
LINE
  5
3D4
330
1E
100
AcDbEntity
  8
0
100
AcDbLine
 10
119.2504
 20
818.443
 30
0.0
 11
125.2472999999999
 21
808.61
 31
0.0
  0
LINE
  5
3D7
330
1E
100
AcDbEntity
  8
0
100
AcDbLine
 10
125.2472999999999
 20
808.61
 30
0.0
 11
134.58908
 21
793.066
 31
0.0
  0
LINE
  5
3DA
330
1E
100
AcDbEntity
  8
0
100
AcDbLine
 10
134.58908
 20
793.066
 30
0.0
 11
145.87961
 21
773.2619999999999
 31
0.0
  0
LINE
  5
3DD
330
1E
100
AcDbEntity
  8
0
100
AcDbLine
 10
145.87961
 20
773.2619999999999
 30
0.0
 11
161.7129999999999
 21
745.426
 31
0.0
  0
LINE
  5
3E0
330
1E
100
AcDbEntity
  8
0
100
AcDbLine
 10
150.2829899999999
 20
738.998
 30
0.0
 11
152.8811
 21
740.4980000000001
 31
0.0
  0
LINE
  5
3E1
330
1E
100
AcDbEntity
  8
0
100
AcDbLine
 10
152.888632913419
 20
740.4813080420219
 30
0.0
 11
153.3419
 21
740.743
 31
0.0
  0
LINE
  5
3E2
330
1E
100
AcDbEntity
  8
0
100
AcDbLine
 10
153.3419
 20
740.743
 30
0.0
 11
153.646405153738
 21
740.9108889858741
 31
0.0
  0
LINE
  5
3E3
330
1E
100
AcDbEntity
  8
0
100
AcDbLine
 10
155.945696146781
 20
742.12084591623
 30
0.0
 11
159.115
 21
743.926
 31
0.0
  0
LINE
  5
3E4
330
1E
100
AcDbEntity
  8
0
100
AcDbLine
 10
155.917713731475
 20
742.163175487569
 30
0.0
 11
159.115
 21
743.926
 31
0.0
  0
LINE
  5
3E5
330
1E
100
AcDbEntity
  8
0
100
AcDbLine
 10
159.9809999999999
 20
744.426
 30
0.0
 11
160.847
 21
744.926
 31
0.0
  0
LINE
  5
3E6
330
1E
100
AcDbEntity
  8
0
100
AcDbLine
 10
159.115
 20
743.926
 30
0.0
 11
159.9809999999999
 21
744.426
 31
0.0
  0
LINE
  5
3E7
330
1E
100
AcDbEntity
  8
0
100
AcDbLine
 10
153.1928
 20
740.6489999999998
 30
0.0
 11
155.8948
 21
742.2089999999999
 31
0.0
  0
LINE
  5
3E8
330
1E
100
AcDbEntity
  8
0
100
AcDbLine
 10
150.3106299999999
 20
738.985
 30
0.0
 11
153.1928
 21
740.6489999999998
 31
0.0
  0
LINE
  5
3E9
330
1E
100
AcDbEntity
  8
0
100
AcDbLine
 10
167.3062999999999
 20
686.5239999999999
 30
0.0
 11
175.2073
 21
663.728
 31
0.0
  0
LINE
  5
3F1
330
1E
100
AcDbEntity
  8
0
100
AcDbLine
 10
180.244743805788
 20
696.2233398170139
 30
0.0
 11
180.7073
 21
695.22
 31
0.0
  0
LINE
  5
3F2
330
1E
100
AcDbEntity
  8
0
100
AcDbLine
 10
180.244743805788
 20
696.2233398170139
 30
0.0
 11
180.7073
 21
695.22
 31
0.0
  0
LINE
  5
3F8
330
1E
100
AcDbEntity
  8
0
100
AcDbLine
 10
201.8159999999999
 20
676.8639999999999
 30
0.0
 11
203.7192
 21
675.443
 31
0.0
  0
LINE
  5
3F9
330
1E
100
AcDbEntity
  8
0
100
AcDbLine
 10
180.7073
 20
695.22
 30
0.0
 11
189.1063
 21
671.7339999999999
 31
0.0
  0
LINE
  5
3FA
330
1E
100
AcDbEntity
  8
0
100
AcDbLine
 10
181.035700703324
 20
696.6799989256799
 30
0.0
 11
195.4633
 21
674.6419999999999
 31
0.0
  0
LINE
  5
3FC
330
1E
100
AcDbEntity
  8
0
100
AcDbLine
 10
186.0829
 20
699.5939999999999
 30
0.0
 11
187.1636999999999
 21
700.218
 31
0.0
  0
LINE
  5
3FD
330
1E
100
AcDbEntity
  8
0
100
AcDbLine
 10
184.2814999999999
 20
698.554
 30
0.0
 11
186.0829
 21
699.5939999999999
 31
0.0
  0
LINE
  5
3FE
330
1E
100
AcDbEntity
  8
0
100
AcDbLine
 10
181.8947999999999
 20
697.176
 30
0.0
 11
184.2814999999999
 21
698.554
 31
0.0
  0
LINE
  5
3FF
330
1E
100
AcDbEntity
  8
0
100
AcDbLine
 10
181.8947999999999
 20
697.176
 30
0.0
 11
200.8199999999999
 21
678.0
 31
0.0
  0
LINE
  5
401
330
1E
100
AcDbEntity
  8
0
100
AcDbLine
 10
200.8199999999999
 20
678.0
 30
0.0
 11
201.8159999999999
 21
676.8639999999999
 31
0.0
  0
LINE
  5
402
330
1E
100
AcDbEntity
  8
0
100
AcDbLine
 10
180.273600005569
 20
696.2400000032159
 30
0.0
 11
181.035700703324
 21
696.6799989256799
 31
0.0
  0
LINE
  5
403
330
1E
100
AcDbEntity
  8
0
100
AcDbLine
 10
160.847
 20
744.926
 30
0.0
 11
161.7129999999999
 21
745.426
 31
0.0
  0
LINE
  5
405
330
1E
100
AcDbEntity
  8
0
100
AcDbLine
 10
161.6305486831199
 20
745.37839531358
 30
0.0
 11
187.569
 21
700.452
 31
0.0
  0
LINE
  5
406
330
1E
100
AcDbEntity
  8
0
100
AcDbLine
 10
187.1636999999999
 20
700.218
 30
0.0
 11
187.569
 21
700.452
 31
0.0
  0
LINE
  5
407
330
1E
100
AcDbEntity
  8
0
100
AcDbLine
 10
205.8199999999999
 20
676.5
 30
0.0
 11
205.8199999999999
 21
702.0
 31
0.0
  0
LINE
  5
408
330
1E
100
AcDbEntity
  8
0
100
AcDbLine
 10
205.8199999999999
 20
676.5
 30
0.0
 11
206.0112
 21
676.717
 31
0.0
  0
LINE
  5
409
330
1E
100
AcDbEntity
  8
0
100
AcDbLine
 10
205.8199999999999
 20
658.4999999999999
 30
0.0
 11
206.0112
 21
658.283
 31
0.0
  0
LINE
  5
40A
330
1E
100
AcDbEntity
  8
0
100
AcDbLine
 10
205.8199999999999
 20
658.4999999999999
 30
0.0
 11
205.8199999999999
 21
633.0
 31
0.0
  0
LINE
  5
40B
330
1E
100
AcDbEntity
  8
0
100
AcDbLine
 10
205.8199999999999
 20
633.0
 30
0.0
 11
206.32
 21
632.5
 31
0.0
  0
LINE
  5
40C
330
1E
100
AcDbEntity
  8
0
100
AcDbLine
 10
205.8199999999999
 20
633.0
 30
0.0
 11
205.8199999999999
 21
658.4999999999999
 31
0.0
  0
LINE
  5
40D
330
1E
100
AcDbEntity
  8
0
100
AcDbLine
 10
205.8199999999999
 20
633.0
 30
0.0
 11
206.02
 21
633.0
 31
0.0
  0
LINE
  5
40E
330
1E
100
AcDbEntity
  8
0
100
AcDbLine
 10
205.9842999999999
 20
42.2866
 30
0.0
 11
207.0142999999999
 21
40.859
 31
0.0
  0
LINE
  5
40F
330
1E
100
AcDbEntity
  8
0
100
AcDbLine
 10
206.7063
 20
561.831
 30
0.0
 11
207.0142999999999
 21
40.859
 31
0.0
  0
LINE
  5
410
330
1E
100
AcDbEntity
  8
0
100
AcDbLine
 10
206.7063
 20
561.831
 30
0.0
 11
207.0142999999999
 21
40.859
 31
0.0
  0
LINE
  5
411
330
1E
100
AcDbEntity
  8
0
100
AcDbLine
 10
206.7512999999999
 20
39.3172
 30
0.0
 11
207.0142999999999
 21
40.859
 31
0.0
  0
LINE
  5
412
330
1E
100
AcDbEntity
  8
0
100
AcDbLine
 10
229.82
 20
25.5
 30
0.0
 11
229.82
 21
483.4999999999999
 31
0.0
  0
LINE
  5
413
330
1E
100
AcDbEntity
  8
0
100
AcDbLine
 10
229.82
 20
25.5
 30
0.0
 11
229.82
 21
483.4999999999999
 31
0.0
  0
LINE
  5
414
330
1E
100
AcDbEntity
  8
0
100
AcDbLine
 10
229.82
 20
25.5
 30
0.0
 11
230.12
 21
25.5
 31
0.0
  0
LINE
  5
415
330
1E
100
AcDbEntity
  8
0
100
AcDbLine
 10
229.82
 20
0.9999999999999948
 30
0.0
 11
229.82
 21
24.5
 31
0.0
  0
LINE
  5
416
330
1E
100
AcDbEntity
  8
0
100
AcDbLine
 10
229.82
 20
0.9999999999999948
 30
0.0
 11
230.12
 21
0.299999999999995
 31
0.0
  0
LINE
  5
417
330
1E
100
AcDbEntity
  8
0
100
AcDbLine
 10
229.82
 20
0.9999999999999948
 30
0.0
 11
230.12
 21
0.299999999999995
 31
0.0
  0
LINE
  5
418
330
1E
100
AcDbEntity
  8
0
100
AcDbLine
 10
238.8199999999999
 20
-0.0000000000000059
 30
0.0
 11
239.5199999999999
 21
0.2999999999999939
 31
0.0
  0
LINE
  5
419
330
1E
100
AcDbEntity
  8
0
100
AcDbLine
 10
238.8199999999999
 20
-0.0000000000000059
 30
0.0
 11
239.3199999999999
 21
0.2999999999999939
 31
0.0
  0
LINE
  5
41A
330
1E
100
AcDbEntity
  8
0
100
AcDbLine
 10
230.3199999999999
 20
0.299999999999995
 30
0.0
 11
230.8199999999999
 21
0.299999999999995
 31
0.0
  0
LINE
  5
41B
330
1E
100
AcDbEntity
  8
0
100
AcDbLine
 10
230.8199999999999
 20
0.299999999999995
 30
0.0
 11
239.3199999999999
 21
0.2999999999999939
 31
0.0
  0
LINE
  5
41C
330
1E
100
AcDbEntity
  8
0
100
AcDbLine
 10
230.8199999999999
 20
-0.0000000000000054
 30
0.0
 11
238.8199999999999
 21
-0.0000000000000059
 31
0.0
  0
LINE
  5
41D
330
1E
100
AcDbEntity
  8
0
100
AcDbLine
 10
230.8199999999999
 20
-0.0000000000000054
 30
0.0
 11
239.82
 21
-0.0000000000000059
 31
0.0
  0
LINE
  5
41E
330
1E
100
AcDbEntity
  8
0
100
AcDbLine
 10
239.3199999999999
 20
0.2999999999999939
 30
0.0
 11
239.3199999999999
 21
0.9999999999999939
 31
0.0
  0
LINE
  5
41F
330
1E
100
AcDbEntity
  8
0
100
AcDbLine
 10
239.3199999999999
 20
0.2999999999999939
 30
0.0
 11
239.5199999999999
 21
0.2999999999999939
 31
0.0
  0
LINE
  5
420
330
1E
100
AcDbEntity
  8
0
100
AcDbLine
 10
239.5199999999999
 20
0.2999999999999939
 30
0.0
 11
240.62
 21
0.2999999999999939
 31
0.0
  0
LINE
  5
421
330
1E
100
AcDbEntity
  8
0
100
AcDbLine
 10
239.5199999999999
 20
0.2999999999999939
 30
0.0
 11
239.82
 21
0.9999999999999939
 31
0.0
  0
LINE
  5
422
330
1E
100
AcDbEntity
  8
0
100
AcDbLine
 10
240.62
 20
0.2999999999999939
 30
0.0
 11
242.8199999999999
 21
0.2999999999999939
 31
0.0
  0
LINE
  5
423
330
1E
100
AcDbEntity
  8
0
100
AcDbLine
 10
242.8199999999999
 20
0.2999999999999939
 30
0.0
 11
252.82
 21
0.299999999999993
 31
0.0
  0
LINE
  5
424
330
1E
100
AcDbEntity
  8
0
100
AcDbLine
 10
238.8199999999999
 20
-0.0000000000000059
 30
0.0
 11
240.2105999999999
 21
-0.000000000000006
 31
0.0
  0
LINE
  5
425
330
1E
100
AcDbEntity
  8
0
100
AcDbLine
 10
238.8199999999999
 20
-0.0000000000000059
 30
0.0
 11
239.5199999999999
 21
0.2999999999999939
 31
0.0
  0
LINE
  5
426
330
1E
100
AcDbEntity
  8
0
100
AcDbLine
 10
240.2105999999999
 20
-0.000000000000006
 30
0.0
 11
242.8199999999999
 21
-0.0000000000000061
 31
0.0
  0
LINE
  5
427
330
1E
100
AcDbEntity
  8
0
100
AcDbLine
 10
252.82
 20
0.299999999999993
 30
0.0
 11
252.82
 21
0.9999999999999928
 31
0.0
  0
LINE
  5
428
330
1E
100
AcDbEntity
  8
0
100
AcDbLine
 10
252.82
 20
0.299999999999993
 30
0.0
 11
252.82
 21
-0.0000000000000067
 31
0.0
  0
LINE
  5
429
330
1E
100
AcDbEntity
  8
0
100
AcDbLine
 10
252.82
 20
-0.0000000000000067
 30
0.0
 11
252.82
 21
0.299999999999993
 31
0.0
  0
LINE
  5
42A
330
1E
100
AcDbEntity
  8
0
100
AcDbLine
 10
242.8199999999999
 20
-0.0000000000000061
 30
0.0
 11
252.82
 21
-0.0000000000000067
 31
0.0
  0
LINE
  5
42B
330
1E
100
AcDbEntity
  8
0
100
AcDbLine
 10
230.12
 20
0.9999999999999948
 30
0.0
 11
230.12
 21
24.5
 31
0.0
  0
LINE
  5
42C
330
1E
100
AcDbEntity
  8
0
100
AcDbLine
 10
230.12
 20
0.9999999999999948
 30
0.0
 11
230.3199999999999
 21
0.299999999999995
 31
0.0
  0
LINE
  5
42D
330
1E
100
AcDbEntity
  8
0
100
AcDbLine
 10
230.12
 20
0.9999999999999948
 30
0.0
 11
230.3199999999999
 21
0.299999999999995
 31
0.0
  0
LINE
  5
42E
330
1E
100
AcDbEntity
  8
0
100
AcDbLine
 10
229.82
 20
632.5
 30
0.0
 11
229.82
 21
483.4999999999999
 31
0.0
  0
LINE
  5
42F
330
1E
100
AcDbEntity
  8
0
100
AcDbLine
 10
229.82
 20
483.4999999999999
 30
0.0
 11
229.82
 21
633.0
 31
0.0
  0
LINE
  5
430
330
1E
100
AcDbEntity
  8
0
100
AcDbLine
 10
229.82
 20
483.4999999999999
 30
0.0
 11
229.82
 21
632.5
 31
0.0
  0
LINE
  5
431
330
1E
100
AcDbEntity
  8
0
100
AcDbLine
 10
230.12
 20
25.5
 30
0.0
 11
230.12
 21
483.4999999999999
 31
0.0
  0
LINE
  5
432
330
1E
100
AcDbEntity
  8
0
100
AcDbLine
 10
230.12
 20
483.4999999999999
 30
0.0
 11
230.12
 21
969.5
 31
0.0
  0
LINE
  5
433
330
1E
100
AcDbEntity
  8
0
100
AcDbLine
 10
230.12
 20
25.5
 30
0.0
 11
230.12
 21
483.4999999999999
 31
0.0
  0
LINE
  5
434
330
1E
100
AcDbEntity
  8
0
100
AcDbLine
 10
230.12
 20
25.5
 30
0.0
 11
230.8199999999999
 21
25.5
 31
0.0
  0
LINE
  5
435
330
1E
100
AcDbEntity
  8
0
100
AcDbLine
 10
230.12
 20
24.5
 30
0.0
 11
230.8199999999999
 21
24.5
 31
0.0
  0
LINE
  5
436
330
1E
100
AcDbEntity
  8
0
100
AcDbLine
 10
230.12
 20
24.5
 30
0.0
 11
230.12
 21
0.9999999999999948
 31
0.0
  0
LINE
  5
437
330
1E
100
AcDbEntity
  8
0
100
AcDbLine
 10
230.8199999999999
 20
24.5
 30
0.0
 11
239.3199999999999
 21
24.5
 31
0.0
  0
LINE
  5
438
330
1E
100
AcDbEntity
  8
0
100
AcDbLine
 10
239.3199999999999
 20
0.9999999999999939
 30
0.0
 11
239.3199999999999
 21
24.5
 31
0.0
  0
LINE
  5
439
330
1E
100
AcDbEntity
  8
0
100
AcDbLine
 10
239.3199999999999
 20
0.9999999999999939
 30
0.0
 11
239.3199999999999
 21
0.2999999999999939
 31
0.0
  0
LINE
  5
43A
330
1E
100
AcDbEntity
  8
0
100
AcDbLine
 10
239.3199999999999
 20
24.5
 30
0.0
 11
239.82
 21
24.5
 31
0.0
  0
LINE
  5
43B
330
1E
100
AcDbEntity
  8
0
100
AcDbLine
 10
239.3199999999999
 20
24.5
 30
0.0
 11
239.3199999999999
 21
0.9999999999999948
 31
0.0
  0
LINE
  5
43C
330
1E
100
AcDbEntity
  8
0
100
AcDbLine
 10
239.3199999999999
 20
24.5
 30
0.0
 11
239.3199999999999
 21
25.0
 31
0.0
  0
LINE
  5
43D
330
1E
100
AcDbEntity
  8
0
100
AcDbLine
 10
239.82
 20
24.5
 30
0.0
 11
240.8199999999999
 21
24.5
 31
0.0
  0
LINE
  5
43E
330
1E
100
AcDbEntity
  8
0
100
AcDbLine
 10
239.82
 20
24.5
 30
0.0
 11
239.82
 21
0.9999999999999948
 31
0.0
  0
LINE
  5
43F
330
1E
100
AcDbEntity
  8
0
100
AcDbLine
 10
252.82
 20
24.5
 30
0.0
 11
252.82
 21
0.9999999999999921
 31
0.0
  0
LINE
  5
440
330
1E
100
AcDbEntity
  8
0
100
AcDbLine
 10
252.82
 20
24.5
 30
0.0
 11
252.82
 21
25.0
 31
0.0
  0
LINE
  5
441
330
1E
100
AcDbEntity
  8
0
100
AcDbLine
 10
240.8199999999999
 20
0.9999999999999939
 30
0.0
 11
240.8199999999999
 21
24.5
 31
0.0
  0
LINE
  5
442
330
1E
100
AcDbEntity
  8
0
100
AcDbLine
 10
240.8199999999999
 20
24.5
 30
0.0
 11
240.8199999999999
 21
0.9999999999999948
 31
0.0
  0
LINE
  5
443
330
1E
100
AcDbEntity
  8
0
100
AcDbLine
 10
240.8199999999999
 20
24.5
 30
0.0
 11
242.8199999999999
 21
24.5
 31
0.0
  0
LINE
  5
444
330
1E
100
AcDbEntity
  8
0
100
AcDbLine
 10
252.82
 20
0.9999999999999928
 30
0.0
 11
252.82
 21
24.5
 31
0.0
  0
LINE
  5
445
330
1E
100
AcDbEntity
  8
0
100
AcDbLine
 10
252.82
 20
0.9999999999999928
 30
0.0
 11
252.82
 21
0.299999999999993
 31
0.0
  0
LINE
  5
446
330
1E
100
AcDbEntity
  8
0
100
AcDbLine
 10
230.4699999999999
 20
25.0
 30
0.0
 11
230.8199999999999
 21
25.0
 31
0.0
  0
LINE
  5
447
330
1E
100
AcDbEntity
  8
0
100
AcDbLine
 10
230.8199999999999
 20
25.0
 30
0.0
 11
230.8199999999999
 21
24.5
 31
0.0
  0
LINE
  5
448
330
1E
100
AcDbEntity
  8
0
100
AcDbLine
 10
230.8199999999999
 20
25.0
 30
0.0
 11
239.3199999999999
 21
25.0
 31
0.0
  0
LINE
  5
449
330
1E
100
AcDbEntity
  8
0
100
AcDbLine
 10
239.3199999999999
 20
25.0
 30
0.0
 11
240.5029
 21
25.0
 31
0.0
  0
LINE
  5
44A
330
1E
100
AcDbEntity
  8
0
100
AcDbLine
 10
239.3199999999999
 20
25.0
 30
0.0
 11
239.82
 21
24.5
 31
0.0
  0
LINE
  5
44B
330
1E
100
AcDbEntity
  8
0
100
AcDbLine
 10
239.3199999999999
 20
25.0
 30
0.0
 11
239.3199999999999
 21
24.5
 31
0.0
  0
LINE
  5
44C
330
1E
100
AcDbEntity
  8
0
100
AcDbLine
 10
239.3199999999999
 20
25.0
 30
0.0
 11
239.82
 21
25.5
 31
0.0
  0
LINE
  5
44D
330
1E
100
AcDbEntity
  8
0
100
AcDbLine
 10
239.3199999999999
 20
25.0
 30
0.0
 11
239.3199999999999
 21
25.5
 31
0.0
  0
LINE
  5
44E
330
1E
100
AcDbEntity
  8
0
100
AcDbLine
 10
230.8199999999999
 20
25.5
 30
0.0
 11
239.3199999999999
 21
25.5
 31
0.0
  0
LINE
  5
44F
330
1E
100
AcDbEntity
  8
0
100
AcDbLine
 10
230.8199999999999
 20
25.5
 30
0.0
 11
230.8199999999999
 21
25.0
 31
0.0
  0
LINE
  5
450
330
1E
100
AcDbEntity
  8
0
100
AcDbLine
 10
239.3199999999999
 20
25.5
 30
0.0
 11
239.82
 21
25.5
 31
0.0
  0
LINE
  5
451
330
1E
100
AcDbEntity
  8
0
100
AcDbLine
 10
239.3199999999999
 20
25.5
 30
0.0
 11
239.3199999999999
 21
483.4999999999999
 31
0.0
  0
LINE
  5
452
330
1E
100
AcDbEntity
  8
0
100
AcDbLine
 10
239.3199999999999
 20
25.5
 30
0.0
 11
239.3199999999999
 21
25.0
 31
0.0
  0
LINE
  5
453
330
1E
100
AcDbEntity
  8
0
100
AcDbLine
 10
239.82
 20
25.5
 30
0.0
 11
240.8199999999999
 21
25.5
 31
0.0
  0
LINE
  5
454
330
1E
100
AcDbEntity
  8
0
100
AcDbLine
 10
239.82
 20
25.5
 30
0.0
 11
239.82
 21
483.4999999999999
 31
0.0
  0
LINE
  5
455
330
1E
100
AcDbEntity
  8
0
100
AcDbLine
 10
230.8199999999999
 20
25.5
 30
0.0
 11
230.8199999999999
 21
483.4999999999999
 31
0.0
  0
LINE
  5
456
330
1E
100
AcDbEntity
  8
0
100
AcDbLine
 10
239.3199999999999
 20
25.5
 30
0.0
 11
239.3199999999999
 21
483.4999999999999
 31
0.0
  0
LINE
  5
457
330
1E
100
AcDbEntity
  8
0
100
AcDbLine
 10
239.3199999999999
 20
483.4999999999999
 30
0.0
 11
239.3199999999999
 21
969.5
 31
0.0
  0
LINE
  5
458
330
1E
100
AcDbEntity
  8
0
100
AcDbLine
 10
230.8199999999999
 20
483.4999999999999
 30
0.0
 11
230.8199999999999
 21
969.5
 31
0.0
  0
LINE
  5
459
330
1E
100
AcDbEntity
  8
0
100
AcDbLine
 10
239.82
 20
483.4999999999999
 30
0.0
 11
239.82
 21
969.5
 31
0.0
  0
LINE
  5
45A
330
1E
100
AcDbEntity
  8
0
100
AcDbLine
 10
239.82
 20
25.5
 30
0.0
 11
239.82
 21
483.4999999999999
 31
0.0
  0
LINE
  5
45B
330
1E
100
AcDbEntity
  8
0
100
AcDbLine
 10
240.8199999999999
 20
483.4999999999999
 30
0.0
 11
240.8199999999999
 21
969.5
 31
0.0
  0
LINE
  5
45C
330
1E
100
AcDbEntity
  8
0
100
AcDbLine
 10
240.8199999999999
 20
25.5
 30
0.0
 11
240.8199999999999
 21
483.4999999999999
 31
0.0
  0
LINE
  5
45D
330
1E
100
AcDbEntity
  8
0
100
AcDbLine
 10
240.8199999999999
 20
25.5
 30
0.0
 11
242.8199999999999
 21
25.5
 31
0.0
  0
LINE
  5
45E
330
1E
100
AcDbEntity
  8
0
100
AcDbLine
 10
240.8199999999999
 20
25.5
 30
0.0
 11
240.8199999999999
 21
483.4999999999999
 31
0.0
  0
LINE
  5
45F
330
1E
100
AcDbEntity
  8
0
100
AcDbLine
 10
242.8199999999999
 20
25.5
 30
0.0
 11
252.82
 21
25.5
 31
0.0
  0
LINE
  5
460
330
1E
100
AcDbEntity
  8
0
100
AcDbLine
 10
240.5029
 20
25.0
 30
0.0
 11
242.8199999999999
 21
25.0
 31
0.0
  0
LINE
  5
461
330
1E
100
AcDbEntity
  8
0
100
AcDbLine
 10
252.82
 20
483.4999999999999
 30
0.0
 11
252.82
 21
25.5
 31
0.0
  0
LINE
  5
462
330
1E
100
AcDbEntity
  8
0
100
AcDbLine
 10
252.82
 20
483.4999999999999
 30
0.0
 11
252.82
 21
969.5
 31
0.0
  0
LINE
  5
463
330
1E
100
AcDbEntity
  8
0
100
AcDbLine
 10
252.82
 20
25.5
 30
0.0
 11
252.82
 21
483.4999999999999
 31
0.0
  0
LINE
  5
464
330
1E
100
AcDbEntity
  8
0
100
AcDbLine
 10
252.82
 20
25.5
 30
0.0
 11
252.82
 21
25.0
 31
0.0
  0
LINE
  5
465
330
1E
100
AcDbEntity
  8
0
100
AcDbLine
 10
252.82
 20
25.0
 30
0.0
 11
252.82
 21
24.5
 31
0.0
  0
LINE
  5
466
330
1E
100
AcDbEntity
  8
0
100
AcDbLine
 10
252.82
 20
25.0
 30
0.0
 11
252.82
 21
25.5
 31
0.0
  0
LINE
  5
467
330
1E
100
AcDbEntity
  8
0
100
AcDbLine
 10
242.8199999999999
 20
25.0
 30
0.0
 11
252.82
 21
25.0
 31
0.0
  0
LINE
  5
468
330
1E
100
AcDbEntity
  8
0
100
AcDbLine
 10
242.8199999999999
 20
24.5
 30
0.0
 11
252.82
 21
24.5
 31
0.0
  0
LINE
  5
469
330
1E
100
AcDbEntity
  8
0
100
AcDbLine
 10
230.3199999999999
 20
25.0
 30
0.0
 11
230.4699999999999
 21
25.0
 31
0.0
  0
LINE
  5
46A
330
1E
100
AcDbEntity
  8
0
100
AcDbLine
 10
230.12
 20
0.299999999999995
 30
0.0
 11
230.8199999999999
 21
-0.0000000000000054
 31
0.0
  0
LINE
  5
46B
330
1E
100
AcDbEntity
  8
0
100
AcDbLine
 10
230.12
 20
0.299999999999995
 30
0.0
 11
230.8199999999999
 21
-0.0000000000000054
 31
0.0
  0
LINE
  5
46C
330
1E
100
AcDbEntity
  8
0
100
AcDbLine
 10
230.12
 20
0.299999999999995
 30
0.0
 11
230.3199999999999
 21
0.299999999999995
 31
0.0
  0
LINE
  5
46D
330
1E
100
AcDbEntity
  8
0
100
AcDbLine
 10
229.82
 20
24.5
 30
0.0
 11
229.82
 21
0.9999999999999948
 31
0.0
  0
LINE
  5
46E
330
1E
100
AcDbEntity
  8
0
100
AcDbLine
 10
229.82
 20
24.5
 30
0.0
 11
230.3199999999999
 21
25.0
 31
0.0
  0
LINE
  5
46F
330
1E
100
AcDbEntity
  8
0
100
AcDbLine
 10
229.82
 20
24.5
 30
0.0
 11
230.12
 21
24.5
 31
0.0
  0
LINE
  5
470
330
1E
100
AcDbEntity
  8
0
100
AcDbLine
 10
229.32
 20
632.5
 30
0.0
 11
229.82
 21
632.5
 31
0.0
  0
LINE
  5
471
330
1E
100
AcDbEntity
  8
0
100
AcDbLine
 10
229.32
 20
632.5
 30
0.0
 11
229.82
 21
633.0
 31
0.0
  0
LINE
  5
472
330
1E
100
AcDbEntity
  8
0
100
AcDbLine
 10
208.5199999999999
 20
632.5
 30
0.0
 11
229.32
 21
632.5
 31
0.0
  0
LINE
  5
473
330
1E
100
AcDbEntity
  8
0
100
AcDbLine
 10
208.17
 20
632.5
 30
0.0
 11
208.5199999999999
 21
632.5
 31
0.0
  0
LINE
  5
474
330
1E
100
AcDbEntity
  8
0
100
AcDbLine
 10
207.62
 20
632.5
 30
0.0
 11
208.17
 21
632.5
 31
0.0
  0
LINE
  5
475
330
1E
100
AcDbEntity
  8
0
100
AcDbLine
 10
206.9199999999999
 20
632.5
 30
0.0
 11
207.62
 21
632.5
 31
0.0
  0
LINE
  5
476
330
1E
100
AcDbEntity
  8
0
100
AcDbLine
 10
206.32
 20
632.5
 30
0.0
 11
206.5199999999999
 21
632.5
 31
0.0
  0
LINE
  5
477
330
1E
100
AcDbEntity
  8
0
100
AcDbLine
 10
206.02
 20
633.0
 30
0.0
 11
206.42
 21
633.0
 31
0.0
  0
LINE
  5
478
330
1E
100
AcDbEntity
  8
0
100
AcDbLine
 10
206.42
 20
633.0
 30
0.0
 11
207.12
 21
633.0
 31
0.0
  0
LINE
  5
479
330
1E
100
AcDbEntity
  8
0
100
AcDbLine
 10
207.12
 20
633.0
 30
0.0
 11
207.8199999999999
 21
633.0
 31
0.0
  0
LINE
  5
47A
330
1E
100
AcDbEntity
  8
0
100
AcDbLine
 10
207.8199999999999
 20
633.0
 30
0.0
 11
208.32
 21
633.0
 31
0.0
  0
LINE
  5
47C
330
1E
100
AcDbEntity
  8
0
100
AcDbLine
 10
208.32
 20
633.0
 30
0.0
 11
229.82
 21
633.0
 31
0.0
  0
LINE
  5
47D
330
1E
100
AcDbEntity
  8
0
100
AcDbLine
 10
212.492
 20
654.9680000000001
 30
0.0
 11
215.8199999999999
 21
654.4999999999999
 31
0.0
  0
LINE
  5
47E
330
1E
100
AcDbEntity
  8
0
100
AcDbLine
 10
215.8199999999999
 20
654.4999999999999
 30
0.0
 11
219.1479999999999
 21
654.9680000000001
 31
0.0
  0
LINE
  5
47F
330
1E
100
AcDbEntity
  8
0
100
AcDbLine
 10
212.3699999999999
 20
654.3999999999999
 30
0.0
 11
215.8199999999999
 21
654.0
 31
0.0
  0
LINE
  5
480
330
1E
100
AcDbEntity
  8
0
100
AcDbLine
 10
209.16
 20
655.4999999999999
 30
0.0
 11
212.3699999999999
 21
654.3999999999999
 31
0.0
  0
LINE
  5
481
330
1E
100
AcDbEntity
  8
0
100
AcDbLine
 10
209.372
 20
656.216
 30
0.0
 11
212.492
 21
654.9680000000001
 31
0.0
  0
LINE
  5
482
330
1E
100
AcDbEntity
  8
0
100
AcDbLine
 10
208.3250999999999
 20
656.0369999999998
 30
0.0
 11
209.16
 21
655.4999999999999
 31
0.0
  0
LINE
  5
483
330
1E
100
AcDbEntity
  8
0
100
AcDbLine
 10
207.8268
 20
656.461
 30
0.0
 11
208.3250999999999
 21
656.0369999999998
 31
0.0
  0
LINE
  5
484
330
1E
100
AcDbEntity
  8
0
100
AcDbLine
 10
207.1254999999999
 20
657.052
 30
0.0
 11
207.8268
 21
656.461
 31
0.0
  0
LINE
  5
485
330
1E
100
AcDbEntity
  8
0
100
AcDbLine
 10
206.5717999999999
 20
657.643
 30
0.0
 11
207.1254999999999
 21
657.052
 31
0.0
  0
LINE
  5
486
330
1E
100
AcDbEntity
  8
0
100
AcDbLine
 10
206.6159999999999
 20
676.7039999999999
 30
0.0
 11
209.372
 21
678.784
 31
0.0
  0
LINE
  5
487
330
1E
100
AcDbEntity
  8
0
100
AcDbLine
 10
206.6159999999999
 20
658.296
 30
0.0
 11
209.372
 21
656.216
 31
0.0
  0
LINE
  5
488
330
1E
100
AcDbEntity
  8
0
100
AcDbLine
 10
206.5717999999999
 20
677.3569999999999
 30
0.0
 11
207.1254999999999
 21
677.9479999999999
 31
0.0
  0
LINE
  5
489
330
1E
100
AcDbEntity
  8
0
100
AcDbLine
 10
207.1254999999999
 20
677.9479999999999
 30
0.0
 11
207.8268
 21
678.5389999999999
 31
0.0
  0
LINE
  5
48A
330
1E
100
AcDbEntity
  8
0
100
AcDbLine
 10
207.8268
 20
678.5389999999999
 30
0.0
 11
208.3250999999999
 21
678.963
 31
0.0
  0
LINE
  5
48B
330
1E
100
AcDbEntity
  8
0
100
AcDbLine
 10
209.372
 20
678.784
 30
0.0
 11
212.492
 21
680.0319999999999
 31
0.0
  0
LINE
  5
48C
330
1E
100
AcDbEntity
  8
0
100
AcDbLine
 10
208.3250999999999
 20
678.963
 30
0.0
 11
209.16
 21
679.4999999999999
 31
0.0
  0
LINE
  5
48D
330
1E
100
AcDbEntity
  8
0
100
AcDbLine
 10
209.16
 20
679.4999999999999
 30
0.0
 11
212.3699999999999
 21
680.6
 31
0.0
  0
LINE
  5
48E
330
1E
100
AcDbEntity
  8
0
100
AcDbLine
 10
215.8199999999999
 20
680.4999999999999
 30
0.0
 11
219.1479999999999
 21
680.0319999999999
 31
0.0
  0
LINE
  5
48F
330
1E
100
AcDbEntity
  8
0
100
AcDbLine
 10
212.492
 20
680.0319999999999
 30
0.0
 11
215.8199999999999
 21
680.4999999999999
 31
0.0
  0
LINE
  5
490
330
1E
100
AcDbEntity
  8
0
100
AcDbLine
 10
212.3699999999999
 20
680.6
 30
0.0
 11
215.8199999999999
 21
681.0
 31
0.0
  0
LINE
  5
491
330
1E
100
AcDbEntity
  8
0
100
AcDbLine
 10
206.02
 20
702.0
 30
0.0
 11
206.42
 21
702.0
 31
0.0
  0
LINE
  5
492
330
1E
100
AcDbEntity
  8
0
100
AcDbLine
 10
206.42
 20
702.0
 30
0.0
 11
207.12
 21
702.0
 31
0.0
  0
LINE
  5
493
330
1E
100
AcDbEntity
  8
0
100
AcDbLine
 10
207.12
 20
702.0
 30
0.0
 11
207.8199999999999
 21
702.0
 31
0.0
  0
LINE
  5
494
330
1E
100
AcDbEntity
  8
0
100
AcDbLine
 10
206.32
 20
702.5
 30
0.0
 11
206.5199999999999
 21
702.5
 31
0.0
  0
LINE
  5
495
330
1E
100
AcDbEntity
  8
0
100
AcDbLine
 10
206.5199999999999
 20
702.5
 30
0.0
 11
206.9199999999999
 21
702.5
 31
0.0
  0
LINE
  5
496
330
1E
100
AcDbEntity
  8
0
100
AcDbLine
 10
206.9199999999999
 20
702.5
 30
0.0
 11
207.62
 21
702.5
 31
0.0
  0
LINE
  5
497
330
1E
100
AcDbEntity
  8
0
100
AcDbLine
 10
207.62
 20
702.5
 30
0.0
 11
208.17
 21
702.5
 31
0.0
  0
LINE
  5
498
330
1E
100
AcDbEntity
  8
0
100
AcDbLine
 10
208.17
 20
702.5
 30
0.0
 11
208.5199999999999
 21
702.5
 31
0.0
  0
LINE
  5
499
330
1E
100
AcDbEntity
  8
0
100
AcDbLine
 10
207.8199999999999
 20
702.0
 30
0.0
 11
208.32
 21
702.0
 31
0.0
  0
LINE
  5
49A
330
1E
100
AcDbEntity
  8
0
100
AcDbLine
 10
208.5199999999999
 20
702.5
 30
0.0
 11
229.32
 21
702.5
 31
0.0
  0
LINE
  5
49B
330
1E
100
AcDbEntity
  8
0
100
AcDbLine
 10
208.32
 20
702.0
 30
0.0
 11
229.82
 21
702.0
 31
0.0
  0
LINE
  5
49D
330
1E
100
AcDbEntity
  8
0
100
AcDbLine
 10
215.8199999999999
 20
681.0
 30
0.0
 11
219.3486
 21
680.538
 31
0.0
  0
LINE
  5
49E
330
1E
100
AcDbEntity
  8
0
100
AcDbLine
 10
206.0112
 20
676.717
 30
0.0
 11
206.5717999999999
 21
677.3569999999999
 31
0.0
  0
LINE
  5
49F
330
1E
100
AcDbEntity
  8
0
100
AcDbLine
 10
206.0112
 20
658.283
 30
0.0
 11
206.5717999999999
 21
657.643
 31
0.0
  0
LINE
  5
4A0
330
1E
100
AcDbEntity
  8
0
100
AcDbLine
 10
229.82
 20
633.0
 30
0.0
 11
229.82
 21
483.4999999999999
 31
0.0
  0
LINE
  5
4A1
330
1E
100
AcDbEntity
  8
0
100
AcDbLine
 10
229.82
 20
633.0
 30
0.0
 11
229.82
 21
667.4999999999999
 31
0.0
  0
LINE
  5
4A2
330
1E
100
AcDbEntity
  8
0
100
AcDbLine
 10
219.1479999999999
 20
654.9680000000001
 30
0.0
 11
222.2679999999999
 21
656.216
 31
0.0
  0
LINE
  5
4A3
330
1E
100
AcDbEntity
  8
0
100
AcDbLine
 10
219.1479999999999
 20
680.0319999999999
 30
0.0
 11
222.2679999999999
 21
678.784
 31
0.0
  0
LINE
  5
4A4
330
1E
100
AcDbEntity
  8
0
100
AcDbLine
 10
222.2679999999999
 20
678.784
 30
0.0
 11
225.024
 21
676.7039999999999
 31
0.0
  0
LINE
  5
4A5
330
1E
100
AcDbEntity
  8
0
100
AcDbLine
 10
222.2679999999999
 20
656.216
 30
0.0
 11
225.024
 21
658.296
 31
0.0
  0
LINE
  5
4A6
330
1E
100
AcDbEntity
  8
0
100
AcDbLine
 10
222.5567999999999
 20
679.2899999999999
 30
0.0
 11
225.4084999999999
 21
677.0299999999999
 31
0.0
  0
LINE
  5
4A7
330
1E
100
AcDbEntity
  8
0
100
AcDbLine
 10
219.3486
 20
680.538
 30
0.0
 11
222.5567999999999
 21
679.2899999999999
 31
0.0
  0
LINE
  5
4A8
330
1E
100
AcDbEntity
  8
0
100
AcDbLine
 10
225.024
 20
658.296
 30
0.0
 11
227.104
 21
661.052
 31
0.0
  0
LINE
  5
4A9
330
1E
100
AcDbEntity
  8
0
100
AcDbLine
 10
225.4084999999999
 20
657.97
 30
0.0
 11
227.6066999999999
 21
660.883
 31
0.0
  0
LINE
  5
4AA
330
1E
100
AcDbEntity
  8
0
100
AcDbLine
 10
227.104
 20
661.052
 30
0.0
 11
228.352
 21
664.172
 31
0.0
  0
LINE
  5
4AB
330
1E
100
AcDbEntity
  8
0
100
AcDbLine
 10
227.104
 20
673.948
 30
0.0
 11
228.352
 21
670.828
 31
0.0
  0
LINE
  5
4AC
330
1E
100
AcDbEntity
  8
0
100
AcDbLine
 10
228.352
 20
670.828
 30
0.0
 11
228.8199999999999
 21
667.4999999999999
 31
0.0
  0
LINE
  5
4AD
330
1E
100
AcDbEntity
  8
0
100
AcDbLine
 10
228.352
 20
664.172
 30
0.0
 11
228.8199999999999
 21
667.4999999999999
 31
0.0
  0
LINE
  5
4AE
330
1E
100
AcDbEntity
  8
0
100
AcDbLine
 10
228.8543
 20
670.848
 30
0.0
 11
229.32
 21
667.4999999999999
 31
0.0
  0
LINE
  5
4AF
330
1E
100
AcDbEntity
  8
0
100
AcDbLine
 10
225.024
 20
676.7039999999999
 30
0.0
 11
227.104
 21
673.948
 31
0.0
  0
LINE
  5
4B0
330
1E
100
AcDbEntity
  8
0
100
AcDbLine
 10
225.4084999999999
 20
677.0299999999999
 30
0.0
 11
227.6066999999999
 21
674.1169999999999
 31
0.0
  0
LINE
  5
4B1
330
1E
100
AcDbEntity
  8
0
100
AcDbLine
 10
227.6066999999999
 20
674.1169999999999
 30
0.0
 11
228.8543
 21
670.848
 31
0.0
  0
LINE
  5
4B2
330
1E
100
AcDbEntity
  8
0
100
AcDbLine
 10
229.82
 20
667.4999999999999
 30
0.0
 11
229.82
 21
702.0
 31
0.0
  0
LINE
  5
4B3
330
1E
100
AcDbEntity
  8
0
100
AcDbLine
 10
229.82
 20
667.4999999999999
 30
0.0
 11
229.82
 21
633.0
 31
0.0
  0
LINE
  5
4B4
330
1E
100
AcDbEntity
  8
0
100
AcDbLine
 10
229.82
 20
702.5
 30
0.0
 11
229.82
 21
969.5
 31
0.0
  0
LINE
  5
4B5
330
1E
100
AcDbEntity
  8
0
100
AcDbLine
 10
229.32
 20
702.5
 30
0.0
 11
229.82
 21
702.0
 31
0.0
  0
LINE
  5
4B6
330
1E
100
AcDbEntity
  8
0
100
AcDbLine
 10
229.32
 20
702.5
 30
0.0
 11
229.82
 21
702.5
 31
0.0
  0
LINE
  5
4B7
330
1E
100
AcDbEntity
  8
0
100
AcDbLine
 10
229.82
 20
702.0
 30
0.0
 11
229.82
 21
667.4999999999999
 31
0.0
  0
LINE
  5
4B8
330
1E
100
AcDbEntity
  8
0
100
AcDbLine
 10
229.82
 20
702.0
 30
0.0
 11
229.82
 21
969.5
 31
0.0
  0
LINE
  5
4B9
330
1E
100
AcDbEntity
  8
0
100
AcDbLine
 10
228.8543
 20
664.1519999999999
 30
0.0
 11
229.32
 21
667.4999999999999
 31
0.0
  0
LINE
  5
4BA
330
1E
100
AcDbEntity
  8
0
100
AcDbLine
 10
227.6066999999999
 20
660.883
 30
0.0
 11
228.8543
 21
664.1519999999999
 31
0.0
  0
LINE
  5
4BB
330
1E
100
AcDbEntity
  8
0
100
AcDbLine
 10
222.5567999999999
 20
655.71
 30
0.0
 11
225.4084999999999
 21
657.97
 31
0.0
  0
LINE
  5
4BC
330
1E
100
AcDbEntity
  8
0
100
AcDbLine
 10
219.3486
 20
654.462
 30
0.0
 11
222.5567999999999
 21
655.71
 31
0.0
  0
LINE
  5
4BD
330
1E
100
AcDbEntity
  8
0
100
AcDbLine
 10
215.8199999999999
 20
654.0
 30
0.0
 11
219.3486
 21
654.462
 31
0.0
  0
LINE
  5
4BE
330
1E
100
AcDbEntity
  8
0
100
AcDbLine
 10
206.5199999999999
 20
632.5
 30
0.0
 11
206.9199999999999
 21
632.5
 31
0.0
  0
LINE
  5
4BF
330
1E
100
AcDbEntity
  8
0
100
AcDbLine
 10
205.8199999999999
 20
702.0
 30
0.0
 11
206.32
 21
702.5
 31
0.0
  0
LINE
  5
4C0
330
1E
100
AcDbEntity
  8
0
100
AcDbLine
 10
205.8199999999999
 20
702.0
 30
0.0
 11
205.8199999999999
 21
676.5
 31
0.0
  0
LINE
  5
4C1
330
1E
100
AcDbEntity
  8
0
100
AcDbLine
 10
205.8199999999999
 20
702.0
 30
0.0
 11
206.02
 21
702.0
 31
0.0
  0
LINE
  5
4C2
330
1E
100
AcDbEntity
  8
0
100
AcDbLine
 10
79.4465
 20
843.5299999999999
 30
0.0
 11
79.53619999999999
 21
843.538
 31
0.0
  0
LINE
  5
4C3
330
1E
100
AcDbEntity
  8
0
100
AcDbLine
 10
79.44029999999999
 20
843.745
 30
0.0
 11
79.5288
 21
843.651
 31
0.0
  0
LINE
  5
4C4
330
1E
100
AcDbEntity
  8
0
100
AcDbLine
 10
79.5288
 20
843.651
 30
0.0
 11
79.5638
 21
843.5789999999999
 31
0.0
  0
LINE
  5
4C5
330
1E
100
AcDbEntity
  8
0
100
AcDbLine
 10
100.2863999999999
 20
843.7999999999998
 30
0.0
 11
103.6367999999999
 21
840.1089999999999
 31
0.0
  0
LINE
  5
4C6
330
1E
100
AcDbEntity
  8
0
100
AcDbLine
 10
79.3052
 20
843.5579999999999
 30
0.0
 11
79.4465
 21
843.5299999999999
 31
0.0
  0
LINE
  5
4C7
330
1E
100
AcDbEntity
  8
0
100
AcDbLine
 10
79.2971
 20
843.8589999999999
 30
0.0
 11
79.44029999999999
 21
843.745
 31
0.0
  0
LINE
  5
4C8
330
1E
100
AcDbEntity
  8
0
100
AcDbLine
 10
76.18000000000001
 20
845.1589999999999
 30
0.0
 11
77.80372816138509
 21
844.4177134965789
 31
0.0
  0
LINE
  5
4C9
330
1E
100
AcDbEntity
  8
0
100
AcDbLine
 10
77.78220000000001
 20
844.462
 30
0.0
 11
77.89380284776341
 21
844.6758696290109
 31
0.0
  0
LINE
  5
4CA
330
1E
100
AcDbEntity
  8
0
100
AcDbLine
 10
77.78220000000001
 20
844.462
 30
0.0
 11
77.81719999999999
 21
844.3899999999999
 31
0.0
  0
LINE
  5
4CB
330
1E
100
AcDbEntity
  8
0
100
AcDbLine
 10
77.9058
 20
844.2960000000001
 30
0.0
 11
78.0489
 21
844.1819999999999
 31
0.0
  0
LINE
  5
4CC
330
1E
100
AcDbEntity
  8
0
100
AcDbLine
 10
77.80899999999999
 20
844.5039999999998
 30
0.0
 11
77.89950000000001
 21
844.5110000000001
 31
0.0
  0
LINE
  5
4CD
330
1E
100
AcDbEntity
  8
0
100
AcDbLine
 10
77.89950000000001
 20
844.5110000000001
 30
0.0
 11
78.0399
 21
844.4839999999999
 31
0.0
  0
LINE
  5
4CE
330
1E
100
AcDbEntity
  8
0
100
AcDbLine
 10
78.0399
 20
844.4839999999999
 30
0.0
 11
78.2201
 21
844.428
 31
0.0
  0
LINE
  5
4CF
330
1E
100
AcDbEntity
  8
0
100
AcDbLine
 10
78.2201
 20
844.428
 30
0.0
 11
78.43309999999999
 21
844.3430000000001
 31
0.0
  0
LINE
  5
4D0
330
1E
100
AcDbEntity
  8
0
100
AcDbLine
 10
77.81719999999999
 20
844.3899999999999
 30
0.0
 11
77.9058
 21
844.2960000000001
 31
0.0
  0
LINE
  5
4D1
330
1E
100
AcDbEntity
  8
0
100
AcDbLine
 10
78.0489
 20
844.1819999999999
 30
0.0
 11
78.2312
 21
844.0570000000001
 31
0.0
  0
LINE
  5
4D2
330
1E
100
AcDbEntity
  8
0
100
AcDbLine
 10
95.29389999999999
 20
843.9989999999999
 30
0.0
 11
95.9631
 21
844.7419999999999
 31
0.0
  0
LINE
  5
4D3
330
1E
100
AcDbEntity
  8
0
100
AcDbLine
 10
100.0879999999999
 20
844.016
 30
0.0
 11
100.2863999999999
 21
843.7999999999998
 31
0.0
  0
LINE
  5
4D4
330
1E
100
AcDbEntity
  8
0
100
AcDbLine
 10
79.1147
 20
843.984
 30
0.0
 11
79.2971
 21
843.8589999999999
 31
0.0
  0
LINE
  5
4D6
330
1E
100
AcDbEntity
  8
0
100
AcDbLine
 10
78.8957
 20
844.1139999999998
 30
0.0
 11
79.1147
 21
843.984
 31
0.0
  0
LINE
  5
4D7
330
1E
100
AcDbEntity
  8
0
100
AcDbLine
 10
78.66089999999999
 20
844.2379999999999
 30
0.0
 11
78.8957
 21
844.1139999999998
 31
0.0
  0
LINE
  5
4D8
330
1E
100
AcDbEntity
  8
0
100
AcDbLine
 10
80.70999999999999
 20
844.653
 30
0.0
 11
87.69240000000001
 21
842.7230000000001
 31
0.0
  0
LINE
  5
4DC
330
1E
100
AcDbEntity
  8
0
100
AcDbLine
 10
94.98000000000001
 20
845.6269999999999
 30
0.0
 11
95.9631
 21
844.7419999999999
 31
0.0
  0
LINE
  5
4DD
330
1E
100
AcDbEntity
  8
0
100
AcDbLine
 10
78.43309999999999
 20
844.3430000000001
 30
0.0
 11
78.66089999999999
 21
844.2379999999999
 31
0.0
  0
LINE
  5
4DE
330
1E
100
AcDbEntity
  8
0
100
AcDbLine
 10
78.2312
 20
844.0570000000001
 30
0.0
 11
78.4494
 21
843.927
 31
0.0
  0
LINE
  5
4DF
330
1E
100
AcDbEntity
  8
0
100
AcDbLine
 10
78.4494
 20
843.927
 30
0.0
 11
78.6851
 21
843.8029999999999
 31
0.0
  0
LINE
  5
4E0
330
1E
100
AcDbEntity
  8
0
100
AcDbLine
 10
73.3695
 20
846.0269999999999
 30
0.0
 11
73.6956292819265
 21
846.5488068510831
 31
0.0
  0
LINE
  5
4E1
330
1E
100
AcDbEntity
  8
0
100
AcDbLine
 10
76.64399999999999
 20
846.208
 30
0.0
 11
76.91129338842809
 21
846.7205207293799
 31
0.0
  0
LINE
  5
4E2
330
1E
100
AcDbEntity
  8
0
100
AcDbLine
 10
76.5268
 20
846.1589999999999
 30
0.0
 11
76.6173
 21
846.166
 31
0.0
  0
LINE
  5
4E3
330
1E
100
AcDbEntity
  8
0
100
AcDbLine
 10
76.3863
 20
846.1859999999999
 30
0.0
 11
76.5268
 21
846.1589999999999
 31
0.0
  0
LINE
  5
4E4
330
1E
100
AcDbEntity
  8
0
100
AcDbLine
 10
76.6739699390439
 20
846.265465749933
 30
0.0
 11
80.70999999999999
 21
844.653
 31
0.0
  0
LINE
  5
4E5
330
1E
100
AcDbEntity
  8
0
100
AcDbLine
 10
76.6091
 20
846.2799999999999
 30
0.0
 11
76.64399999999999
 21
846.208
 31
0.0
  0
LINE
  5
4E6
330
1E
100
AcDbEntity
  8
0
100
AcDbLine
 10
76.2061
 20
846.2419999999999
 30
0.0
 11
76.3863
 21
846.1859999999999
 31
0.0
  0
LINE
  5
4E7
330
1E
100
AcDbEntity
  8
0
100
AcDbLine
 10
73.25749999999999
 20
846.0969999999999
 30
0.0
 11
73.33899999999999
 21
846.0460000000001
 31
0.0
  0
LINE
  5
4E8
330
1E
100
AcDbEntity
  8
0
100
AcDbLine
 10
73.6607497998077
 20
846.5607996796919
 30
0.0
 11
76.18000000000001
 21
845.1589999999999
 31
0.0
  0
LINE
  5
4E9
330
1E
100
AcDbEntity
  8
0
100
AcDbLine
 10
74.6849
 20
846.5049999999999
 30
0.0
 11
75.62392522872729
 21
846.0932703780009
 31
0.0
  0
LINE
  5
4EA
330
1E
100
AcDbEntity
  8
0
100
AcDbLine
 10
74.0847
 20
847.0449999999999
 30
0.0
 11
74.6653697213499
 21
846.7899186682659
 31
0.0
  0
LINE
  5
4EB
330
1E
100
AcDbEntity
  8
0
100
AcDbLine
 10
74.89740000000001
 20
847.0189999999998
 30
0.0
 11
74.986
 21
846.9239999999999
 31
0.0
  0
LINE
  5
4EC
330
1E
100
AcDbEntity
  8
0
100
AcDbLine
 10
74.986
 20
846.9239999999999
 30
0.0
 11
75.1292
 21
846.8099999999999
 31
0.0
  0
LINE
  5
4ED
330
1E
100
AcDbEntity
  8
0
100
AcDbLine
 10
75.1292
 20
846.8099999999999
 30
0.0
 11
75.3115
 21
846.686
 31
0.0
  0
LINE
  5
4EE
330
1E
100
AcDbEntity
  8
0
100
AcDbLine
 10
75.3115
 20
846.686
 30
0.0
 11
75.5305
 21
846.5559999999999
 31
0.0
  0
LINE
  5
4EF
330
1E
100
AcDbEntity
  8
0
100
AcDbLine
 10
75.5305
 20
846.5559999999999
 30
0.0
 11
75.76529999999999
 21
846.432
 31
0.0
  0
LINE
  5
4F0
330
1E
100
AcDbEntity
  8
0
100
AcDbLine
 10
75.76529999999999
 20
846.432
 30
0.0
 11
75.9932
 21
846.3269999999999
 31
0.0
  0
LINE
  5
4F1
330
1E
100
AcDbEntity
  8
0
100
AcDbLine
 10
75.9932
 20
846.3269999999999
 30
0.0
 11
76.2061
 21
846.2419999999999
 31
0.0
  0
LINE
  5
4F3
330
1E
100
AcDbEntity
  8
0
100
AcDbLine
 10
94.11839999999999
 20
846.4030000000001
 30
0.0
 11
94.98000000000001
 21
845.6269999999999
 31
0.0
  0
LINE
  5
4F4
330
1E
100
AcDbEntity
  8
0
100
AcDbLine
 10
76.5205
 20
846.3739999999999
 30
0.0
 11
76.6091
 21
846.2799999999999
 31
0.0
  0
LINE
  5
4F5
330
1E
100
AcDbEntity
  8
0
100
AcDbLine
 10
76.37730000000001
 20
846.488
 30
0.0
 11
76.5205
 21
846.3739999999999
 31
0.0
  0
LINE
  5
4F6
330
1E
100
AcDbEntity
  8
0
100
AcDbLine
 10
76.19499999999999
 20
846.612
 30
0.0
 11
76.37730000000001
 21
846.488
 31
0.0
  0
LINE
  5
4F7
330
1E
100
AcDbEntity
  8
0
100
AcDbLine
 10
75.9768
 20
846.743
 30
0.0
 11
76.19499999999999
 21
846.612
 31
0.0
  0
LINE
  5
4F8
330
1E
100
AcDbEntity
  8
0
100
AcDbLine
 10
75.7412
 20
846.8660000000001
 30
0.0
 11
75.9768
 21
846.743
 31
0.0
  0
LINE
  5
4F9
330
1E
100
AcDbEntity
  8
0
100
AcDbLine
 10
75.5142
 20
846.971
 30
0.0
 11
75.7412
 21
846.8660000000001
 31
0.0
  0
LINE
  5
4FA
330
1E
100
AcDbEntity
  8
0
100
AcDbLine
 10
74.86239999999999
 20
847.09
 30
0.0
 11
74.8901
 21
847.132
 31
0.0
  0
LINE
  5
4FB
330
1E
100
AcDbEntity
  8
0
100
AcDbLine
 10
74.86239999999999
 20
847.09
 30
0.0
 11
75.08041148667849
 21
847.5080253272361
 31
0.0
  0
LINE
  5
4FC
330
1E
100
AcDbEntity
  8
0
100
AcDbLine
 10
74.86239999999999
 20
847.09
 30
0.0
 11
74.89740000000001
 21
847.0189999999998
 31
0.0
  0
LINE
  5
4FD
330
1E
100
AcDbEntity
  8
0
100
AcDbLine
 10
75.3012
 20
847.056
 30
0.0
 11
75.5142
 21
846.971
 31
0.0
  0
LINE
  5
4FE
330
1E
100
AcDbEntity
  8
0
100
AcDbLine
 10
72.9427
 20
846.293
 30
0.0
 11
73.12260000000001
 21
846.1809999999999
 31
0.0
  0
LINE
  5
4FF
330
1E
100
AcDbEntity
  8
0
100
AcDbLine
 10
72.73899999999999
 20
846.4210000000001
 30
0.0
 11
72.9427
 21
846.293
 31
0.0
  0
LINE
  5
500
330
1E
100
AcDbEntity
  8
0
100
AcDbLine
 10
74.8901
 20
847.132
 30
0.0
 11
74.97969999999999
 21
847.1399999999999
 31
0.0
  0
LINE
  5
501
330
1E
100
AcDbEntity
  8
0
100
AcDbLine
 10
71.73329999999999
 20
847.1630000000001
 30
0.0
 11
71.9055
 21
847.0449999999999
 31
0.0
  0
LINE
  5
502
330
1E
100
AcDbEntity
  8
0
100
AcDbLine
 10
71.52840000000001
 20
847.2979999999999
 30
0.0
 11
71.73329999999999
 21
847.1630000000001
 31
0.0
  0
LINE
  5
503
330
1E
100
AcDbEntity
  8
0
100
AcDbLine
 10
74.97969999999999
 20
847.1399999999999
 30
0.0
 11
75.12100000000001
 21
847.1119999999999
 31
0.0
  0
LINE
  5
505
330
1E
100
AcDbEntity
  8
0
100
AcDbLine
 10
93.2037
 20
847.2260000000002
 30
0.0
 11
94.11839999999999
 21
846.4030000000001
 31
0.0
  0
LINE
  5
506
330
1E
100
AcDbEntity
  8
0
100
AcDbLine
 10
75.12100000000001
 20
847.1119999999999
 30
0.0
 11
75.3012
 21
847.056
 31
0.0
  0
LINE
  5
507
330
1E
100
AcDbEntity
  8
0
100
AcDbLine
 10
71.6834
 20
847.1019999999999
 30
0.0
 11
71.8618
 21
846.9969999999999
 31
0.0
  0
LINE
  5
508
330
1E
100
AcDbEntity
  8
0
100
AcDbLine
 10
71.47899999999999
 20
847.2260000000002
 30
0.0
 11
71.6834
 21
847.1019999999999
 31
0.0
  0
LINE
  5
509
330
1E
100
AcDbEntity
  8
0
100
AcDbLine
 10
70.0572
 20
848.306
 30
0.0
 11
70.4440610834512
 21
848.8946709047221
 31
0.0
  0
LINE
  5
50A
330
1E
100
AcDbEntity
  8
0
100
AcDbLine
 10
70.5675
 20
847.8810000000001
 30
0.0
 11
70.71169999999999
 21
847.8010000000001
 31
0.0
  0
LINE
  5
50B
330
1E
100
AcDbEntity
  8
0
100
AcDbLine
 10
70.4765
 20
847.926
 30
0.0
 11
70.5675
 21
847.8810000000001
 31
0.0
  0
LINE
  5
50C
330
1E
100
AcDbEntity
  8
0
100
AcDbLine
 10
70.46330000000001
 20
847.907
 30
0.0
 11
70.5425
 21
847.8439999999999
 31
0.0
  0
LINE
  5
50D
330
1E
100
AcDbEntity
  8
0
100
AcDbLine
 10
70.4437
 20
847.933
 30
0.0
 11
70.6454689403147
 21
848.2515428088769
 31
0.0
  0
LINE
  5
50E
330
1E
100
AcDbEntity
  8
0
100
AcDbLine
 10
70.4437
 20
847.933
 30
0.0
 11
70.7359477171517
 21
848.3943862201201
 31
0.0
  0
LINE
  5
50F
330
1E
100
AcDbEntity
  8
0
100
AcDbLine
 10
70.5425
 20
847.8439999999999
 30
0.0
 11
70.6681
 21
847.7539999999999
 31
0.0
  0
LINE
  5
510
330
1E
100
AcDbEntity
  8
0
100
AcDbLine
 10
70.71169999999999
 20
847.8010000000001
 30
0.0
 11
70.89109999999999
 21
847.696
 31
0.0
  0
LINE
  5
511
330
1E
100
AcDbEntity
  8
0
100
AcDbLine
 10
70.89109999999999
 20
847.696
 30
0.0
 11
71.0946
 21
847.572
 31
0.0
  0
LINE
  5
512
330
1E
100
AcDbEntity
  8
0
100
AcDbLine
 10
70.8403
 20
847.6360000000001
 30
0.0
 11
71.04519999999999
 21
847.5010000000001
 31
0.0
  0
LINE
  5
513
330
1E
100
AcDbEntity
  8
0
100
AcDbLine
 10
71.0946
 20
847.572
 30
0.0
 11
71.3117
 21
847.436
 31
0.0
  0
LINE
  5
514
330
1E
100
AcDbEntity
  8
0
100
AcDbLine
 10
70.6681
 20
847.7539999999999
 30
0.0
 11
70.8403
 21
847.6360000000001
 31
0.0
  0
LINE
  5
515
330
1E
100
AcDbEntity
  8
0
100
AcDbLine
 10
71.04519999999999
 20
847.5010000000001
 30
0.0
 11
71.26179999999999
 21
847.362
 31
0.0
  0
LINE
  5
516
330
1E
100
AcDbEntity
  8
0
100
AcDbLine
 10
73.5764
 20
847.503
 30
0.0
 11
74.9624540741612
 21
846.949246760211
 31
0.0
  0
LINE
  5
517
330
1E
100
AcDbEntity
  8
0
100
AcDbLine
 10
71.3117
 20
847.436
 30
0.0
 11
71.52840000000001
 21
847.2979999999999
 31
0.0
  0
LINE
  5
51A
330
1E
100
AcDbEntity
  8
0
100
AcDbLine
 10
71.26179999999999
 20
847.362
 30
0.0
 11
71.47899999999999
 21
847.2260000000002
 31
0.0
  0
LINE
  5
51B
330
1E
100
AcDbEntity
  8
0
100
AcDbLine
 10
91.9045
 20
848.3960000000001
 30
0.0
 11
93.2037
 21
847.2260000000002
 31
0.0
  0
LINE
  5
51C
330
1E
100
AcDbEntity
  8
0
100
AcDbLine
 10
70.18228663659479
 20
848.4963392889149
 30
0.0
 11
70.63941115687791
 21
848.241979080443
 31
0.0
  0
LINE
  5
51D
330
1E
100
AcDbEntity
  8
0
100
AcDbLine
 10
69.9717
 20
848.413
 30
0.0
 11
70.0399
 21
848.3439999999999
 31
0.0
  0
LINE
  5
51E
330
1E
100
AcDbEntity
  8
0
100
AcDbLine
 10
69.84910000000001
 20
848.515
 30
0.0
 11
69.9717
 21
848.413
 31
0.0
  0
LINE
  5
51F
330
1E
100
AcDbEntity
  8
0
100
AcDbLine
 10
69.9163
 20
848.3450000000001
 30
0.0
 11
70.01560000000001
 21
848.306
 31
0.0
  0
LINE
  5
520
330
1E
100
AcDbEntity
  8
0
100
AcDbLine
 10
69.7718
 20
848.4189999999999
 30
0.0
 11
69.9163
 21
848.3450000000001
 31
0.0
  0
LINE
  5
521
330
1E
100
AcDbEntity
  8
0
100
AcDbLine
 10
68.4036
 20
849.3660000000001
 30
0.0
 11
68.47159999999999
 21
849.2969999999999
 31
0.0
  0
LINE
  5
522
330
1E
100
AcDbEntity
  8
0
100
AcDbLine
 10
68.4276
 20
849.4049999999999
 30
0.0
 11
68.52719999999999
 21
849.3639999999999
 31
0.0
  0
LINE
  5
523
330
1E
100
AcDbEntity
  8
0
100
AcDbLine
 10
68.38630000000001
 20
849.404
 30
0.0
 11
68.4304278585215
 21
849.471135311073
 31
0.0
  0
LINE
  5
524
330
1E
100
AcDbEntity
  8
0
100
AcDbLine
 10
68.38630000000001
 20
849.404
 30
0.0
 11
68.7477307765911
 21
849.9538741255701
 31
0.0
  0
LINE
  5
525
330
1E
100
AcDbEntity
  8
0
100
AcDbLine
 10
68.52719999999999
 20
849.3639999999999
 30
0.0
 11
68.67149999999999
 21
849.291
 31
0.0
  0
LINE
  5
526
330
1E
100
AcDbEntity
  8
0
100
AcDbLine
 10
68.47159999999999
 20
849.2969999999999
 30
0.0
 11
68.5938
 21
849.195
 31
0.0
  0
LINE
  5
527
330
1E
100
AcDbEntity
  8
0
100
AcDbLine
 10
68.67149999999999
 20
849.291
 30
0.0
 11
68.8501
 21
849.1900000000001
 31
0.0
  0
LINE
  5
528
330
1E
100
AcDbEntity
  8
0
100
AcDbLine
 10
68.75499999999999
 20
849.0719999999999
 30
0.0
 11
68.95369999999999
 21
848.9309999999999
 31
0.0
  0
LINE
  5
529
330
1E
100
AcDbEntity
  8
0
100
AcDbLine
 10
69.05549999999999
 20
849.0639999999999
 30
0.0
 11
69.2711
 21
848.9259999999999
 31
0.0
  0
LINE
  5
52A
330
1E
100
AcDbEntity
  8
0
100
AcDbLine
 10
68.8501
 20
849.1900000000001
 30
0.0
 11
69.05549999999999
 21
849.0639999999999
 31
0.0
  0
LINE
  5
52B
330
1E
100
AcDbEntity
  8
0
100
AcDbLine
 10
68.5938
 20
849.195
 30
0.0
 11
68.75499999999999
 21
849.0719999999999
 31
0.0
  0
LINE
  5
52C
330
1E
100
AcDbEntity
  8
0
100
AcDbLine
 10
68.95369999999999
 20
848.9309999999999
 30
0.0
 11
69.1722
 21
848.784
 31
0.0
  0
LINE
  5
52D
330
1E
100
AcDbEntity
  8
0
100
AcDbLine
 10
69.48959999999999
 20
848.779
 30
0.0
 11
69.6884
 21
848.638
 31
0.0
  0
LINE
  5
52E
330
1E
100
AcDbEntity
  8
0
100
AcDbLine
 10
69.2711
 20
848.9259999999999
 30
0.0
 11
69.48959999999999
 21
848.779
 31
0.0
  0
LINE
  5
52F
330
1E
100
AcDbEntity
  8
0
100
AcDbLine
 10
69.1722
 20
848.784
 30
0.0
 11
69.3878
 21
848.6460000000001
 31
0.0
  0
LINE
  5
530
330
1E
100
AcDbEntity
  8
0
100
AcDbLine
 10
69.3878
 20
848.6460000000001
 30
0.0
 11
69.59319999999999
 21
848.52
 31
0.0
  0
LINE
  5
531
330
1E
100
AcDbEntity
  8
0
100
AcDbLine
 10
70.29128703739729
 20
848.899347150413
 30
0.0
 11
74.6849
 21
846.5049999999999
 31
0.0
  0
LINE
  5
532
330
1E
100
AcDbEntity
  8
0
100
AcDbLine
 10
69.6884
 20
848.638
 30
0.0
 11
69.84910000000001
 21
848.515
 31
0.0
  0
LINE
  5
533
330
1E
100
AcDbEntity
  8
0
100
AcDbLine
 10
70.5274
 20
850.9939999999998
 30
0.0
 11
70.6078
 21
850.882
 31
0.0
  0
LINE
  5
534
330
1E
100
AcDbEntity
  8
0
100
AcDbLine
 10
70.5044
 20
851.0810000000001
 30
0.0
 11
70.5451
 21
851.133
 31
0.0
  0
LINE
  5
535
330
1E
100
AcDbEntity
  8
0
100
AcDbLine
 10
70.5044
 20
851.0810000000001
 30
0.0
 11
70.90383052486349
 21
851.750672564593
 31
0.0
  0
LINE
  5
536
330
1E
100
AcDbEntity
  8
0
100
AcDbLine
 10
70.5044
 20
851.0810000000001
 30
0.0
 11
70.5274
 21
850.9939999999998
 31
0.0
  0
LINE
  5
537
330
1E
100
AcDbEntity
  8
0
100
AcDbLine
 10
70.73579999999999
 20
850.7510000000001
 30
0.0
 11
70.90959999999999
 21
850.6099999999999
 31
0.0
  0
LINE
  5
538
330
1E
100
AcDbEntity
  8
0
100
AcDbLine
 10
70.6078
 20
850.882
 30
0.0
 11
70.73579999999999
 21
850.7510000000001
 31
0.0
  0
LINE
  5
539
330
1E
100
AcDbEntity
  8
0
100
AcDbLine
 10
70.5451
 20
851.133
 30
0.0
 11
70.6413
 21
851.1460000000001
 31
0.0
  0
LINE
  5
53A
330
1E
100
AcDbEntity
  8
0
100
AcDbLine
 10
70.6413
 20
851.1460000000001
 30
0.0
 11
70.78319999999999
 21
851.1239999999999
 31
0.0
  0
LINE
  5
53B
330
1E
100
AcDbEntity
  8
0
100
AcDbLine
 10
70.90959999999999
 20
850.6099999999999
 30
0.0
 11
71.11239999999999
 21
850.467
 31
0.0
  0
LINE
  5
53C
330
1E
100
AcDbEntity
  8
0
100
AcDbLine
 10
71.11239999999999
 20
850.467
 30
0.0
 11
71.3389
 21
850.3300000000001
 31
0.0
  0
LINE
  5
53D
330
1E
100
AcDbEntity
  8
0
100
AcDbLine
 10
71.3389
 20
850.3300000000001
 30
0.0
 11
71.5685
 21
850.211
 31
0.0
  0
LINE
  5
53E
330
1E
100
AcDbEntity
  8
0
100
AcDbLine
 10
71.5685
 20
850.211
 30
0.0
 11
71.7781
 21
850.1219999999999
 31
0.0
  0
LINE
  5
53F
330
1E
100
AcDbEntity
  8
0
100
AcDbLine
 10
71.7781
 20
850.1219999999999
 30
0.0
 11
71.9621
 21
850.0629999999999
 31
0.0
  0
LINE
  5
540
330
1E
100
AcDbEntity
  8
0
100
AcDbLine
 10
71.8364
 20
850.577
 30
0.0
 11
72.0099
 21
850.436
 31
0.0
  0
LINE
  5
541
330
1E
100
AcDbEntity
  8
0
100
AcDbLine
 10
71.6335
 20
850.72
 30
0.0
 11
71.8364
 21
850.577
 31
0.0
  0
LINE
  5
542
330
1E
100
AcDbEntity
  8
0
100
AcDbLine
 10
71.40609999999999
 20
850.858
 30
0.0
 11
71.6335
 21
850.72
 31
0.0
  0
LINE
  5
543
330
1E
100
AcDbEntity
  8
0
100
AcDbLine
 10
71.17699999999999
 20
850.9760000000001
 30
0.0
 11
71.40609999999999
 21
850.858
 31
0.0
  0
LINE
  5
544
330
1E
100
AcDbEntity
  8
0
100
AcDbLine
 10
70.9676
 20
851.065
 30
0.0
 11
71.17699999999999
 21
850.9760000000001
 31
0.0
  0
LINE
  5
545
330
1E
100
AcDbEntity
  8
0
100
AcDbLine
 10
70.78319999999999
 20
851.1239999999999
 30
0.0
 11
70.9676
 21
851.065
 31
0.0
  0
LINE
  5
546
330
1E
100
AcDbEntity
  8
0
100
AcDbLine
 10
90.27790000000001
 20
849.8610000000001
 30
0.0
 11
91.9045
 21
848.3960000000001
 31
0.0
  0
LINE
  5
548
330
1E
100
AcDbEntity
  8
0
100
AcDbLine
 10
72.2008
 20
850.0539999999999
 30
0.0
 11
72.2411
 21
850.106
 31
0.0
  0
LINE
  5
549
330
1E
100
AcDbEntity
  8
0
100
AcDbLine
 10
72.1044
 20
850.041
 30
0.0
 11
72.2008
 21
850.0539999999999
 31
0.0
  0
LINE
  5
54A
330
1E
100
AcDbEntity
  8
0
100
AcDbLine
 10
72.0099
 20
850.436
 30
0.0
 11
72.138
 21
850.3049999999999
 31
0.0
  0
LINE
  5
54B
330
1E
100
AcDbEntity
  8
0
100
AcDbLine
 10
72.138
 20
850.3049999999999
 30
0.0
 11
72.21859999999999
 21
850.1929999999999
 31
0.0
  0
LINE
  5
54C
330
1E
100
AcDbEntity
  8
0
100
AcDbLine
 10
72.21859999999999
 20
850.1929999999999
 30
0.0
 11
72.2411
 21
850.106
 31
0.0
  0
LINE
  5
54E
330
1E
100
AcDbEntity
  8
0
100
AcDbLine
 10
86.07499999999999
 20
853.645
 30
0.0
 11
88.3679
 21
851.581
 31
0.0
  0
LINE
  5
550
330
1E
100
AcDbEntity
  8
0
100
AcDbLine
 10
80.91930000000001
 20
858.2869999999999
 30
0.0
 11
83.56559999999999
 21
855.9049999999999
 31
0.0
  0
LINE
  5
552
330
1E
100
AcDbEntity
  8
0
100
AcDbLine
 10
83.56559999999999
 20
855.9049999999999
 30
0.0
 11
86.07499999999999
 21
853.645
 31
0.0
  0
LINE
  5
555
330
1E
100
AcDbEntity
  8
0
100
AcDbLine
 10
88.3679
 20
851.581
 30
0.0
 11
90.27790000000001
 21
849.8610000000001
 31
0.0
  0
LINE
  5
557
330
1E
100
AcDbEntity
  8
0
100
AcDbLine
 10
72.2411
 20
850.106
 30
0.0
 11
72.5321803823372
 21
850.593770568228
 31
0.0
  0
LINE
  5
558
330
1E
100
AcDbEntity
  8
0
100
AcDbLine
 10
71.9621
 20
850.0629999999999
 30
0.0
 11
72.1044
 21
850.041
 31
0.0
  0
LINE
  5
559
330
1E
100
AcDbEntity
  8
0
100
AcDbLine
 10
69.59319999999999
 20
848.52
 30
0.0
 11
69.7718
 21
848.4189999999999
 31
0.0
  0
LINE
  5
55A
330
1E
100
AcDbEntity
  8
0
100
AcDbLine
 10
51.5661033695472
 20
861.016053436289
 30
0.0
 11
59.02598730971329
 21
855.914378481118
 31
0.0
  0
LINE
  5
55B
330
1E
100
AcDbEntity
  8
0
100
AcDbLine
 10
50.94
 20
861.016
 30
0.0
 11
51.11600000000001
 21
860.9060000000001
 31
0.0
  0
LINE
  5
55C
330
1E
100
AcDbEntity
  8
0
100
AcDbLine
 10
51.204
 20
861.0139999999999
 30
0.0
 11
51.3164
 21
860.9060000000001
 31
0.0
  0
LINE
  5
55D
330
1E
100
AcDbEntity
  8
0
100
AcDbLine
 10
49.5476
 20
861.0
 30
0.0
 11
50.0458048887714
 21
861.6551318109229
 31
0.0
  0
LINE
  5
55E
330
1E
100
AcDbEntity
  8
0
100
AcDbLine
 10
50.1336
 20
861.6100000000001
 30
0.0
 11
50.3187
 21
861.461
 31
0.0
  0
LINE
  5
55F
330
1E
100
AcDbEntity
  8
0
100
AcDbLine
 10
50.3187
 20
861.461
 30
0.0
 11
50.5282
 21
861.303
 31
0.0
  0
LINE
  5
560
330
1E
100
AcDbEntity
  8
0
100
AcDbLine
 10
50.5282
 20
861.303
 30
0.0
 11
50.7423
 21
861.1499999999999
 31
0.0
  0
LINE
  5
561
330
1E
100
AcDbEntity
  8
0
100
AcDbLine
 10
50.7423
 20
861.1499999999999
 30
0.0
 11
50.94
 21
861.016
 31
0.0
  0
LINE
  5
562
330
1E
100
AcDbEntity
  8
0
100
AcDbLine
 10
51.0474
 20
861.148
 30
0.0
 11
51.204
 21
861.0139999999999
 31
0.0
  0
LINE
  5
563
330
1E
100
AcDbEntity
  8
0
100
AcDbLine
 10
50.8624
 20
861.297
 30
0.0
 11
51.0474
 21
861.148
 31
0.0
  0
LINE
  5
564
330
1E
100
AcDbEntity
  8
0
100
AcDbLine
 10
50.6528
 20
861.456
 30
0.0
 11
50.8624
 21
861.297
 31
0.0
  0
LINE
  5
565
330
1E
100
AcDbEntity
  8
0
100
AcDbLine
 10
50.4387
 20
861.6089999999999
 30
0.0
 11
50.6528
 21
861.456
 31
0.0
  0
LINE
  5
566
330
1E
100
AcDbEntity
  8
0
100
AcDbLine
 10
49.3192
 20
861.1299999999999
 30
0.0
 11
49.5024
 21
861.012
 31
0.0
  0
LINE
  5
567
330
1E
100
AcDbEntity
  8
0
100
AcDbLine
 10
49.007
 20
861.3489999999998
 30
0.0
 11
49.3192
 21
861.1299999999999
 31
0.0
  0
LINE
  5
568
330
1E
100
AcDbEntity
  8
0
100
AcDbLine
 10
49.977
 20
861.744
 30
0.0
 11
50.1336
 21
861.6100000000001
 31
0.0
  0
LINE
  5
569
330
1E
100
AcDbEntity
  8
0
100
AcDbLine
 10
49.86460000000001
 20
861.852
 30
0.0
 11
49.977
 21
861.744
 31
0.0
  0
LINE
  5
56A
330
1E
100
AcDbEntity
  8
0
100
AcDbLine
 10
49.79729999999999
 20
861.931
 30
0.0
 11
49.86460000000001
 21
861.852
 31
0.0
  0
LINE
  5
56B
330
1E
100
AcDbEntity
  8
0
100
AcDbLine
 10
49.7841
 20
861.973
 30
0.0
 11
50.1955261068291
 21
862.532385962042
 31
0.0
  0
LINE
  5
56C
330
1E
100
AcDbEntity
  8
0
100
AcDbLine
 10
49.8301
 20
861.9709999999999
 30
0.0
 11
49.9269
 21
861.9289999999999
 31
0.0
  0
LINE
  5
56D
330
1E
100
AcDbEntity
  8
0
100
AcDbLine
 10
49.9269
 20
861.9289999999999
 30
0.0
 11
50.0651
 21
861.852
 31
0.0
  0
LINE
  5
56E
330
1E
100
AcDbEntity
  8
0
100
AcDbLine
 10
50.241
 20
861.7419999999999
 30
0.0
 11
50.4387
 21
861.6089999999999
 31
0.0
  0
LINE
  5
56F
330
1E
100
AcDbEntity
  8
0
100
AcDbLine
 10
50.0651
 20
861.852
 30
0.0
 11
50.241
 21
861.7419999999999
 31
0.0
  0
LINE
  5
570
330
1E
100
AcDbEntity
  8
0
100
AcDbLine
 10
56.6161
 20
863.855
 30
0.0
 11
56.8271
 21
863.7529999999999
 31
0.0
  0
LINE
  5
571
330
1E
100
AcDbEntity
  8
0
100
AcDbLine
 10
56.8271
 20
863.7529999999999
 30
0.0
 11
57.00759999999999
 21
863.691
 31
0.0
  0
LINE
  5
572
330
1E
100
AcDbEntity
  8
0
100
AcDbLine
 10
57.00759999999999
 20
863.691
 30
0.0
 11
57.1546
 21
863.6649999999999
 31
0.0
  0
LINE
  5
573
330
1E
100
AcDbEntity
  8
0
100
AcDbLine
 10
49.65250000000001
 20
864.2239999999999
 30
0.0
 11
50.0882679534171
 21
864.763595499657
 31
0.0
  0
LINE
  5
574
330
1E
100
AcDbEntity
  8
0
100
AcDbLine
 10
49.5572
 20
864.217
 30
0.0
 11
49.62839999999999
 21
864.201
 31
0.0
  0
LINE
  5
575
330
1E
100
AcDbEntity
  8
0
100
AcDbLine
 10
56.1836
 20
864.1379999999999
 30
0.0
 11
56.3942
 21
863.9889999999999
 31
0.0
  0
LINE
  5
576
330
1E
100
AcDbEntity
  8
0
100
AcDbLine
 10
56.3942
 20
863.9889999999999
 30
0.0
 11
56.6161
 21
863.855
 31
0.0
  0
LINE
  5
577
330
1E
100
AcDbEntity
  8
0
100
AcDbLine
 10
49.4365
 20
864.278
 30
0.0
 11
49.5572
 21
864.217
 31
0.0
  0
LINE
  5
578
330
1E
100
AcDbEntity
  8
0
100
AcDbLine
 10
49.2807
 20
864.3730000000001
 30
0.0
 11
49.4365
 21
864.278
 31
0.0
  0
LINE
  5
579
330
1E
100
AcDbEntity
  8
0
100
AcDbLine
 10
49.53649999999999
 20
864.398
 30
0.0
 11
49.622
 21
864.291
 31
0.0
  0
LINE
  5
57A
330
1E
100
AcDbEntity
  8
0
100
AcDbLine
 10
49.622
 20
864.291
 30
0.0
 11
49.65250000000001
 21
864.2239999999999
 31
0.0
  0
LINE
  5
57B
330
1E
100
AcDbEntity
  8
0
100
AcDbLine
 10
55.9907
 20
864.297
 30
0.0
 11
56.1836
 21
864.1379999999999
 31
0.0
  0
LINE
  5
57C
330
1E
100
AcDbEntity
  8
0
100
AcDbLine
 10
56.9452
 20
864.2689999999999
 30
0.0
 11
57.10370000000001
 21
864.1110000000001
 31
0.0
  0
LINE
  5
57D
330
1E
100
AcDbEntity
  8
0
100
AcDbLine
 10
57.10370000000001
 20
864.1110000000001
 30
0.0
 11
57.2228
 21
863.9639999999999
 31
0.0
  0
LINE
  5
57E
330
1E
100
AcDbEntity
  8
0
100
AcDbLine
 10
57.2228
 20
863.9639999999999
 30
0.0
 11
57.2919
 21
863.836
 31
0.0
  0
LINE
  5
57F
330
1E
100
AcDbEntity
  8
0
100
AcDbLine
 10
57.2919
 20
863.836
 30
0.0
 11
57.3006
 21
863.7399999999999
 31
0.0
  0
LINE
  5
580
330
1E
100
AcDbEntity
  8
0
100
AcDbLine
 10
57.252
 20
863.6839999999999
 30
0.0
 11
57.3006
 21
863.7399999999999
 31
0.0
  0
LINE
  5
581
330
1E
100
AcDbEntity
  8
0
100
AcDbLine
 10
57.3006
 20
863.7399999999999
 30
0.0
 11
57.78736294097361
 21
864.4370871287781
 31
0.0
  0
LINE
  5
582
330
1E
100
AcDbEntity
  8
0
100
AcDbLine
 10
57.3006
 20
863.7399999999999
 30
0.0
 11
57.78736294097361
 21
864.4370871287781
 31
0.0
  0
LINE
  5
583
330
1E
100
AcDbEntity
  8
0
100
AcDbLine
 10
57.1546
 20
863.6649999999999
 30
0.0
 11
57.252
 21
863.6839999999999
 31
0.0
  0
LINE
  5
585
330
1E
100
AcDbEntity
  8
0
100
AcDbLine
 10
76.7502
 20
862.0410000000001
 30
0.0
 11
80.91930000000001
 21
858.2869999999999
 31
0.0
  0
LINE
  5
587
330
1E
100
AcDbEntity
  8
0
100
AcDbLine
 10
82.62439999999999
 20
862.134
 30
0.0
 11
100.0879999999999
 21
844.016
 31
0.0
  0
LINE
  5
58A
330
1E
100
AcDbEntity
  8
0
100
AcDbLine
 10
48.60459999999999
 20
861.641
 30
0.0
 11
49.007
 21
861.3489999999998
 31
0.0
  0
LINE
  5
58B
330
1E
100
AcDbEntity
  8
0
100
AcDbLine
 10
48.1373
 20
861.987
 30
0.0
 11
48.60459999999999
 21
861.641
 31
0.0
  0
LINE
  5
58C
330
1E
100
AcDbEntity
  8
0
100
AcDbLine
 10
45.2597
 20
864.8610000000001
 30
0.0
 11
45.50199999999999
 21
864.6139999999999
 31
0.0
  0
LINE
  5
58D
330
1E
100
AcDbEntity
  8
0
100
AcDbLine
 10
47.04959999999999
 20
864.4349999999999
 30
0.0
 11
47.25039999999999
 21
864.2939999999999
 31
0.0
  0
LINE
  5
58E
330
1E
100
AcDbEntity
  8
0
100
AcDbLine
 10
49.0914
 20
864.5039999999999
 30
0.0
 11
49.2807
 21
864.3730000000001
 31
0.0
  0
LINE
  5
58F
330
1E
100
AcDbEntity
  8
0
100
AcDbLine
 10
49.4076
 20
864.5319999999999
 30
0.0
 11
49.53649999999999
 21
864.398
 31
0.0
  0
LINE
  5
590
330
1E
100
AcDbEntity
  8
0
100
AcDbLine
 10
46.83939999999999
 20
864.5939999999999
 30
0.0
 11
47.04959999999999
 21
864.4349999999999
 31
0.0
  0
LINE
  5
591
330
1E
100
AcDbEntity
  8
0
100
AcDbLine
 10
47.3815
 20
864.456
 30
0.0
 11
47.5297
 21
864.3159999999999
 31
0.0
  0
LINE
  5
592
330
1E
100
AcDbEntity
  8
0
100
AcDbLine
 10
55.8321
 20
864.455
 30
0.0
 11
55.9907
 21
864.297
 31
0.0
  0
LINE
  5
593
330
1E
100
AcDbEntity
  8
0
100
AcDbLine
 10
47.2002
 20
864.6119999999999
 30
0.0
 11
47.3815
 21
864.456
 31
0.0
  0
LINE
  5
594
330
1E
100
AcDbEntity
  8
0
100
AcDbLine
 10
55.7132
 20
864.602
 30
0.0
 11
55.8321
 21
864.455
 31
0.0
  0
LINE
  5
595
330
1E
100
AcDbEntity
  8
0
100
AcDbLine
 10
56.7522
 20
864.428
 30
0.0
 11
56.9452
 21
864.2689999999999
 31
0.0
  0
LINE
  5
596
330
1E
100
AcDbEntity
  8
0
100
AcDbLine
 10
56.5416
 20
864.578
 30
0.0
 11
56.7522
 21
864.428
 31
0.0
  0
LINE
  5
597
330
1E
100
AcDbEntity
  8
0
100
AcDbLine
 10
45.87758383800839
 20
864.7543282675011
 30
0.0
 11
52.8511755864694
 21
859.5492704709869
 31
0.0
  0
LINE
  5
598
330
1E
100
AcDbEntity
  8
0
100
AcDbLine
 10
45.9595869230493
 20
864.855372558908
 30
0.0
 11
49.83533655150189
 21
862.042662588683
 31
0.0
  0
LINE
  5
599
330
1E
100
AcDbEntity
  8
0
100
AcDbLine
 10
46.02236444248809
 20
864.932727087276
 30
0.0
 11
49.9250941795087
 21
862.1646994654389
 31
0.0
  0
LINE
  5
59A
330
1E
100
AcDbEntity
  8
0
100
AcDbLine
 10
46.3111
 20
865.052
 30
0.0
 11
46.45929999999999
 21
864.9119999999999
 31
0.0
  0
LINE
  5
59B
330
1E
100
AcDbEntity
  8
0
100
AcDbLine
 10
46.20099999999999
 20
865.169
 30
0.0
 11
46.3111
 21
865.052
 31
0.0
  0
LINE
  5
59C
330
1E
100
AcDbEntity
  8
0
100
AcDbLine
 10
46.1383
 20
865.2549999999999
 30
0.0
 11
46.20099999999999
 21
865.169
 31
0.0
  0
LINE
  5
59D
330
1E
100
AcDbEntity
  8
0
100
AcDbLine
 10
46.45929999999999
 20
864.9119999999999
 30
0.0
 11
46.6406
 21
864.755
 31
0.0
  0
LINE
  5
59E
330
1E
100
AcDbEntity
  8
0
100
AcDbLine
 10
46.6406
 20
864.755
 30
0.0
 11
46.83939999999999
 21
864.5939999999999
 31
0.0
  0
LINE
  5
59F
330
1E
100
AcDbEntity
  8
0
100
AcDbLine
 10
48.88580000000001
 20
864.6589999999999
 30
0.0
 11
49.0914
 21
864.5039999999999
 31
0.0
  0
LINE
  5
5A0
330
1E
100
AcDbEntity
  8
0
100
AcDbLine
 10
49.2454
 20
864.6849999999998
 30
0.0
 11
49.4076
 21
864.5319999999999
 31
0.0
  0
LINE
  5
5A1
330
1E
100
AcDbEntity
  8
0
100
AcDbLine
 10
48.4959
 20
864.985
 30
0.0
 11
48.6851
 21
864.822
 31
0.0
  0
LINE
  5
5A2
330
1E
100
AcDbEntity
  8
0
100
AcDbLine
 10
48.6851
 20
864.822
 30
0.0
 11
48.88580000000001
 21
864.6589999999999
 31
0.0
  0
LINE
  5
5A3
330
1E
100
AcDbEntity
  8
0
100
AcDbLine
 10
49.0561
 20
864.8489999999998
 30
0.0
 11
49.2454
 21
864.6849999999998
 31
0.0
  0
LINE
  5
5A4
330
1E
100
AcDbEntity
  8
0
100
AcDbLine
 10
48.8553
 20
865.0110000000001
 30
0.0
 11
49.0561
 21
864.8489999999998
 31
0.0
  0
LINE
  5
5A5
330
1E
100
AcDbEntity
  8
0
100
AcDbLine
 10
47.0014
 20
864.7730000000001
 30
0.0
 11
47.2002
 21
864.6119999999999
 31
0.0
  0
LINE
  5
5A6
330
1E
100
AcDbEntity
  8
0
100
AcDbLine
 10
46.7912
 20
864.933
 30
0.0
 11
47.0014
 21
864.7730000000001
 31
0.0
  0
LINE
  5
5A7
330
1E
100
AcDbEntity
  8
0
100
AcDbLine
 10
48.33359999999999
 20
865.1380000000001
 30
0.0
 11
48.4959
 21
864.985
 31
0.0
  0
LINE
  5
5A8
330
1E
100
AcDbEntity
  8
0
100
AcDbLine
 10
48.6499
 20
865.1669999999999
 30
0.0
 11
48.8553
 21
865.0110000000001
 31
0.0
  0
LINE
  5
5A9
330
1E
100
AcDbEntity
  8
0
100
AcDbLine
 10
46.59049999999999
 20
865.0739999999998
 30
0.0
 11
46.7912
 21
864.933
 31
0.0
  0
LINE
  5
5AA
330
1E
100
AcDbEntity
  8
0
100
AcDbLine
 10
46.41799999999999
 20
865.1839999999999
 30
0.0
 11
46.59049999999999
 21
865.0739999999998
 31
0.0
  0
LINE
  5
5AB
330
1E
100
AcDbEntity
  8
0
100
AcDbLine
 10
46.1331
 20
865.3
 30
0.0
 11
46.559774111975
 21
865.846525605861
 31
0.0
  0
LINE
  5
5AC
330
1E
100
AcDbEntity
  8
0
100
AcDbLine
 10
48.20479999999999
 20
865.272
 30
0.0
 11
48.33359999999999
 21
865.1380000000001
 31
0.0
  0
LINE
  5
5AD
330
1E
100
AcDbEntity
  8
0
100
AcDbLine
 10
48.1192
 20
865.3789999999998
 30
0.0
 11
48.20479999999999
 21
865.272
 31
0.0
  0
LINE
  5
5AE
330
1E
100
AcDbEntity
  8
0
100
AcDbLine
 10
48.0889
 20
865.446
 30
0.0
 11
48.4948518473508
 21
865.9487156504511
 31
0.0
  0
LINE
  5
5AF
330
1E
100
AcDbEntity
  8
0
100
AcDbLine
 10
48.0889
 20
865.446
 30
0.0
 11
48.1192
 21
865.3789999999998
 31
0.0
  0
LINE
  5
5B0
330
1E
100
AcDbEntity
  8
0
100
AcDbLine
 10
48.4605
 20
865.2969999999999
 30
0.0
 11
48.6499
 21
865.1669999999999
 31
0.0
  0
LINE
  5
5B1
330
1E
100
AcDbEntity
  8
0
100
AcDbLine
 10
48.3047
 20
865.393
 30
0.0
 11
48.4605
 21
865.2969999999999
 31
0.0
  0
LINE
  5
5B2
330
1E
100
AcDbEntity
  8
0
100
AcDbLine
 10
48.1128
 20
865.47
 30
0.0
 11
48.184
 21
865.4529999999999
 31
0.0
  0
LINE
  5
5B3
330
1E
100
AcDbEntity
  8
0
100
AcDbLine
 10
48.184
 20
865.4529999999999
 30
0.0
 11
48.3047
 21
865.393
 31
0.0
  0
LINE
  5
5B4
330
1E
100
AcDbEntity
  8
0
100
AcDbLine
 10
46.1819
 20
865.301
 30
0.0
 11
46.2768
 21
865.263
 31
0.0
  0
LINE
  5
5B5
330
1E
100
AcDbEntity
  8
0
100
AcDbLine
 10
46.2768
 20
865.263
 30
0.0
 11
46.41799999999999
 21
865.1839999999999
 31
0.0
  0
LINE
  5
5B6
330
1E
100
AcDbEntity
  8
0
100
AcDbLine
 10
55.6439
 20
864.731
 30
0.0
 11
55.7132
 21
864.602
 31
0.0
  0
LINE
  5
5B7
330
1E
100
AcDbEntity
  8
0
100
AcDbLine
 10
55.6353
 20
864.827
 30
0.0
 11
55.6839
 21
864.883
 31
0.0
  0
LINE
  5
5B8
330
1E
100
AcDbEntity
  8
0
100
AcDbLine
 10
55.6353
 20
864.827
 30
0.0
 11
56.1336567072372
 21
865.540690416654
 31
0.0
  0
LINE
  5
5B9
330
1E
100
AcDbEntity
  8
0
100
AcDbLine
 10
55.6353
 20
864.827
 30
0.0
 11
55.6439
 21
864.731
 31
0.0
  0
LINE
  5
5BA
330
1E
100
AcDbEntity
  8
0
100
AcDbLine
 10
55.6839
 20
864.883
 30
0.0
 11
55.7814
 21
864.901
 31
0.0
  0
LINE
  5
5BB
330
1E
100
AcDbEntity
  8
0
100
AcDbLine
 10
56.3198
 20
864.7109999999999
 30
0.0
 11
56.5416
 21
864.578
 31
0.0
  0
LINE
  5
5BC
330
1E
100
AcDbEntity
  8
0
100
AcDbLine
 10
56.1087
 20
864.813
 30
0.0
 11
56.3198
 21
864.7109999999999
 31
0.0
  0
LINE
  5
5BD
330
1E
100
AcDbEntity
  8
0
100
AcDbLine
 10
55.9283
 20
864.8749999999999
 30
0.0
 11
56.1087
 21
864.813
 31
0.0
  0
LINE
  5
5BF
330
1E
100
AcDbEntity
  8
0
100
AcDbLine
 10
72.377
 20
865.9789999999999
 30
0.0
 11
76.7502
 21
862.0410000000001
 31
0.0
  0
LINE
  5
5C0
330
1E
100
AcDbEntity
  8
0
100
AcDbLine
 10
55.7814
 20
864.901
 30
0.0
 11
55.9283
 21
864.8749999999999
 31
0.0
  0
LINE
  5
5C1
330
1E
100
AcDbEntity
  8
0
100
AcDbLine
 10
49.52139999999999
 20
866.9969999999999
 30
0.0
 11
49.5737
 21
867.0099999999999
 31
0.0
  0
LINE
  5
5C2
330
1E
100
AcDbEntity
  8
0
100
AcDbLine
 10
49.09539999999999
 20
867.215
 30
0.0
 11
49.275
 21
867.103
 31
0.0
  0
LINE
  5
5C3
330
1E
100
AcDbEntity
  8
0
100
AcDbLine
 10
49.275
 20
867.103
 30
0.0
 11
49.41729999999999
 21
867.031
 31
0.0
  0
LINE
  5
5C4
330
1E
100
AcDbEntity
  8
0
100
AcDbLine
 10
49.41729999999999
 20
867.031
 30
0.0
 11
49.52139999999999
 21
866.9969999999999
 31
0.0
  0
LINE
  5
5C5
330
1E
100
AcDbEntity
  8
0
100
AcDbLine
 10
48.6927
 20
867.5180000000001
 30
0.0
 11
48.8943
 21
867.3589999999999
 31
0.0
  0
LINE
  5
5C6
330
1E
100
AcDbEntity
  8
0
100
AcDbLine
 10
48.8943
 20
867.3589999999999
 30
0.0
 11
49.09539999999999
 21
867.215
 31
0.0
  0
LINE
  5
5C7
330
1E
100
AcDbEntity
  8
0
100
AcDbLine
 10
48.0789
 20
868.13
 30
0.0
 11
48.18229999999999
 21
868.0
 31
0.0
  0
LINE
  5
5C8
330
1E
100
AcDbEntity
  8
0
100
AcDbLine
 10
48.0289
 20
868.2249999999999
 30
0.0
 11
48.0334
 21
868.2769999999999
 31
0.0
  0
LINE
  5
5C9
330
1E
100
AcDbEntity
  8
0
100
AcDbLine
 10
48.0289
 20
868.2249999999999
 30
0.0
 11
48.0789
 21
868.13
 31
0.0
  0
LINE
  5
5CA
330
1E
100
AcDbEntity
  8
0
100
AcDbLine
 10
48.0334
 20
868.2769999999999
 30
0.0
 11
48.0857
 21
868.29
 31
0.0
  0
LINE
  5
5CB
330
1E
100
AcDbEntity
  8
0
100
AcDbLine
 10
48.0334
 20
868.2769999999999
 30
0.0
 11
48.43428937527839
 21
868.765334591899
 31
0.0
  0
LINE
  5
5CC
330
1E
100
AcDbEntity
  8
0
100
AcDbLine
 10
48.3252
 20
867.849
 30
0.0
 11
48.4979
 21
867.6849999999999
 31
0.0
  0
LINE
  5
5CD
330
1E
100
AcDbEntity
  8
0
100
AcDbLine
 10
48.18229999999999
 20
868.0
 30
0.0
 11
48.3252
 21
867.849
 31
0.0
  0
LINE
  5
5CE
330
1E
100
AcDbEntity
  8
0
100
AcDbLine
 10
48.4979
 20
867.6849999999999
 30
0.0
 11
48.6927
 21
867.5180000000001
 31
0.0
  0
LINE
  5
5CF
330
1E
100
AcDbEntity
  8
0
100
AcDbLine
 10
48.9144
 20
867.7689999999998
 30
0.0
 11
49.1092
 21
867.6019999999999
 31
0.0
  0
LINE
  5
5D0
330
1E
100
AcDbEntity
  8
0
100
AcDbLine
 10
48.7128
 20
867.928
 30
0.0
 11
48.9144
 21
867.7689999999998
 31
0.0
  0
LINE
  5
5D1
330
1E
100
AcDbEntity
  8
0
100
AcDbLine
 10
48.51169999999999
 20
868.0710000000001
 30
0.0
 11
48.7128
 21
867.928
 31
0.0
  0
LINE
  5
5D2
330
1E
100
AcDbEntity
  8
0
100
AcDbLine
 10
48.3321
 20
868.1839999999999
 30
0.0
 11
48.51169999999999
 21
868.0710000000001
 31
0.0
  0
LINE
  5
5D3
330
1E
100
AcDbEntity
  8
0
100
AcDbLine
 10
48.18979999999999
 20
868.256
 30
0.0
 11
48.3321
 21
868.1839999999999
 31
0.0
  0
LINE
  5
5D4
330
1E
100
AcDbEntity
  8
0
100
AcDbLine
 10
48.0857
 20
868.29
 30
0.0
 11
48.18979999999999
 21
868.256
 31
0.0
  0
LINE
  5
5D5
330
1E
100
AcDbEntity
  8
0
100
AcDbLine
 10
49.1092
 20
867.6019999999999
 30
0.0
 11
49.2819
 21
867.4379999999999
 31
0.0
  0
LINE
  5
5D6
330
1E
100
AcDbEntity
  8
0
100
AcDbLine
 10
49.2819
 20
867.4379999999999
 30
0.0
 11
49.42479999999999
 21
867.2869999999999
 31
0.0
  0
LINE
  5
5D7
330
1E
100
AcDbEntity
  8
0
100
AcDbLine
 10
49.42479999999999
 20
867.2869999999999
 30
0.0
 11
49.5281
 21
867.1560000000001
 31
0.0
  0
LINE
  5
5D8
330
1E
100
AcDbEntity
  8
0
100
AcDbLine
 10
68.44
 20
869.5239999999998
 30
0.0
 11
72.377
 21
865.9789999999999
 31
0.0
  0
LINE
  5
5D9
330
1E
100
AcDbEntity
  8
0
100
AcDbLine
 10
49.5281
 20
867.1560000000001
 30
0.0
 11
49.5782
 21
867.0619999999999
 31
0.0
  0
LINE
  5
5DA
330
1E
100
AcDbEntity
  8
0
100
AcDbLine
 10
49.5737
 20
867.0099999999999
 30
0.0
 11
50.1365716764408
 21
867.6951451112691
 31
0.0
  0
LINE
  5
5DB
330
1E
100
AcDbEntity
  8
0
100
AcDbLine
 10
49.5737
 20
867.0099999999999
 30
0.0
 11
49.5782
 21
867.0619999999999
 31
0.0
  0
LINE
  5
5DC
330
1E
100
AcDbEntity
  8
0
100
AcDbLine
 10
45.50199999999999
 20
864.6139999999999
 30
0.0
 11
45.6233
 21
864.4580000000001
 31
0.0
  0
LINE
  5
5DD
330
1E
100
AcDbEntity
  8
0
100
AcDbLine
 10
45.4504
 20
864.4810000000001
 30
0.0
 11
45.6022
 21
864.4149999999999
 31
0.0
  0
LINE
  5
5DE
330
1E
100
AcDbEntity
  8
0
100
AcDbLine
 10
45.6022
 20
864.4149999999999
 30
0.0
 11
46.1985853778461
 21
865.1498667172729
 31
0.0
  0
LINE
  5
5DF
330
1E
100
AcDbEntity
  8
0
100
AcDbLine
 10
45.18869999999999
 20
864.6419999999999
 30
0.0
 11
45.4504
 21
864.4810000000001
 31
0.0
  0
LINE
  5
5E0
330
1E
100
AcDbEntity
  8
0
100
AcDbLine
 10
35.567
 20
873.2310000000001
 30
0.0
 11
35.71
 21
873.0310000000001
 31
0.0
  0
LINE
  5
5E1
330
1E
100
AcDbEntity
  8
0
100
AcDbLine
 10
37.509
 20
871.807
 30
0.0
 11
42.0765722039007
 21
867.9542053102499
 31
0.0
  0
LINE
  5
5E2
330
1E
100
AcDbEntity
  8
0
100
AcDbLine
 10
37.509
 20
871.807
 30
0.0
 11
42.0864623367522
 21
867.9663988402529
 31
0.0
  0
LINE
  5
5E3
330
1E
100
AcDbEntity
  8
0
100
AcDbLine
 10
37.509
 20
871.807
 30
0.0
 11
42.08156487935929
 21
867.9603607723571
 31
0.0
  0
LINE
  5
5E4
330
1E
100
AcDbEntity
  8
0
100
AcDbLine
 10
37.509
 20
871.807
 30
0.0
 11
42.06288904624989
 21
867.9373353656441
 31
0.0
  0
LINE
  5
5E5
330
1E
100
AcDbEntity
  8
0
100
AcDbLine
 10
37.249
 20
871.498
 30
0.0
 11
37.72999999999999
 21
871.075
 31
0.0
  0
LINE
  5
5E6
330
1E
100
AcDbEntity
  8
0
100
AcDbLine
 10
37.72999999999999
 20
871.075
 30
0.0
 11
38.18999999999999
 21
870.6889999999999
 31
0.0
  0
LINE
  5
5E7
330
1E
100
AcDbEntity
  8
0
100
AcDbLine
 10
38.68299999999999
 20
872.0080000000001
 30
0.0
 11
38.777
 21
871.968
 31
0.0
  0
LINE
  5
5E8
330
1E
100
AcDbEntity
  8
0
100
AcDbLine
 10
38.777
 20
871.968
 30
0.0
 11
38.82699999999999
 21
871.971
 31
0.0
  0
LINE
  5
5E9
330
1E
100
AcDbEntity
  8
0
100
AcDbLine
 10
38.82699999999999
 20
871.971
 30
0.0
 11
39.23813200892539
 21
872.4277443902931
 31
0.0
  0
LINE
  5
5EA
330
1E
100
AcDbEntity
  8
0
100
AcDbLine
 10
38.82699999999999
 20
871.971
 30
0.0
 11
39.23813200892539
 21
872.4277443902931
 31
0.0
  0
LINE
  5
5EB
330
1E
100
AcDbEntity
  8
0
100
AcDbLine
 10
38.372
 20
872.2180000000001
 30
0.0
 11
38.544
 21
872.093
 31
0.0
  0
LINE
  5
5EC
330
1E
100
AcDbEntity
  8
0
100
AcDbLine
 10
38.544
 20
872.093
 30
0.0
 11
38.68299999999999
 21
872.0080000000001
 31
0.0
  0
LINE
  5
5ED
330
1E
100
AcDbEntity
  8
0
100
AcDbLine
 10
38.676
 20
872.2389999999998
 30
0.0
 11
38.77499999999999
 21
872.1110000000001
 31
0.0
  0
LINE
  5
5EE
330
1E
100
AcDbEntity
  8
0
100
AcDbLine
 10
38.77499999999999
 20
872.1110000000001
 30
0.0
 11
38.824
 21
872.0210000000001
 31
0.0
  0
LINE
  5
5EF
330
1E
100
AcDbEntity
  8
0
100
AcDbLine
 10
38.824
 20
872.0210000000001
 30
0.0
 11
38.82699999999999
 21
871.971
 31
0.0
  0
LINE
  5
5F0
330
1E
100
AcDbEntity
  8
0
100
AcDbLine
 10
38.18999999999999
 20
870.6889999999999
 30
0.0
 11
38.60699999999999
 21
870.3610000000001
 31
0.0
  0
LINE
  5
5F1
330
1E
100
AcDbEntity
  8
0
100
AcDbLine
 10
38.60699999999999
 20
870.3610000000001
 30
0.0
 11
38.935
 21
870.1269999999999
 31
0.0
  0
LINE
  5
5F2
330
1E
100
AcDbEntity
  8
0
100
AcDbLine
 10
38.935
 20
870.1269999999999
 30
0.0
 11
39.148
 21
870.005
 31
0.0
  0
LINE
  5
5F3
330
1E
100
AcDbEntity
  8
0
100
AcDbLine
 10
39.148
 20
870.005
 30
0.0
 11
39.253
 21
869.987
 31
0.0
  0
LINE
  5
5F4
330
1E
100
AcDbEntity
  8
0
100
AcDbLine
 10
36.779
 20
871.9319999999999
 30
0.0
 11
37.249
 21
871.498
 31
0.0
  0
LINE
  5
5F5
330
1E
100
AcDbEntity
  8
0
100
AcDbLine
 10
37.991
 20
872.5369999999999
 30
0.0
 11
38.185
 21
872.3689999999999
 31
0.0
  0
LINE
  5
5F6
330
1E
100
AcDbEntity
  8
0
100
AcDbLine
 10
38.185
 20
872.3689999999999
 30
0.0
 11
38.372
 21
872.2180000000001
 31
0.0
  0
LINE
  5
5F7
330
1E
100
AcDbEntity
  8
0
100
AcDbLine
 10
37.804
 20
872.7119999999999
 30
0.0
 11
37.991
 21
872.5369999999999
 31
0.0
  0
LINE
  5
5F8
330
1E
100
AcDbEntity
  8
0
100
AcDbLine
 10
37.635
 20
872.8819999999998
 30
0.0
 11
37.804
 21
872.7119999999999
 31
0.0
  0
LINE
  5
5F9
330
1E
100
AcDbEntity
  8
0
100
AcDbLine
 10
37.984
 20
872.911
 30
0.0
 11
38.177
 21
872.743
 31
0.0
  0
LINE
  5
5FA
330
1E
100
AcDbEntity
  8
0
100
AcDbLine
 10
38.177
 20
872.743
 30
0.0
 11
38.364
 21
872.568
 31
0.0
  0
LINE
  5
5FB
330
1E
100
AcDbEntity
  8
0
100
AcDbLine
 10
38.364
 20
872.568
 30
0.0
 11
38.533
 21
872.398
 31
0.0
  0
LINE
  5
5FC
330
1E
100
AcDbEntity
  8
0
100
AcDbLine
 10
38.533
 20
872.398
 30
0.0
 11
38.676
 21
872.2389999999998
 31
0.0
  0
LINE
  5
5FD
330
1E
100
AcDbEntity
  8
0
100
AcDbLine
 10
36.347
 20
872.3489999999999
 30
0.0
 11
36.779
 21
871.9319999999999
 31
0.0
  0
LINE
  5
5FE
330
1E
100
AcDbEntity
  8
0
100
AcDbLine
 10
35.97599999999999
 20
872.7289999999999
 30
0.0
 11
36.347
 21
872.3489999999999
 31
0.0
  0
LINE
  5
5FF
330
1E
100
AcDbEntity
  8
0
100
AcDbLine
 10
37.393
 20
873.169
 30
0.0
 11
37.492
 21
873.041
 31
0.0
  0
LINE
  5
600
330
1E
100
AcDbEntity
  8
0
100
AcDbLine
 10
37.344
 20
873.259
 30
0.0
 11
37.393
 21
873.169
 31
0.0
  0
LINE
  5
601
330
1E
100
AcDbEntity
  8
0
100
AcDbLine
 10
37.492
 20
873.041
 30
0.0
 11
37.635
 21
872.8819999999998
 31
0.0
  0
LINE
  5
602
330
1E
100
AcDbEntity
  8
0
100
AcDbLine
 10
37.796
 20
873.062
 30
0.0
 11
37.984
 21
872.911
 31
0.0
  0
LINE
  5
603
330
1E
100
AcDbEntity
  8
0
100
AcDbLine
 10
37.624
 20
873.187
 30
0.0
 11
37.796
 21
873.062
 31
0.0
  0
LINE
  5
604
330
1E
100
AcDbEntity
  8
0
100
AcDbLine
 10
37.48499999999999
 20
873.2719999999998
 30
0.0
 11
37.624
 21
873.187
 31
0.0
  0
LINE
  5
605
330
1E
100
AcDbEntity
  8
0
100
AcDbLine
 10
37.39199999999999
 20
873.3119999999999
 30
0.0
 11
37.48499999999999
 21
873.2719999999998
 31
0.0
  0
LINE
  5
606
330
1E
100
AcDbEntity
  8
0
100
AcDbLine
 10
37.341
 20
873.309
 30
0.0
 11
37.39199999999999
 21
873.3119999999999
 31
0.0
  0
LINE
  5
607
330
1E
100
AcDbEntity
  8
0
100
AcDbLine
 10
37.341
 20
873.309
 30
0.0
 11
37.8176968933505
 21
873.83858326567
 31
0.0
  0
LINE
  5
608
330
1E
100
AcDbEntity
  8
0
100
AcDbLine
 10
37.341
 20
873.309
 30
0.0
 11
37.344
 21
873.259
 31
0.0
  0
LINE
  5
609
330
1E
100
AcDbEntity
  8
0
100
AcDbLine
 10
35.71
 20
873.0310000000001
 30
0.0
 11
35.97599999999999
 21
872.7289999999999
 31
0.0
  0
LINE
  5
60A
330
1E
100
AcDbEntity
  8
0
100
AcDbLine
 10
29.352
 20
879.1089999999998
 30
0.0
 11
29.51999999999999
 21
879.005
 31
0.0
  0
LINE
  5
60B
330
1E
100
AcDbEntity
  8
0
100
AcDbLine
 10
29.311
 20
879.0830000000001
 30
0.0
 11
29.9794236094835
 21
879.753321192477
 31
0.0
  0
LINE
  5
60C
330
1E
100
AcDbEntity
  8
0
100
AcDbLine
 10
29.311
 20
879.0830000000001
 30
0.0
 11
29.393
 21
878.94
 31
0.0
  0
LINE
  5
60D
330
1E
100
AcDbEntity
  8
0
100
AcDbLine
 10
29.58
 20
878.696
 30
0.0
 11
29.875
 21
878.3549999999999
 31
0.0
  0
LINE
  5
60E
330
1E
100
AcDbEntity
  8
0
100
AcDbLine
 10
32.025
 20
876.201
 30
0.0
 11
32.376
 21
875.896
 31
0.0
  0
LINE
  5
60F
330
1E
100
AcDbEntity
  8
0
100
AcDbLine
 10
32.376
 20
875.896
 30
0.0
 11
32.646
 21
875.6809999999999
 31
0.0
  0
LINE
  5
610
330
1E
100
AcDbEntity
  8
0
100
AcDbLine
 10
32.646
 20
875.6809999999999
 30
0.0
 11
32.814
 21
875.576
 31
0.0
  0
LINE
  5
611
330
1E
100
AcDbEntity
  8
0
100
AcDbLine
 10
32.85499999999999
 20
875.6019999999999
 30
0.0
 11
33.539393950881
 21
876.287851141692
 31
0.0
  0
LINE
  5
612
330
1E
100
AcDbEntity
  8
0
100
AcDbLine
 10
34.28399999999999
 20
875.9299999999999
 30
0.0
 11
34.378
 21
875.8839999999999
 31
0.0
  0
LINE
  5
613
330
1E
100
AcDbEntity
  8
0
100
AcDbLine
 10
34.423
 20
875.8880000000001
 30
0.0
 11
35.0598747216344
 21
876.5456574355381
 31
0.0
  0
LINE
  5
614
330
1E
100
AcDbEntity
  8
0
100
AcDbLine
 10
36.36199999999999
 20
875.9349999999999
 30
0.0
 11
36.518
 21
875.825
 31
0.0
  0
LINE
  5
615
330
1E
100
AcDbEntity
  8
0
100
AcDbLine
 10
36.518
 20
875.825
 30
0.0
 11
36.63499999999999
 21
875.7589999999998
 31
0.0
  0
LINE
  5
616
330
1E
100
AcDbEntity
  8
0
100
AcDbLine
 10
36.63499999999999
 20
875.7589999999998
 30
0.0
 11
36.705
 21
875.7410000000001
 31
0.0
  0
LINE
  5
617
330
1E
100
AcDbEntity
  8
0
100
AcDbLine
 10
33.984
 20
876.1510000000001
 30
0.0
 11
34.14699999999999
 21
876.022
 31
0.0
  0
LINE
  5
618
330
1E
100
AcDbEntity
  8
0
100
AcDbLine
 10
34.14699999999999
 20
876.022
 30
0.0
 11
34.28399999999999
 21
875.9299999999999
 31
0.0
  0
LINE
  5
619
330
1E
100
AcDbEntity
  8
0
100
AcDbLine
 10
34.281
 20
876.1569999999998
 30
0.0
 11
34.373
 21
876.0289999999999
 31
0.0
  0
LINE
  5
61A
330
1E
100
AcDbEntity
  8
0
100
AcDbLine
 10
34.373
 20
876.0289999999999
 30
0.0
 11
34.424
 21
875.9349999999999
 31
0.0
  0
LINE
  5
61B
330
1E
100
AcDbEntity
  8
0
100
AcDbLine
 10
35.997
 20
876.2389999999999
 30
0.0
 11
36.186
 21
876.0760000000001
 31
0.0
  0
LINE
  5
61C
330
1E
100
AcDbEntity
  8
0
100
AcDbLine
 10
36.186
 20
876.0760000000001
 30
0.0
 11
36.36199999999999
 21
875.9349999999999
 31
0.0
  0
LINE
  5
61D
330
1E
100
AcDbEntity
  8
0
100
AcDbLine
 10
33.804
 20
876.307
 30
0.0
 11
33.984
 21
876.1510000000001
 31
0.0
  0
LINE
  5
61E
330
1E
100
AcDbEntity
  8
0
100
AcDbLine
 10
34.146
 20
876.3189999999999
 30
0.0
 11
34.281
 21
876.1569999999998
 31
0.0
  0
LINE
  5
61F
330
1E
100
AcDbEntity
  8
0
100
AcDbLine
 10
36.35699999999999
 20
876.265
 30
0.0
 11
36.514
 21
876.0939999999999
 31
0.0
  0
LINE
  5
620
330
1E
100
AcDbEntity
  8
0
100
AcDbLine
 10
36.514
 20
876.0939999999999
 30
0.0
 11
36.63199999999999
 21
875.947
 31
0.0
  0
LINE
  5
621
330
1E
100
AcDbEntity
  8
0
100
AcDbLine
 10
36.63199999999999
 20
875.947
 30
0.0
 11
36.704
 21
875.838
 31
0.0
  0
LINE
  5
622
330
1E
100
AcDbEntity
  8
0
100
AcDbLine
 10
36.731
 20
875.7660000000001
 30
0.0
 11
37.2511207232111
 21
876.32266766752
 31
0.0
  0
LINE
  5
623
330
1E
100
AcDbEntity
  8
0
100
AcDbLine
 10
36.704
 20
875.838
 30
0.0
 11
36.731
 21
875.7660000000001
 31
0.0
  0
LINE
  5
624
330
1E
100
AcDbEntity
  8
0
100
AcDbLine
 10
32.773
 20
875.7460000000001
 30
0.0
 11
32.85499999999999
 21
875.6019999999999
 31
0.0
  0
LINE
  5
625
330
1E
100
AcDbEntity
  8
0
100
AcDbLine
 10
32.58599999999999
 20
875.9889999999998
 30
0.0
 11
32.773
 21
875.7460000000001
 31
0.0
  0
LINE
  5
626
330
1E
100
AcDbEntity
  8
0
100
AcDbLine
 10
31.606
 20
876.5889999999998
 30
0.0
 11
32.025
 21
876.201
 31
0.0
  0
LINE
  5
627
330
1E
100
AcDbEntity
  8
0
100
AcDbLine
 10
31.155
 20
877.0229999999999
 30
0.0
 11
31.606
 21
876.5889999999998
 31
0.0
  0
LINE
  5
628
330
1E
100
AcDbEntity
  8
0
100
AcDbLine
 10
30.68599999999999
 20
877.4930000000001
 30
0.0
 11
31.155
 21
877.0229999999999
 31
0.0
  0
LINE
  5
629
330
1E
100
AcDbEntity
  8
0
100
AcDbLine
 10
30.24599999999999
 20
877.951
 30
0.0
 11
30.68599999999999
 21
877.4930000000001
 31
0.0
  0
LINE
  5
62A
330
1E
100
AcDbEntity
  8
0
100
AcDbLine
 10
29.875
 20
878.3549999999999
 30
0.0
 11
30.24599999999999
 21
877.951
 31
0.0
  0
LINE
  5
62B
330
1E
100
AcDbEntity
  8
0
100
AcDbLine
 10
30.141
 20
878.4839999999999
 30
0.0
 11
30.56
 21
878.096
 31
0.0
  0
LINE
  5
62C
330
1E
100
AcDbEntity
  8
0
100
AcDbLine
 10
30.56
 20
878.096
 30
0.0
 11
31.011
 21
877.6619999999999
 31
0.0
  0
LINE
  5
62D
330
1E
100
AcDbEntity
  8
0
100
AcDbLine
 10
31.011
 20
877.6619999999999
 30
0.0
 11
31.48
 21
877.1929999999999
 31
0.0
  0
LINE
  5
62E
330
1E
100
AcDbEntity
  8
0
100
AcDbLine
 10
31.48
 20
877.1929999999999
 30
0.0
 11
31.92
 21
876.7339999999999
 31
0.0
  0
LINE
  5
62F
330
1E
100
AcDbEntity
  8
0
100
AcDbLine
 10
33.616
 20
876.482
 30
0.0
 11
33.804
 21
876.307
 31
0.0
  0
LINE
  5
630
330
1E
100
AcDbEntity
  8
0
100
AcDbLine
 10
33.435
 20
876.664
 30
0.0
 11
33.616
 21
876.482
 31
0.0
  0
LINE
  5
631
330
1E
100
AcDbEntity
  8
0
100
AcDbLine
 10
33.26699999999999
 20
876.8449999999999
 30
0.0
 11
33.435
 21
876.664
 31
0.0
  0
LINE
  5
632
330
1E
100
AcDbEntity
  8
0
100
AcDbLine
 10
33.132
 20
877.006
 30
0.0
 11
33.26699999999999
 21
876.8449999999999
 31
0.0
  0
LINE
  5
633
330
1E
100
AcDbEntity
  8
0
100
AcDbLine
 10
33.609
 20
876.857
 30
0.0
 11
33.79599999999999
 21
876.6810000000001
 31
0.0
  0
LINE
  5
634
330
1E
100
AcDbEntity
  8
0
100
AcDbLine
 10
33.79599999999999
 20
876.6810000000001
 30
0.0
 11
33.978
 21
876.5
 31
0.0
  0
LINE
  5
635
330
1E
100
AcDbEntity
  8
0
100
AcDbLine
 10
33.978
 20
876.5
 30
0.0
 11
34.146
 21
876.3189999999999
 31
0.0
  0
LINE
  5
636
330
1E
100
AcDbEntity
  8
0
100
AcDbLine
 10
33.429
 20
877.012
 30
0.0
 11
33.609
 21
876.857
 31
0.0
  0
LINE
  5
637
330
1E
100
AcDbEntity
  8
0
100
AcDbLine
 10
35.356
 20
876.9110000000001
 30
0.0
 11
35.475
 21
876.7639999999998
 31
0.0
  0
LINE
  5
638
330
1E
100
AcDbEntity
  8
0
100
AcDbLine
 10
35.28499999999999
 20
877.02
 30
0.0
 11
35.356
 21
876.9110000000001
 31
0.0
  0
LINE
  5
639
330
1E
100
AcDbEntity
  8
0
100
AcDbLine
 10
35.631
 20
876.593
 30
0.0
 11
35.80799999999999
 21
876.416
 31
0.0
  0
LINE
  5
63A
330
1E
100
AcDbEntity
  8
0
100
AcDbLine
 10
35.475
 20
876.7639999999998
 30
0.0
 11
35.631
 21
876.593
 31
0.0
  0
LINE
  5
63B
330
1E
100
AcDbEntity
  8
0
100
AcDbLine
 10
35.80799999999999
 20
876.416
 30
0.0
 11
35.997
 21
876.2389999999999
 31
0.0
  0
LINE
  5
63C
330
1E
100
AcDbEntity
  8
0
100
AcDbLine
 10
35.99099999999999
 20
876.6189999999999
 30
0.0
 11
36.18
 21
876.4419999999999
 31
0.0
  0
LINE
  5
63D
330
1E
100
AcDbEntity
  8
0
100
AcDbLine
 10
36.18
 20
876.4419999999999
 30
0.0
 11
36.35699999999999
 21
876.265
 31
0.0
  0
LINE
  5
63E
330
1E
100
AcDbEntity
  8
0
100
AcDbLine
 10
35.803
 20
876.7819999999998
 30
0.0
 11
35.99099999999999
 21
876.6189999999999
 31
0.0
  0
LINE
  5
63F
330
1E
100
AcDbEntity
  8
0
100
AcDbLine
 10
35.62599999999999
 20
876.923
 30
0.0
 11
35.803
 21
876.7819999999998
 31
0.0
  0
LINE
  5
640
330
1E
100
AcDbEntity
  8
0
100
AcDbLine
 10
35.47099999999999
 20
877.0329999999999
 30
0.0
 11
35.62599999999999
 21
876.923
 31
0.0
  0
LINE
  5
641
330
1E
100
AcDbEntity
  8
0
100
AcDbLine
 10
33.039
 20
877.1339999999998
 30
0.0
 11
33.132
 21
877.006
 31
0.0
  0
LINE
  5
642
330
1E
100
AcDbEntity
  8
0
100
AcDbLine
 10
33.266
 20
877.1410000000001
 30
0.0
 11
33.429
 21
877.012
 31
0.0
  0
LINE
  5
643
330
1E
100
AcDbEntity
  8
0
100
AcDbLine
 10
33.12899999999999
 20
877.2339999999999
 30
0.0
 11
33.266
 21
877.1410000000001
 31
0.0
  0
LINE
  5
644
330
1E
100
AcDbEntity
  8
0
100
AcDbLine
 10
32.989
 20
877.228
 30
0.0
 11
33.039
 21
877.1339999999998
 31
0.0
  0
LINE
  5
645
330
1E
100
AcDbEntity
  8
0
100
AcDbLine
 10
33.03499999999999
 20
877.279
 30
0.0
 11
33.12899999999999
 21
877.2339999999999
 31
0.0
  0
LINE
  5
646
330
1E
100
AcDbEntity
  8
0
100
AcDbLine
 10
32.99
 20
877.275
 30
0.0
 11
33.4109253396736
 21
877.7099765483999
 31
0.0
  0
LINE
  5
647
330
1E
100
AcDbEntity
  8
0
100
AcDbLine
 10
35.353
 20
877.0989999999999
 30
0.0
 11
35.47099999999999
 21
877.0329999999999
 31
0.0
  0
LINE
  5
648
330
1E
100
AcDbEntity
  8
0
100
AcDbLine
 10
35.283
 20
877.1169999999999
 30
0.0
 11
35.353
 21
877.0989999999999
 31
0.0
  0
LINE
  5
649
330
1E
100
AcDbEntity
  8
0
100
AcDbLine
 10
35.257
 20
877.0930000000001
 30
0.0
 11
35.7773258238974
 21
877.649475585499
 31
0.0
  0
LINE
  5
64A
330
1E
100
AcDbEntity
  8
0
100
AcDbLine
 10
35.257
 20
877.0930000000001
 30
0.0
 11
35.28499999999999
 21
877.02
 31
0.0
  0
LINE
  5
64B
330
1E
100
AcDbEntity
  8
0
100
AcDbLine
 10
31.92
 20
876.7339999999999
 30
0.0
 11
32.29099999999999
 21
876.33
 31
0.0
  0
LINE
  5
64C
330
1E
100
AcDbEntity
  8
0
100
AcDbLine
 10
32.29099999999999
 20
876.33
 30
0.0
 11
32.58599999999999
 21
875.9889999999998
 31
0.0
  0
LINE
  5
64D
330
1E
100
AcDbEntity
  8
0
100
AcDbLine
 10
29.79
 20
878.789
 30
0.0
 11
30.141
 21
878.4839999999999
 31
0.0
  0
LINE
  5
64E
330
1E
100
AcDbEntity
  8
0
100
AcDbLine
 10
29.51999999999999
 20
879.005
 30
0.0
 11
29.79
 21
878.789
 31
0.0
  0
LINE
  5
64F
330
1E
100
AcDbEntity
  8
0
100
AcDbLine
 10
29.393
 20
878.94
 30
0.0
 11
29.58
 21
878.696
 31
0.0
  0
LINE
  5
650
330
1E
100
AcDbEntity
  8
0
100
AcDbLine
 10
35.537
 20
873.332
 30
0.0
 11
35.70945651369679
 21
873.523603973582
 31
0.0
  0
LINE
  5
651
330
1E
100
AcDbEntity
  8
0
100
AcDbLine
 10
35.537
 20
873.332
 30
0.0
 11
35.567
 21
873.2310000000001
 31
0.0
  0
LINE
  5
652
330
1E
100
AcDbEntity
  8
0
100
AcDbLine
 10
42.652
 20
870.302
 30
0.0
 11
42.81
 21
870.1999999999999
 31
0.0
  0
LINE
  5
653
330
1E
100
AcDbEntity
  8
0
100
AcDbLine
 10
42.81
 20
870.1999999999999
 30
0.0
 11
42.9256
 21
870.1399999999999
 31
0.0
  0
LINE
  5
654
330
1E
100
AcDbEntity
  8
0
100
AcDbLine
 10
42.9256
 20
870.1399999999999
 30
0.0
 11
43.0006
 21
870.12
 31
0.0
  0
LINE
  5
655
330
1E
100
AcDbEntity
  8
0
100
AcDbLine
 10
42.27
 20
870.598
 30
0.0
 11
42.465
 21
870.4400000000001
 31
0.0
  0
LINE
  5
656
330
1E
100
AcDbEntity
  8
0
100
AcDbLine
 10
42.465
 20
870.4400000000001
 30
0.0
 11
42.652
 21
870.302
 31
0.0
  0
LINE
  5
657
330
1E
100
AcDbEntity
  8
0
100
AcDbLine
 10
41.53
 20
871.3510000000001
 30
0.0
 11
41.608
 21
871.2419999999999
 31
0.0
  0
LINE
  5
658
330
1E
100
AcDbEntity
  8
0
100
AcDbLine
 10
41.505
 20
871.419
 30
0.0
 11
41.53
 21
871.3510000000001
 31
0.0
  0
LINE
  5
659
330
1E
100
AcDbEntity
  8
0
100
AcDbLine
 10
41.73399999999999
 20
871.0980000000001
 30
0.0
 11
41.893
 21
870.9369999999999
 31
0.0
  0
LINE
  5
65A
330
1E
100
AcDbEntity
  8
0
100
AcDbLine
 10
41.608
 20
871.2419999999999
 30
0.0
 11
41.73399999999999
 21
871.0980000000001
 31
0.0
  0
LINE
  5
65B
330
1E
100
AcDbEntity
  8
0
100
AcDbLine
 10
42.075
 20
870.767
 30
0.0
 11
42.27
 21
870.598
 31
0.0
  0
LINE
  5
65C
330
1E
100
AcDbEntity
  8
0
100
AcDbLine
 10
41.893
 20
870.9369999999999
 30
0.0
 11
42.075
 21
870.767
 31
0.0
  0
LINE
  5
65D
330
1E
100
AcDbEntity
  8
0
100
AcDbLine
 10
42.258
 20
870.9699999999999
 30
0.0
 11
42.453
 21
870.8009999999999
 31
0.0
  0
LINE
  5
65E
330
1E
100
AcDbEntity
  8
0
100
AcDbLine
 10
42.063
 20
871.128
 30
0.0
 11
42.258
 21
870.9699999999999
 31
0.0
  0
LINE
  5
65F
330
1E
100
AcDbEntity
  8
0
100
AcDbLine
 10
41.876
 20
871.2660000000001
 30
0.0
 11
42.063
 21
871.128
 31
0.0
  0
LINE
  5
660
330
1E
100
AcDbEntity
  8
0
100
AcDbLine
 10
41.718
 20
871.368
 30
0.0
 11
41.876
 21
871.2660000000001
 31
0.0
  0
LINE
  5
661
330
1E
100
AcDbEntity
  8
0
100
AcDbLine
 10
41.60199999999999
 20
871.428
 30
0.0
 11
41.718
 21
871.368
 31
0.0
  0
LINE
  5
662
330
1E
100
AcDbEntity
  8
0
100
AcDbLine
 10
41.527
 20
871.447
 30
0.0
 11
41.60199999999999
 21
871.428
 31
0.0
  0
LINE
  5
663
330
1E
100
AcDbEntity
  8
0
100
AcDbLine
 10
41.527
 20
871.447
 30
0.0
 11
42.0266454813631
 21
872.0227295233149
 31
0.0
  0
LINE
  5
664
330
1E
100
AcDbEntity
  8
0
100
AcDbLine
 10
42.453
 20
870.8009999999999
 30
0.0
 11
42.63499999999999
 21
870.63
 31
0.0
  0
LINE
  5
665
330
1E
100
AcDbEntity
  8
0
100
AcDbLine
 10
42.63499999999999
 20
870.63
 30
0.0
 11
42.79399999999999
 21
870.47
 31
0.0
  0
LINE
  5
666
330
1E
100
AcDbEntity
  8
0
100
AcDbLine
 10
42.79399999999999
 20
870.47
 30
0.0
 11
42.9194
 21
870.326
 31
0.0
  0
LINE
  5
667
330
1E
100
AcDbEntity
  8
0
100
AcDbLine
 10
42.9194
 20
870.326
 30
0.0
 11
42.9971
 21
870.2160000000001
 31
0.0
  0
LINE
  5
668
330
1E
100
AcDbEntity
  8
0
100
AcDbLine
 10
42.9971
 20
870.2160000000001
 30
0.0
 11
43.0224
 21
870.1489999999999
 31
0.0
  0
LINE
  5
669
330
1E
100
AcDbEntity
  8
0
100
AcDbLine
 10
43.0006
 20
870.12
 30
0.0
 11
43.5000109239145
 21
870.6958882707597
 31
0.0
  0
LINE
  5
66B
330
1E
100
AcDbEntity
  8
0
100
AcDbLine
 10
47.8571
 20
871.93
 30
0.0
 11
47.9602
 21
871.944
 31
0.0
  0
LINE
  5
66C
330
1E
100
AcDbEntity
  8
0
100
AcDbLine
 10
47.3293
 20
872.151
 30
0.0
 11
47.5334
 21
872.034
 31
0.0
  0
LINE
  5
66D
330
1E
100
AcDbEntity
  8
0
100
AcDbLine
 10
47.5334
 20
872.034
 30
0.0
 11
47.7146
 21
871.958
 31
0.0
  0
LINE
  5
66E
330
1E
100
AcDbEntity
  8
0
100
AcDbLine
 10
47.7146
 20
871.958
 30
0.0
 11
47.8571
 21
871.93
 31
0.0
  0
LINE
  5
66F
330
1E
100
AcDbEntity
  8
0
100
AcDbLine
 10
46.9244
 20
872.46
 30
0.0
 11
47.1238
 21
872.296
 31
0.0
  0
LINE
  5
670
330
1E
100
AcDbEntity
  8
0
100
AcDbLine
 10
47.1238
 20
872.296
 30
0.0
 11
47.3293
 21
872.151
 31
0.0
  0
LINE
  5
671
330
1E
100
AcDbEntity
  8
0
100
AcDbLine
 10
46.59839999999999
 20
872.8089999999999
 30
0.0
 11
46.74649999999999
 21
872.635
 31
0.0
  0
LINE
  5
672
330
1E
100
AcDbEntity
  8
0
100
AcDbLine
 10
46.49
 20
872.9730000000001
 30
0.0
 11
46.59839999999999
 21
872.8089999999999
 31
0.0
  0
LINE
  5
673
330
1E
100
AcDbEntity
  8
0
100
AcDbLine
 10
46.43559999999999
 20
873.1099999999999
 30
0.0
 11
46.43659999999999
 21
873.2089999999999
 31
0.0
  0
LINE
  5
674
330
1E
100
AcDbEntity
  8
0
100
AcDbLine
 10
46.43559999999999
 20
873.1099999999999
 30
0.0
 11
46.49
 21
872.9730000000001
 31
0.0
  0
LINE
  5
675
330
1E
100
AcDbEntity
  8
0
100
AcDbLine
 10
46.43659999999999
 20
873.2089999999999
 30
0.0
 11
46.4867
 21
873.2699999999999
 31
0.0
  0
LINE
  5
676
330
1E
100
AcDbEntity
  8
0
100
AcDbLine
 10
46.74649999999999
 20
872.635
 30
0.0
 11
46.9244
 21
872.46
 31
0.0
  0
LINE
  5
677
330
1E
100
AcDbEntity
  8
0
100
AcDbLine
 10
47.3231
 20
872.9179999999999
 30
0.0
 11
47.52239999999999
 21
872.7539999999999
 31
0.0
  0
LINE
  5
678
330
1E
100
AcDbEntity
  8
0
100
AcDbLine
 10
47.1175
 20
873.0629999999999
 30
0.0
 11
47.3231
 21
872.9179999999999
 31
0.0
  0
LINE
  5
679
330
1E
100
AcDbEntity
  8
0
100
AcDbLine
 10
46.91349999999999
 20
873.1799999999999
 30
0.0
 11
47.1175
 21
873.0629999999999
 31
0.0
  0
LINE
  5
67A
330
1E
100
AcDbEntity
  8
0
100
AcDbLine
 10
46.73219999999999
 20
873.2549999999999
 30
0.0
 11
46.91349999999999
 21
873.1799999999999
 31
0.0
  0
LINE
  5
67B
330
1E
100
AcDbEntity
  8
0
100
AcDbLine
 10
46.5897
 20
873.2839999999999
 30
0.0
 11
46.73219999999999
 21
873.2549999999999
 31
0.0
  0
LINE
  5
67C
330
1E
100
AcDbEntity
  8
0
100
AcDbLine
 10
46.4867
 20
873.2699999999999
 30
0.0
 11
46.5897
 21
873.2839999999999
 31
0.0
  0
LINE
  5
67D
330
1E
100
AcDbEntity
  8
0
100
AcDbLine
 10
46.4867
 20
873.2699999999999
 30
0.0
 11
47.01229729222779
 21
873.90624707264
 31
0.0
  0
LINE
  5
67E
330
1E
100
AcDbEntity
  8
0
100
AcDbLine
 10
47.52239999999999
 20
872.7539999999999
 30
0.0
 11
47.7003
 21
872.578
 31
0.0
  0
LINE
  5
67F
330
1E
100
AcDbEntity
  8
0
100
AcDbLine
 10
47.7003
 20
872.578
 30
0.0
 11
47.84839999999999
 21
872.405
 31
0.0
  0
LINE
  5
680
330
1E
100
AcDbEntity
  8
0
100
AcDbLine
 10
47.84839999999999
 20
872.405
 30
0.0
 11
47.9567
 21
872.2410000000001
 31
0.0
  0
LINE
  5
681
330
1E
100
AcDbEntity
  8
0
100
AcDbLine
 10
47.9567
 20
872.2410000000001
 30
0.0
 11
48.0112
 21
872.104
 31
0.0
  0
LINE
  5
682
330
1E
100
AcDbEntity
  8
0
100
AcDbLine
 10
71.8121
 20
872.5430000000001
 30
0.0
 11
82.62439999999999
 21
862.134
 31
0.0
  0
LINE
  5
683
330
1E
100
AcDbEntity
  8
0
100
AcDbLine
 10
63.6793
 20
873.8099999999999
 30
0.0
 11
68.44
 21
869.5239999999998
 31
0.0
  0
LINE
  5
684
330
1E
100
AcDbEntity
  8
0
100
AcDbLine
 10
71.58920000000001
 20
872.7439999999999
 30
0.0
 11
71.8121
 21
872.5430000000001
 31
0.0
  0
LINE
  5
685
330
1E
100
AcDbEntity
  8
0
100
AcDbLine
 10
48.0102
 20
872.005
 30
0.0
 11
48.0112
 21
872.104
 31
0.0
  0
LINE
  5
686
330
1E
100
AcDbEntity
  8
0
100
AcDbLine
 10
47.9602
 20
871.944
 30
0.0
 11
48.0102
 21
872.005
 31
0.0
  0
LINE
  5
687
330
1E
100
AcDbEntity
  8
0
100
AcDbLine
 10
47.9602
 20
871.944
 30
0.0
 11
48.3309341873199
 21
872.3924391926109
 31
0.0
  0
LINE
  5
688
330
1E
100
AcDbEntity
  8
0
100
AcDbLine
 10
41.371
 20
874.544
 30
0.0
 11
41.428
 21
874.553
 31
0.0
  0
LINE
  5
689
330
1E
100
AcDbEntity
  8
0
100
AcDbLine
 10
40.953
 20
874.779
 30
0.0
 11
41.12899999999999
 21
874.657
 31
0.0
  0
LINE
  5
68A
330
1E
100
AcDbEntity
  8
0
100
AcDbLine
 10
41.12899999999999
 20
874.657
 30
0.0
 11
41.272
 21
874.5779999999999
 31
0.0
  0
LINE
  5
68B
330
1E
100
AcDbEntity
  8
0
100
AcDbLine
 10
41.272
 20
874.5779999999999
 30
0.0
 11
41.371
 21
874.544
 31
0.0
  0
LINE
  5
68C
330
1E
100
AcDbEntity
  8
0
100
AcDbLine
 10
40.569
 20
875.093
 30
0.0
 11
40.763
 21
874.927
 31
0.0
  0
LINE
  5
68D
330
1E
100
AcDbEntity
  8
0
100
AcDbLine
 10
40.763
 20
874.927
 30
0.0
 11
40.953
 21
874.779
 31
0.0
  0
LINE
  5
68E
330
1E
100
AcDbEntity
  8
0
100
AcDbLine
 10
40.076
 20
875.605
 30
0.0
 11
40.215
 21
875.4419999999999
 31
0.0
  0
LINE
  5
68F
330
1E
100
AcDbEntity
  8
0
100
AcDbLine
 10
39.982
 20
875.7389999999999
 30
0.0
 11
40.076
 21
875.605
 31
0.0
  0
LINE
  5
690
330
1E
100
AcDbEntity
  8
0
100
AcDbLine
 10
39.939
 20
875.834
 30
0.0
 11
39.942
 21
875.8919999999999
 31
0.0
  0
LINE
  5
691
330
1E
100
AcDbEntity
  8
0
100
AcDbLine
 10
39.939
 20
875.834
 30
0.0
 11
39.982
 21
875.7389999999999
 31
0.0
  0
LINE
  5
692
330
1E
100
AcDbEntity
  8
0
100
AcDbLine
 10
40.383
 20
875.2689999999999
 30
0.0
 11
40.569
 21
875.093
 31
0.0
  0
LINE
  5
693
330
1E
100
AcDbEntity
  8
0
100
AcDbLine
 10
40.215
 20
875.4419999999999
 30
0.0
 11
40.383
 21
875.2689999999999
 31
0.0
  0
LINE
  5
694
330
1E
100
AcDbEntity
  8
0
100
AcDbLine
 10
40.60699999999999
 20
875.5180000000001
 30
0.0
 11
40.801
 21
875.3519999999999
 31
0.0
  0
LINE
  5
695
330
1E
100
AcDbEntity
  8
0
100
AcDbLine
 10
40.417
 20
875.666
 30
0.0
 11
40.60699999999999
 21
875.5180000000001
 31
0.0
  0
LINE
  5
696
330
1E
100
AcDbEntity
  8
0
100
AcDbLine
 10
40.24099999999999
 20
875.788
 30
0.0
 11
40.417
 21
875.666
 31
0.0
  0
LINE
  5
697
330
1E
100
AcDbEntity
  8
0
100
AcDbLine
 10
40.097
 20
875.867
 30
0.0
 11
40.24099999999999
 21
875.788
 31
0.0
  0
LINE
  5
698
330
1E
100
AcDbEntity
  8
0
100
AcDbLine
 10
39.998
 20
875.9010000000001
 30
0.0
 11
40.097
 21
875.867
 31
0.0
  0
LINE
  5
699
330
1E
100
AcDbEntity
  8
0
100
AcDbLine
 10
39.942
 20
875.8919999999999
 30
0.0
 11
39.998
 21
875.9010000000001
 31
0.0
  0
LINE
  5
69A
330
1E
100
AcDbEntity
  8
0
100
AcDbLine
 10
40.801
 20
875.3519999999999
 30
0.0
 11
40.987
 21
875.176
 31
0.0
  0
LINE
  5
69B
330
1E
100
AcDbEntity
  8
0
100
AcDbLine
 10
40.987
 20
875.176
 30
0.0
 11
41.154
 21
875.003
 31
0.0
  0
LINE
  5
69C
330
1E
100
AcDbEntity
  8
0
100
AcDbLine
 10
41.154
 20
875.003
 30
0.0
 11
41.29299999999999
 21
874.84
 31
0.0
  0
LINE
  5
69D
330
1E
100
AcDbEntity
  8
0
100
AcDbLine
 10
41.29299999999999
 20
874.84
 30
0.0
 11
41.388
 21
874.7060000000001
 31
0.0
  0
LINE
  5
6A1
330
1E
100
AcDbEntity
  8
0
100
AcDbLine
 10
41.388
 20
874.7060000000001
 30
0.0
 11
41.431
 21
874.61
 31
0.0
  0
LINE
  5
6A2
330
1E
100
AcDbEntity
  8
0
100
AcDbLine
 10
41.428
 20
874.553
 30
0.0
 11
41.431
 21
874.61
 31
0.0
  0
LINE
  5
6A3
330
1E
100
AcDbEntity
  8
0
100
AcDbLine
 10
39.253
 20
869.987
 30
0.0
 11
39.4267768667874
 21
870.179940557273
 31
0.0
  0
LINE
  5
6A4
330
1E
100
AcDbEntity
  8
0
100
AcDbLine
 10
28.909
 20
879.0180000000001
 30
0.0
 11
29.47806635404
 21
879.553063076017
 31
0.0
  0
LINE
  5
6A5
330
1E
100
AcDbEntity
  8
0
100
AcDbLine
 10
57.3476
 20
879.5110000000001
 30
0.0
 11
63.6793
 21
873.8099999999999
 31
0.0
  0
LINE
  5
6A6
330
1E
100
AcDbEntity
  8
0
100
AcDbLine
 10
29.998
 20
879.7579999999999
 30
0.0
 11
30.091
 21
879.7039999999999
 31
0.0
  0
LINE
  5
6A7
330
1E
100
AcDbEntity
  8
0
100
AcDbLine
 10
30.136
 20
879.7039999999999
 30
0.0
 11
30.6348922216717
 21
880.185773370928
 31
0.0
  0
LINE
  5
6A8
330
1E
100
AcDbEntity
  8
0
100
AcDbLine
 10
29.87
 20
879.855
 30
0.0
 11
29.998
 21
879.7579999999999
 31
0.0
  0
LINE
  5
6A9
330
1E
100
AcDbEntity
  8
0
100
AcDbLine
 10
30.08399999999999
 20
879.8430000000001
 30
0.0
 11
30.131
 21
879.753
 31
0.0
  0
LINE
  5
6AA
330
1E
100
AcDbEntity
  8
0
100
AcDbLine
 10
28.61499999999999
 20
879.2819999999998
 30
0.0
 11
28.82
 21
879.0869999999999
 31
0.0
  0
LINE
  5
6AB
330
1E
100
AcDbEntity
  8
0
100
AcDbLine
 10
28.322
 20
879.574
 30
0.0
 11
28.61499999999999
 21
879.2819999999998
 31
0.0
  0
LINE
  5
6AC
330
1E
100
AcDbEntity
  8
0
100
AcDbLine
 10
28.79699999999999
 20
881.0019999999999
 30
0.0
 11
28.891
 21
880.8699999999999
 31
0.0
  0
LINE
  5
6AD
330
1E
100
AcDbEntity
  8
0
100
AcDbLine
 10
29.715
 20
879.9879999999999
 30
0.0
 11
29.87
 21
879.855
 31
0.0
  0
LINE
  5
6AE
330
1E
100
AcDbEntity
  8
0
100
AcDbLine
 10
29.541
 20
880.152
 30
0.0
 11
29.715
 21
879.9879999999999
 31
0.0
  0
LINE
  5
6AF
330
1E
100
AcDbEntity
  8
0
100
AcDbLine
 10
29.35999999999999
 20
880.333
 30
0.0
 11
29.541
 21
880.152
 31
0.0
  0
LINE
  5
6B0
330
1E
100
AcDbEntity
  8
0
100
AcDbLine
 10
29.18
 20
880.5249999999999
 30
0.0
 11
29.35999999999999
 21
880.333
 31
0.0
  0
LINE
  5
6B1
330
1E
100
AcDbEntity
  8
0
100
AcDbLine
 10
29.018
 20
880.71
 30
0.0
 11
29.18
 21
880.5249999999999
 31
0.0
  0
LINE
  5
6B2
330
1E
100
AcDbEntity
  8
0
100
AcDbLine
 10
28.891
 20
880.8699999999999
 30
0.0
 11
29.018
 21
880.71
 31
0.0
  0
LINE
  5
6B3
330
1E
100
AcDbEntity
  8
0
100
AcDbLine
 10
29.166
 20
880.8569999999999
 30
0.0
 11
29.34099999999999
 21
880.6929999999999
 31
0.0
  0
LINE
  5
6B4
330
1E
100
AcDbEntity
  8
0
100
AcDbLine
 10
29.34099999999999
 20
880.6929999999999
 30
0.0
 11
29.521
 21
880.513
 31
0.0
  0
LINE
  5
6B5
330
1E
100
AcDbEntity
  8
0
100
AcDbLine
 10
29.521
 20
880.513
 30
0.0
 11
29.702
 21
880.32
 31
0.0
  0
LINE
  5
6B6
330
1E
100
AcDbEntity
  8
0
100
AcDbLine
 10
29.702
 20
880.32
 30
0.0
 11
29.863
 21
880.1349999999999
 31
0.0
  0
LINE
  5
6B7
330
1E
100
AcDbEntity
  8
0
100
AcDbLine
 10
29.863
 20
880.1349999999999
 30
0.0
 11
29.991
 21
879.9750000000001
 31
0.0
  0
LINE
  5
6B8
330
1E
100
AcDbEntity
  8
0
100
AcDbLine
 10
29.991
 20
879.9750000000001
 30
0.0
 11
30.08399999999999
 21
879.8430000000001
 31
0.0
  0
LINE
  5
6B9
330
1E
100
AcDbEntity
  8
0
100
AcDbLine
 10
29.01099999999999
 20
880.99
 30
0.0
 11
29.166
 21
880.8569999999999
 31
0.0
  0
LINE
  5
6BA
330
1E
100
AcDbEntity
  8
0
100
AcDbLine
 10
28.883
 20
881.0869999999999
 30
0.0
 11
29.01099999999999
 21
880.99
 31
0.0
  0
LINE
  5
6BB
330
1E
100
AcDbEntity
  8
0
100
AcDbLine
 10
29.745
 20
881.8760000000001
 30
0.0
 11
29.892
 21
881.761
 31
0.0
  0
LINE
  5
6BC
330
1E
100
AcDbEntity
  8
0
100
AcDbLine
 10
29.892
 20
881.761
 30
0.0
 11
30.007
 21
881.6879999999999
 31
0.0
  0
LINE
  5
6BD
330
1E
100
AcDbEntity
  8
0
100
AcDbLine
 10
29.393
 20
882.192
 30
0.0
 11
29.576
 21
882.0210000000001
 31
0.0
  0
LINE
  5
6BE
330
1E
100
AcDbEntity
  8
0
100
AcDbLine
 10
29.21
 20
882.375
 30
0.0
 11
29.393
 21
882.192
 31
0.0
  0
LINE
  5
6BF
330
1E
100
AcDbEntity
  8
0
100
AcDbLine
 10
29.576
 20
882.0210000000001
 30
0.0
 11
29.745
 21
881.8760000000001
 31
0.0
  0
LINE
  5
6C0
330
1E
100
AcDbEntity
  8
0
100
AcDbLine
 10
29.035
 20
882.563
 30
0.0
 11
29.21
 21
882.375
 31
0.0
  0
LINE
  5
6C1
330
1E
100
AcDbEntity
  8
0
100
AcDbLine
 10
29.381
 20
882.5639999999999
 30
0.0
 11
29.564
 21
882.3810000000001
 31
0.0
  0
LINE
  5
6C2
330
1E
100
AcDbEntity
  8
0
100
AcDbLine
 10
29.564
 20
882.3810000000001
 30
0.0
 11
29.74
 21
882.193
 31
0.0
  0
LINE
  5
6C3
330
1E
100
AcDbEntity
  8
0
100
AcDbLine
 10
29.74
 20
882.193
 30
0.0
 11
29.89
 21
882.018
 31
0.0
  0
LINE
  5
6C4
330
1E
100
AcDbEntity
  8
0
100
AcDbLine
 10
29.89
 20
882.018
 30
0.0
 11
30.00099999999999
 21
881.873
 31
0.0
  0
LINE
  5
6C5
330
1E
100
AcDbEntity
  8
0
100
AcDbLine
 10
30.007
 20
881.6879999999999
 30
0.0
 11
30.07699999999999
 21
881.6639999999999
 31
0.0
  0
LINE
  5
6C6
330
1E
100
AcDbEntity
  8
0
100
AcDbLine
 10
30.07699999999999
 20
881.6639999999999
 30
0.0
 11
30.53488472947889
 21
882.120906343305
 31
0.0
  0
LINE
  5
6C7
330
1E
100
AcDbEntity
  8
0
100
AcDbLine
 10
30.074
 20
881.76
 30
0.0
 11
30.098
 21
881.69
 31
0.0
  0
LINE
  5
6C8
330
1E
100
AcDbEntity
  8
0
100
AcDbLine
 10
30.00099999999999
 20
881.873
 30
0.0
 11
30.074
 21
881.76
 31
0.0
  0
LINE
  5
6C9
330
1E
100
AcDbEntity
  8
0
100
AcDbLine
 10
28.78999999999999
 20
881.141
 30
0.0
 11
28.883
 21
881.0869999999999
 31
0.0
  0
LINE
  5
6CA
330
1E
100
AcDbEntity
  8
0
100
AcDbLine
 10
28.746
 20
881.141
 30
0.0
 11
29.18630509862239
 21
881.5661965903359
 31
0.0
  0
LINE
  5
6CB
330
1E
100
AcDbEntity
  8
0
100
AcDbLine
 10
28.75
 20
881.0919999999999
 30
0.0
 11
28.79699999999999
 21
881.0019999999999
 31
0.0
  0
LINE
  5
6CC
330
1E
100
AcDbEntity
  8
0
100
AcDbLine
 10
32.60699999999999
 20
882.0239999999998
 30
0.0
 11
32.747
 21
881.935
 31
0.0
  0
LINE
  5
6CD
330
1E
100
AcDbEntity
  8
0
100
AcDbLine
 10
32.747
 20
881.935
 30
0.0
 11
32.847
 21
881.8949999999999
 31
0.0
  0
LINE
  5
6CE
330
1E
100
AcDbEntity
  8
0
100
AcDbLine
 10
32.847
 20
881.8949999999999
 30
0.0
 11
32.898
 21
881.905
 31
0.0
  0
LINE
  5
6CF
330
1E
100
AcDbEntity
  8
0
100
AcDbLine
 10
37.36699999999999
 20
881.081
 30
0.0
 11
37.555
 21
880.952
 31
0.0
  0
LINE
  5
6D0
330
1E
100
AcDbEntity
  8
0
100
AcDbLine
 10
37.555
 20
880.952
 30
0.0
 11
37.72899999999999
 21
880.8610000000001
 31
0.0
  0
LINE
  5
6D1
330
1E
100
AcDbEntity
  8
0
100
AcDbLine
 10
37.72899999999999
 20
880.8610000000001
 30
0.0
 11
37.872
 21
880.821
 31
0.0
  0
LINE
  5
6D2
330
1E
100
AcDbEntity
  8
0
100
AcDbLine
 10
37.872
 20
880.821
 30
0.0
 11
37.97
 21
880.832
 31
0.0
  0
LINE
  5
6D3
330
1E
100
AcDbEntity
  8
0
100
AcDbLine
 10
37.97
 20
880.832
 30
0.0
 11
38.02599999999999
 21
880.8889999999999
 31
0.0
  0
LINE
  5
6D4
330
1E
100
AcDbEntity
  8
0
100
AcDbLine
 10
36.99
 20
881.4199999999999
 30
0.0
 11
37.174
 21
881.2389999999998
 31
0.0
  0
LINE
  5
6D5
330
1E
100
AcDbEntity
  8
0
100
AcDbLine
 10
37.174
 20
881.2389999999998
 30
0.0
 11
37.36699999999999
 21
881.081
 31
0.0
  0
LINE
  5
6D6
330
1E
100
AcDbEntity
  8
0
100
AcDbLine
 10
36.82399999999999
 20
881.61
 30
0.0
 11
36.99
 21
881.4199999999999
 31
0.0
  0
LINE
  5
6D7
330
1E
100
AcDbEntity
  8
0
100
AcDbLine
 10
36.686
 20
881.7999999999999
 30
0.0
 11
36.82399999999999
 21
881.61
 31
0.0
  0
LINE
  5
6D8
330
1E
100
AcDbEntity
  8
0
100
AcDbLine
 10
36.592
 20
881.9730000000001
 30
0.0
 11
36.686
 21
881.7999999999999
 31
0.0
  0
LINE
  5
6D9
330
1E
100
AcDbEntity
  8
0
100
AcDbLine
 10
37.40299999999999
 20
881.8649999999999
 30
0.0
 11
37.588
 21
881.6839999999999
 31
0.0
  0
LINE
  5
6DA
330
1E
100
AcDbEntity
  8
0
100
AcDbLine
 10
37.588
 20
881.6839999999999
 30
0.0
 11
37.75399999999999
 21
881.4949999999999
 31
0.0
  0
LINE
  5
6DB
330
1E
100
AcDbEntity
  8
0
100
AcDbLine
 10
37.75399999999999
 20
881.4949999999999
 30
0.0
 11
37.89199999999999
 21
881.3039999999999
 31
0.0
  0
LINE
  5
6DC
330
1E
100
AcDbEntity
  8
0
100
AcDbLine
 10
37.89199999999999
 20
881.3039999999999
 30
0.0
 11
37.985
 21
881.131
 31
0.0
  0
LINE
  5
6DD
330
1E
100
AcDbEntity
  8
0
100
AcDbLine
 10
37.985
 20
881.131
 30
0.0
 11
38.02799999999999
 21
880.9930000000001
 31
0.0
  0
LINE
  5
6E0
330
1E
100
AcDbEntity
  8
0
100
AcDbLine
 10
38.02599999999999
 20
880.8889999999999
 30
0.0
 11
38.02799999999999
 21
880.9930000000001
 31
0.0
  0
LINE
  5
6E1
330
1E
100
AcDbEntity
  8
0
100
AcDbLine
 10
38.02599999999999
 20
880.8889999999999
 30
0.0
 11
38.6028056076203
 21
881.4774976131801
 31
0.0
  0
LINE
  5
6E2
330
1E
100
AcDbEntity
  8
0
100
AcDbLine
 10
37.21099999999999
 20
882.023
 30
0.0
 11
37.40299999999999
 21
881.8649999999999
 31
0.0
  0
LINE
  5
6E3
330
1E
100
AcDbEntity
  8
0
100
AcDbLine
 10
32.898
 20
881.905
 30
0.0
 11
32.905
 21
881.958
 31
0.0
  0
LINE
  5
6E4
330
1E
100
AcDbEntity
  8
0
100
AcDbLine
 10
32.898
 20
881.905
 30
0.0
 11
33.3416102628983
 21
882.3546958910538
 31
0.0
  0
LINE
  5
6E5
330
1E
100
AcDbEntity
  8
0
100
AcDbLine
 10
32.25999999999999
 20
882.305
 30
0.0
 11
32.442
 21
882.15
 31
0.0
  0
LINE
  5
6E6
330
1E
100
AcDbEntity
  8
0
100
AcDbLine
 10
32.442
 20
882.15
 30
0.0
 11
32.60699999999999
 21
882.0239999999998
 31
0.0
  0
LINE
  5
6E7
330
1E
100
AcDbEntity
  8
0
100
AcDbLine
 10
32.07399999999999
 20
882.4810000000001
 30
0.0
 11
32.25999999999999
 21
882.305
 31
0.0
  0
LINE
  5
6E8
330
1E
100
AcDbEntity
  8
0
100
AcDbLine
 10
31.895
 20
882.6649999999998
 30
0.0
 11
32.07399999999999
 21
882.4810000000001
 31
0.0
  0
LINE
  5
6E9
330
1E
100
AcDbEntity
  8
0
100
AcDbLine
 10
32.47999999999999
 20
882.544
 30
0.0
 11
32.643
 21
882.3589999999999
 31
0.0
  0
LINE
  5
6EA
330
1E
100
AcDbEntity
  8
0
100
AcDbLine
 10
32.643
 20
882.3589999999999
 30
0.0
 11
32.774
 21
882.192
 31
0.0
  0
LINE
  5
6EB
330
1E
100
AcDbEntity
  8
0
100
AcDbLine
 10
36.549
 20
882.112
 30
0.0
 11
36.552
 21
882.215
 31
0.0
  0
LINE
  5
6EC
330
1E
100
AcDbEntity
  8
0
100
AcDbLine
 10
36.549
 20
882.112
 30
0.0
 11
36.592
 21
881.9730000000001
 31
0.0
  0
LINE
  5
6ED
330
1E
100
AcDbEntity
  8
0
100
AcDbLine
 10
37.023
 20
882.153
 30
0.0
 11
37.21099999999999
 21
882.023
 31
0.0
  0
LINE
  5
6EE
330
1E
100
AcDbEntity
  8
0
100
AcDbLine
 10
36.848
 20
882.243
 30
0.0
 11
37.023
 21
882.153
 31
0.0
  0
LINE
  5
6EF
330
1E
100
AcDbEntity
  8
0
100
AcDbLine
 10
36.70599999999999
 20
882.2829999999999
 30
0.0
 11
36.848
 21
882.243
 31
0.0
  0
LINE
  5
6F0
330
1E
100
AcDbEntity
  8
0
100
AcDbLine
 10
36.608
 20
882.272
 30
0.0
 11
36.70599999999999
 21
882.2829999999999
 31
0.0
  0
LINE
  5
6F1
330
1E
100
AcDbEntity
  8
0
100
AcDbLine
 10
36.552
 20
882.215
 30
0.0
 11
36.608
 21
882.272
 31
0.0
  0
LINE
  5
6F2
330
1E
100
AcDbEntity
  8
0
100
AcDbLine
 10
36.552
 20
882.215
 30
0.0
 11
36.9593427917017
 21
882.6305935459219
 31
0.0
  0
LINE
  5
6F3
330
1E
100
AcDbEntity
  8
0
100
AcDbLine
 10
32.774
 20
882.192
 30
0.0
 11
32.86
 21
882.0579999999999
 31
0.0
  0
LINE
  5
6F4
330
1E
100
AcDbEntity
  8
0
100
AcDbLine
 10
32.86
 20
882.0579999999999
 30
0.0
 11
32.905
 21
881.958
 31
0.0
  0
LINE
  5
6F5
330
1E
100
AcDbEntity
  8
0
100
AcDbLine
 10
27.942
 20
879.963
 30
0.0
 11
28.322
 21
879.574
 31
0.0
  0
LINE
  5
6F6
330
1E
100
AcDbEntity
  8
0
100
AcDbLine
 10
27.508
 20
880.4160000000001
 30
0.0
 11
27.942
 21
879.963
 31
0.0
  0
LINE
  5
6F7
330
1E
100
AcDbEntity
  8
0
100
AcDbLine
 10
27.603
 20
889.9789999999999
 30
0.0
 11
27.759
 21
889.7719999999999
 31
0.0
  0
LINE
  5
6F8
330
1E
100
AcDbEntity
  8
0
100
AcDbLine
 10
27.48
 20
890.178
 30
0.0
 11
27.603
 21
889.9789999999999
 31
0.0
  0
LINE
  5
6F9
330
1E
100
AcDbEntity
  8
0
100
AcDbLine
 10
27.399
 20
890.351
 30
0.0
 11
27.48
 21
890.178
 31
0.0
  0
LINE
  5
6FA
330
1E
100
AcDbEntity
  8
0
100
AcDbLine
 10
27.93
 20
889.578
 30
0.0
 11
28.108
 21
889.403
 31
0.0
  0
LINE
  5
6FB
330
1E
100
AcDbEntity
  8
0
100
AcDbLine
 10
27.759
 20
889.7719999999999
 30
0.0
 11
27.93
 21
889.578
 31
0.0
  0
LINE
  5
6FC
330
1E
100
AcDbEntity
  8
0
100
AcDbLine
 10
27.98099999999999
 20
890.3489999999999
 30
0.0
 11
28.159
 21
890.174
 31
0.0
  0
LINE
  5
6FD
330
1E
100
AcDbEntity
  8
0
100
AcDbLine
 10
27.80699999999999
 20
890.4899999999999
 30
0.0
 11
27.98099999999999
 21
890.3489999999999
 31
0.0
  0
LINE
  5
6FE
330
1E
100
AcDbEntity
  8
0
100
AcDbLine
 10
27.648
 20
890.5930000000001
 30
0.0
 11
27.80699999999999
 21
890.4899999999999
 31
0.0
  0
LINE
  5
6FF
330
1E
100
AcDbEntity
  8
0
100
AcDbLine
 10
27.513
 20
890.6489999999999
 30
0.0
 11
27.648
 21
890.5930000000001
 31
0.0
  0
LINE
  5
700
330
1E
100
AcDbEntity
  8
0
100
AcDbLine
 10
27.41699999999999
 20
890.6469999999998
 30
0.0
 11
28.059139429565
 21
891.2039938698441
 31
0.0
  0
LINE
  5
701
330
1E
100
AcDbEntity
  8
0
100
AcDbLine
 10
27.41699999999999
 20
890.6469999999998
 30
0.0
 11
27.513
 21
890.6489999999999
 31
0.0
  0
LINE
  5
702
330
1E
100
AcDbEntity
  8
0
100
AcDbLine
 10
28.701
 20
882.9960000000001
 30
0.0
 11
28.774
 21
882.882
 31
0.0
  0
LINE
  5
703
330
1E
100
AcDbEntity
  8
0
100
AcDbLine
 10
28.885
 20
882.737
 30
0.0
 11
29.035
 21
882.563
 31
0.0
  0
LINE
  5
704
330
1E
100
AcDbEntity
  8
0
100
AcDbLine
 10
28.774
 20
882.882
 30
0.0
 11
28.885
 21
882.737
 31
0.0
  0
LINE
  5
705
330
1E
100
AcDbEntity
  8
0
100
AcDbLine
 10
29.199
 20
882.735
 30
0.0
 11
29.381
 21
882.5639999999999
 31
0.0
  0
LINE
  5
706
330
1E
100
AcDbEntity
  8
0
100
AcDbLine
 10
29.03
 20
882.8799999999999
 30
0.0
 11
29.199
 21
882.735
 31
0.0
  0
LINE
  5
707
330
1E
100
AcDbEntity
  8
0
100
AcDbLine
 10
28.883
 20
882.9939999999998
 30
0.0
 11
29.03
 21
882.8799999999999
 31
0.0
  0
LINE
  5
708
330
1E
100
AcDbEntity
  8
0
100
AcDbLine
 10
28.768
 20
883.0679999999999
 30
0.0
 11
28.883
 21
882.9939999999998
 31
0.0
  0
LINE
  5
709
330
1E
100
AcDbEntity
  8
0
100
AcDbLine
 10
28.698
 20
883.092
 30
0.0
 11
29.1891295244729
 21
883.581730295058
 31
0.0
  0
LINE
  5
70A
330
1E
100
AcDbEntity
  8
0
100
AcDbLine
 10
28.698
 20
883.092
 30
0.0
 11
28.768
 21
883.0679999999999
 31
0.0
  0
LINE
  5
70B
330
1E
100
AcDbEntity
  8
0
100
AcDbLine
 10
28.677
 20
883.065
 30
0.0
 11
28.701
 21
882.9960000000001
 31
0.0
  0
LINE
  5
70C
330
1E
100
AcDbEntity
  8
0
100
AcDbLine
 10
31.469
 20
883.251
 30
0.0
 11
31.476
 21
883.305
 31
0.0
  0
LINE
  5
70D
330
1E
100
AcDbEntity
  8
0
100
AcDbLine
 10
31.469
 20
883.251
 30
0.0
 11
31.514
 21
883.1510000000001
 31
0.0
  0
LINE
  5
70E
330
1E
100
AcDbEntity
  8
0
100
AcDbLine
 10
31.6
 20
883.0169999999998
 30
0.0
 11
31.73099999999999
 21
882.85
 31
0.0
  0
LINE
  5
70F
330
1E
100
AcDbEntity
  8
0
100
AcDbLine
 10
31.514
 20
883.1510000000001
 30
0.0
 11
31.6
 21
883.0169999999998
 31
0.0
  0
LINE
  5
710
330
1E
100
AcDbEntity
  8
0
100
AcDbLine
 10
31.73099999999999
 20
882.85
 30
0.0
 11
31.895
 21
882.6649999999998
 31
0.0
  0
LINE
  5
711
330
1E
100
AcDbEntity
  8
0
100
AcDbLine
 10
32.114
 20
882.904
 30
0.0
 11
32.29999999999999
 21
882.728
 31
0.0
  0
LINE
  5
712
330
1E
100
AcDbEntity
  8
0
100
AcDbLine
 10
32.29999999999999
 20
882.728
 30
0.0
 11
32.47999999999999
 21
882.544
 31
0.0
  0
LINE
  5
713
330
1E
100
AcDbEntity
  8
0
100
AcDbLine
 10
31.933
 20
883.0589999999999
 30
0.0
 11
32.114
 21
882.904
 31
0.0
  0
LINE
  5
714
330
1E
100
AcDbEntity
  8
0
100
AcDbLine
 10
31.768
 20
883.1849999999999
 30
0.0
 11
31.933
 21
883.0589999999999
 31
0.0
  0
LINE
  5
715
330
1E
100
AcDbEntity
  8
0
100
AcDbLine
 10
31.627
 20
883.2739999999999
 30
0.0
 11
31.768
 21
883.1849999999999
 31
0.0
  0
LINE
  5
716
330
1E
100
AcDbEntity
  8
0
100
AcDbLine
 10
31.528
 20
883.314
 30
0.0
 11
31.627
 21
883.2739999999999
 31
0.0
  0
LINE
  5
717
330
1E
100
AcDbEntity
  8
0
100
AcDbLine
 10
31.476
 20
883.305
 30
0.0
 11
32.0989782633398
 21
883.9360747317439
 31
0.0
  0
LINE
  5
718
330
1E
100
AcDbEntity
  8
0
100
AcDbLine
 10
31.476
 20
883.305
 30
0.0
 11
31.528
 21
883.314
 31
0.0
  0
LINE
  5
719
330
1E
100
AcDbEntity
  8
0
100
AcDbLine
 10
28.108
 20
889.403
 30
0.0
 11
28.281
 21
889.2610000000001
 31
0.0
  0
LINE
  5
71A
330
1E
100
AcDbEntity
  8
0
100
AcDbLine
 10
28.281
 20
889.2610000000001
 30
0.0
 11
28.44
 21
889.159
 31
0.0
  0
LINE
  5
71B
330
1E
100
AcDbEntity
  8
0
100
AcDbLine
 10
28.44
 20
889.159
 30
0.0
 11
28.57499999999999
 21
889.103
 31
0.0
  0
LINE
  5
71C
330
1E
100
AcDbEntity
  8
0
100
AcDbLine
 10
28.57499999999999
 20
889.103
 30
0.0
 11
28.672
 21
889.1049999999999
 31
0.0
  0
LINE
  5
71D
330
1E
100
AcDbEntity
  8
0
100
AcDbLine
 10
28.672
 20
889.1049999999999
 30
0.0
 11
28.72199999999999
 21
889.159
 31
0.0
  0
LINE
  5
71E
330
1E
100
AcDbEntity
  8
0
100
AcDbLine
 10
28.672
 20
889.1049999999999
 30
0.0
 11
29.3294611353844
 21
889.674829920516
 31
0.0
  0
LINE
  5
71F
330
1E
100
AcDbEntity
  8
0
100
AcDbLine
 10
28.068
 20
905.8749999999999
 30
0.0
 11
32.005
 21
902.33
 31
0.0
  0
LINE
  5
720
330
1E
100
AcDbEntity
  8
0
100
AcDbLine
 10
28.159
 20
890.174
 30
0.0
 11
28.329
 21
889.98
 31
0.0
  0
LINE
  5
721
330
1E
100
AcDbEntity
  8
0
100
AcDbLine
 10
28.329
 20
889.98
 30
0.0
 11
28.48499999999999
 21
889.7730000000001
 31
0.0
  0
LINE
  5
722
330
1E
100
AcDbEntity
  8
0
100
AcDbLine
 10
28.48499999999999
 20
889.7730000000001
 30
0.0
 11
28.609
 21
889.5739999999999
 31
0.0
  0
LINE
  5
723
330
1E
100
AcDbEntity
  8
0
100
AcDbLine
 10
28.609
 20
889.5739999999999
 30
0.0
 11
28.69
 21
889.4010000000001
 31
0.0
  0
LINE
  5
725
330
1E
100
AcDbEntity
  8
0
100
AcDbLine
 10
50.2224
 20
885.927
 30
0.0
 11
57.3476
 21
879.5110000000001
 31
0.0
  0
LINE
  5
729
330
1E
100
AcDbEntity
  8
0
100
AcDbLine
 10
32.005
 20
902.33
 30
0.0
 11
36.766
 21
898.0439999999999
 31
0.0
  0
LINE
  5
72B
330
1E
100
AcDbEntity
  8
0
100
AcDbLine
 10
36.766
 20
898.0439999999999
 30
0.0
 11
43.09709999999999
 21
892.3430000000001
 31
0.0
  0
LINE
  5
72D
330
1E
100
AcDbEntity
  8
0
100
AcDbLine
 10
43.09709999999999
 20
892.3430000000001
 30
0.0
 11
50.2224
 21
885.927
 31
0.0
  0
LINE
  5
734
330
1E
100
AcDbEntity
  8
0
100
AcDbLine
 10
34.655
 20
905.9989999999999
 30
0.0
 11
34.878
 21
905.799
 31
0.0
  0
LINE
  5
736
330
1E
100
AcDbEntity
  8
0
100
AcDbLine
 10
229.82
 20
969.5
 30
0.0
 11
230.12
 21
969.5
 31
0.0
  0
LINE
  5
737
330
1E
100
AcDbEntity
  8
0
100
AcDbLine
 10
229.82
 20
969.5
 30
0.0
 11
229.82
 21
702.0
 31
0.0
  0
LINE
  5
738
330
1E
100
AcDbEntity
  8
0
100
AcDbLine
 10
229.82
 20
969.5
 30
0.0
 11
229.82
 21
702.5
 31
0.0
  0
LINE
  5
739
330
1E
100
AcDbEntity
  8
0
100
AcDbLine
 10
229.82
 20
970.5
 30
0.0
 11
229.82
 21
994.0
 31
0.0
  0
LINE
  5
73A
330
1E
100
AcDbEntity
  8
0
100
AcDbLine
 10
229.82
 20
970.5
 30
0.0
 11
230.12
 21
970.5
 31
0.0
  0
LINE
  5
73B
330
1E
100
AcDbEntity
  8
0
100
AcDbLine
 10
229.82
 20
970.5
 30
0.0
 11
230.3199999999999
 21
970.0
 31
0.0
  0
LINE
  5
73C
330
1E
100
AcDbEntity
  8
0
100
AcDbLine
 10
230.12
 20
969.5
 30
0.0
 11
230.8199999999999
 21
969.5
 31
0.0
  0
LINE
  5
73D
330
1E
100
AcDbEntity
  8
0
100
AcDbLine
 10
230.12
 20
969.5
 30
0.0
 11
230.12
 21
483.4999999999999
 31
0.0
  0
LINE
  5
73E
330
1E
100
AcDbEntity
  8
0
100
AcDbLine
 10
230.12
 20
969.5
 30
0.0
 11
230.4699999999999
 21
970.0
 31
0.0
  0
LINE
  5
73F
330
1E
100
AcDbEntity
  8
0
100
AcDbLine
 10
230.3199999999999
 20
994.7
 30
0.0
 11
230.8199999999999
 21
994.7
 31
0.0
  0
LINE
  5
740
330
1E
100
AcDbEntity
  8
0
100
AcDbLine
 10
230.12
 20
994.0
 30
0.0
 11
230.12
 21
970.5
 31
0.0
  0
LINE
  5
741
330
1E
100
AcDbEntity
  8
0
100
AcDbLine
 10
230.12
 20
994.0
 30
0.0
 11
230.3199999999999
 21
994.7
 31
0.0
  0
LINE
  5
742
330
1E
100
AcDbEntity
  8
0
100
AcDbLine
 10
230.12
 20
970.5
 30
0.0
 11
230.12
 21
994.0
 31
0.0
  0
LINE
  5
743
330
1E
100
AcDbEntity
  8
0
100
AcDbLine
 10
230.12
 20
970.5
 30
0.0
 11
230.8199999999999
 21
970.5
 31
0.0
  0
LINE
  5
744
330
1E
100
AcDbEntity
  8
0
100
AcDbLine
 10
230.12
 20
970.5
 30
0.0
 11
230.4699999999999
 21
970.0
 31
0.0
  0
LINE
  5
745
330
1E
100
AcDbEntity
  8
0
100
AcDbLine
 10
230.8199999999999
 20
969.5
 30
0.0
 11
239.3199999999999
 21
969.5
 31
0.0
  0
LINE
  5
746
330
1E
100
AcDbEntity
  8
0
100
AcDbLine
 10
230.8199999999999
 20
970.0
 30
0.0
 11
239.3199999999999
 21
970.0
 31
0.0
  0
LINE
  5
747
330
1E
100
AcDbEntity
  8
0
100
AcDbLine
 10
230.4699999999999
 20
970.0
 30
0.0
 11
230.8199999999999
 21
970.0
 31
0.0
  0
LINE
  5
748
330
1E
100
AcDbEntity
  8
0
100
AcDbLine
 10
239.3199999999999
 20
969.5
 30
0.0
 11
239.3199999999999
 21
483.4999999999999
 31
0.0
  0
LINE
  5
749
330
1E
100
AcDbEntity
  8
0
100
AcDbLine
 10
239.3199999999999
 20
969.5
 30
0.0
 11
239.82
 21
969.5
 31
0.0
  0
LINE
  5
74A
330
1E
100
AcDbEntity
  8
0
100
AcDbLine
 10
239.3199999999999
 20
969.5
 30
0.0
 11
239.3199999999999
 21
970.0
 31
0.0
  0
LINE
  5
74B
330
1E
100
AcDbEntity
  8
0
100
AcDbLine
 10
239.82
 20
969.5
 30
0.0
 11
240.8199999999999
 21
969.5
 31
0.0
  0
LINE
  5
74C
330
1E
100
AcDbEntity
  8
0
100
AcDbLine
 10
239.82
 20
969.5
 30
0.0
 11
239.82
 21
483.4999999999999
 31
0.0
  0
LINE
  5
74D
330
1E
100
AcDbEntity
  8
0
100
AcDbLine
 10
239.3199999999999
 20
970.0
 30
0.0
 11
240.5029
 21
970.0
 31
0.0
  0
LINE
  5
74E
330
1E
100
AcDbEntity
  8
0
100
AcDbLine
 10
239.3199999999999
 20
970.0
 30
0.0
 11
239.82
 21
970.5
 31
0.0
  0
LINE
  5
74F
330
1E
100
AcDbEntity
  8
0
100
AcDbLine
 10
239.3199999999999
 20
970.0
 30
0.0
 11
239.3199999999999
 21
970.5
 31
0.0
  0
LINE
  5
750
330
1E
100
AcDbEntity
  8
0
100
AcDbLine
 10
239.3199999999999
 20
970.0
 30
0.0
 11
239.82
 21
969.5
 31
0.0
  0
LINE
  5
751
330
1E
100
AcDbEntity
  8
0
100
AcDbLine
 10
239.3199999999999
 20
970.0
 30
0.0
 11
239.3199999999999
 21
969.5
 31
0.0
  0
LINE
  5
752
330
1E
100
AcDbEntity
  8
0
100
AcDbLine
 10
230.8199999999999
 20
970.5
 30
0.0
 11
239.3199999999999
 21
970.5
 31
0.0
  0
LINE
  5
753
330
1E
100
AcDbEntity
  8
0
100
AcDbLine
 10
239.3199999999999
 20
970.5
 30
0.0
 11
239.3199999999999
 21
994.0
 31
0.0
  0
LINE
  5
754
330
1E
100
AcDbEntity
  8
0
100
AcDbLine
 10
239.3199999999999
 20
970.5
 30
0.0
 11
239.82
 21
970.5
 31
0.0
  0
LINE
  5
755
330
1E
100
AcDbEntity
  8
0
100
AcDbLine
 10
239.3199999999999
 20
970.5
 30
0.0
 11
239.3199999999999
 21
970.0
 31
0.0
  0
LINE
  5
756
330
1E
100
AcDbEntity
  8
0
100
AcDbLine
 10
240.8199999999999
 20
969.5
 30
0.0
 11
242.8199999999999
 21
969.5
 31
0.0
  0
LINE
  5
757
330
1E
100
AcDbEntity
  8
0
100
AcDbLine
 10
242.8199999999999
 20
969.5
 30
0.0
 11
252.82
 21
969.5
 31
0.0
  0
LINE
  5
758
330
1E
100
AcDbEntity
  8
0
100
AcDbLine
 10
242.8199999999999
 20
970.0
 30
0.0
 11
252.82
 21
970.0
 31
0.0
  0
LINE
  5
759
330
1E
100
AcDbEntity
  8
0
100
AcDbLine
 10
240.5029
 20
970.0
 30
0.0
 11
242.8199999999999
 21
970.0
 31
0.0
  0
LINE
  5
75A
330
1E
100
AcDbEntity
  8
0
100
AcDbLine
 10
239.82
 20
970.5
 30
0.0
 11
240.8199999999999
 21
970.5
 31
0.0
  0
LINE
  5
75B
330
1E
100
AcDbEntity
  8
0
100
AcDbLine
 10
239.82
 20
970.5
 30
0.0
 11
239.82
 21
994.0
 31
0.0
  0
LINE
  5
75C
330
1E
100
AcDbEntity
  8
0
100
AcDbLine
 10
240.8199999999999
 20
970.5
 30
0.0
 11
240.8199999999999
 21
994.0
 31
0.0
  0
LINE
  5
75D
330
1E
100
AcDbEntity
  8
0
100
AcDbLine
 10
240.8199999999999
 20
970.5
 30
0.0
 11
242.8199999999999
 21
970.5
 31
0.0
  0
LINE
  5
75E
330
1E
100
AcDbEntity
  8
0
100
AcDbLine
 10
252.82
 20
969.5
 30
0.0
 11
252.82
 21
970.0
 31
0.0
  0
LINE
  5
75F
330
1E
100
AcDbEntity
  8
0
100
AcDbLine
 10
252.82
 20
970.0
 30
0.0
 11
252.82
 21
970.5
 31
0.0
  0
LINE
  5
760
330
1E
100
AcDbEntity
  8
0
100
AcDbLine
 10
242.8199999999999
 20
970.5
 30
0.0
 11
252.82
 21
970.5
 31
0.0
  0
LINE
  5
761
330
1E
100
AcDbEntity
  8
0
100
AcDbLine
 10
239.3199999999999
 20
994.0
 30
0.0
 11
239.3199999999999
 21
970.5
 31
0.0
  0
LINE
  5
762
330
1E
100
AcDbEntity
  8
0
100
AcDbLine
 10
239.3199999999999
 20
994.0
 30
0.0
 11
239.3199999999999
 21
994.7
 31
0.0
  0
LINE
  5
763
330
1E
100
AcDbEntity
  8
0
100
AcDbLine
 10
230.8199999999999
 20
994.7
 30
0.0
 11
239.3199999999999
 21
994.7
 31
0.0
  0
LINE
  5
764
330
1E
100
AcDbEntity
  8
0
100
AcDbLine
 10
239.3199999999999
 20
994.7
 30
0.0
 11
239.5199999999999
 21
994.7
 31
0.0
  0
LINE
  5
765
330
1E
100
AcDbEntity
  8
0
100
AcDbLine
 10
239.3199999999999
 20
994.7
 30
0.0
 11
239.3199999999999
 21
994.0
 31
0.0
  0
LINE
  5
766
330
1E
100
AcDbEntity
  8
0
100
AcDbLine
 10
239.5199999999999
 20
994.7
 30
0.0
 11
240.62
 21
994.7
 31
0.0
  0
LINE
  5
767
330
1E
100
AcDbEntity
  8
0
100
AcDbLine
 10
239.5199999999999
 20
994.7
 30
0.0
 11
239.82
 21
994.0
 31
0.0
  0
LINE
  5
768
330
1E
100
AcDbEntity
  8
0
100
AcDbLine
 10
240.62
 20
994.7
 30
0.0
 11
242.8199999999999
 21
994.7
 31
0.0
  0
LINE
  5
769
330
1E
100
AcDbEntity
  8
0
100
AcDbLine
 10
239.82
 20
994.0
 30
0.0
 11
239.82
 21
970.5
 31
0.0
  0
LINE
  5
76A
330
1E
100
AcDbEntity
  8
0
100
AcDbLine
 10
242.8199999999999
 20
994.7
 30
0.0
 11
252.82
 21
994.7
 31
0.0
  0
LINE
  5
76B
330
1E
100
AcDbEntity
  8
0
100
AcDbLine
 10
240.8199999999999
 20
994.0
 30
0.0
 11
240.8199999999999
 21
970.5
 31
0.0
  0
LINE
  5
76C
330
1E
100
AcDbEntity
  8
0
100
AcDbLine
 10
252.82
 20
994.7
 30
0.0
 11
252.82
 21
995.0
 31
0.0
  0
LINE
  5
76D
330
1E
100
AcDbEntity
  8
0
100
AcDbLine
 10
252.82
 20
994.7
 30
0.0
 11
252.82
 21
994.0
 31
0.0
  0
LINE
  5
76E
330
1E
100
AcDbEntity
  8
0
100
AcDbLine
 10
252.82
 20
994.0
 30
0.0
 11
252.82
 21
994.7
 31
0.0
  0
LINE
  5
76F
330
1E
100
AcDbEntity
  8
0
100
AcDbLine
 10
252.82
 20
994.0
 30
0.0
 11
252.82
 21
970.5
 31
0.0
  0
LINE
  5
770
330
1E
100
AcDbEntity
  8
0
100
AcDbLine
 10
252.82
 20
970.5
 30
0.0
 11
252.82
 21
994.0
 31
0.0
  0
LINE
  5
771
330
1E
100
AcDbEntity
  8
0
100
AcDbLine
 10
252.82
 20
970.5
 30
0.0
 11
252.82
 21
970.0
 31
0.0
  0
LINE
  5
772
330
1E
100
AcDbEntity
  8
0
100
AcDbLine
 10
230.3199999999999
 20
970.0
 30
0.0
 11
230.4699999999999
 21
970.0
 31
0.0
  0
LINE
  5
773
330
1E
100
AcDbEntity
  8
0
100
AcDbLine
 10
252.82
 20
995.0
 30
0.0
 11
252.82
 21
994.7
 31
0.0
  0
LINE
  5
774
330
1E
100
AcDbEntity
  8
0
100
AcDbLine
 10
230.12
 20
994.7
 30
0.0
 11
230.8199999999999
 21
995.0
 31
0.0
  0
LINE
  5
775
330
1E
100
AcDbEntity
  8
0
100
AcDbLine
 10
230.12
 20
994.7
 30
0.0
 11
230.3199999999999
 21
994.7
 31
0.0
  0
LINE
  5
776
330
1E
100
AcDbEntity
  8
0
100
AcDbLine
 10
229.82
 20
994.0
 30
0.0
 11
229.82
 21
970.5
 31
0.0
  0
LINE
  5
777
330
1E
100
AcDbEntity
  8
0
100
AcDbLine
 10
229.82
 20
994.0
 30
0.0
 11
230.12
 21
994.7
 31
0.0
  0
LINE
  5
778
330
1E
100
AcDbEntity
  8
0
100
AcDbLine
 10
28.72199999999999
 20
889.159
 30
0.0
 11
28.73099999999999
 21
889.258
 31
0.0
  0
LINE
  5
779
330
1E
100
AcDbEntity
  8
0
100
AcDbLine
 10
28.69
 20
889.4010000000001
 30
0.0
 11
28.73099999999999
 21
889.258
 31
0.0
  0
LINE
  5
77E
330
1E
100
AcDbEntity
  8
0
100
AcDbLine
 10
34.878
 20
905.799
 30
0.0
 11
71.8121
 21
872.5430000000001
 31
0.0
  0
LINE
  5
77F
330
1E
100
AcDbEntity
  8
0
100
AcDbLine
 10
94.6320699025715
 20
829.1479621496678
 30
0.0
 11
95.85799999999998
 21
827.4079999999999
 31
0.0
  0
LINE
  5
780
330
1E
100
AcDbEntity
  8
0
100
AcDbLine
 10
181.8947999999999
 20
697.176
 30
0.0
 11
181.035700703324
 21
696.6799989256799
 31
0.0
  0
LINE
  5
781
330
1E
100
AcDbEntity
  8
0
100
AcDbLine
 10
181.035700703324
 20
696.6799989256799
 30
0.0
 11
180.244743805788
 21
696.2233398170139
 31
0.0
  0
LINE
  5
782
330
1E
100
AcDbEntity
  8
0
100
AcDbLine
 10
180.244743805788
 20
696.2233398170139
 30
0.0
 11
168.3397
 21
689.35
 31
0.0
  0
ENDSEC
  0
SECTION
  2
OBJECTS
  0
DICTIONARY
  5
C
330
0
100
AcDbDictionary
281
     1
  3
ACAD_GROUP
350
D
  3
ACAD_LAYOUT
350
19
  3
ACAD_MLINESTYLE
350
16
  3
ACAD_PLOTSETTINGS
350
18
  3
ACAD_PLOTSTYLENAME
350
E
  3
AcDbVariableDictionary
350
783
  0
DICTIONARY
  5
D
102
{ACAD_REACTORS
330
C
102
}
330
C
100
AcDbDictionary
281
     1
  0
DICTIONARY
  5
19
102
{ACAD_REACTORS
330
C
102
}
330
C
100
AcDbDictionary
281
     1
  3
Layout1
350
1D
  3
Model
350
21
  0
DICTIONARY
  5
16
102
{ACAD_REACTORS
330
C
102
}
330
C
100
AcDbDictionary
281
     1
  3
Standard
350
17
  0
DICTIONARY
  5
18
102
{ACAD_REACTORS
330
C
102
}
330
C
100
AcDbDictionary
281
     1
  0
ACDBDICTIONARYWDFLT
  5
E
102
{ACAD_REACTORS
330
C
102
}
330
C
100
AcDbDictionary
281
     1
  3
Normal
350
F
100
AcDbDictionaryWithDefault
340
F
  0
DICTIONARY
  5
783
102
{ACAD_REACTORS
330
C
102
}
330
C
100
AcDbDictionary
281
     1
  3
DIMASSOC
350
784
  0
LAYOUT
  5
1D
102
{ACAD_REACTORS
330
19
102
}
330
19
100
AcDbPlotSettings
  1

  2
hp deskjet 980c series
  4

  6

 40
0.0
 41
0.0
 42
0.0
 43
0.0
 44
0.0
 45
0.0
 46
0.0
 47
0.0
 48
0.0
 49
0.0
140
0.0
141
0.0
142
1.0
143
1.0
 70
   688
 72
     0
 73
     0
 74
     5
  7

 75
    16
147
1.0
148
0.0
149
0.0
100
AcDbLayout
  1
Layout1
 70
     1
 71
     1
 10
0.0
 20
0.0
 11
12.0
 21
9.0
 12
0.0
 22
0.0
 32
0.0
 14
1.000000000000000E+20
 24
1.000000000000000E+20
 34
1.000000000000000E+20
 15
-1.000000000000000E+20
 25
-1.000000000000000E+20
 35
-1.000000000000000E+20
146
0.0
 13
0.0
 23
0.0
 33
0.0
 16
1.0
 26
0.0
 36
0.0
 17
0.0
 27
1.0
 37
0.0
 76
     0
330
1A
  0
LAYOUT
  5
21
102
{ACAD_REACTORS
330
19
102
}
330
19
100
AcDbPlotSettings
  1

  2
hp deskjet 980c series
  4

  6

 40
0.0
 41
0.0
 42
0.0
 43
0.0
 44
0.0
 45
0.0
 46
0.0
 47
0.0
 48
0.0
 49
0.0
140
0.0
141
0.0
142
1.0
143
1.0
 70
  1712
 72
     0
 73
     0
 74
     0
  7

 75
     0
147
1.0
148
0.0
149
0.0
100
AcDbLayout
  1
Model
 70
     1
 71
     0
 10
0.0
 20
0.0
 11
12.0
 21
9.0
 12
0.0
 22
0.0
 32
0.0
 14
0.0
 24
0.0
 34
0.0
 15
0.0
 25
0.0
 35
0.0
146
0.0
 13
0.0
 23
0.0
 33
0.0
 16
1.0
 26
0.0
 36
0.0
 17
0.0
 27
1.0
 37
0.0
 76
     0
330
1E
  0
MLINESTYLE
  5
17
102
{ACAD_REACTORS
330
16
102
}
330
16
100
AcDbMlineStyle
  2
STANDARD
 70
     0
  3

 62
   256
 51
90.0
 52
90.0
 71
     2
 49
0.5
 62
   256
  6
BYLAYER
 49
-0.5
 62
   256
  6
BYLAYER
  0
ACDBPLACEHOLDER
  5
F
102
{ACAD_REACTORS
330
E
102
}
330
E
  0
DICTIONARYVAR
  5
784
102
{ACAD_REACTORS
330
783
102
}
330
783
100
DictionaryVariables
280
     0
  1
1
  0
ENDSEC
  0
EOF
