  0
SECTION
  2
HEADER
  9
$ACADVER
  1
AC1015
  9
$ACADMAINTVER
 70
    13
  9
$DWGCODEPAGE
  3
ANSI_1252
  9
$INSBASE
 10
0.0
 20
0.0
 30
0.0
  9
$EXTMIN
 10
-0.0678389999999892
 20
0.188614999999985
 30
0.0
  9
$EXTMAX
 10
236.067839
 20
104.811385
 30
0.0
  9
$LIMMIN
 10
0.0
 20
0.0
  9
$LIMMAX
 10
12.0
 20
9.0
  9
$ORTHOMODE
 70
     0
  9
$REGENMODE
 70
     1
  9
$FILLMODE
 70
     1
  9
$QTEXTMODE
 70
     0
  9
$MIRRTEXT
 70
     1
  9
$LTSCALE
 40
1.0
  9
$ATTMODE
 70
     1
  9
$TEXTSIZE
 40
0.2
  9
$TRACEWID
 40
0.05
  9
$TEXTSTYLE
  7
Standard
  9
$CLAYER
  8
0
  9
$CELTYPE
  6
Continuous
  9
$CECOLOR
 62
   256
  9
$CELTSCALE
 40
1.0
  9
$DISPSILH
 70
     0
  9
$DIMSCALE
 40
1.0
  9
$DIMASZ
 40
0.18
  9
$DIMEXO
 40
0.0625
  9
$DIMDLI
 40
0.38
  9
$DIMRND
 40
0.0
  9
$DIMDLE
 40
0.0
  9
$DIMEXE
 40
0.18
  9
$DIMTP
 40
0.0
  9
$DIMTM
 40
0.0
  9
$DIMTXT
 40
0.18
  9
$DIMCEN
 40
0.09
  9
$DIMTSZ
 40
0.0
  9
$DIMTOL
 70
     0
  9
$DIMLIM
 70
     0
  9
$DIMTIH
 70
     1
  9
$DIMTOH
 70
     1
  9
$DIMSE1
 70
     0
  9
$DIMSE2
 70
     0
  9
$DIMTAD
 70
     0
  9
$DIMZIN
 70
     0
  9
$DIMBLK
  1

  9
$DIMASO
 70
     1
  9
$DIMSHO
 70
     1
  9
$DIMPOST
  1

  9
$DIMAPOST
  1

  9
$DIMALT
 70
     0
  9
$DIMALTD
 70
     2
  9
$DIMALTF
 40
25.4
  9
$DIMLFAC
 40
1.0
  9
$DIMTOFL
 70
     0
  9
$DIMTVP
 40
0.0
  9
$DIMTIX
 70
     0
  9
$DIMSOXD
 70
     0
  9
$DIMSAH
 70
     0
  9
$DIMBLK1
  1

  9
$DIMBLK2
  1

  9
$DIMSTYLE
  2
Standard
  9
$DIMCLRD
 70
     0
  9
$DIMCLRE
 70
     0
  9
$DIMCLRT
 70
     0
  9
$DIMTFAC
 40
1.0
  9
$DIMGAP
 40
0.09
  9
$DIMJUST
 70
     0
  9
$DIMSD1
 70
     0
  9
$DIMSD2
 70
     0
  9
$DIMTOLJ
 70
     1
  9
$DIMTZIN
 70
     0
  9
$DIMALTZ
 70
     0
  9
$DIMALTTZ
 70
     0
  9
$DIMUPT
 70
     0
  9
$DIMDEC
 70
     4
  9
$DIMTDEC
 70
     4
  9
$DIMALTU
 70
     2
  9
$DIMALTTD
 70
     2
  9
$DIMTXSTY
  7
Standard
  9
$DIMAUNIT
 70
     0
  9
$DIMADEC
 70
     0
  9
$DIMALTRND
 40
0.0
  9
$DIMAZIN
 70
     0
  9
$DIMDSEP
 70
    46
  9
$DIMATFIT
 70
     3
  9
$DIMFRAC
 70
     0
  9
$DIMLDRBLK
  1

  9
$DIMLUNIT
 70
     2
  9
$DIMLWD
 70
    -2
  9
$DIMLWE
 70
    -2
  9
$DIMTMOVE
 70
     0
  9
$LUNITS
 70
     2
  9
$LUPREC
 70
     4
  9
$SKETCHINC
 40
0.1
  9
$FILLETRAD
 40
0.0
  9
$AUNITS
 70
     0
  9
$AUPREC
 70
     0
  9
$MENU
  1
.
  9
$ELEVATION
 40
0.0
  9
$PELEVATION
 40
0.0
  9
$THICKNESS
 40
0.0
  9
$LIMCHECK
 70
     0
  9
$CHAMFERA
 40
0.0
  9
$CHAMFERB
 40
0.0
  9
$CHAMFERC
 40
0.0
  9
$CHAMFERD
 40
0.0
  9
$SKPOLY
 70
     0
  9
$TDCREATE
 40
2454907.854234120
  9
$TDUCREATE
 40
2454907.812567454
  9
$TDUPDATE
 40
2454907.875585567
  9
$TDUUPDATE
 40
2454907.833918900
  9
$TDINDWG
 40
0.0213516319
  9
$TDUSRTIMER
 40
0.0213516319
  9
$USRTIMER
 70
     1
  9
$ANGBASE
 50
0.0
  9
$ANGDIR
 70
     0
  9
$PDMODE
 70
     0
  9
$PDSIZE
 40
0.0
  9
$PLINEWID
 40
0.0
  9
$SPLFRAME
 70
     0
  9
$SPLINETYPE
 70
     6
  9
$SPLINESEGS
 70
     8
  9
$HANDSEED
  5
64E
  9
$SURFTAB1
 70
     6
  9
$SURFTAB2
 70
     6
  9
$SURFTYPE
 70
     6
  9
$SURFU
 70
     6
  9
$SURFV
 70
     6
  9
$UCSBASE
  2

  9
$UCSNAME
  2

  9
$UCSORG
 10
0.0
 20
0.0
 30
0.0
  9
$UCSXDIR
 10
1.0
 20
0.0
 30
0.0
  9
$UCSYDIR
 10
0.0
 20
1.0
 30
0.0
  9
$UCSORTHOREF
  2

  9
$UCSORTHOVIEW
 70
     1
  9
$UCSORGTOP
 10
0.0
 20
0.0
 30
0.0
  9
$UCSORGBOTTOM
 10
0.0
 20
0.0
 30
0.0
  9
$UCSORGLEFT
 10
0.0
 20
0.0
 30
0.0
  9
$UCSORGRIGHT
 10
0.0
 20
0.0
 30
0.0
  9
$UCSORGFRONT
 10
0.0
 20
0.0
 30
0.0
  9
$UCSORGBACK
 10
0.0
 20
0.0
 30
0.0
  9
$PUCSBASE
  2

  9
$PUCSNAME
  2

  9
$PUCSORG
 10
0.0
 20
0.0
 30
0.0
  9
$PUCSXDIR
 10
1.0
 20
0.0
 30
0.0
  9
$PUCSYDIR
 10
0.0
 20
1.0
 30
0.0
  9
$PUCSORTHOREF
  2

  9
$PUCSORTHOVIEW
 70
     0
  9
$PUCSORGTOP
 10
0.0
 20
0.0
 30
0.0
  9
$PUCSORGBOTTOM
 10
0.0
 20
0.0
 30
0.0
  9
$PUCSORGLEFT
 10
0.0
 20
0.0
 30
0.0
  9
$PUCSORGRIGHT
 10
0.0
 20
0.0
 30
0.0
  9
$PUCSORGFRONT
 10
0.0
 20
0.0
 30
0.0
  9
$PUCSORGBACK
 10
0.0
 20
0.0
 30
0.0
  9
$USERI1
 70
     0
  9
$USERI2
 70
     0
  9
$USERI3
 70
     0
  9
$USERI4
 70
     0
  9
$USERI5
 70
     0
  9
$USERR1
 40
0.0
  9
$USERR2
 40
0.0
  9
$USERR3
 40
0.0
  9
$USERR4
 40
0.0
  9
$USERR5
 40
0.0
  9
$WORLDVIEW
 70
     1
  9
$SHADEDGE
 70
     3
  9
$SHADEDIF
 70
    70
  9
$TILEMODE
 70
     1
  9
$MAXACTVP
 70
    64
  9
$PINSBASE
 10
0.0
 20
0.0
 30
0.0
  9
$PLIMCHECK
 70
     0
  9
$PEXTMIN
 10
1.000000000000000E+20
 20
1.000000000000000E+20
 30
1.000000000000000E+20
  9
$PEXTMAX
 10
-1.000000000000000E+20
 20
-1.000000000000000E+20
 30
-1.000000000000000E+20
  9
$PLIMMIN
 10
0.0
 20
0.0
  9
$PLIMMAX
 10
12.0
 20
9.0
  9
$UNITMODE
 70
     0
  9
$VISRETAIN
 70
     1
  9
$PLINEGEN
 70
     0
  9
$PSLTSCALE
 70
     1
  9
$TREEDEPTH
 70
  3020
  9
$CMLSTYLE
  2
Standard
  9
$CMLJUST
 70
     0
  9
$CMLSCALE
 40
1.0
  9
$PROXYGRAPHICS
 70
     1
  9
$MEASUREMENT
 70
     0
  9
$CELWEIGHT
370
    -1
  9
$ENDCAPS
280
     0
  9
$JOINSTYLE
280
     0
  9
$LWDISPLAY
290
     0
  9
$INSUNITS
 70
     0
  9
$HYPERLINKBASE
  1

  9
$STYLESHEET
  1

  9
$XEDIT
290
     1
  9
$CEPSNTYPE
380
     0
  9
$PSTYLEMODE
290
     1
  9
$FINGERPRINTGUID
  2
{F6F883EA-D4D5-4636-A161-2CE4D96AB975}
  9
$VERSIONGUID
  2
{AB7D51CC-6201-4E83-9F20-C0F6E305E74C}
  9
$EXTNAMES
290
     1
  9
$PSVPSCALE
 40
0.0
  9
$OLESTARTUP
290
     0
  0
ENDSEC
  0
SECTION
  2
CLASSES
  0
CLASS
  1
ACDBDICTIONARYWDFLT
  2
AcDbDictionaryWithDefault
  3
AutoCAD 2000
 90
        0
280
     0
281
     0
  0
CLASS
  1
ACDBPLACEHOLDER
  2
AcDbPlaceHolder
  3
AutoCAD 2000
 90
        0
280
     0
281
     0
  0
CLASS
  1
LAYOUT
  2
AcDbLayout
  3
AutoCAD 2000
 90
        0
280
     0
281
     0
  0
CLASS
  1
DICTIONARYVAR
  2
AcDbDictionaryVar
  3
AutoCAD 2000
 90
        0
280
     0
281
     0
  0
ENDSEC
  0
SECTION
  2
TABLES
  0
TABLE
  2
VPORT
  5
8
330
0
100
AcDbSymbolTable
 70
     2
  0
VPORT
  5
64D
330
8
100
AcDbSymbolTableRecord
100
AcDbViewportTableRecord
  2
*Active
 70
     0
 10
0.0
 20
0.0
 11
1.0
 21
1.0
 12
118.0
 22
52.5
 13
0.0
 23
0.0
 14
1.0
 24
1.0
 15
0.0
 25
0.0
 16
0.0
 26
0.0
 36
1.0
 17
0.0
 27
0.0
 37
0.0
 40
120.3491206238979
 41
1.968387776606954
 42
50.0
 43
0.0
 44
0.0
 50
0.0
 51
0.0
 71
     0
 72
   100
 73
     1
 74
     3
 75
     0
 76
     0
 77
     0
 78
     0
281
     0
 65
     1
110
0.0
120
0.0
130
0.0
111
1.0
121
0.0
131
0.0
112
0.0
122
1.0
132
0.0
 79
     1
146
0.0
  0
ENDTAB
  0
TABLE
  2
LTYPE
  5
5
330
0
100
AcDbSymbolTable
 70
     1
  0
LTYPE
  5
13
330
5
100
AcDbSymbolTableRecord
100
AcDbLinetypeTableRecord
  2
ByBlock
 70
     0
  3

 72
    65
 73
     0
 40
0.0
  0
LTYPE
  5
14
330
5
100
AcDbSymbolTableRecord
100
AcDbLinetypeTableRecord
  2
ByLayer
 70
     0
  3

 72
    65
 73
     0
 40
0.0
  0
LTYPE
  5
15
330
5
100
AcDbSymbolTableRecord
100
AcDbLinetypeTableRecord
  2
Continuous
 70
     0
  3
Solid line
 72
    65
 73
     0
 40
0.0
  0
ENDTAB
  0
TABLE
  2
LAYER
  5
2
330
0
100
AcDbSymbolTable
 70
     1
  0
LAYER
  5
10
330
2
100
AcDbSymbolTableRecord
100
AcDbLayerTableRecord
  2
0
 70
     0
 62
     7
  6
Continuous
370
    -3
390
F
  0
ENDTAB
  0
TABLE
  2
STYLE
  5
3
330
0
100
AcDbSymbolTable
 70
     1
  0
STYLE
  5
11
330
3
100
AcDbSymbolTableRecord
100
AcDbTextStyleTableRecord
  2
Standard
 70
     0
 40
0.0
 41
1.0
 50
0.0
 71
     0
 42
0.2
  3
txt
  4

  0
ENDTAB
  0
TABLE
  2
VIEW
  5
6
330
0
100
AcDbSymbolTable
 70
     0
  0
ENDTAB
  0
TABLE
  2
UCS
  5
7
330
0
100
AcDbSymbolTable
 70
     0
  0
ENDTAB
  0
TABLE
  2
APPID
  5
9
330
0
100
AcDbSymbolTable
 70
     1
  0
APPID
  5
12
330
9
100
AcDbSymbolTableRecord
100
AcDbRegAppTableRecord
  2
ACAD
 70
     0
  0
ENDTAB
  0
TABLE
  2
DIMSTYLE
  5
A
330
0
100
AcDbSymbolTable
 70
     1
100
AcDbDimStyleTable
 71
     0
  0
DIMSTYLE
105
644
330
A
100
AcDbSymbolTableRecord
100
AcDbDimStyleTableRecord
  2
Standard
 70
     0
340
11
  0
ENDTAB
  0
TABLE
  2
BLOCK_RECORD
  5
1
330
0
100
AcDbSymbolTable
 70
     0
  0
BLOCK_RECORD
  5
1E
330
1
100
AcDbSymbolTableRecord
100
AcDbBlockTableRecord
  2
*Model_Space
340
21
  0
BLOCK_RECORD
  5
1A
330
1
100
AcDbSymbolTableRecord
100
AcDbBlockTableRecord
  2
*Paper_Space
340
1D
  0
ENDTAB
  0
ENDSEC
  0
SECTION
  2
BLOCKS
  0
BLOCK
  5
1F
330
1E
100
AcDbEntity
  8
0
100
AcDbBlockBegin
  2
*Model_Space
 70
     0
 10
0.0
 20
0.0
 30
0.0
  3
*Model_Space
  1

  0
ENDBLK
  5
20
330
1E
100
AcDbEntity
  8
0
100
AcDbBlockEnd
  0
BLOCK
  5
1B
330
1A
100
AcDbEntity
 67
     1
  8
0
100
AcDbBlockBegin
  2
*Paper_Space
 70
     0
 10
0.0
 20
0.0
 30
0.0
  3
*Paper_Space
  1

  0
ENDBLK
  5
1C
330
1A
100
AcDbEntity
 67
     1
  8
0
100
AcDbBlockEnd
  0
ENDSEC
  0
SECTION
  2
ENTITIES
  0
LINE
  5
22
330
1E
100
AcDbEntity
  8
0
100
AcDbLine
 10
44.189739
 20
74.709585
 30
0.0
 11
44.550439
 21
74.585685
 31
0.0
  0
LINE
  5
23
330
1E
100
AcDbEntity
  8
0
100
AcDbLine
 10
44.550439
 20
74.585685
 30
0.0
 11
45.023039
 21
74.43178499999999
 31
0.0
  0
LINE
  5
24
330
1E
100
AcDbEntity
  8
0
100
AcDbLine
 10
46.186039
 20
74.07048499999999
 30
0.0
 11
46.803739
 21
73.885785
 31
0.0
  0
LINE
  5
25
330
1E
100
AcDbEntity
  8
0
100
AcDbLine
 10
45.577339
 20
74.256985
 30
0.0
 11
46.186039
 21
74.07048499999999
 31
0.0
  0
LINE
  5
26
330
1E
100
AcDbEntity
  8
0
100
AcDbLine
 10
45.023039
 20
74.43178499999999
 30
0.0
 11
45.577339
 21
74.256985
 31
0.0
  0
LINE
  5
27
330
1E
100
AcDbEntity
  8
0
100
AcDbLine
 10
2.795209000000009
 20
95.77348499999999
 30
0.0
 11
7.777419000000009
 21
91.404185
 31
0.0
  0
LINE
  5
28
330
1E
100
AcDbEntity
  8
0
100
AcDbLine
 10
2.795209000000009
 20
95.77348499999999
 30
0.0
 11
7.777419000000009
 21
91.404185
 31
0.0
  0
LINE
  5
29
330
1E
100
AcDbEntity
  8
0
100
AcDbLine
 10
0.4737290000000101
 20
99.475385
 30
0.0
 11
2.795209000000009
 21
95.77348499999999
 31
0.0
  0
LINE
  5
2A
330
1E
100
AcDbEntity
  8
0
100
AcDbLine
 10
-0.0678389999999892
 20
102.551385
 30
0.0
 11
0.140073000000011
 21
103.5293849999999
 31
0.0
  0
LINE
  5
2B
330
1E
100
AcDbEntity
  8
0
100
AcDbLine
 10
-0.0678389999999892
 20
102.551385
 30
0.0
 11
0.4737290000000101
 21
99.475385
 31
0.0
  0
LINE
  5
2C
330
1E
100
AcDbEntity
  8
0
100
AcDbLine
 10
0.7948390000000111
 20
103.3903849999999
 30
0.0
 11
1.57106900000001
 21
103.225385
 31
0.0
  0
LINE
  5
2D
330
1E
100
AcDbEntity
  8
0
100
AcDbLine
 10
1.57106900000001
 20
103.225385
 30
0.0
 11
2.379029000000009
 21
103.0533849999999
 31
0.0
  0
LINE
  5
2E
330
1E
100
AcDbEntity
  8
0
100
AcDbLine
 10
0.666479000000011
 20
104.459385
 30
0.0
 11
3.832669000000009
 21
104.811385
 31
0.0
  0
LINE
  5
30
330
1E
100
AcDbEntity
  8
0
100
AcDbLine
 10
0.666479000000011
 20
104.459385
 30
0.0
 11
3.832669000000009
 21
104.811385
 31
0.0
  0
LINE
  5
31
330
1E
100
AcDbEntity
  8
0
100
AcDbLine
 10
0.140073000000011
 20
103.5293849999999
 30
0.0
 11
0.343511000000011
 21
103.486385
 31
0.0
  0
LINE
  5
32
330
1E
100
AcDbEntity
  8
0
100
AcDbLine
 10
0.140073000000011
 20
103.5293849999999
 30
0.0
 11
0.666479000000011
 21
104.459385
 31
0.0
  0
LINE
  5
36
330
1E
100
AcDbEntity
  8
0
100
AcDbLine
 10
0.343511000000011
 20
103.486385
 30
0.0
 11
0.7948390000000111
 21
103.3903849999999
 31
0.0
  0
LINE
  5
38
330
1E
100
AcDbEntity
  8
0
100
AcDbLine
 10
2.379029000000009
 20
103.0533849999999
 30
0.0
 11
3.514669000000009
 21
102.8123849999999
 31
0.0
  0
LINE
  5
39
330
1E
100
AcDbEntity
  8
0
100
AcDbLine
 10
7.777419000000009
 20
91.404185
 30
0.0
 11
10.0370816565178
 21
90.1275004784993
 31
0.0
  0
LINE
  5
3A
330
1E
100
AcDbEntity
  8
0
100
AcDbLine
 10
7.146309000000009
 20
102.040385
 30
0.0
 11
8.856649000000009
 21
101.676385
 31
0.0
  0
LINE
  5
3C
330
1E
100
AcDbEntity
  8
0
100
AcDbLine
 10
4.808089000000009
 20
102.537385
 30
0.0
 11
5.942089000000009
 21
102.296385
 31
0.0
  0
LINE
  5
3F
330
1E
100
AcDbEntity
  8
0
100
AcDbLine
 10
5.942089000000009
 20
102.296385
 30
0.0
 11
7.146309000000009
 21
102.040385
 31
0.0
  0
LINE
  5
41
330
1E
100
AcDbEntity
  8
0
100
AcDbLine
 10
8.856649000000009
 20
101.676385
 30
0.0
 11
10.997539
 21
101.2213849999999
 31
0.0
  0
LINE
  5
42
330
1E
100
AcDbEntity
  8
0
100
AcDbLine
 10
3.832669000000009
 20
104.811385
 30
0.0
 11
10.71713899999999
 21
104.364385
 31
0.0
  0
LINE
  5
44
330
1E
100
AcDbEntity
  8
0
100
AcDbLine
 10
3.514669000000009
 20
102.8123849999999
 30
0.0
 11
4.808089000000009
 21
102.537385
 31
0.0
  0
LINE
  5
45
330
1E
100
AcDbEntity
  8
0
100
AcDbLine
 10
9.750339000000009
 20
89.62008500000001
 30
0.0
 11
9.802039000000009
 21
89.57878499999999
 31
0.0
  0
LINE
  5
46
330
1E
100
AcDbEntity
  8
0
100
AcDbLine
 10
9.802039000000009
 20
89.57878499999999
 30
0.0
 11
9.91233900000001
 21
89.504785
 31
0.0
  0
LINE
  5
47
330
1E
100
AcDbEntity
  8
0
100
AcDbLine
 10
9.815739000000009
 20
89.606185
 30
0.0
 11
9.928739000000009
 21
89.551785
 31
0.0
  0
LINE
  5
48
330
1E
100
AcDbEntity
  8
0
100
AcDbLine
 10
10.09303899999999
 20
89.466385
 30
0.0
 11
10.29543899999999
 21
89.35638500000001
 31
0.0
  0
LINE
  5
49
330
1E
100
AcDbEntity
  8
0
100
AcDbLine
 10
9.928739000000009
 20
89.551785
 30
0.0
 11
10.09303899999999
 21
89.466385
 31
0.0
  0
LINE
  5
4A
330
1E
100
AcDbEntity
  8
0
100
AcDbLine
 10
10.258239
 20
89.481785
 30
0.0
 11
10.306039
 21
89.42108499999999
 31
0.0
  0
LINE
  5
4B
330
1E
100
AcDbEntity
  8
0
100
AcDbLine
 10
9.91233900000001
 20
89.504785
 30
0.0
 11
10.07373899999999
 21
89.403485
 31
0.0
  0
LINE
  5
4C
330
1E
100
AcDbEntity
  8
0
100
AcDbLine
 10
10.07373899999999
 20
89.403485
 30
0.0
 11
10.267439
 21
89.28648499999999
 31
0.0
  0
LINE
  5
4D
330
1E
100
AcDbEntity
  8
0
100
AcDbLine
 10
19.505339
 20
84.63988499999999
 30
0.0
 11
19.695739
 21
84.55678499999999
 31
0.0
  0
LINE
  5
4E
330
1E
100
AcDbEntity
  8
0
100
AcDbLine
 10
21.665739
 20
83.95708499999999
 30
0.0
 11
21.762239
 21
83.94298499999999
 31
0.0
  0
LINE
  5
4F
330
1E
100
AcDbEntity
  8
0
100
AcDbLine
 10
21.624939
 20
83.94868499999999
 30
0.0
 11
21.849395537415
 21
84.54323805633309
 31
0.0
  0
LINE
  5
50
330
1E
100
AcDbEntity
  8
0
100
AcDbLine
 10
21.648939
 20
83.915185
 30
0.0
 11
21.739939
 21
83.85818499999999
 31
0.0
  0
LINE
  5
51
330
1E
100
AcDbEntity
  8
0
100
AcDbLine
 10
23.20453899999999
 20
83.287685
 30
0.0
 11
23.35843899999999
 21
83.24858499999999
 31
0.0
  0
LINE
  5
52
330
1E
100
AcDbEntity
  8
0
100
AcDbLine
 10
23.35843899999999
 20
83.24858499999999
 30
0.0
 11
23.454939
 21
83.23448499999999
 31
0.0
  0
LINE
  5
53
330
1E
100
AcDbEntity
  8
0
100
AcDbLine
 10
23.380739
 20
83.333285
 30
0.0
 11
23.47163899999999
 21
83.276385
 31
0.0
  0
LINE
  5
54
330
1E
100
AcDbEntity
  8
0
100
AcDbLine
 10
26.975739
 20
82.40728500000001
 30
0.0
 11
27.196939
 21
82.31768499999999
 31
0.0
  0
LINE
  5
55
330
1E
100
AcDbEntity
  8
0
100
AcDbLine
 10
26.785639
 20
82.49318499999999
 30
0.0
 11
26.975739
 21
82.40728500000001
 31
0.0
  0
LINE
  5
56
330
1E
100
AcDbEntity
  8
0
100
AcDbLine
 10
26.530939
 20
82.672985
 30
0.0
 11
26.557039
 21
82.629785
 31
0.0
  0
LINE
  5
57
330
1E
100
AcDbEntity
  8
0
100
AcDbLine
 10
26.530939
 20
82.672985
 30
0.0
 11
26.6970664845028
 21
83.15254802475759
 31
0.0
  0
LINE
  5
58
330
1E
100
AcDbEntity
  8
0
100
AcDbLine
 10
26.832239
 20
82.660785
 30
0.0
 11
27.03253899999999
 21
82.61178499999999
 31
0.0
  0
LINE
  5
59
330
1E
100
AcDbEntity
  8
0
100
AcDbLine
 10
26.678439
 20
82.687085
 30
0.0
 11
26.832239
 21
82.660785
 31
0.0
  0
LINE
  5
5A
330
1E
100
AcDbEntity
  8
0
100
AcDbLine
 10
26.574339
 20
82.69218499999999
 30
0.0
 11
26.678439
 21
82.687085
 31
0.0
  0
LINE
  5
5B
330
1E
100
AcDbEntity
  8
0
100
AcDbLine
 10
26.557039
 20
82.629785
 30
0.0
 11
26.64543899999999
 21
82.56838499999998
 31
0.0
  0
LINE
  5
5C
330
1E
100
AcDbEntity
  8
0
100
AcDbLine
 10
26.64543899999999
 20
82.56838499999998
 30
0.0
 11
26.785639
 21
82.49318499999999
 31
0.0
  0
LINE
  5
5D
330
1E
100
AcDbEntity
  8
0
100
AcDbLine
 10
23.495639
 20
83.24288499999999
 30
0.0
 11
23.66153757566059
 21
83.68232644526271
 31
0.0
  0
LINE
  5
5E
330
1E
100
AcDbEntity
  8
0
100
AcDbLine
 10
23.5238733258663
 20
83.31767366479299
 30
0.0
 11
27.213339
 21
81.604685
 31
0.0
  0
LINE
  5
5F
330
1E
100
AcDbEntity
  8
0
100
AcDbLine
 10
22.779139
 20
83.42358500000001
 30
0.0
 11
23.010539
 21
83.345985
 31
0.0
  0
LINE
  5
60
330
1E
100
AcDbEntity
  8
0
100
AcDbLine
 10
23.236139
 20
83.40668499999999
 30
0.0
 11
23.380739
 21
83.333285
 31
0.0
  0
LINE
  5
61
330
1E
100
AcDbEntity
  8
0
100
AcDbLine
 10
23.049439
 20
83.49178499999998
 30
0.0
 11
23.236139
 21
83.40668499999999
 31
0.0
  0
LINE
  5
62
330
1E
100
AcDbEntity
  8
0
100
AcDbLine
 10
22.827439
 20
83.584385
 30
0.0
 11
23.049439
 21
83.49178499999998
 31
0.0
  0
LINE
  5
63
330
1E
100
AcDbEntity
  8
0
100
AcDbLine
 10
23.010539
 20
83.345985
 30
0.0
 11
23.20453899999999
 21
83.287685
 31
0.0
  0
LINE
  5
64
330
1E
100
AcDbEntity
  8
0
100
AcDbLine
 10
22.531639
 20
83.513785
 30
0.0
 11
22.779139
 21
83.42358500000001
 31
0.0
  0
LINE
  5
65
330
1E
100
AcDbEntity
  8
0
100
AcDbLine
 10
22.341539
 20
83.76798499999999
 30
0.0
 11
22.58893899999999
 21
83.677685
 31
0.0
  0
LINE
  5
66
330
1E
100
AcDbEntity
  8
0
100
AcDbLine
 10
22.58893899999999
 20
83.677685
 30
0.0
 11
22.827439
 21
83.584385
 31
0.0
  0
LINE
  5
67
330
1E
100
AcDbEntity
  8
0
100
AcDbLine
 10
22.293139
 20
83.60708499999999
 30
0.0
 11
22.531639
 21
83.513785
 31
0.0
  0
LINE
  5
68
330
1E
100
AcDbEntity
  8
0
100
AcDbLine
 10
22.071239
 20
83.699685
 30
0.0
 11
22.293139
 21
83.60708499999999
 31
0.0
  0
LINE
  5
69
330
1E
100
AcDbEntity
  8
0
100
AcDbLine
 10
21.762239
 20
83.94298499999999
 30
0.0
 11
21.916139
 21
83.903785
 31
0.0
  0
LINE
  5
6A
330
1E
100
AcDbEntity
  8
0
100
AcDbLine
 10
21.916139
 20
83.903785
 30
0.0
 11
22.110139
 21
83.845585
 31
0.0
  0
LINE
  5
6B
330
1E
100
AcDbEntity
  8
0
100
AcDbLine
 10
22.110139
 20
83.845585
 30
0.0
 11
22.341539
 21
83.76798499999999
 31
0.0
  0
LINE
  5
6C
330
1E
100
AcDbEntity
  8
0
100
AcDbLine
 10
21.884539
 20
83.78488500000001
 30
0.0
 11
22.071239
 21
83.699685
 31
0.0
  0
LINE
  5
6D
330
1E
100
AcDbEntity
  8
0
100
AcDbLine
 10
21.739939
 20
83.85818499999999
 30
0.0
 11
21.884539
 21
83.78488500000001
 31
0.0
  0
LINE
  5
6E
330
1E
100
AcDbEntity
  8
0
100
AcDbLine
 10
20.981139
 20
84.11248499999999
 30
0.0
 11
21.07053899999999
 21
84.06498499999999
 31
0.0
  0
LINE
  5
6F
330
1E
100
AcDbEntity
  8
0
100
AcDbLine
 10
21.095639
 20
84.04268499999998
 30
0.0
 11
21.23113736823579
 21
84.38373606430829
 31
0.0
  0
LINE
  5
70
330
1E
100
AcDbEntity
  8
0
100
AcDbLine
 10
21.095639
 20
84.04268499999998
 30
0.0
 11
21.23113736823579
 21
84.38373606430829
 31
0.0
  0
LINE
  5
71
330
1E
100
AcDbEntity
  8
0
100
AcDbLine
 10
21.095639
 20
84.04268499999998
 30
0.0
 11
21.260808509909
 21
84.45841869391209
 31
0.0
  0
LINE
  5
72
330
1E
100
AcDbEntity
  8
0
100
AcDbLine
 10
20.966039
 20
84.07018499999999
 30
0.0
 11
21.06303899999999
 21
84.043185
 31
0.0
  0
LINE
  5
73
330
1E
100
AcDbEntity
  8
0
100
AcDbLine
 10
20.832039
 20
84.18178499999999
 30
0.0
 11
20.981139
 21
84.11248499999999
 31
0.0
  0
LINE
  5
74
330
1E
100
AcDbEntity
  8
0
100
AcDbLine
 10
20.641739
 20
84.26488499999999
 30
0.0
 11
20.832039
 21
84.18178499999999
 31
0.0
  0
LINE
  5
75
330
1E
100
AcDbEntity
  8
0
100
AcDbLine
 10
20.819439
 20
84.11838499999999
 30
0.0
 11
20.966039
 21
84.07018499999999
 31
0.0
  0
LINE
  5
76
330
1E
100
AcDbEntity
  8
0
100
AcDbLine
 10
20.622639
 20
84.188585
 30
0.0
 11
20.819439
 21
84.11838499999999
 31
0.0
  0
LINE
  5
77
330
1E
100
AcDbEntity
  8
0
100
AcDbLine
 10
21.2306128021141
 20
84.38241572490909
 30
0.0
 11
21.70545181734579
 21
84.16195186305611
 31
0.0
  0
LINE
  5
78
330
1E
100
AcDbEntity
  8
0
100
AcDbLine
 10
21.2306128021141
 20
84.38241572490909
 30
0.0
 11
21.70545181734579
 21
84.16195186305611
 31
0.0
  0
LINE
  5
79
330
1E
100
AcDbEntity
  8
0
100
AcDbLine
 10
20.421839
 20
84.35698499999999
 30
0.0
 11
20.641739
 21
84.26488499999999
 31
0.0
  0
LINE
  5
7A
330
1E
100
AcDbEntity
  8
0
100
AcDbLine
 10
20.183839
 20
84.45308500000001
 30
0.0
 11
20.421839
 21
84.35698499999999
 31
0.0
  0
LINE
  5
7B
330
1E
100
AcDbEntity
  8
0
100
AcDbLine
 10
20.392539
 20
84.27518499999999
 30
0.0
 11
20.622639
 21
84.188585
 31
0.0
  0
LINE
  5
7C
330
1E
100
AcDbEntity
  8
0
100
AcDbLine
 10
20.153639
 20
84.36858499999999
 30
0.0
 11
20.392539
 21
84.27518499999999
 31
0.0
  0
LINE
  5
7D
330
1E
100
AcDbEntity
  8
0
100
AcDbLine
 10
19.915539
 20
84.464585
 30
0.0
 11
20.153639
 21
84.36858499999999
 31
0.0
  0
LINE
  5
7E
330
1E
100
AcDbEntity
  8
0
100
AcDbLine
 10
27.094239
 20
80.98838499999999
 30
0.0
 11
27.214339
 21
80.949185
 31
0.0
  0
LINE
  5
7F
330
1E
100
AcDbEntity
  8
0
100
AcDbLine
 10
27.028939
 20
81.002185
 30
0.0
 11
27.087639
 21
80.97608499999999
 31
0.0
  0
LINE
  5
80
330
1E
100
AcDbEntity
  8
0
100
AcDbLine
 10
27.087639
 20
80.97608499999999
 30
0.0
 11
27.209639
 21
80.92738500000001
 31
0.0
  0
LINE
  5
81
330
1E
100
AcDbEntity
  8
0
100
AcDbLine
 10
27.214339
 20
80.949185
 30
0.0
 11
27.390439
 21
80.88898499999999
 31
0.0
  0
LINE
  5
82
330
1E
100
AcDbEntity
  8
0
100
AcDbLine
 10
27.209639
 20
80.92738500000001
 30
0.0
 11
27.386639
 21
80.859585
 31
0.0
  0
LINE
  5
83
330
1E
100
AcDbEntity
  8
0
100
AcDbLine
 10
32.256639
 20
79.517785
 30
0.0
 11
32.376939
 21
79.458085
 31
0.0
  0
LINE
  5
84
330
1E
100
AcDbEntity
  8
0
100
AcDbLine
 10
32.274939
 20
79.580485
 30
0.0
 11
32.400739
 21
79.558785
 31
0.0
  0
LINE
  5
85
330
1E
100
AcDbEntity
  8
0
100
AcDbLine
 10
32.203039
 20
79.58208499999999
 30
0.0
 11
32.274939
 21
79.580485
 31
0.0
  0
LINE
  5
86
330
1E
100
AcDbEntity
  8
0
100
AcDbLine
 10
32.195139
 20
79.560985
 30
0.0
 11
32.256639
 21
79.517785
 31
0.0
  0
LINE
  5
87
330
1E
100
AcDbEntity
  8
0
100
AcDbLine
 10
32.195139
 20
79.560985
 30
0.0
 11
32.2532743711531
 21
79.7361319273638
 31
0.0
  0
LINE
  5
88
330
1E
100
AcDbEntity
  8
0
100
AcDbLine
 10
32.195139
 20
79.560985
 30
0.0
 11
32.3950899754778
 21
80.1633858840694
 31
0.0
  0
LINE
  5
89
330
1E
100
AcDbEntity
  8
0
100
AcDbLine
 10
33.879839
 20
78.959885
 30
0.0
 11
34.005639
 21
78.93828499999999
 31
0.0
  0
LINE
  5
8A
330
1E
100
AcDbEntity
  8
0
100
AcDbLine
 10
34.085439
 20
78.95768499999999
 30
0.0
 11
34.2902454034876
 21
79.5747140403893
 31
0.0
  0
LINE
  5
8B
330
1E
100
AcDbEntity
  8
0
100
AcDbLine
 10
34.02393899999999
 20
79.000985
 30
0.0
 11
34.085439
 21
78.95768499999999
 31
0.0
  0
LINE
  5
8C
330
1E
100
AcDbEntity
  8
0
100
AcDbLine
 10
34.005639
 20
78.93828499999999
 30
0.0
 11
34.077539
 21
78.93658499999999
 31
0.0
  0
LINE
  5
8D
330
1E
100
AcDbEntity
  8
0
100
AcDbLine
 10
33.486839
 20
79.062185
 30
0.0
 11
33.70073899999999
 21
79.003085
 31
0.0
  0
LINE
  5
8E
330
1E
100
AcDbEntity
  8
0
100
AcDbLine
 10
34.1147498303649
 20
79.04599099641949
 30
0.0
 11
36.0438422433063
 21
78.33078111967529
 31
0.0
  0
LINE
  5
8F
330
1E
100
AcDbEntity
  8
0
100
AcDbLine
 10
34.1147498303649
 20
79.04599099641949
 30
0.0
 11
36.0438422433063
 21
78.33078111967529
 31
0.0
  0
LINE
  5
90
330
1E
100
AcDbEntity
  8
0
100
AcDbLine
 10
33.903639
 20
79.06068499999999
 30
0.0
 11
34.02393899999999
 21
79.000985
 31
0.0
  0
LINE
  5
91
330
1E
100
AcDbEntity
  8
0
100
AcDbLine
 10
33.735739
 20
79.132785
 30
0.0
 11
33.903639
 21
79.06068499999999
 31
0.0
  0
LINE
  5
92
330
1E
100
AcDbEntity
  8
0
100
AcDbLine
 10
33.525039
 20
79.21398499999999
 30
0.0
 11
33.735739
 21
79.132785
 31
0.0
  0
LINE
  5
93
330
1E
100
AcDbEntity
  8
0
100
AcDbLine
 10
33.70073899999999
 20
79.003085
 30
0.0
 11
33.879839
 21
78.959885
 31
0.0
  0
LINE
  5
94
330
1E
100
AcDbEntity
  8
0
100
AcDbLine
 10
33.242339
 20
79.13698499999999
 30
0.0
 11
33.486839
 21
79.062185
 31
0.0
  0
LINE
  5
95
330
1E
100
AcDbEntity
  8
0
100
AcDbLine
 10
33.038339
 20
79.38178499999999
 30
0.0
 11
33.290339
 21
79.297985
 31
0.0
  0
LINE
  5
96
330
1E
100
AcDbEntity
  8
0
100
AcDbLine
 10
33.290339
 20
79.297985
 30
0.0
 11
33.525039
 21
79.21398499999999
 31
0.0
  0
LINE
  5
97
330
1E
100
AcDbEntity
  8
0
100
AcDbLine
 10
32.990239
 20
79.220685
 30
0.0
 11
33.242339
 21
79.13698499999999
 31
0.0
  0
LINE
  5
98
330
1E
100
AcDbEntity
  8
0
100
AcDbLine
 10
32.755639
 20
79.30468499999999
 30
0.0
 11
32.990239
 21
79.220685
 31
0.0
  0
LINE
  5
99
330
1E
100
AcDbEntity
  8
0
100
AcDbLine
 10
32.400739
 20
79.558785
 30
0.0
 11
32.579839
 21
79.51568499999999
 31
0.0
  0
LINE
  5
9A
330
1E
100
AcDbEntity
  8
0
100
AcDbLine
 10
32.579839
 20
79.51568499999999
 30
0.0
 11
32.793739
 21
79.456485
 31
0.0
  0
LINE
  5
9B
330
1E
100
AcDbEntity
  8
0
100
AcDbLine
 10
32.793739
 20
79.456485
 30
0.0
 11
33.038339
 21
79.38178499999999
 31
0.0
  0
LINE
  5
9C
330
1E
100
AcDbEntity
  8
0
100
AcDbLine
 10
32.544839
 20
79.385885
 30
0.0
 11
32.755639
 21
79.30468499999999
 31
0.0
  0
LINE
  5
9D
330
1E
100
AcDbEntity
  8
0
100
AcDbLine
 10
32.376939
 20
79.458085
 30
0.0
 11
32.544839
 21
79.385885
 31
0.0
  0
LINE
  5
9E
330
1E
100
AcDbEntity
  8
0
100
AcDbLine
 10
30.389839
 20
80.027185
 30
0.0
 11
30.57320972860499
 21
80.54796560989931
 31
0.0
  0
LINE
  5
9F
330
1E
100
AcDbEntity
  8
0
100
AcDbLine
 10
30.330639
 20
80.06248499999999
 30
0.0
 11
30.389839
 21
80.027185
 31
0.0
  0
LINE
  5
A0
330
1E
100
AcDbEntity
  8
0
100
AcDbLine
 10
30.318539
 20
80.02358499999999
 30
0.0
 11
30.383139
 21
80.014985
 31
0.0
  0
LINE
  5
A1
330
1E
100
AcDbEntity
  8
0
100
AcDbLine
 10
30.191539
 20
80.055685
 30
0.0
 11
30.318539
 21
80.02358499999999
 31
0.0
  0
LINE
  5
A2
330
1E
100
AcDbEntity
  8
0
100
AcDbLine
 10
30.206939
 20
80.11898499999999
 30
0.0
 11
30.330639
 21
80.06248499999999
 31
0.0
  0
LINE
  5
A3
330
1E
100
AcDbEntity
  8
0
100
AcDbLine
 10
30.035039
 20
80.18968499999999
 30
0.0
 11
30.206939
 21
80.11898499999999
 31
0.0
  0
LINE
  5
A4
330
1E
100
AcDbEntity
  8
0
100
AcDbLine
 10
29.82683899999999
 20
80.27038500000001
 30
0.0
 11
30.035039
 21
80.18968499999999
 31
0.0
  0
LINE
  5
A5
330
1E
100
AcDbEntity
  8
0
100
AcDbLine
 10
29.800639
 20
80.17518499999999
 30
0.0
 11
30.018539
 21
80.106085
 31
0.0
  0
LINE
  5
A6
330
1E
100
AcDbEntity
  8
0
100
AcDbLine
 10
30.018539
 20
80.106085
 30
0.0
 11
30.191539
 21
80.055685
 31
0.0
  0
LINE
  5
A7
330
1E
100
AcDbEntity
  8
0
100
AcDbLine
 10
29.557139
 20
80.257085
 30
0.0
 11
29.800639
 21
80.17518499999999
 31
0.0
  0
LINE
  5
A8
330
1E
100
AcDbEntity
  8
0
100
AcDbLine
 10
28.709339
 20
80.407185
 30
0.0
 11
28.831239
 21
80.358485
 31
0.0
  0
LINE
  5
A9
330
1E
100
AcDbEntity
  8
0
100
AcDbLine
 10
28.831239
 20
80.358485
 30
0.0
 11
28.890039
 21
80.33228499999999
 31
0.0
  0
LINE
  5
AA
330
1E
100
AcDbEntity
  8
0
100
AcDbLine
 10
29.313339
 20
80.34308499999999
 30
0.0
 11
29.557139
 21
80.257085
 31
0.0
  0
LINE
  5
AB
330
1E
100
AcDbEntity
  8
0
100
AcDbLine
 10
30.5143610933802
 20
80.38083300167292
 30
0.0
 11
32.2532743711531
 21
79.7361319273638
 31
0.0
  0
LINE
  5
AC
330
1E
100
AcDbEntity
  8
0
100
AcDbLine
 10
30.5143610933802
 20
80.38083300167292
 30
0.0
 11
32.2532743711531
 21
79.7361319273638
 31
0.0
  0
LINE
  5
AD
330
1E
100
AcDbEntity
  8
0
100
AcDbLine
 10
29.591739
 20
80.35678500000001
 30
0.0
 11
29.82683899999999
 21
80.27038500000001
 31
0.0
  0
LINE
  5
AE
330
1E
100
AcDbEntity
  8
0
100
AcDbLine
 10
29.347939
 20
80.44268499999999
 30
0.0
 11
29.591739
 21
80.35678500000001
 31
0.0
  0
LINE
  5
AF
330
1E
100
AcDbEntity
  8
0
100
AcDbLine
 10
29.078239
 20
80.42948499999999
 30
0.0
 11
29.313339
 21
80.34308499999999
 31
0.0
  0
LINE
  5
B0
330
1E
100
AcDbEntity
  8
0
100
AcDbLine
 10
28.824639
 20
80.34618499999998
 30
0.0
 11
28.890839
 21
80.326985
 31
0.0
  0
LINE
  5
B1
330
1E
100
AcDbEntity
  8
0
100
AcDbLine
 10
28.890839
 20
80.326985
 30
0.0
 11
28.9465218507853
 21
80.480539629883
 31
0.0
  0
LINE
  5
B2
330
1E
100
AcDbEntity
  8
0
100
AcDbLine
 10
28.704639
 20
80.38538499999999
 30
0.0
 11
28.824639
 21
80.34618499999998
 31
0.0
  0
LINE
  5
B3
330
1E
100
AcDbEntity
  8
0
100
AcDbLine
 10
28.087139
 20
80.64018500000001
 30
0.0
 11
28.320939
 21
80.553985
 31
0.0
  0
LINE
  5
B4
330
1E
100
AcDbEntity
  8
0
100
AcDbLine
 10
28.532239
 20
80.47498500000001
 30
0.0
 11
28.709339
 21
80.407185
 31
0.0
  0
LINE
  5
B5
330
1E
100
AcDbEntity
  8
0
100
AcDbLine
 10
28.320939
 20
80.553985
 30
0.0
 11
28.532239
 21
80.47498500000001
 31
0.0
  0
LINE
  5
B6
330
1E
100
AcDbEntity
  8
0
100
AcDbLine
 10
28.698139
 20
80.580885
 30
0.0
 11
28.870039
 21
80.51018499999999
 31
0.0
  0
LINE
  5
B7
330
1E
100
AcDbEntity
  8
0
100
AcDbLine
 10
28.870039
 20
80.51018499999999
 30
0.0
 11
29.078239
 21
80.42948499999999
 31
0.0
  0
LINE
  5
B8
330
1E
100
AcDbEntity
  8
0
100
AcDbLine
 10
28.515239
 20
80.672685
 30
0.0
 11
28.574439
 21
80.63728499999999
 31
0.0
  0
LINE
  5
B9
330
1E
100
AcDbEntity
  8
0
100
AcDbLine
 10
28.515239
 20
80.672685
 30
0.0
 11
28.6953348885104
 21
81.18416492578891
 31
0.0
  0
LINE
  5
BA
330
1E
100
AcDbEntity
  8
0
100
AcDbLine
 10
28.574439
 20
80.63728499999999
 30
0.0
 11
28.698139
 21
80.580885
 31
0.0
  0
LINE
  5
BB
330
1E
100
AcDbEntity
  8
0
100
AcDbLine
 10
28.52193899999999
 20
80.68488499999999
 30
0.0
 11
28.586539
 21
80.67628499999999
 31
0.0
  0
LINE
  5
BC
330
1E
100
AcDbEntity
  8
0
100
AcDbLine
 10
28.586539
 20
80.67628499999999
 30
0.0
 11
28.713539
 21
80.644185
 31
0.0
  0
LINE
  5
BD
330
1E
100
AcDbEntity
  8
0
100
AcDbLine
 10
28.713539
 20
80.644185
 30
0.0
 11
28.886539
 21
80.59368499999999
 31
0.0
  0
LINE
  5
BE
330
1E
100
AcDbEntity
  8
0
100
AcDbLine
 10
28.886539
 20
80.59368499999999
 30
0.0
 11
29.104439
 21
80.52468499999999
 31
0.0
  0
LINE
  5
BF
330
1E
100
AcDbEntity
  8
0
100
AcDbLine
 10
29.104439
 20
80.52468499999999
 30
0.0
 11
29.347939
 21
80.44268499999999
 31
0.0
  0
LINE
  5
C0
330
1E
100
AcDbEntity
  8
0
100
AcDbLine
 10
28.9465218507853
 20
80.480539629883
 30
0.0
 11
29.078239
 21
80.42948499999999
 31
0.0
  0
LINE
  5
C1
330
1E
100
AcDbEntity
  8
0
100
AcDbLine
 10
28.310639
 20
80.522085
 30
0.0
 11
28.528539
 21
80.44558499999999
 31
0.0
  0
LINE
  5
C2
330
1E
100
AcDbEntity
  8
0
100
AcDbLine
 10
28.528539
 20
80.44558499999999
 30
0.0
 11
28.704639
 21
80.38538499999999
 31
0.0
  0
LINE
  5
C3
330
1E
100
AcDbEntity
  8
0
100
AcDbLine
 10
28.074839
 20
80.60638500000001
 30
0.0
 11
28.310639
 21
80.522085
 31
0.0
  0
LINE
  5
C4
330
1E
100
AcDbEntity
  8
0
100
AcDbLine
 10
27.386639
 20
80.859585
 30
0.0
 11
27.597939
 21
80.780585
 31
0.0
  0
LINE
  5
C5
330
1E
100
AcDbEntity
  8
0
100
AcDbLine
 10
27.597939
 20
80.780585
 30
0.0
 11
27.831839
 21
80.694385
 31
0.0
  0
LINE
  5
C6
330
1E
100
AcDbEntity
  8
0
100
AcDbLine
 10
27.390439
 20
80.88898499999999
 30
0.0
 11
27.608339
 21
80.81248499999999
 31
0.0
  0
LINE
  5
C7
330
1E
100
AcDbEntity
  8
0
100
AcDbLine
 10
27.608339
 20
80.81248499999999
 30
0.0
 11
27.844139
 21
80.728185
 31
0.0
  0
LINE
  5
C8
330
1E
100
AcDbEntity
  8
0
100
AcDbLine
 10
27.844139
 20
80.728185
 30
0.0
 11
28.087139
 21
80.64018500000001
 31
0.0
  0
LINE
  5
C9
330
1E
100
AcDbEntity
  8
0
100
AcDbLine
 10
27.831839
 20
80.694385
 30
0.0
 11
28.074839
 21
80.60638500000001
 31
0.0
  0
LINE
  5
CA
330
1E
100
AcDbEntity
  8
0
100
AcDbLine
 10
27.922039
 20
82.080485
 30
0.0
 11
28.122339
 21
82.03148500000001
 31
0.0
  0
LINE
  5
CB
330
1E
100
AcDbEntity
  8
0
100
AcDbLine
 10
27.69413899999999
 20
82.14598499999999
 30
0.0
 11
27.922039
 21
82.080485
 31
0.0
  0
LINE
  5
CC
330
1E
100
AcDbEntity
  8
0
100
AcDbLine
 10
27.444339
 20
82.22748499999999
 30
0.0
 11
27.69413899999999
 21
82.14598499999999
 31
0.0
  0
LINE
  5
CD
330
1E
100
AcDbEntity
  8
0
100
AcDbLine
 10
27.196939
 20
82.31768499999999
 30
0.0
 11
27.444339
 21
82.22748499999999
 31
0.0
  0
LINE
  5
CE
330
1E
100
AcDbEntity
  8
0
100
AcDbLine
 10
27.03253899999999
 20
82.61178499999999
 30
0.0
 11
27.260539
 21
82.546385
 31
0.0
  0
LINE
  5
CF
330
1E
100
AcDbEntity
  8
0
100
AcDbLine
 10
27.260539
 20
82.546385
 30
0.0
 11
27.510339
 21
82.464785
 31
0.0
  0
LINE
  5
D0
330
1E
100
AcDbEntity
  8
0
100
AcDbLine
 10
27.510339
 20
82.464785
 30
0.0
 11
27.757739
 21
82.374585
 31
0.0
  0
LINE
  5
D1
330
1E
100
AcDbEntity
  8
0
100
AcDbLine
 10
27.757739
 20
82.374585
 30
0.0
 11
27.978939
 21
82.28498499999998
 31
0.0
  0
LINE
  5
D2
330
1E
100
AcDbEntity
  8
0
100
AcDbLine
 10
27.978939
 20
82.28498499999998
 30
0.0
 11
28.168939
 21
82.199185
 31
0.0
  0
LINE
  5
D3
330
1E
100
AcDbEntity
  8
0
100
AcDbLine
 10
28.122339
 20
82.03148500000001
 30
0.0
 11
28.276239
 21
82.00518499999999
 31
0.0
  0
LINE
  5
D4
330
1E
100
AcDbEntity
  8
0
100
AcDbLine
 10
28.276239
 20
82.00518499999999
 30
0.0
 11
28.380239
 21
82.000085
 31
0.0
  0
LINE
  5
D5
330
1E
100
AcDbEntity
  8
0
100
AcDbLine
 10
28.397639
 20
82.06248499999999
 30
0.0
 11
28.423739
 21
82.01928499999999
 31
0.0
  0
LINE
  5
D6
330
1E
100
AcDbEntity
  8
0
100
AcDbLine
 10
28.423739
 20
82.01928499999999
 30
0.0
 11
28.6340641300678
 21
82.6264341171959
 31
0.0
  0
LINE
  5
D7
330
1E
100
AcDbEntity
  8
0
100
AcDbLine
 10
28.309239
 20
82.12388500000001
 30
0.0
 11
28.397639
 21
82.06248499999999
 31
0.0
  0
LINE
  5
D8
330
1E
100
AcDbEntity
  8
0
100
AcDbLine
 10
31.073139
 20
84.27418499999999
 30
0.0
 11
31.211239
 21
84.27518499999999
 31
0.0
  0
LINE
  5
D9
330
1E
100
AcDbEntity
  8
0
100
AcDbLine
 10
30.675839
 20
84.35868499999999
 30
0.0
 11
30.892539
 21
84.301185
 31
0.0
  0
LINE
  5
DA
330
1E
100
AcDbEntity
  8
0
100
AcDbLine
 10
30.441439
 20
84.438785
 30
0.0
 11
30.675839
 21
84.35868499999999
 31
0.0
  0
LINE
  5
DB
330
1E
100
AcDbEntity
  8
0
100
AcDbLine
 10
30.892539
 20
84.301185
 30
0.0
 11
31.073139
 21
84.27418499999999
 31
0.0
  0
LINE
  5
DC
330
1E
100
AcDbEntity
  8
0
100
AcDbLine
 10
31.211239
 20
84.27518499999999
 30
0.0
 11
31.295439
 21
84.307885
 31
0.0
  0
LINE
  5
DD
330
1E
100
AcDbEntity
  8
0
100
AcDbLine
 10
31.295439
 20
84.307885
 30
0.0
 11
31.5725995050985
 21
84.95496800790821
 31
0.0
  0
LINE
  5
DE
330
1E
100
AcDbEntity
  8
0
100
AcDbLine
 10
31.295439
 20
84.307885
 30
0.0
 11
31.313139
 21
84.37108499999999
 31
0.0
  0
LINE
  5
DF
330
1E
100
AcDbEntity
  8
0
100
AcDbLine
 10
31.267139
 20
84.456685
 30
0.0
 11
31.313139
 21
84.37108499999999
 31
0.0
  0
LINE
  5
E0
330
1E
100
AcDbEntity
  8
0
100
AcDbLine
 10
28.168939
 20
82.199185
 30
0.0
 11
28.309239
 21
82.12388500000001
 31
0.0
  0
LINE
  5
E1
330
1E
100
AcDbEntity
  8
0
100
AcDbLine
 10
27.028039
 20
81.00748499999999
 30
0.0
 11
27.2408944118266
 21
81.59446884728291
 31
0.0
  0
LINE
  5
E2
330
1E
100
AcDbEntity
  8
0
100
AcDbLine
 10
27.028039
 20
81.00748499999999
 30
0.0
 11
27.094239
 21
80.98838499999999
 31
0.0
  0
LINE
  5
E3
330
1E
100
AcDbEntity
  8
0
100
AcDbLine
 10
27.028039
 20
81.00748499999999
 30
0.0
 11
27.2471158956471
 21
81.61162561335929
 31
0.0
  0
LINE
  5
E4
330
1E
100
AcDbEntity
  8
0
100
AcDbLine
 10
35.811139
 20
77.691485
 30
0.0
 11
36.0502933744206
 21
78.3485040488031
 31
0.0
  0
LINE
  5
E5
330
1E
100
AcDbEntity
  8
0
100
AcDbLine
 10
35.845039
 20
77.679185
 30
0.0
 11
35.935239
 21
77.646385
 31
0.0
  0
LINE
  5
E6
330
1E
100
AcDbEntity
  8
0
100
AcDbLine
 10
35.935239
 20
77.646385
 30
0.0
 11
36.085539
 21
77.59158499999999
 31
0.0
  0
LINE
  5
E7
330
1E
100
AcDbEntity
  8
0
100
AcDbLine
 10
36.085539
 20
77.59158499999999
 30
0.0
 11
36.284739
 21
77.519085
 31
0.0
  0
LINE
  5
E8
330
1E
100
AcDbEntity
  8
0
100
AcDbLine
 10
36.284739
 20
77.519085
 30
0.0
 11
36.510339
 21
77.437085
 31
0.0
  0
LINE
  5
E9
330
1E
100
AcDbEntity
  8
0
100
AcDbLine
 10
38.17893899999999
 20
76.975385
 30
0.0
 11
38.33063899999999
 21
76.91298499999999
 31
0.0
  0
LINE
  5
EA
330
1E
100
AcDbEntity
  8
0
100
AcDbLine
 10
38.170939
 20
76.92418499999999
 30
0.0
 11
38.318739
 21
76.879085
 31
0.0
  0
LINE
  5
EB
330
1E
100
AcDbEntity
  8
0
100
AcDbLine
 10
38.448339
 20
76.851485
 30
0.0
 11
38.6652058905744
 21
77.456218019011
 31
0.0
  0
LINE
  5
EC
330
1E
100
AcDbEntity
  8
0
100
AcDbLine
 10
39.31013899999999
 20
76.805485
 30
0.0
 11
39.535139
 21
76.72128499999999
 31
0.0
  0
LINE
  5
ED
330
1E
100
AcDbEntity
  8
0
100
AcDbLine
 10
40.25963899999999
 20
76.48018499999999
 30
0.0
 11
40.45483899999999
 21
76.42498499999999
 31
0.0
  0
LINE
  5
EE
330
1E
100
AcDbEntity
  8
0
100
AcDbLine
 10
43.87003899999999
 20
75.712785
 30
0.0
 11
44.099039
 21
75.65038499999999
 31
0.0
  0
LINE
  5
EF
330
1E
100
AcDbEntity
  8
0
100
AcDbLine
 10
43.618439
 20
75.788985
 30
0.0
 11
43.87003899999999
 21
75.712785
 31
0.0
  0
LINE
  5
F0
330
1E
100
AcDbEntity
  8
0
100
AcDbLine
 10
43.36873899999999
 20
75.87228499999999
 30
0.0
 11
43.618439
 21
75.788985
 31
0.0
  0
LINE
  5
F1
330
1E
100
AcDbEntity
  8
0
100
AcDbLine
 10
43.144939
 20
75.953985
 30
0.0
 11
43.36873899999999
 21
75.87228499999999
 31
0.0
  0
LINE
  5
F2
330
1E
100
AcDbEntity
  8
0
100
AcDbLine
 10
42.95203899999999
 20
76.031385
 30
0.0
 11
43.144939
 21
75.953985
 31
0.0
  0
LINE
  5
F3
330
1E
100
AcDbEntity
  8
0
100
AcDbLine
 10
43.417339
 20
76.05598499999999
 30
0.0
 11
43.66893899999999
 21
75.979685
 31
0.0
  0
LINE
  5
F4
330
1E
100
AcDbEntity
  8
0
100
AcDbLine
 10
43.66893899999999
 20
75.979685
 30
0.0
 11
43.918739
 21
75.896485
 31
0.0
  0
LINE
  5
F5
330
1E
100
AcDbEntity
  8
0
100
AcDbLine
 10
43.918739
 20
75.896485
 30
0.0
 11
44.142539
 21
75.814785
 31
0.0
  0
LINE
  5
F6
330
1E
100
AcDbEntity
  8
0
100
AcDbLine
 10
42.689539
 20
76.18788499999999
 30
0.0
 11
42.8515113302537
 21
76.69618274465169
 31
0.0
  0
LINE
  5
F7
330
1E
100
AcDbEntity
  8
0
100
AcDbLine
 10
42.987739
 20
76.16608499999999
 30
0.0
 11
43.188439
 21
76.118285
 31
0.0
  0
LINE
  5
F8
330
1E
100
AcDbEntity
  8
0
100
AcDbLine
 10
43.188439
 20
76.118285
 30
0.0
 11
43.417339
 21
76.05598499999999
 31
0.0
  0
LINE
  5
F9
330
1E
100
AcDbEntity
  8
0
100
AcDbLine
 10
42.834239
 20
76.193585
 30
0.0
 11
42.987739
 21
76.16608499999999
 31
0.0
  0
LINE
  5
FA
330
1E
100
AcDbEntity
  8
0
100
AcDbLine
 10
42.731239
 20
76.201785
 30
0.0
 11
42.834239
 21
76.193585
 31
0.0
  0
LINE
  5
FB
330
1E
100
AcDbEntity
  8
0
100
AcDbLine
 10
42.717939
 20
76.151685
 30
0.0
 11
42.809039
 21
76.098185
 31
0.0
  0
LINE
  5
FC
330
1E
100
AcDbEntity
  8
0
100
AcDbLine
 10
42.809039
 20
76.098185
 30
0.0
 11
42.95203899999999
 21
76.031385
 31
0.0
  0
LINE
  5
FD
330
1E
100
AcDbEntity
  8
0
100
AcDbLine
 10
40.74483899999999
 20
76.37708499999999
 30
0.0
 11
40.9585659789872
 21
76.99988330458101
 31
0.0
  0
LINE
  5
FE
330
1E
100
AcDbEntity
  8
0
100
AcDbLine
 10
40.625539
 20
76.45528500000001
 30
0.0
 11
40.718939
 21
76.40528499999999
 31
0.0
  0
LINE
  5
FF
330
1E
100
AcDbEntity
  8
0
100
AcDbLine
 10
40.478039
 20
76.520785
 30
0.0
 11
40.625539
 21
76.45528500000001
 31
0.0
  0
LINE
  5
100
330
1E
100
AcDbEntity
  8
0
100
AcDbLine
 10
40.609139
 20
76.38708499999999
 30
0.0
 11
40.705239
 21
76.371785
 31
0.0
  0
LINE
  5
101
330
1E
100
AcDbEntity
  8
0
100
AcDbLine
 10
40.45483899999999
 20
76.42498499999999
 30
0.0
 11
40.609139
 21
76.38708499999999
 31
0.0
  0
LINE
  5
102
330
1E
100
AcDbEntity
  8
0
100
AcDbLine
 10
39.776439
 20
76.63578499999999
 30
0.0
 11
40.026439
 21
76.552485
 31
0.0
  0
LINE
  5
103
330
1E
100
AcDbEntity
  8
0
100
AcDbLine
 10
39.572139
 20
76.850585
 30
0.0
 11
39.822039
 21
76.767285
 31
0.0
  0
LINE
  5
104
330
1E
100
AcDbEntity
  8
0
100
AcDbLine
 10
39.822039
 20
76.767285
 30
0.0
 11
40.063339
 21
76.68178499999999
 31
0.0
  0
LINE
  5
105
330
1E
100
AcDbEntity
  8
0
100
AcDbLine
 10
40.83435545871339
 20
76.63793507603151
 30
0.0
 11
49.14446756216121
 21
74.0555062897291
 31
0.0
  0
LINE
  5
106
330
1E
100
AcDbEntity
  8
0
100
AcDbLine
 10
40.83435545871339
 20
76.63793507603151
 30
0.0
 11
49.14446756216121
 21
74.0555062897291
 31
0.0
  0
LINE
  5
107
330
1E
100
AcDbEntity
  8
0
100
AcDbLine
 10
40.288339
 20
76.59758499999999
 30
0.0
 11
40.478039
 21
76.520785
 31
0.0
  0
LINE
  5
108
330
1E
100
AcDbEntity
  8
0
100
AcDbLine
 10
40.063339
 20
76.68178499999999
 30
0.0
 11
40.288339
 21
76.59758499999999
 31
0.0
  0
LINE
  5
109
330
1E
100
AcDbEntity
  8
0
100
AcDbLine
 10
40.026439
 20
76.552485
 30
0.0
 11
40.25963899999999
 21
76.48018499999999
 31
0.0
  0
LINE
  5
10A
330
1E
100
AcDbEntity
  8
0
100
AcDbLine
 10
39.535139
 20
76.72128499999999
 30
0.0
 11
39.776439
 21
76.63578499999999
 31
0.0
  0
LINE
  5
10B
330
1E
100
AcDbEntity
  8
0
100
AcDbLine
 10
38.33063899999999
 20
76.91298499999999
 30
0.0
 11
38.42203899999999
 21
76.870785
 31
0.0
  0
LINE
  5
10C
330
1E
100
AcDbEntity
  8
0
100
AcDbLine
 10
38.973039
 20
76.94768499999999
 30
0.0
 11
39.120439
 21
76.882285
 31
0.0
  0
LINE
  5
10D
330
1E
100
AcDbEntity
  8
0
100
AcDbLine
 10
39.143739
 20
76.97808499999999
 30
0.0
 11
39.338839
 21
76.922885
 31
0.0
  0
LINE
  5
10E
330
1E
100
AcDbEntity
  8
0
100
AcDbLine
 10
39.338839
 20
76.922885
 30
0.0
 11
39.572139
 21
76.850585
 31
0.0
  0
LINE
  5
10F
330
1E
100
AcDbEntity
  8
0
100
AcDbLine
 10
39.120439
 20
76.882285
 30
0.0
 11
39.31013899999999
 21
76.805485
 31
0.0
  0
LINE
  5
110
330
1E
100
AcDbEntity
  8
0
100
AcDbLine
 10
38.318739
 20
76.879085
 30
0.0
 11
38.416139
 21
76.853285
 31
0.0
  0
LINE
  5
111
330
1E
100
AcDbEntity
  8
0
100
AcDbLine
 10
37.98563899999999
 20
77.05058499999999
 30
0.0
 11
38.17893899999999
 21
76.975385
 31
0.0
  0
LINE
  5
112
330
1E
100
AcDbEntity
  8
0
100
AcDbLine
 10
38.853639
 20
77.02598499999999
 30
0.0
 11
38.9337224456797
 21
77.2593597354643
 31
0.0
  0
LINE
  5
113
330
1E
100
AcDbEntity
  8
0
100
AcDbLine
 10
38.853639
 20
77.02598499999999
 30
0.0
 11
39.04271149747989
 21
77.576969584997
 31
0.0
  0
LINE
  5
114
330
1E
100
AcDbEntity
  8
0
100
AcDbLine
 10
38.893239
 20
77.031285
 30
0.0
 11
38.989339
 21
77.015985
 31
0.0
  0
LINE
  5
115
330
1E
100
AcDbEntity
  8
0
100
AcDbLine
 10
38.989339
 20
77.015985
 30
0.0
 11
39.143739
 21
76.97808499999999
 31
0.0
  0
LINE
  5
116
330
1E
100
AcDbEntity
  8
0
100
AcDbLine
 10
38.879539
 20
76.99778499999999
 30
0.0
 11
38.973039
 21
76.94768499999999
 31
0.0
  0
LINE
  5
117
330
1E
100
AcDbEntity
  8
0
100
AcDbLine
 10
37.972139
 20
76.98918499999999
 30
0.0
 11
38.170939
 21
76.92418499999999
 31
0.0
  0
LINE
  5
118
330
1E
100
AcDbEntity
  8
0
100
AcDbLine
 10
37.690539
 20
77.007485
 30
0.0
 11
37.7158859386021
 21
77.0771196095728
 31
0.0
  0
LINE
  5
119
330
1E
100
AcDbEntity
  8
0
100
AcDbLine
 10
37.497539
 20
77.15438499999999
 30
0.0
 11
37.739439
 21
77.06878499999999
 31
0.0
  0
LINE
  5
11A
330
1E
100
AcDbEntity
  8
0
100
AcDbLine
 10
37.762639
 20
77.13438499999999
 30
0.0
 11
37.98563899999999
 21
77.05058499999999
 31
0.0
  0
LINE
  5
11B
330
1E
100
AcDbEntity
  8
0
100
AcDbLine
 10
37.739439
 20
77.06878499999999
 30
0.0
 11
37.972139
 21
76.98918499999999
 31
0.0
  0
LINE
  5
11C
330
1E
100
AcDbEntity
  8
0
100
AcDbLine
 10
37.56653899999999
 20
77.05258499999999
 30
0.0
 11
37.656739
 21
77.019785
 31
0.0
  0
LINE
  5
11D
330
1E
100
AcDbEntity
  8
0
100
AcDbLine
 10
37.416139
 20
77.107285
 30
0.0
 11
37.56653899999999
 21
77.05258499999999
 31
0.0
  0
LINE
  5
11E
330
1E
100
AcDbEntity
  8
0
100
AcDbLine
 10
37.256339
 20
77.242085
 30
0.0
 11
37.497539
 21
77.15438499999999
 31
0.0
  0
LINE
  5
11F
330
1E
100
AcDbEntity
  8
0
100
AcDbLine
 10
37.033339
 20
77.325885
 30
0.0
 11
37.256339
 21
77.242085
 31
0.0
  0
LINE
  5
120
330
1E
100
AcDbEntity
  8
0
100
AcDbLine
 10
37.279539
 20
77.30768499999999
 30
0.0
 11
37.521439
 21
77.22208499999999
 31
0.0
  0
LINE
  5
121
330
1E
100
AcDbEntity
  8
0
100
AcDbLine
 10
37.521439
 20
77.22208499999999
 30
0.0
 11
37.762639
 21
77.13438499999999
 31
0.0
  0
LINE
  5
122
330
1E
100
AcDbEntity
  8
0
100
AcDbLine
 10
37.216939
 20
77.179885
 30
0.0
 11
37.416139
 21
77.107285
 31
0.0
  0
LINE
  5
123
330
1E
100
AcDbEntity
  8
0
100
AcDbLine
 10
36.991439
 20
77.26188499999999
 30
0.0
 11
37.216939
 21
77.179885
 31
0.0
  0
LINE
  5
124
330
1E
100
AcDbEntity
  8
0
100
AcDbLine
 10
38.63440554547029
 20
77.37033130005599
 30
0.0
 11
38.9337224456797
 21
77.2593597354643
 31
0.0
  0
LINE
  5
125
330
1E
100
AcDbEntity
  8
0
100
AcDbLine
 10
36.688339
 20
77.46348499999999
 30
0.0
 11
36.840039
 21
77.40108499999999
 31
0.0
  0
LINE
  5
126
330
1E
100
AcDbEntity
  8
0
100
AcDbLine
 10
36.840039
 20
77.40108499999999
 30
0.0
 11
37.033339
 21
77.325885
 31
0.0
  0
LINE
  5
127
330
1E
100
AcDbEntity
  8
0
100
AcDbLine
 10
36.570639
 20
77.524985
 30
0.0
 11
36.7928020262696
 21
78.14445335826441
 31
0.0
  0
LINE
  5
128
330
1E
100
AcDbEntity
  8
0
100
AcDbLine
 10
36.596939
 20
77.50568499999999
 30
0.0
 11
36.688339
 21
77.46348499999999
 31
0.0
  0
LINE
  5
129
330
1E
100
AcDbEntity
  8
0
100
AcDbLine
 10
36.60273899999999
 20
77.523285
 30
0.0
 11
36.700239
 21
77.49738499999999
 31
0.0
  0
LINE
  5
12A
330
1E
100
AcDbEntity
  8
0
100
AcDbLine
 10
36.700239
 20
77.49738499999999
 30
0.0
 11
36.848039
 21
77.45238499999999
 31
0.0
  0
LINE
  5
12B
330
1E
100
AcDbEntity
  8
0
100
AcDbLine
 10
36.848039
 20
77.45238499999999
 30
0.0
 11
37.046739
 21
77.38728499999999
 31
0.0
  0
LINE
  5
12C
330
1E
100
AcDbEntity
  8
0
100
AcDbLine
 10
37.046739
 20
77.38728499999999
 30
0.0
 11
37.279539
 21
77.30768499999999
 31
0.0
  0
LINE
  5
12D
330
1E
100
AcDbEntity
  8
0
100
AcDbLine
 10
38.892939
 20
78.036585
 30
0.0
 11
39.064339
 21
77.96368499999999
 31
0.0
  0
LINE
  5
12E
330
1E
100
AcDbEntity
  8
0
100
AcDbLine
 10
37.797939
 20
80.311485
 30
0.0
 11
37.986139
 21
80.22888499999998
 31
0.0
  0
LINE
  5
12F
330
1E
100
AcDbEntity
  8
0
100
AcDbLine
 10
37.653339
 20
80.38768500000001
 30
0.0
 11
37.797939
 21
80.311485
 31
0.0
  0
LINE
  5
130
330
1E
100
AcDbEntity
  8
0
100
AcDbLine
 10
37.854139
 20
80.516085
 30
0.0
 11
38.054939
 21
80.47978499999999
 31
0.0
  0
LINE
  5
131
330
1E
100
AcDbEntity
  8
0
100
AcDbLine
 10
37.693539
 20
80.53318500000001
 30
0.0
 11
37.854139
 21
80.516085
 31
0.0
  0
LINE
  5
132
330
1E
100
AcDbEntity
  8
0
100
AcDbLine
 10
37.585239
 20
80.527785
 30
0.0
 11
37.693539
 21
80.53318500000001
 31
0.0
  0
LINE
  5
133
330
1E
100
AcDbEntity
  8
0
100
AcDbLine
 10
37.544139
 20
80.49888499999999
 30
0.0
 11
37.569839
 21
80.450885
 31
0.0
  0
LINE
  5
134
330
1E
100
AcDbEntity
  8
0
100
AcDbLine
 10
37.544139
 20
80.49888499999999
 30
0.0
 11
37.6035187936399
 21
80.69263284238219
 31
0.0
  0
LINE
  5
135
330
1E
100
AcDbEntity
  8
0
100
AcDbLine
 10
37.544139
 20
80.49888499999999
 30
0.0
 11
37.585239
 21
80.527785
 31
0.0
  0
LINE
  5
136
330
1E
100
AcDbEntity
  8
0
100
AcDbLine
 10
37.569839
 20
80.450885
 30
0.0
 11
37.653339
 21
80.38768500000001
 31
0.0
  0
LINE
  5
137
330
1E
100
AcDbEntity
  8
0
100
AcDbLine
 10
38.713139
 20
79.99128499999999
 30
0.0
 11
38.94603899999999
 21
79.93538499999999
 31
0.0
  0
LINE
  5
138
330
1E
100
AcDbEntity
  8
0
100
AcDbLine
 10
38.46703899999999
 20
80.06058499999999
 30
0.0
 11
38.713139
 21
79.99128499999999
 31
0.0
  0
LINE
  5
139
330
1E
100
AcDbEntity
  8
0
100
AcDbLine
 10
38.216139
 20
80.14228499999999
 30
0.0
 11
38.46703899999999
 21
80.06058499999999
 31
0.0
  0
LINE
  5
13A
330
1E
100
AcDbEntity
  8
0
100
AcDbLine
 10
37.986139
 20
80.22888499999998
 30
0.0
 11
38.216139
 21
80.14228499999999
 31
0.0
  0
LINE
  5
13B
330
1E
100
AcDbEntity
  8
0
100
AcDbLine
 10
38.054939
 20
80.47978499999999
 30
0.0
 11
38.28783899999999
 21
80.42388499999999
 31
0.0
  0
LINE
  5
13C
330
1E
100
AcDbEntity
  8
0
100
AcDbLine
 10
38.28783899999999
 20
80.42388499999999
 30
0.0
 11
38.533839
 21
80.354585
 31
0.0
  0
LINE
  5
13D
330
1E
100
AcDbEntity
  8
0
100
AcDbLine
 10
38.533839
 20
80.354585
 30
0.0
 11
38.784739
 21
80.272885
 31
0.0
  0
LINE
  5
13E
330
1E
100
AcDbEntity
  8
0
100
AcDbLine
 10
38.92973899999999
 20
78.16598499999999
 30
0.0
 11
39.108239
 21
78.13308499999999
 31
0.0
  0
LINE
  5
13F
330
1E
100
AcDbEntity
  8
0
100
AcDbLine
 10
38.784739
 20
80.272885
 30
0.0
 11
39.014739
 21
80.186285
 31
0.0
  0
LINE
  5
140
330
1E
100
AcDbEntity
  8
0
100
AcDbLine
 10
38.94603899999999
 20
79.93538499999999
 30
0.0
 11
39.14683899999999
 21
79.899085
 31
0.0
  0
LINE
  5
141
330
1E
100
AcDbEntity
  8
0
100
AcDbLine
 10
39.014739
 20
80.186285
 30
0.0
 11
39.203039
 21
80.103685
 31
0.0
  0
LINE
  5
142
330
1E
100
AcDbEntity
  8
0
100
AcDbLine
 10
38.797339
 20
78.180385
 30
0.0
 11
38.92973899999999
 21
78.16598499999999
 31
0.0
  0
LINE
  5
143
330
1E
100
AcDbEntity
  8
0
100
AcDbLine
 10
38.722539
 20
78.173585
 30
0.0
 11
38.9146003072062
 21
78.806140162435
 31
0.0
  0
LINE
  5
144
330
1E
100
AcDbEntity
  8
0
100
AcDbLine
 10
38.722539
 20
78.173585
 30
0.0
 11
38.797339
 21
78.180385
 31
0.0
  0
LINE
  5
145
330
1E
100
AcDbEntity
  8
0
100
AcDbLine
 10
38.717239
 20
78.14448500000001
 30
0.0
 11
38.777339
 21
78.097585
 31
0.0
  0
LINE
  5
146
330
1E
100
AcDbEntity
  8
0
100
AcDbLine
 10
38.777339
 20
78.097585
 30
0.0
 11
38.892939
 21
78.036585
 31
0.0
  0
LINE
  5
147
330
1E
100
AcDbEntity
  8
0
100
AcDbLine
 10
40.010839
 20
77.66178499999999
 30
0.0
 11
40.22963899999999
 21
77.610185
 31
0.0
  0
LINE
  5
148
330
1E
100
AcDbEntity
  8
0
100
AcDbLine
 10
39.770739
 20
77.72648499999999
 30
0.0
 11
40.010839
 21
77.66178499999999
 31
0.0
  0
LINE
  5
149
330
1E
100
AcDbEntity
  8
0
100
AcDbLine
 10
39.516539
 20
77.803285
 30
0.0
 11
39.770739
 21
77.72648499999999
 31
0.0
  0
LINE
  5
14A
330
1E
100
AcDbEntity
  8
0
100
AcDbLine
 10
40.22963899999999
 20
77.610185
 30
0.0
 11
40.40813899999999
 21
77.57738499999999
 31
0.0
  0
LINE
  5
14B
330
1E
100
AcDbEntity
  8
0
100
AcDbLine
 10
40.40813899999999
 20
77.57738499999999
 30
0.0
 11
40.540539
 21
77.562885
 31
0.0
  0
LINE
  5
14C
330
1E
100
AcDbEntity
  8
0
100
AcDbLine
 10
40.540539
 20
77.562885
 30
0.0
 11
40.61533899999999
 21
77.56978499999999
 31
0.0
  0
LINE
  5
14D
330
1E
100
AcDbEntity
  8
0
100
AcDbLine
 10
40.61533899999999
 20
77.56978499999999
 30
0.0
 11
40.782378158128
 21
78.11992955196441
 31
0.0
  0
LINE
  5
14E
330
1E
100
AcDbEntity
  8
0
100
AcDbLine
 10
40.560539
 20
77.645685
 30
0.0
 11
40.620639
 21
77.59878499999999
 31
0.0
  0
LINE
  5
14F
330
1E
100
AcDbEntity
  8
0
100
AcDbLine
 10
40.44493899999999
 20
77.70668499999999
 30
0.0
 11
40.560539
 21
77.645685
 31
0.0
  0
LINE
  5
150
330
1E
100
AcDbEntity
  8
0
100
AcDbLine
 10
40.273439
 20
77.779585
 30
0.0
 11
40.44493899999999
 21
77.70668499999999
 31
0.0
  0
LINE
  5
151
330
1E
100
AcDbEntity
  8
0
100
AcDbLine
 10
39.273439
 20
77.88518499999999
 30
0.0
 11
39.516539
 21
77.803285
 31
0.0
  0
LINE
  5
152
330
1E
100
AcDbEntity
  8
0
100
AcDbLine
 10
39.064339
 20
77.96368499999999
 30
0.0
 11
39.273439
 21
77.88518499999999
 31
0.0
  0
LINE
  5
153
330
1E
100
AcDbEntity
  8
0
100
AcDbLine
 10
39.14683899999999
 20
79.899085
 30
0.0
 11
39.30733899999999
 21
79.881985
 31
0.0
  0
LINE
  5
154
330
1E
100
AcDbEntity
  8
0
100
AcDbLine
 10
39.30733899999999
 20
79.881985
 30
0.0
 11
39.415639
 21
79.887385
 31
0.0
  0
LINE
  5
155
330
1E
100
AcDbEntity
  8
0
100
AcDbLine
 10
39.415639
 20
79.887385
 30
0.0
 11
39.456739
 21
79.916285
 31
0.0
  0
LINE
  5
156
330
1E
100
AcDbEntity
  8
0
100
AcDbLine
 10
39.431139
 20
79.964285
 30
0.0
 11
39.456739
 21
79.916285
 31
0.0
  0
LINE
  5
157
330
1E
100
AcDbEntity
  8
0
100
AcDbLine
 10
39.456739
 20
79.916285
 30
0.0
 11
39.69531793257379
 21
80.69486858714091
 31
0.0
  0
LINE
  5
158
330
1E
100
AcDbEntity
  8
0
100
AcDbLine
 10
39.347539
 20
80.027485
 30
0.0
 11
39.431139
 21
79.964285
 31
0.0
  0
LINE
  5
159
330
1E
100
AcDbEntity
  8
0
100
AcDbLine
 10
39.203039
 20
80.103685
 30
0.0
 11
39.347539
 21
80.027485
 31
0.0
  0
LINE
  5
15A
330
1E
100
AcDbEntity
  8
0
100
AcDbLine
 10
39.108239
 20
78.13308499999999
 30
0.0
 11
39.32703899999999
 21
78.081485
 31
0.0
  0
LINE
  5
15B
330
1E
100
AcDbEntity
  8
0
100
AcDbLine
 10
39.32703899999999
 20
78.081485
 30
0.0
 11
39.567139
 21
78.016785
 31
0.0
  0
LINE
  5
15C
330
1E
100
AcDbEntity
  8
0
100
AcDbLine
 10
39.567139
 20
78.016785
 30
0.0
 11
39.821339
 21
77.93998499999999
 31
0.0
  0
LINE
  5
15D
330
1E
100
AcDbEntity
  8
0
100
AcDbLine
 10
39.821339
 20
77.93998499999999
 30
0.0
 11
40.064339
 21
77.85818499999999
 31
0.0
  0
LINE
  5
15E
330
1E
100
AcDbEntity
  8
0
100
AcDbLine
 10
42.588239
 20
82.031085
 30
0.0
 11
42.830139
 21
81.968285
 31
0.0
  0
LINE
  5
15F
330
1E
100
AcDbEntity
  8
0
100
AcDbLine
 10
42.343339
 20
82.113385
 30
0.0
 11
42.588239
 21
82.031085
 31
0.0
  0
LINE
  5
160
330
1E
100
AcDbEntity
  8
0
100
AcDbLine
 10
42.105139
 20
82.214585
 30
0.0
 11
42.343339
 21
82.113385
 31
0.0
  0
LINE
  5
161
330
1E
100
AcDbEntity
  8
0
100
AcDbLine
 10
41.898639
 20
82.325485
 30
0.0
 11
42.105139
 21
82.214585
 31
0.0
  0
LINE
  5
162
330
1E
100
AcDbEntity
  8
0
100
AcDbLine
 10
42.830139
 20
81.968285
 30
0.0
 11
43.050939
 21
81.932685
 31
0.0
  0
LINE
  5
163
330
1E
100
AcDbEntity
  8
0
100
AcDbLine
 10
43.050939
 20
81.932685
 30
0.0
 11
43.239839
 21
81.922885
 31
0.0
  0
LINE
  5
164
330
1E
100
AcDbEntity
  8
0
100
AcDbLine
 10
43.239839
 20
81.922885
 30
0.0
 11
43.384739
 21
81.942585
 31
0.0
  0
LINE
  5
165
330
1E
100
AcDbEntity
  8
0
100
AcDbLine
 10
41.741939
 20
82.434585
 30
0.0
 11
41.898639
 21
82.325485
 31
0.0
  0
LINE
  5
166
330
1E
100
AcDbEntity
  8
0
100
AcDbLine
 10
41.63463899999999
 20
82.538285
 30
0.0
 11
41.741939
 21
82.434585
 31
0.0
  0
LINE
  5
167
330
1E
100
AcDbEntity
  8
0
100
AcDbLine
 10
42.73333899999999
 20
82.57898500000001
 30
0.0
 11
42.971639
 21
82.477785
 31
0.0
  0
LINE
  5
168
330
1E
100
AcDbEntity
  8
0
100
AcDbLine
 10
42.971639
 20
82.477785
 30
0.0
 11
43.178039
 21
82.36688499999999
 31
0.0
  0
LINE
  5
169
330
1E
100
AcDbEntity
  8
0
100
AcDbLine
 10
43.178039
 20
82.36688499999999
 30
0.0
 11
43.334839
 21
82.257785
 31
0.0
  0
LINE
  5
16A
330
1E
100
AcDbEntity
  8
0
100
AcDbLine
 10
43.384739
 20
81.942585
 30
0.0
 11
43.46743899999999
 21
81.99198499999999
 31
0.0
  0
LINE
  5
16B
330
1E
100
AcDbEntity
  8
0
100
AcDbLine
 10
43.46743899999999
 20
81.99198499999999
 30
0.0
 11
43.75217060864139
 21
82.8147044702392
 31
0.0
  0
LINE
  5
16C
330
1E
100
AcDbEntity
  8
0
100
AcDbLine
 10
43.46743899999999
 20
81.99198499999999
 30
0.0
 11
43.484239
 21
82.06428499999999
 31
0.0
  0
LINE
  5
16D
330
1E
100
AcDbEntity
  8
0
100
AcDbLine
 10
43.442039
 20
82.154085
 30
0.0
 11
43.484239
 21
82.06428499999999
 31
0.0
  0
LINE
  5
16E
330
1E
100
AcDbEntity
  8
0
100
AcDbLine
 10
43.334839
 20
82.257785
 30
0.0
 11
43.442039
 21
82.154085
 31
0.0
  0
LINE
  5
16F
330
1E
100
AcDbEntity
  8
0
100
AcDbLine
 10
42.246639
 20
82.72418499999998
 30
0.0
 11
42.48843899999999
 21
82.661385
 31
0.0
  0
LINE
  5
170
330
1E
100
AcDbEntity
  8
0
100
AcDbLine
 10
42.48843899999999
 20
82.661385
 30
0.0
 11
42.73333899999999
 21
82.57898500000001
 31
0.0
  0
LINE
  5
171
330
1E
100
AcDbEntity
  8
0
100
AcDbLine
 10
42.02573899999999
 20
82.75968500000001
 30
0.0
 11
42.246639
 21
82.72418499999998
 31
0.0
  0
LINE
  5
172
330
1E
100
AcDbEntity
  8
0
100
AcDbLine
 10
41.836939
 20
82.76948500000001
 30
0.0
 11
42.02573899999999
 21
82.75968500000001
 31
0.0
  0
LINE
  5
173
330
1E
100
AcDbEntity
  8
0
100
AcDbLine
 10
41.692039
 20
82.74978500000001
 30
0.0
 11
41.836939
 21
82.76948500000001
 31
0.0
  0
LINE
  5
174
330
1E
100
AcDbEntity
  8
0
100
AcDbLine
 10
41.609239
 20
82.700385
 30
0.0
 11
41.88722045367639
 21
83.50372833948529
 31
0.0
  0
LINE
  5
175
330
1E
100
AcDbEntity
  8
0
100
AcDbLine
 10
41.609239
 20
82.700385
 30
0.0
 11
41.692039
 21
82.74978500000001
 31
0.0
  0
LINE
  5
176
330
1E
100
AcDbEntity
  8
0
100
AcDbLine
 10
41.592539
 20
82.628085
 30
0.0
 11
41.63463899999999
 21
82.538285
 31
0.0
  0
LINE
  5
177
330
1E
100
AcDbEntity
  8
0
100
AcDbLine
 10
41.592539
 20
82.628085
 30
0.0
 11
41.609239
 21
82.700385
 31
0.0
  0
LINE
  5
178
330
1E
100
AcDbEntity
  8
0
100
AcDbLine
 10
40.064339
 20
77.85818499999999
 30
0.0
 11
40.273439
 21
77.779585
 31
0.0
  0
LINE
  5
179
330
1E
100
AcDbEntity
  8
0
100
AcDbLine
 10
36.750839
 20
77.349485
 30
0.0
 11
36.991439
 21
77.26188499999999
 31
0.0
  0
LINE
  5
17A
330
1E
100
AcDbEntity
  8
0
100
AcDbLine
 10
36.510339
 20
77.437085
 30
0.0
 11
36.750839
 21
77.349485
 31
0.0
  0
LINE
  5
17B
330
1E
100
AcDbEntity
  8
0
100
AcDbLine
 10
30.196539
 20
84.54138499999999
 30
0.0
 11
30.441439
 21
84.438785
 31
0.0
  0
LINE
  5
17C
330
1E
100
AcDbEntity
  8
0
100
AcDbLine
 10
19.944839
 20
84.54648500000001
 30
0.0
 11
20.183839
 21
84.45308500000001
 31
0.0
  0
LINE
  5
17D
330
1E
100
AcDbEntity
  8
0
100
AcDbLine
 10
31.166539
 20
84.558885
 30
0.0
 11
31.267139
 21
84.456685
 31
0.0
  0
LINE
  5
17E
330
1E
100
AcDbEntity
  8
0
100
AcDbLine
 10
19.714739
 20
84.63298499999998
 30
0.0
 11
19.944839
 21
84.54648500000001
 31
0.0
  0
LINE
  5
17F
330
1E
100
AcDbEntity
  8
0
100
AcDbLine
 10
19.695739
 20
84.55678499999999
 30
0.0
 11
19.915539
 21
84.464585
 31
0.0
  0
LINE
  5
180
330
1E
100
AcDbEntity
  8
0
100
AcDbLine
 10
19.565739
 20
84.589385
 30
0.0
 11
19.654739
 21
84.55338499999999
 31
0.0
  0
LINE
  5
181
330
1E
100
AcDbEntity
  8
0
100
AcDbLine
 10
19.266839
 20
84.75658499999999
 30
0.0
 11
19.356239
 21
84.70918499999999
 31
0.0
  0
LINE
  5
182
330
1E
100
AcDbEntity
  8
0
100
AcDbLine
 10
19.356239
 20
84.70918499999999
 30
0.0
 11
19.505339
 21
84.63988499999999
 31
0.0
  0
LINE
  5
183
330
1E
100
AcDbEntity
  8
0
100
AcDbLine
 10
19.241739
 20
84.778985
 30
0.0
 11
19.4477840245776
 21
85.29767318009159
 31
0.0
  0
LINE
  5
184
330
1E
100
AcDbEntity
  8
0
100
AcDbLine
 10
19.274339
 20
84.778485
 30
0.0
 11
19.371339
 21
84.75148500000001
 31
0.0
  0
LINE
  5
185
330
1E
100
AcDbEntity
  8
0
100
AcDbLine
 10
19.371339
 20
84.75148500000001
 30
0.0
 11
19.517939
 21
84.70318499999999
 31
0.0
  0
LINE
  5
186
330
1E
100
AcDbEntity
  8
0
100
AcDbLine
 10
19.517939
 20
84.70318499999999
 30
0.0
 11
19.714739
 21
84.63298499999998
 31
0.0
  0
LINE
  5
187
330
1E
100
AcDbEntity
  8
0
100
AcDbLine
 10
29.965939
 20
84.65738499999998
 30
0.0
 11
30.196539
 21
84.54138499999999
 31
0.0
  0
LINE
  5
188
330
1E
100
AcDbEntity
  8
0
100
AcDbLine
 10
29.770939
 20
84.77468499999998
 30
0.0
 11
29.965939
 21
84.65738499999998
 31
0.0
  0
LINE
  5
189
330
1E
100
AcDbEntity
  8
0
100
AcDbLine
 10
30.815039
 20
84.790285
 30
0.0
 11
31.010039
 21
84.672985
 31
0.0
  0
LINE
  5
18A
330
1E
100
AcDbEntity
  8
0
100
AcDbLine
 10
31.010039
 20
84.672985
 30
0.0
 11
31.166539
 21
84.558885
 31
0.0
  0
LINE
  5
18B
330
1E
100
AcDbEntity
  8
0
100
AcDbLine
 10
19.417439
 20
84.64928499999999
 30
0.0
 11
19.565739
 21
84.589385
 31
0.0
  0
LINE
  5
18C
330
1E
100
AcDbEntity
  8
0
100
AcDbLine
 10
19.220839
 20
84.728685
 30
0.0
 11
19.417439
 21
84.64928499999999
 31
0.0
  0
LINE
  5
18D
330
1E
100
AcDbEntity
  8
0
100
AcDbLine
 10
29.614539
 20
84.888785
 30
0.0
 11
29.770939
 21
84.77468499999998
 31
0.0
  0
LINE
  5
18E
330
1E
100
AcDbEntity
  8
0
100
AcDbLine
 10
30.339639
 20
85.008885
 30
0.0
 11
30.584439
 21
84.90628499999999
 31
0.0
  0
LINE
  5
18F
330
1E
100
AcDbEntity
  8
0
100
AcDbLine
 10
30.584439
 20
84.90628499999999
 30
0.0
 11
30.815039
 21
84.790285
 31
0.0
  0
LINE
  5
190
330
1E
100
AcDbEntity
  8
0
100
AcDbLine
 10
29.513939
 20
84.991085
 30
0.0
 11
29.614539
 21
84.888785
 31
0.0
  0
LINE
  5
191
330
1E
100
AcDbEntity
  8
0
100
AcDbLine
 10
18.998339
 20
84.81858499999999
 30
0.0
 11
19.220839
 21
84.728685
 31
0.0
  0
LINE
  5
192
330
1E
100
AcDbEntity
  8
0
100
AcDbLine
 10
18.760939
 20
84.914485
 30
0.0
 11
18.998339
 21
84.81858499999999
 31
0.0
  0
LINE
  5
193
330
1E
100
AcDbEntity
  8
0
100
AcDbLine
 10
11.41833899999999
 20
88.68678499999999
 30
0.0
 11
11.470039
 21
88.645385
 31
0.0
  0
LINE
  5
194
330
1E
100
AcDbEntity
  8
0
100
AcDbLine
 10
11.468239
 20
88.634485
 30
0.0
 11
11.50615299770139
 21
88.70053058188391
 31
0.0
  0
LINE
  5
195
330
1E
100
AcDbEntity
  8
0
100
AcDbLine
 10
13.591039
 20
87.99008499999999
 30
0.0
 11
13.767739
 21
87.94118500000001
 31
0.0
  0
LINE
  5
196
330
1E
100
AcDbEntity
  8
0
100
AcDbLine
 10
13.383439
 20
88.06458499999999
 30
0.0
 11
13.591039
 21
87.99008499999999
 31
0.0
  0
LINE
  5
197
330
1E
100
AcDbEntity
  8
0
100
AcDbLine
 10
13.92566628584219
 20
87.9304929771872
 30
0.0
 11
15.479339
 21
87.052685
 31
0.0
  0
LINE
  5
198
330
1E
100
AcDbEntity
  8
0
100
AcDbLine
 10
13.92566628584219
 20
87.9304929771872
 30
0.0
 11
15.479339
 21
87.052685
 31
0.0
  0
LINE
  5
199
330
1E
100
AcDbEntity
  8
0
100
AcDbLine
 10
13.895939
 20
87.92528500000001
 30
0.0
 11
13.974139
 21
87.938985
 31
0.0
  0
LINE
  5
19A
330
1E
100
AcDbEntity
  8
0
100
AcDbLine
 10
15.479339
 20
87.052685
 30
0.0
 11
18.09452538287039
 21
85.83847540277171
 31
0.0
  0
LINE
  5
19B
330
1E
100
AcDbEntity
  8
0
100
AcDbLine
 10
17.226039
 20
87.24778499999999
 30
0.0
 11
17.433639
 21
87.173385
 31
0.0
  0
LINE
  5
19C
330
1E
100
AcDbEntity
  8
0
100
AcDbLine
 10
16.992039
 20
87.34808499999999
 30
0.0
 11
17.226039
 21
87.24778499999999
 31
0.0
  0
LINE
  5
19D
330
1E
100
AcDbEntity
  8
0
100
AcDbLine
 10
16.753939
 20
87.465685
 30
0.0
 11
16.992039
 21
87.34808499999999
 31
0.0
  0
LINE
  5
19E
330
1E
100
AcDbEntity
  8
0
100
AcDbLine
 10
16.535039
 20
87.58808499999998
 30
0.0
 11
16.753939
 21
87.465685
 31
0.0
  0
LINE
  5
19F
330
1E
100
AcDbEntity
  8
0
100
AcDbLine
 10
16.341139
 20
87.71008499999998
 30
0.0
 11
16.535039
 21
87.58808499999998
 31
0.0
  0
LINE
  5
1A0
330
1E
100
AcDbEntity
  8
0
100
AcDbLine
 10
16.190039
 20
87.82308499999999
 30
0.0
 11
16.341139
 21
87.71008499999998
 31
0.0
  0
LINE
  5
1A1
330
1E
100
AcDbEntity
  8
0
100
AcDbLine
 10
16.085539
 20
87.92118499999999
 30
0.0
 11
16.190039
 21
87.82308499999999
 31
0.0
  0
LINE
  5
1A2
330
1E
100
AcDbEntity
  8
0
100
AcDbLine
 10
16.647039
 20
87.919285
 30
0.0
 11
16.881139
 21
87.818985
 31
0.0
  0
LINE
  5
1A3
330
1E
100
AcDbEntity
  8
0
100
AcDbLine
 10
16.881139
 20
87.818985
 30
0.0
 11
17.119239
 21
87.70148499999999
 31
0.0
  0
LINE
  5
1A4
330
1E
100
AcDbEntity
  8
0
100
AcDbLine
 10
17.119239
 20
87.70148499999999
 30
0.0
 11
17.338139
 21
87.57908499999999
 31
0.0
  0
LINE
  5
1A5
330
1E
100
AcDbEntity
  8
0
100
AcDbLine
 10
17.610339
 20
87.12438500000001
 30
0.0
 11
17.738539
 21
87.10858499999998
 31
0.0
  0
LINE
  5
1A6
330
1E
100
AcDbEntity
  8
0
100
AcDbLine
 10
17.738539
 20
87.10858499999998
 30
0.0
 11
17.816739
 21
87.122285
 31
0.0
  0
LINE
  5
1A7
330
1E
100
AcDbEntity
  8
0
100
AcDbLine
 10
17.816739
 20
87.122285
 30
0.0
 11
17.835239
 21
87.16888500000001
 31
0.0
  0
LINE
  5
1A8
330
1E
100
AcDbEntity
  8
0
100
AcDbLine
 10
17.816739
 20
87.122285
 30
0.0
 11
18.0016441145397
 21
87.49387011533491
 31
0.0
  0
LINE
  5
1A9
330
1E
100
AcDbEntity
  8
0
100
AcDbLine
 10
17.787639
 20
87.245985
 30
0.0
 11
17.835239
 21
87.16888500000001
 31
0.0
  0
LINE
  5
1AA
330
1E
100
AcDbEntity
  8
0
100
AcDbLine
 10
17.683039
 20
87.34398500000001
 30
0.0
 11
17.787639
 21
87.245985
 31
0.0
  0
LINE
  5
1AB
330
1E
100
AcDbEntity
  8
0
100
AcDbLine
 10
17.532039
 20
87.45698500000001
 30
0.0
 11
17.683039
 21
87.34398500000001
 31
0.0
  0
LINE
  5
1AC
330
1E
100
AcDbEntity
  8
0
100
AcDbLine
 10
17.433639
 20
87.173385
 30
0.0
 11
17.610339
 21
87.12438500000001
 31
0.0
  0
LINE
  5
1AD
330
1E
100
AcDbEntity
  8
0
100
AcDbLine
 10
17.338139
 20
87.57908499999999
 30
0.0
 11
17.532039
 21
87.45698500000001
 31
0.0
  0
LINE
  5
1AE
330
1E
100
AcDbEntity
  8
0
100
AcDbLine
 10
16.037939
 20
87.998285
 30
0.0
 11
16.085539
 21
87.92118499999999
 31
0.0
  0
LINE
  5
1AF
330
1E
100
AcDbEntity
  8
0
100
AcDbLine
 10
16.037939
 20
87.998285
 30
0.0
 11
16.056339
 21
88.04488499999999
 31
0.0
  0
LINE
  5
1B0
330
1E
100
AcDbEntity
  8
0
100
AcDbLine
 10
16.134639
 20
88.05858499999999
 30
0.0
 11
16.262739
 21
88.04268499999999
 31
0.0
  0
LINE
  5
1B1
330
1E
100
AcDbEntity
  8
0
100
AcDbLine
 10
16.056339
 20
88.04488499999999
 30
0.0
 11
16.23935211279039
 21
88.41266795069492
 31
0.0
  0
LINE
  5
1B2
330
1E
100
AcDbEntity
  8
0
100
AcDbLine
 10
16.056339
 20
88.04488499999999
 30
0.0
 11
16.134639
 21
88.05858499999999
 31
0.0
  0
LINE
  5
1B3
330
1E
100
AcDbEntity
  8
0
100
AcDbLine
 10
16.262739
 20
88.04268499999999
 30
0.0
 11
16.439439
 21
87.99378500000001
 31
0.0
  0
LINE
  5
1B4
330
1E
100
AcDbEntity
  8
0
100
AcDbLine
 10
16.439439
 20
87.99378500000001
 30
0.0
 11
16.647039
 21
87.919285
 31
0.0
  0
LINE
  5
1B5
330
1E
100
AcDbEntity
  8
0
100
AcDbLine
 10
13.974139
 20
87.938985
 30
0.0
 11
13.992639
 21
87.985685
 31
0.0
  0
LINE
  5
1B6
330
1E
100
AcDbEntity
  8
0
100
AcDbLine
 10
13.974139
 20
87.938985
 30
0.0
 11
14.3436702953018
 21
88.68159468565629
 31
0.0
  0
LINE
  5
1B7
330
1E
100
AcDbEntity
  8
0
100
AcDbLine
 10
13.945039
 20
88.06278499999999
 30
0.0
 11
13.992639
 21
87.985685
 31
0.0
  0
LINE
  5
1B8
330
1E
100
AcDbEntity
  8
0
100
AcDbLine
 10
13.840539
 20
88.16078500000001
 30
0.0
 11
13.945039
 21
88.06278499999999
 31
0.0
  0
LINE
  5
1B9
330
1E
100
AcDbEntity
  8
0
100
AcDbLine
 10
13.767739
 20
87.94118500000001
 30
0.0
 11
13.895939
 21
87.92528500000001
 31
0.0
  0
LINE
  5
1BA
330
1E
100
AcDbEntity
  8
0
100
AcDbLine
 10
13.689439
 20
88.273785
 30
0.0
 11
13.840539
 21
88.16078500000001
 31
0.0
  0
LINE
  5
1BB
330
1E
100
AcDbEntity
  8
0
100
AcDbLine
 10
13.495539
 20
88.39588499999999
 30
0.0
 11
13.689439
 21
88.273785
 31
0.0
  0
LINE
  5
1BC
330
1E
100
AcDbEntity
  8
0
100
AcDbLine
 10
13.149439
 20
88.164885
 30
0.0
 11
13.383439
 21
88.06458499999999
 31
0.0
  0
LINE
  5
1BD
330
1E
100
AcDbEntity
  8
0
100
AcDbLine
 10
12.911339
 20
88.28248499999999
 30
0.0
 11
13.149439
 21
88.164885
 31
0.0
  0
LINE
  5
1BE
330
1E
100
AcDbEntity
  8
0
100
AcDbLine
 10
13.276639
 20
88.518185
 30
0.0
 11
13.495539
 21
88.39588499999999
 31
0.0
  0
LINE
  5
1BF
330
1E
100
AcDbEntity
  8
0
100
AcDbLine
 10
12.692439
 20
88.40478500000001
 30
0.0
 11
12.911339
 21
88.28248499999999
 31
0.0
  0
LINE
  5
1C0
330
1E
100
AcDbEntity
  8
0
100
AcDbLine
 10
12.49853899999999
 20
88.52688499999999
 30
0.0
 11
12.692439
 21
88.40478500000001
 31
0.0
  0
LINE
  5
1C1
330
1E
100
AcDbEntity
  8
0
100
AcDbLine
 10
11.996539
 20
88.533485
 30
0.0
 11
12.200206126165
 21
88.90535896967159
 31
0.0
  0
LINE
  5
1C2
330
1E
100
AcDbEntity
  8
0
100
AcDbLine
 10
11.996539
 20
88.533485
 30
0.0
 11
12.3333730371567
 21
89.14850723199508
 31
0.0
  0
LINE
  5
1C3
330
1E
100
AcDbEntity
  8
0
100
AcDbLine
 10
11.929339
 20
88.536485
 30
0.0
 11
11.996539
 21
88.533485
 31
0.0
  0
LINE
  5
1C4
330
1E
100
AcDbEntity
  8
0
100
AcDbLine
 10
11.962139
 20
88.62168500000001
 30
0.0
 11
12.010039
 21
88.56098499999999
 31
0.0
  0
LINE
  5
1C5
330
1E
100
AcDbEntity
  8
0
100
AcDbLine
 10
13.038539
 20
88.635785
 30
0.0
 11
13.276639
 21
88.518185
 31
0.0
  0
LINE
  5
1C6
330
1E
100
AcDbEntity
  8
0
100
AcDbLine
 10
11.853439
 20
88.71178499999999
 30
0.0
 11
11.962139
 21
88.62168500000001
 31
0.0
  0
LINE
  5
1C7
330
1E
100
AcDbEntity
  8
0
100
AcDbLine
 10
12.347439
 20
88.63988499999999
 30
0.0
 11
12.49853899999999
 21
88.52688499999999
 31
0.0
  0
LINE
  5
1C8
330
1E
100
AcDbEntity
  8
0
100
AcDbLine
 10
11.638739
 20
88.63988499999999
 30
0.0
 11
11.804839
 21
88.57428500000001
 31
0.0
  0
LINE
  5
1C9
330
1E
100
AcDbEntity
  8
0
100
AcDbLine
 10
11.804839
 20
88.57428500000001
 30
0.0
 11
11.929339
 21
88.536485
 31
0.0
  0
LINE
  5
1CA
330
1E
100
AcDbEntity
  8
0
100
AcDbLine
 10
11.50615299770139
 20
88.70053058188391
 30
0.0
 11
11.638739
 21
88.63988499999999
 31
0.0
  0
LINE
  5
1CB
330
1E
100
AcDbEntity
  8
0
100
AcDbLine
 10
17.833739
 20
85.289085
 30
0.0
 11
18.06264579765839
 21
85.85566904375019
 31
0.0
  0
LINE
  5
1CC
330
1E
100
AcDbEntity
  8
0
100
AcDbLine
 10
17.956139
 20
85.239685
 30
0.0
 11
18.104539
 21
85.17978499999999
 31
0.0
  0
LINE
  5
1CD
330
1E
100
AcDbEntity
  8
0
100
AcDbLine
 10
17.867139
 20
85.27568499999999
 30
0.0
 11
17.956139
 21
85.239685
 31
0.0
  0
LINE
  5
1CE
330
1E
100
AcDbEntity
  8
0
100
AcDbLine
 10
18.104539
 20
85.17978499999999
 30
0.0
 11
18.301039
 21
85.100285
 31
0.0
  0
LINE
  5
1CF
330
1E
100
AcDbEntity
  8
0
100
AcDbLine
 10
30.105139
 20
85.089085
 30
0.0
 11
30.339639
 21
85.008885
 31
0.0
  0
LINE
  5
1D0
330
1E
100
AcDbEntity
  8
0
100
AcDbLine
 10
29.888439
 20
85.14648499999999
 30
0.0
 11
30.105139
 21
85.089085
 31
0.0
  0
LINE
  5
1D1
330
1E
100
AcDbEntity
  8
0
100
AcDbLine
 10
29.707839
 20
85.173485
 30
0.0
 11
29.888439
 21
85.14648499999999
 31
0.0
  0
LINE
  5
1D2
330
1E
100
AcDbEntity
  8
0
100
AcDbLine
 10
29.569839
 20
85.17248499999999
 30
0.0
 11
29.707839
 21
85.173485
 31
0.0
  0
LINE
  5
1D3
330
1E
100
AcDbEntity
  8
0
100
AcDbLine
 10
29.485639
 20
85.13988499999999
 30
0.0
 11
29.8029398069112
 21
85.8805860191981
 31
0.0
  0
LINE
  5
1D4
330
1E
100
AcDbEntity
  8
0
100
AcDbLine
 10
29.485639
 20
85.13988499999999
 30
0.0
 11
29.569839
 21
85.17248499999999
 31
0.0
  0
LINE
  5
1D5
330
1E
100
AcDbEntity
  8
0
100
AcDbLine
 10
29.467939
 20
85.07668499999999
 30
0.0
 11
29.513939
 21
84.991085
 31
0.0
  0
LINE
  5
1D6
330
1E
100
AcDbEntity
  8
0
100
AcDbLine
 10
29.467939
 20
85.07668499999999
 30
0.0
 11
29.485639
 21
85.13988499999999
 31
0.0
  0
LINE
  5
1D7
330
1E
100
AcDbEntity
  8
0
100
AcDbLine
 10
22.987739
 20
85.992785
 30
0.0
 11
23.20453899999999
 21
85.93538499999999
 31
0.0
  0
LINE
  5
1D8
330
1E
100
AcDbEntity
  8
0
100
AcDbLine
 10
22.753339
 20
86.072985
 30
0.0
 11
22.987739
 21
85.992785
 31
0.0
  0
LINE
  5
1D9
330
1E
100
AcDbEntity
  8
0
100
AcDbLine
 10
22.508439
 20
86.17558499999999
 30
0.0
 11
22.753339
 21
86.072985
 31
0.0
  0
LINE
  5
1DA
330
1E
100
AcDbEntity
  8
0
100
AcDbLine
 10
22.27783899999999
 20
86.291585
 30
0.0
 11
22.508439
 21
86.17558499999999
 31
0.0
  0
LINE
  5
1DB
330
1E
100
AcDbEntity
  8
0
100
AcDbLine
 10
22.082839
 20
86.40878499999999
 30
0.0
 11
22.27783899999999
 21
86.291585
 31
0.0
  0
LINE
  5
1DC
330
1E
100
AcDbEntity
  8
0
100
AcDbLine
 10
23.20453899999999
 20
85.93538499999999
 30
0.0
 11
23.385039
 21
85.908385
 31
0.0
  0
LINE
  5
1DD
330
1E
100
AcDbEntity
  8
0
100
AcDbLine
 10
21.926439
 20
86.52298499999998
 30
0.0
 11
22.082839
 21
86.40878499999999
 31
0.0
  0
LINE
  5
1DE
330
1E
100
AcDbEntity
  8
0
100
AcDbLine
 10
22.896339
 20
86.540485
 30
0.0
 11
23.126939
 21
86.424485
 31
0.0
  0
LINE
  5
1DF
330
1E
100
AcDbEntity
  8
0
100
AcDbLine
 10
23.126939
 20
86.424485
 30
0.0
 11
23.321939
 21
86.307185
 31
0.0
  0
LINE
  5
1E0
330
1E
100
AcDbEntity
  8
0
100
AcDbLine
 10
23.385039
 20
85.908385
 30
0.0
 11
23.52313899999999
 21
85.909385
 31
0.0
  0
LINE
  5
1E1
330
1E
100
AcDbEntity
  8
0
100
AcDbLine
 10
23.52313899999999
 20
85.909385
 30
0.0
 11
23.607339
 21
85.941985
 31
0.0
  0
LINE
  5
1E2
330
1E
100
AcDbEntity
  8
0
100
AcDbLine
 10
23.607339
 20
85.941985
 30
0.0
 11
23.9142807928304
 21
86.6585041321044
 31
0.0
  0
LINE
  5
1E3
330
1E
100
AcDbEntity
  8
0
100
AcDbLine
 10
23.607339
 20
85.941985
 30
0.0
 11
23.625039
 21
86.00518499999999
 31
0.0
  0
LINE
  5
1E4
330
1E
100
AcDbEntity
  8
0
100
AcDbLine
 10
23.579039
 20
86.090785
 30
0.0
 11
23.625039
 21
86.00518499999999
 31
0.0
  0
LINE
  5
1E5
330
1E
100
AcDbEntity
  8
0
100
AcDbLine
 10
23.478439
 20
86.193085
 30
0.0
 11
23.579039
 21
86.090785
 31
0.0
  0
LINE
  5
1E6
330
1E
100
AcDbEntity
  8
0
100
AcDbLine
 10
23.321939
 20
86.307185
 30
0.0
 11
23.478439
 21
86.193085
 31
0.0
  0
LINE
  5
1E7
330
1E
100
AcDbEntity
  8
0
100
AcDbLine
 10
22.417139
 20
86.72318500000001
 30
0.0
 11
22.651539
 21
86.64298499999999
 31
0.0
  0
LINE
  5
1E8
330
1E
100
AcDbEntity
  8
0
100
AcDbLine
 10
22.651539
 20
86.64298499999999
 30
0.0
 11
22.896339
 21
86.540485
 31
0.0
  0
LINE
  5
1E9
330
1E
100
AcDbEntity
  8
0
100
AcDbLine
 10
22.200339
 20
86.780685
 30
0.0
 11
22.417139
 21
86.72318500000001
 31
0.0
  0
LINE
  5
1EA
330
1E
100
AcDbEntity
  8
0
100
AcDbLine
 10
22.019739
 20
86.80768499999999
 30
0.0
 11
22.200339
 21
86.780685
 31
0.0
  0
LINE
  5
1EB
330
1E
100
AcDbEntity
  8
0
100
AcDbLine
 10
21.881739
 20
86.80668500000001
 30
0.0
 11
22.019739
 21
86.80768499999999
 31
0.0
  0
LINE
  5
1EC
330
1E
100
AcDbEntity
  8
0
100
AcDbLine
 10
21.797539
 20
86.773985
 30
0.0
 11
22.02109903275189
 21
87.29585932399949
 31
0.0
  0
LINE
  5
1ED
330
1E
100
AcDbEntity
  8
0
100
AcDbLine
 10
21.797539
 20
86.773985
 30
0.0
 11
21.881739
 21
86.80668500000001
 31
0.0
  0
LINE
  5
1EE
330
1E
100
AcDbEntity
  8
0
100
AcDbLine
 10
21.779839
 20
86.710785
 30
0.0
 11
21.825839
 21
86.625185
 31
0.0
  0
LINE
  5
1EF
330
1E
100
AcDbEntity
  8
0
100
AcDbLine
 10
21.779839
 20
86.710785
 30
0.0
 11
21.797539
 21
86.773985
 31
0.0
  0
LINE
  5
1F0
330
1E
100
AcDbEntity
  8
0
100
AcDbLine
 10
21.825839
 20
86.625185
 30
0.0
 11
21.926439
 21
86.52298499999998
 31
0.0
  0
LINE
  5
1F1
330
1E
100
AcDbEntity
  8
0
100
AcDbLine
 10
18.301039
 20
85.100285
 30
0.0
 11
18.523539
 21
85.01038499999999
 31
0.0
  0
LINE
  5
1F2
330
1E
100
AcDbEntity
  8
0
100
AcDbLine
 10
18.523539
 20
85.01038499999999
 30
0.0
 11
18.760939
 21
84.914485
 31
0.0
  0
LINE
  5
1F3
330
1E
100
AcDbEntity
  8
0
100
AcDbLine
 10
11.40473899999999
 20
88.659285
 30
0.0
 11
11.468239
 21
88.634485
 31
0.0
  0
LINE
  5
1F4
330
1E
100
AcDbEntity
  8
0
100
AcDbLine
 10
11.308139
 20
88.760685
 30
0.0
 11
11.41833899999999
 21
88.68678499999999
 31
0.0
  0
LINE
  5
1F5
330
1E
100
AcDbEntity
  8
0
100
AcDbLine
 10
11.43213899999999
 20
88.734385
 30
0.0
 11
11.638739
 21
88.63988499999999
 31
0.0
  0
LINE
  5
1F6
330
1E
100
AcDbEntity
  8
0
100
AcDbLine
 10
11.698539
 20
88.82058499999999
 30
0.0
 11
11.853439
 21
88.71178499999999
 31
0.0
  0
LINE
  5
1F7
330
1E
100
AcDbEntity
  8
0
100
AcDbLine
 10
11.146639
 20
88.861985
 30
0.0
 11
11.308139
 21
88.760685
 31
0.0
  0
LINE
  5
1F8
330
1E
100
AcDbEntity
  8
0
100
AcDbLine
 10
11.203639
 20
88.849885
 30
0.0
 11
11.43213899999999
 21
88.734385
 31
0.0
  0
LINE
  5
1F9
330
1E
100
AcDbEntity
  8
0
100
AcDbLine
 10
12.213739
 20
88.861685
 30
0.0
 11
12.6725478296614
 21
89.7837067207662
 31
0.0
  0
LINE
  5
1FA
330
1E
100
AcDbEntity
  8
0
100
AcDbLine
 10
12.213739
 20
88.861685
 30
0.0
 11
12.292039
 21
88.87538499999999
 31
0.0
  0
LINE
  5
1FB
330
1E
100
AcDbEntity
  8
0
100
AcDbLine
 10
12.195339
 20
88.81498499999999
 30
0.0
 11
12.213739
 21
88.861685
 31
0.0
  0
LINE
  5
1FC
330
1E
100
AcDbEntity
  8
0
100
AcDbLine
 10
12.195339
 20
88.81498499999999
 30
0.0
 11
12.242939
 21
88.73788499999999
 31
0.0
  0
LINE
  5
1FD
330
1E
100
AcDbEntity
  8
0
100
AcDbLine
 10
12.292039
 20
88.87538499999999
 30
0.0
 11
12.420239
 21
88.85948499999999
 31
0.0
  0
LINE
  5
1FE
330
1E
100
AcDbEntity
  8
0
100
AcDbLine
 10
12.420239
 20
88.85948499999999
 30
0.0
 11
12.59683899999999
 21
88.81058499999999
 31
0.0
  0
LINE
  5
1FF
330
1E
100
AcDbEntity
  8
0
100
AcDbLine
 10
12.59683899999999
 20
88.81058499999999
 30
0.0
 11
12.804439
 21
88.73608500000001
 31
0.0
  0
LINE
  5
200
330
1E
100
AcDbEntity
  8
0
100
AcDbLine
 10
12.804439
 20
88.73608500000001
 30
0.0
 11
13.038539
 21
88.635785
 31
0.0
  0
LINE
  5
201
330
1E
100
AcDbEntity
  8
0
100
AcDbLine
 10
12.242939
 20
88.73788499999999
 30
0.0
 11
12.347439
 21
88.63988499999999
 31
0.0
  0
LINE
  5
202
330
1E
100
AcDbEntity
  8
0
100
AcDbLine
 10
11.29163899999999
 20
88.713685
 30
0.0
 11
11.40473899999999
 21
88.659285
 31
0.0
  0
LINE
  5
203
330
1E
100
AcDbEntity
  8
0
100
AcDbLine
 10
11.127339
 20
88.799185
 30
0.0
 11
11.29163899999999
 21
88.713685
 31
0.0
  0
LINE
  5
204
330
1E
100
AcDbEntity
  8
0
100
AcDbLine
 10
10.48253899999999
 20
89.159885
 30
0.0
 11
10.706839
 21
89.031385
 31
0.0
  0
LINE
  5
205
330
1E
100
AcDbEntity
  8
0
100
AcDbLine
 10
10.51363899999999
 20
89.234185
 30
0.0
 11
10.737839
 21
89.10558499999998
 31
0.0
  0
LINE
  5
206
330
1E
100
AcDbEntity
  8
0
100
AcDbLine
 10
10.29543899999999
 20
89.35638500000001
 30
0.0
 11
10.51363899999999
 21
89.234185
 31
0.0
  0
LINE
  5
207
330
1E
100
AcDbEntity
  8
0
100
AcDbLine
 10
10.41473899999999
 20
89.33098499999999
 30
0.0
 11
10.569739
 21
89.22218499999999
 31
0.0
  0
LINE
  5
208
330
1E
100
AcDbEntity
  8
0
100
AcDbLine
 10
10.569739
 20
89.22218499999999
 30
0.0
 11
10.75983899999999
 21
89.100985
 31
0.0
  0
LINE
  5
209
330
1E
100
AcDbEntity
  8
0
100
AcDbLine
 10
10.306039
 20
89.42108499999999
 30
0.0
 11
10.41473899999999
 21
89.33098499999999
 31
0.0
  0
LINE
  5
20A
330
1E
100
AcDbEntity
  8
0
100
AcDbLine
 10
10.27173899999999
 20
89.50928499999999
 30
0.0
 11
10.6137326388822
 21
90.1337577122393
 31
0.0
  0
LINE
  5
20B
330
1E
100
AcDbEntity
  8
0
100
AcDbLine
 10
10.27173899999999
 20
89.50928499999999
 30
0.0
 11
10.338939
 21
89.506385
 31
0.0
  0
LINE
  5
20C
330
1E
100
AcDbEntity
  8
0
100
AcDbLine
 10
10.338939
 20
89.506385
 30
0.0
 11
10.463339
 21
89.46848499999999
 31
0.0
  0
LINE
  5
20D
330
1E
100
AcDbEntity
  8
0
100
AcDbLine
 10
10.463339
 20
89.46848499999999
 30
0.0
 11
10.62953899999999
 21
89.40288499999999
 31
0.0
  0
LINE
  5
20E
330
1E
100
AcDbEntity
  8
0
100
AcDbLine
 10
10.62953899999999
 20
89.40288499999999
 30
0.0
 11
10.836139
 21
89.308385
 31
0.0
  0
LINE
  5
20F
330
1E
100
AcDbEntity
  8
0
100
AcDbLine
 10
10.737839
 20
89.10558499999998
 30
0.0
 11
10.952939
 21
88.978985
 31
0.0
  0
LINE
  5
210
330
1E
100
AcDbEntity
  8
0
100
AcDbLine
 10
10.952939
 20
88.978985
 30
0.0
 11
11.146639
 21
88.861985
 31
0.0
  0
LINE
  5
211
330
1E
100
AcDbEntity
  8
0
100
AcDbLine
 10
10.976839
 20
88.97398499999999
 30
0.0
 11
11.203639
 21
88.849885
 31
0.0
  0
LINE
  5
212
330
1E
100
AcDbEntity
  8
0
100
AcDbLine
 10
10.75983899999999
 20
89.100985
 30
0.0
 11
10.976839
 21
88.97398499999999
 31
0.0
  0
LINE
  5
213
330
1E
100
AcDbEntity
  8
0
100
AcDbLine
 10
10.836139
 20
89.308385
 30
0.0
 11
11.064639
 21
89.192885
 31
0.0
  0
LINE
  5
214
330
1E
100
AcDbEntity
  8
0
100
AcDbLine
 10
11.064639
 20
89.192885
 30
0.0
 11
11.291339
 21
89.06888499999999
 31
0.0
  0
LINE
  5
215
330
1E
100
AcDbEntity
  8
0
100
AcDbLine
 10
11.50843899999999
 20
88.941785
 30
0.0
 11
11.698539
 21
88.82058499999999
 31
0.0
  0
LINE
  5
216
330
1E
100
AcDbEntity
  8
0
100
AcDbLine
 10
11.291339
 20
89.06888499999999
 30
0.0
 11
11.50843899999999
 21
88.941785
 31
0.0
  0
LINE
  5
217
330
1E
100
AcDbEntity
  8
0
100
AcDbLine
 10
10.706839
 20
89.031385
 30
0.0
 11
10.924939
 21
88.90918499999999
 31
0.0
  0
LINE
  5
218
330
1E
100
AcDbEntity
  8
0
100
AcDbLine
 10
10.924939
 20
88.90918499999999
 30
0.0
 11
11.127339
 21
88.799185
 31
0.0
  0
LINE
  5
219
330
1E
100
AcDbEntity
  8
0
100
AcDbLine
 10
10.267439
 20
89.28648499999999
 30
0.0
 11
10.48253899999999
 21
89.159885
 31
0.0
  0
LINE
  5
21B
330
1E
100
AcDbEntity
  8
0
100
AcDbLine
 10
10.997539
 20
101.2213849999999
 30
0.0
 11
13.511539
 21
100.6873849999999
 31
0.0
  0
LINE
  5
21C
330
1E
100
AcDbEntity
  8
0
100
AcDbLine
 10
10.71713899999999
 20
104.364385
 30
0.0
 11
25.425439
 21
102.2443849999999
 31
0.0
  0
LINE
  5
21D
330
1E
100
AcDbEntity
  8
0
100
AcDbLine
 10
16.52953899999999
 20
100.046385
 30
0.0
 11
19.83293899999999
 21
99.343385
 31
0.0
  0
LINE
  5
21F
330
1E
100
AcDbEntity
  8
0
100
AcDbLine
 10
19.83293899999999
 20
99.343385
 30
0.0
 11
23.315539
 21
98.603585
 31
0.0
  0
LINE
  5
222
330
1E
100
AcDbEntity
  8
0
100
AcDbLine
 10
13.511539
 20
100.6873849999999
 30
0.0
 11
16.52953899999999
 21
100.046385
 31
0.0
  0
LINE
  5
223
330
1E
100
AcDbEntity
  8
0
100
AcDbLine
 10
25.425439
 20
102.2443849999999
 30
0.0
 11
40.201539
 21
99.61438499999999
 31
0.0
  0
LINE
  5
225
330
1E
100
AcDbEntity
  8
0
100
AcDbLine
 10
23.315539
 20
98.603585
 30
0.0
 11
28.802939
 21
97.43718499999999
 31
0.0
  0
LINE
  5
227
330
1E
100
AcDbEntity
  8
0
100
AcDbLine
 10
34.559039
 20
96.213685
 30
0.0
 11
39.741139
 21
95.112185
 31
0.0
  0
LINE
  5
229
330
1E
100
AcDbEntity
  8
0
100
AcDbLine
 10
39.741139
 20
95.112185
 30
0.0
 11
46.007339
 21
93.78028499999999
 31
0.0
  0
LINE
  5
22A
330
1E
100
AcDbEntity
  8
0
100
AcDbLine
 10
40.495039
 20
99.552385
 30
0.0
 11
49.787439
 21
97.577285
 31
0.0
  0
LINE
  5
22B
330
1E
100
AcDbEntity
  8
0
100
AcDbLine
 10
40.201539
 20
99.61438499999999
 30
0.0
 11
40.495039
 21
99.552385
 31
0.0
  0
LINE
  5
22C
330
1E
100
AcDbEntity
  8
0
100
AcDbLine
 10
40.201539
 20
99.61438499999999
 30
0.0
 11
40.495039
 21
99.552385
 31
0.0
  0
LINE
  5
22E
330
1E
100
AcDbEntity
  8
0
100
AcDbLine
 10
28.802939
 20
97.43718499999999
 30
0.0
 11
34.559039
 21
96.213685
 31
0.0
  0
LINE
  5
22F
330
1E
100
AcDbEntity
  8
0
100
AcDbLine
 10
9.75213900000001
 20
89.631085
 30
0.0
 11
10.0370816565178
 21
90.1275004784993
 31
0.0
  0
LINE
  5
230
330
1E
100
AcDbEntity
  8
0
100
AcDbLine
 10
9.75213900000001
 20
89.631085
 30
0.0
 11
9.815739000000009
 21
89.606185
 31
0.0
  0
LINE
  5
231
330
1E
100
AcDbEntity
  8
0
100
AcDbLine
 10
9.75213900000001
 20
89.631085
 30
0.0
 11
10.048505351587
 21
90.14740237428171
 31
0.0
  0
LINE
  5
232
330
1E
100
AcDbEntity
  8
0
100
AcDbLine
 10
43.949839
 20
74.81758499999999
 30
0.0
 11
44.1844689477769
 21
75.5968625364748
 31
0.0
  0
LINE
  5
233
330
1E
100
AcDbEntity
  8
0
100
AcDbLine
 10
44.099039
 20
75.65038499999999
 30
0.0
 11
44.299739
 21
75.60268499999999
 31
0.0
  0
LINE
  5
234
330
1E
100
AcDbEntity
  8
0
100
AcDbLine
 10
44.299739
 20
75.60268499999999
 30
0.0
 11
44.453139
 21
75.575185
 31
0.0
  0
LINE
  5
235
330
1E
100
AcDbEntity
  8
0
100
AcDbLine
 10
44.453139
 20
75.575185
 30
0.0
 11
44.556139
 21
75.56688499999999
 31
0.0
  0
LINE
  5
236
330
1E
100
AcDbEntity
  8
0
100
AcDbLine
 10
44.597839
 20
75.58078499999999
 30
0.0
 11
44.770759715721
 21
76.12344070957028
 31
0.0
  0
LINE
  5
237
330
1E
100
AcDbEntity
  8
0
100
AcDbLine
 10
44.478439
 20
75.670485
 30
0.0
 11
44.569439
 21
75.616985
 31
0.0
  0
LINE
  5
239
330
1E
100
AcDbEntity
  8
0
100
AcDbLine
 10
46.007339
 20
93.78028499999999
 30
0.0
 11
54.341239
 21
92.00878499999999
 31
0.0
  0
LINE
  5
23A
330
1E
100
AcDbEntity
  8
0
100
AcDbLine
 10
44.335339
 20
75.73738500000001
 30
0.0
 11
44.478439
 21
75.670485
 31
0.0
  0
LINE
  5
23B
330
1E
100
AcDbEntity
  8
0
100
AcDbLine
 10
44.142539
 20
75.814785
 30
0.0
 11
44.335339
 21
75.73738500000001
 31
0.0
  0
LINE
  5
23C
330
1E
100
AcDbEntity
  8
0
100
AcDbLine
 10
43.986539
 20
74.78838499999999
 30
0.0
 11
44.189739
 21
74.709585
 31
0.0
  0
LINE
  5
23D
330
1E
100
AcDbEntity
  8
0
100
AcDbLine
 10
61.443639
 20
70.72678499999999
 30
0.0
 11
61.84453900000001
 21
70.688785
 31
0.0
  0
LINE
  5
23E
330
1E
100
AcDbEntity
  8
0
100
AcDbLine
 10
61.84453900000001
 20
70.688785
 30
0.0
 11
62.090139
 21
70.68998499999999
 31
0.0
  0
LINE
  5
23F
330
1E
100
AcDbEntity
  8
0
100
AcDbLine
 10
62.090139
 20
70.68998499999999
 30
0.0
 11
62.189739
 21
70.72588499999999
 31
0.0
  0
LINE
  5
240
330
1E
100
AcDbEntity
  8
0
100
AcDbLine
 10
52.266939
 20
72.62028499999999
 30
0.0
 11
52.82333900000001
 21
72.49398499999999
 31
0.0
  0
LINE
  5
241
330
1E
100
AcDbEntity
  8
0
100
AcDbLine
 10
52.82333900000001
 20
72.49398499999999
 30
0.0
 11
53.279839
 21
72.404985
 31
0.0
  0
LINE
  5
242
330
1E
100
AcDbEntity
  8
0
100
AcDbLine
 10
53.279839
 20
72.404985
 30
0.0
 11
53.621539
 21
72.353785
 31
0.0
  0
LINE
  5
243
330
1E
100
AcDbEntity
  8
0
100
AcDbLine
 10
53.621539
 20
72.353785
 30
0.0
 11
53.819139
 21
72.347385
 31
0.0
  0
LINE
  5
244
330
1E
100
AcDbEntity
  8
0
100
AcDbLine
 10
53.698839
 20
72.473685
 30
0.0
 11
53.841639
 21
72.389785
 31
0.0
  0
LINE
  5
245
330
1E
100
AcDbEntity
  8
0
100
AcDbLine
 10
53.841639
 20
72.389785
 30
0.0
 11
54.0704729335764
 21
73.24712278496
 31
0.0
  0
LINE
  5
246
330
1E
100
AcDbEntity
  8
0
100
AcDbLine
 10
53.415039
 20
72.590985
 30
0.0
 11
53.698839
 21
72.473685
 31
0.0
  0
LINE
  5
247
330
1E
100
AcDbEntity
  8
0
100
AcDbLine
 10
51.65903899999999
 20
72.77088499999999
 30
0.0
 11
52.266939
 21
72.62028499999999
 31
0.0
  0
LINE
  5
248
330
1E
100
AcDbEntity
  8
0
100
AcDbLine
 10
51.017739
 20
72.942785
 30
0.0
 11
51.65903899999999
 21
72.77088499999999
 31
0.0
  0
LINE
  5
249
330
1E
100
AcDbEntity
  8
0
100
AcDbLine
 10
50.407239
 20
73.11978499999999
 30
0.0
 11
51.017739
 21
72.942785
 31
0.0
  0
LINE
  5
24A
330
1E
100
AcDbEntity
  8
0
100
AcDbLine
 10
49.884539
 20
73.284385
 30
0.0
 11
50.407239
 21
73.11978499999999
 31
0.0
  0
LINE
  5
24B
330
1E
100
AcDbEntity
  8
0
100
AcDbLine
 10
51.214439
 20
73.25208499999999
 30
0.0
 11
51.855739
 21
73.080185
 31
0.0
  0
LINE
  5
24C
330
1E
100
AcDbEntity
  8
0
100
AcDbLine
 10
51.855739
 20
73.080185
 30
0.0
 11
52.46613899999999
 21
72.90318499999999
 31
0.0
  0
LINE
  5
24D
330
1E
100
AcDbEntity
  8
0
100
AcDbLine
 10
53.96187421009379
 20
72.8402522322193
 30
0.0
 11
59.769339
 21
71.43058499999999
 31
0.0
  0
LINE
  5
24E
330
1E
100
AcDbEntity
  8
0
100
AcDbLine
 10
52.46613899999999
 20
72.90318499999999
 30
0.0
 11
52.98883899999999
 21
72.738585
 31
0.0
  0
LINE
  5
24F
330
1E
100
AcDbEntity
  8
0
100
AcDbLine
 10
52.98883899999999
 20
72.738585
 30
0.0
 11
53.415039
 21
72.590985
 31
0.0
  0
LINE
  5
250
330
1E
100
AcDbEntity
  8
0
100
AcDbLine
 10
59.699039
 20
71.03248499999999
 30
0.0
 11
60.326739
 21
70.90708499999999
 31
0.0
  0
LINE
  5
251
330
1E
100
AcDbEntity
  8
0
100
AcDbLine
 10
60.326739
 20
70.90708499999999
 30
0.0
 11
60.917939
 21
70.802885
 31
0.0
  0
LINE
  5
252
330
1E
100
AcDbEntity
  8
0
100
AcDbLine
 10
60.917939
 20
70.802885
 30
0.0
 11
61.443639
 21
70.72678499999999
 31
0.0
  0
LINE
  5
253
330
1E
100
AcDbEntity
  8
0
100
AcDbLine
 10
59.074739
 20
71.17328499999999
 30
0.0
 11
59.699039
 21
71.03248499999999
 31
0.0
  0
LINE
  5
255
330
1E
100
AcDbEntity
  8
0
100
AcDbLine
 10
59.769439
 20
71.43058499999999
 30
0.0
 11
65.6481176531127
 21
70.3563009947857
 31
0.0
  0
LINE
  5
258
330
1E
100
AcDbEntity
  8
0
100
AcDbLine
 10
58.492139
 20
71.318485
 30
0.0
 11
59.074739
 21
71.17328499999999
 31
0.0
  0
LINE
  5
259
330
1E
100
AcDbEntity
  8
0
100
AcDbLine
 10
57.980939
 20
71.462785
 30
0.0
 11
58.492139
 21
71.318485
 31
0.0
  0
LINE
  5
25C
330
1E
100
AcDbEntity
  8
0
100
AcDbLine
 10
57.599339
 20
71.59108499999999
 30
0.0
 11
57.980939
 21
71.462785
 31
0.0
  0
LINE
  5
25D
330
1E
100
AcDbEntity
  8
0
100
AcDbLine
 10
57.375439
 20
71.69218499999999
 30
0.0
 11
57.599339
 21
71.59108499999999
 31
0.0
  0
LINE
  5
25E
330
1E
100
AcDbEntity
  8
0
100
AcDbLine
 10
59.822139
 20
72.303285
 30
0.0
 11
60.073639
 21
72.254885
 31
0.0
  0
LINE
  5
25F
330
1E
100
AcDbEntity
  8
0
100
AcDbLine
 10
60.073639
 20
72.254885
 30
0.0
 11
60.31113900000001
 21
72.218085
 31
0.0
  0
LINE
  5
260
330
1E
100
AcDbEntity
  8
0
100
AcDbLine
 10
60.31113900000001
 20
72.218085
 30
0.0
 11
60.523139
 21
72.195785
 31
0.0
  0
LINE
  5
261
330
1E
100
AcDbEntity
  8
0
100
AcDbLine
 10
60.523139
 20
72.195785
 30
0.0
 11
60.685739
 21
72.19138499999999
 31
0.0
  0
LINE
  5
262
330
1E
100
AcDbEntity
  8
0
100
AcDbLine
 10
60.685739
 20
72.19138499999999
 30
0.0
 11
60.786639
 21
72.20408499999999
 31
0.0
  0
LINE
  5
263
330
1E
100
AcDbEntity
  8
0
100
AcDbLine
 10
60.786639
 20
72.20408499999999
 30
0.0
 11
60.829239
 21
72.23148499999999
 31
0.0
  0
LINE
  5
264
330
1E
100
AcDbEntity
  8
0
100
AcDbLine
 10
59.572839
 20
72.361385
 30
0.0
 11
59.822139
 21
72.303285
 31
0.0
  0
LINE
  5
265
330
1E
100
AcDbEntity
  8
0
100
AcDbLine
 10
59.340839
 20
72.424385
 30
0.0
 11
59.572839
 21
72.361385
 31
0.0
  0
LINE
  5
266
330
1E
100
AcDbEntity
  8
0
100
AcDbLine
 10
59.138039
 20
72.490185
 30
0.0
 11
59.340839
 21
72.424385
 31
0.0
  0
LINE
  5
267
330
1E
100
AcDbEntity
  8
0
100
AcDbLine
 10
58.98773900000001
 20
72.552285
 30
0.0
 11
59.138039
 21
72.490185
 31
0.0
  0
LINE
  5
268
330
1E
100
AcDbEntity
  8
0
100
AcDbLine
 10
58.900739
 20
72.604985
 30
0.0
 11
58.98773900000001
 21
72.552285
 31
0.0
  0
LINE
  5
269
330
1E
100
AcDbEntity
  8
0
100
AcDbLine
 10
59.628539
 20
72.623885
 30
0.0
 11
59.880039
 21
72.575485
 31
0.0
  0
LINE
  5
26A
330
1E
100
AcDbEntity
  8
0
100
AcDbLine
 10
59.391039
 20
72.660685
 30
0.0
 11
59.628539
 21
72.623885
 31
0.0
  0
LINE
  5
26B
330
1E
100
AcDbEntity
  8
0
100
AcDbLine
 10
59.179039
 20
72.682985
 30
0.0
 11
59.391039
 21
72.660685
 31
0.0
  0
LINE
  5
26C
330
1E
100
AcDbEntity
  8
0
100
AcDbLine
 10
59.01643899999999
 20
72.68738499999999
 30
0.0
 11
59.179039
 21
72.682985
 31
0.0
  0
LINE
  5
26D
330
1E
100
AcDbEntity
  8
0
100
AcDbLine
 10
58.915539
 20
72.67468499999999
 30
0.0
 11
59.01643899999999
 21
72.68738499999999
 31
0.0
  0
LINE
  5
26E
330
1E
100
AcDbEntity
  8
0
100
AcDbLine
 10
58.872939
 20
72.647285
 30
0.0
 11
59.0210752307866
 21
73.344187185291
 31
0.0
  0
LINE
  5
26F
330
1E
100
AcDbEntity
  8
0
100
AcDbLine
 10
58.872939
 20
72.647285
 30
0.0
 11
58.915539
 21
72.67468499999999
 31
0.0
  0
LINE
  5
270
330
1E
100
AcDbEntity
  8
0
100
AcDbLine
 10
58.872939
 20
72.647285
 30
0.0
 11
58.900739
 21
72.604985
 31
0.0
  0
LINE
  5
271
330
1E
100
AcDbEntity
  8
0
100
AcDbLine
 10
59.880039
 20
72.575485
 30
0.0
 11
60.12943899999999
 21
72.517385
 31
0.0
  0
LINE
  5
272
330
1E
100
AcDbEntity
  8
0
100
AcDbLine
 10
60.12943899999999
 20
72.517385
 30
0.0
 11
60.361339
 21
72.454385
 31
0.0
  0
LINE
  5
273
330
1E
100
AcDbEntity
  8
0
100
AcDbLine
 10
60.361339
 20
72.454385
 30
0.0
 11
60.564139
 21
72.38858499999999
 31
0.0
  0
LINE
  5
274
330
1E
100
AcDbEntity
  8
0
100
AcDbLine
 10
60.564139
 20
72.38858499999999
 30
0.0
 11
60.714439
 21
72.32648499999999
 31
0.0
  0
LINE
  5
275
330
1E
100
AcDbEntity
  8
0
100
AcDbLine
 10
60.714439
 20
72.32648499999999
 30
0.0
 11
60.801439
 21
72.273785
 31
0.0
  0
LINE
  5
276
330
1E
100
AcDbEntity
  8
0
100
AcDbLine
 10
60.829239
 20
72.23148499999999
 30
0.0
 11
60.95701473552939
 21
72.8325708544622
 31
0.0
  0
LINE
  5
277
330
1E
100
AcDbEntity
  8
0
100
AcDbLine
 10
60.801439
 20
72.273785
 30
0.0
 11
60.829239
 21
72.23148499999999
 31
0.0
  0
LINE
  5
278
330
1E
100
AcDbEntity
  8
0
100
AcDbLine
 10
57.299039
 20
71.76538499999999
 30
0.0
 11
57.35256117767489
 21
72.0172183463799
 31
0.0
  0
LINE
  5
279
330
1E
100
AcDbEntity
  8
0
100
AcDbLine
 10
57.299039
 20
71.76538499999999
 30
0.0
 11
57.375439
 21
71.69218499999999
 31
0.0
  0
LINE
  5
27A
330
1E
100
AcDbEntity
  8
0
100
AcDbLine
 10
80.406139
 20
68.033885
 30
0.0
 11
80.645939
 21
68.01928499999999
 31
0.0
  0
LINE
  5
27B
330
1E
100
AcDbEntity
  8
0
100
AcDbLine
 10
80.15093900000001
 20
68.05398499999999
 30
0.0
 11
80.406139
 21
68.033885
 31
0.0
  0
LINE
  5
27C
330
1E
100
AcDbEntity
  8
0
100
AcDbLine
 10
81.482039
 20
67.699285
 30
0.0
 11
81.581539
 21
67.68328499999999
 31
0.0
  0
LINE
  5
27D
330
1E
100
AcDbEntity
  8
0
100
AcDbLine
 10
81.581539
 20
67.68328499999999
 30
0.0
 11
81.734939
 21
67.66428499999999
 31
0.0
  0
LINE
  5
27E
330
1E
100
AcDbEntity
  8
0
100
AcDbLine
 10
81.734939
 20
67.66428499999999
 30
0.0
 11
81.94293899999999
 21
67.64288499999999
 31
0.0
  0
LINE
  5
27F
330
1E
100
AcDbEntity
  8
0
100
AcDbLine
 10
81.95563900000001
 20
67.70448499999999
 30
0.0
 11
82.193439
 21
67.69038499999999
 31
0.0
  0
LINE
  5
280
330
1E
100
AcDbEntity
  8
0
100
AcDbLine
 10
81.94293899999999
 20
67.64288499999999
 30
0.0
 11
82.18793899999999
 21
67.620985
 31
0.0
  0
LINE
  5
281
330
1E
100
AcDbEntity
  8
0
100
AcDbLine
 10
81.483839
 20
67.717685
 30
0.0
 11
81.58443899999999
 21
67.71908499999999
 31
0.0
  0
LINE
  5
282
330
1E
100
AcDbEntity
  8
0
100
AcDbLine
 10
81.58443899999999
 20
67.71908499999999
 30
0.0
 11
81.748439
 21
67.71438499999999
 31
0.0
  0
LINE
  5
283
330
1E
100
AcDbEntity
  8
0
100
AcDbLine
 10
81.748439
 20
67.71438499999999
 30
0.0
 11
81.95563900000001
 21
67.70448499999999
 31
0.0
  0
LINE
  5
284
330
1E
100
AcDbEntity
  8
0
100
AcDbLine
 10
81.011739
 20
68.012085
 30
0.0
 11
81.117439
 21
68.019785
 31
0.0
  0
LINE
  5
285
330
1E
100
AcDbEntity
  8
0
100
AcDbLine
 10
81.451939
 20
67.710785
 30
0.0
 11
81.4929775615017
 21
68.2605031504379
 31
0.0
  0
LINE
  5
286
330
1E
100
AcDbEntity
  8
0
100
AcDbLine
 10
81.451939
 20
67.710785
 30
0.0
 11
81.49976219002159
 21
68.3513843437565
 31
0.0
  0
LINE
  5
287
330
1E
100
AcDbEntity
  8
0
100
AcDbLine
 10
83.700039
 20
67.440685
 30
0.0
 11
83.91143900000001
 21
67.425885
 31
0.0
  0
LINE
  5
288
330
1E
100
AcDbEntity
  8
0
100
AcDbLine
 10
93.187539
 20
66.87318499999999
 30
0.0
 11
93.376839
 21
66.86308499999999
 31
0.0
  0
LINE
  5
289
330
1E
100
AcDbEntity
  8
0
100
AcDbLine
 10
190.4948389999999
 20
19.057585
 30
0.0
 11
217.803839
 21
2.311204999999989
 31
0.0
  0
LINE
  5
28A
330
1E
100
AcDbEntity
  8
0
100
AcDbLine
 10
217.803839
 20
2.311204999999989
 30
0.0
 11
218.181839
 21
2.96592499999999
 31
0.0
  0
LINE
  5
28B
330
1E
100
AcDbEntity
  8
0
100
AcDbLine
 10
217.803839
 20
2.311204999999989
 30
0.0
 11
218.869111733175
 21
4.15631137385945
 31
0.0
  0
LINE
  5
28C
330
1E
100
AcDbEntity
  8
0
100
AcDbLine
 10
217.803839
 20
2.311204999999989
 30
0.0
 11
218.9319588160949
 21
4.23907127481137
 31
0.0
  0
LINE
  5
28D
330
1E
100
AcDbEntity
  8
0
100
AcDbLine
 10
217.803839
 20
2.311204999999989
 30
0.0
 11
218.869111733222
 21
4.156311373941409
 31
0.0
  0
LINE
  5
28E
330
1E
100
AcDbEntity
  8
0
100
AcDbLine
 10
217.803839
 20
2.311204999999989
 30
0.0
 11
218.9319588160949
 21
4.239071274811379
 31
0.0
  0
LINE
  5
28F
330
1E
100
AcDbEntity
  8
0
100
AcDbLine
 10
218.9015733438349
 20
4.1871449400565
 30
0.0
 11
225.754839
 21
0.230774999999984
 31
0.0
  0
LINE
  5
290
330
1E
100
AcDbEntity
  8
0
100
AcDbLine
 10
226.3078389999999
 20
0.188614999999985
 30
0.0
 11
226.487839
 21
0.500384999999984
 31
0.0
  0
LINE
  5
291
330
1E
100
AcDbEntity
  8
0
100
AcDbLine
 10
228.7678389999999
 20
4.44946499999998
 30
0.0
 11
229.927839
 21
6.45864499999999
 31
0.0
  0
LINE
  5
292
330
1E
100
AcDbEntity
  8
0
100
AcDbLine
 10
227.747839
 20
2.68277499999999
 30
0.0
 11
228.7678389999999
 21
4.44946499999998
 31
0.0
  0
LINE
  5
293
330
1E
100
AcDbEntity
  8
0
100
AcDbLine
 10
226.967839
 20
1.331774999999989
 30
0.0
 11
227.747839
 21
2.68277499999999
 31
0.0
  0
LINE
  5
294
330
1E
100
AcDbEntity
  8
0
100
AcDbLine
 10
226.487839
 20
0.500384999999984
 30
0.0
 11
226.967839
 21
1.331774999999989
 31
0.0
  0
LINE
  5
295
330
1E
100
AcDbEntity
  8
0
100
AcDbLine
 10
225.754839
 20
0.230774999999985
 30
0.0
 11
226.3078389999999
 21
0.188614999999985
 31
0.0
  0
LINE
  5
296
330
1E
100
AcDbEntity
  8
0
100
AcDbLine
 10
218.9015733438349
 20
4.1871449400565
 30
0.0
 11
225.754839
 21
0.230774999999985
 31
0.0
  0
LINE
  5
297
330
1E
100
AcDbEntity
  8
0
100
AcDbLine
 10
229.002750160028
 20
21.4492458641062
 30
0.0
 11
235.754839
 21
17.551285
 31
0.0
  0
LINE
  5
299
330
1E
100
AcDbEntity
  8
0
100
AcDbLine
 10
225.615839
 20
15.841985
 30
0.0
 11
229.023839
 21
21.485285
 31
0.0
  0
LINE
  5
29A
330
1E
100
AcDbEntity
  8
0
100
AcDbLine
 10
223.095839
 20
11.477185
 30
0.0
 11
225.615839
 21
15.841985
 31
0.0
  0
LINE
  5
29B
330
1E
100
AcDbEntity
  8
0
100
AcDbLine
 10
220.869839
 20
7.62167499999999
 30
0.0
 11
223.095839
 21
11.477185
 31
0.0
  0
LINE
  5
29C
330
1E
100
AcDbEntity
  8
0
100
AcDbLine
 10
219.1898389999999
 20
4.71182499999999
 30
0.0
 11
220.869839
 21
7.62167499999999
 31
0.0
  0
LINE
  5
29D
330
1E
100
AcDbEntity
  8
0
100
AcDbLine
 10
218.181839
 20
2.96592499999999
 30
0.0
 11
219.1898389999999
 21
4.71182499999999
 31
0.0
  0
LINE
  5
29E
330
1E
100
AcDbEntity
  8
0
100
AcDbLine
 10
171.6428389999999
 20
32.31448499999999
 30
0.0
 11
190.4948389999999
 21
19.057585
 31
0.0
  0
LINE
  5
29F
330
1E
100
AcDbEntity
  8
0
100
AcDbLine
 10
231.187839
 20
8.64102499999999
 30
0.0
 11
232.447839
 21
10.823385
 31
0.0
  0
LINE
  5
2A0
330
1E
100
AcDbEntity
  8
0
100
AcDbLine
 10
232.447839
 20
10.823385
 30
0.0
 11
233.607839
 21
12.832585
 31
0.0
  0
LINE
  5
2A1
330
1E
100
AcDbEntity
  8
0
100
AcDbLine
 10
233.607839
 20
12.832585
 30
0.0
 11
234.627839
 21
14.599285
 31
0.0
  0
LINE
  5
2A2
330
1E
100
AcDbEntity
  8
0
100
AcDbLine
 10
234.627839
 20
14.599285
 30
0.0
 11
235.407839
 21
15.950285
 31
0.0
  0
LINE
  5
2A3
330
1E
100
AcDbEntity
  8
0
100
AcDbLine
 10
235.407839
 20
15.950285
 30
0.0
 11
235.887839
 21
16.78168499999999
 31
0.0
  0
LINE
  5
2A4
330
1E
100
AcDbEntity
  8
0
100
AcDbLine
 10
235.754839
 20
17.551285
 30
0.0
 11
236.067839
 21
17.093385
 31
0.0
  0
LINE
  5
2A5
330
1E
100
AcDbEntity
  8
0
100
AcDbLine
 10
235.887839
 20
16.78168499999999
 30
0.0
 11
236.067839
 21
17.093385
 31
0.0
  0
LINE
  5
2A6
330
1E
100
AcDbEntity
  8
0
100
AcDbLine
 10
229.927839
 20
6.45864499999999
 30
0.0
 11
231.187839
 21
8.64102499999999
 31
0.0
  0
LINE
  5
2A7
330
1E
100
AcDbEntity
  8
0
100
AcDbLine
 10
230.023839
 20
23.21738499999999
 30
0.0
 11
230.5238389999999
 21
24.083385
 31
0.0
  0
LINE
  5
2A8
330
1E
100
AcDbEntity
  8
0
100
AcDbLine
 10
229.523839
 20
22.351385
 30
0.0
 11
230.023839
 21
23.21738499999999
 31
0.0
  0
LINE
  5
2A9
330
1E
100
AcDbEntity
  8
0
100
AcDbLine
 10
229.023839
 20
21.485285
 30
0.0
 11
229.523839
 21
22.351385
 31
0.0
  0
LINE
  5
2AA
330
1E
100
AcDbEntity
  8
0
100
AcDbLine
 10
158.1268389999999
 20
42.38908499999999
 30
0.0
 11
171.6428389999999
 21
32.31448499999999
 31
0.0
  0
LINE
  5
2AB
330
1E
100
AcDbEntity
  8
0
100
AcDbLine
 10
148.5688389999999
 20
49.906985
 30
0.0
 11
158.1268389999999
 21
42.38908499999999
 31
0.0
  0
LINE
  5
2AC
330
1E
100
AcDbEntity
  8
0
100
AcDbLine
 10
139.6558389999999
 20
57.405685
 30
0.0
 11
148.5688389999999
 21
49.906985
 31
0.0
  0
LINE
  5
2AD
330
1E
100
AcDbEntity
  8
0
100
AcDbLine
 10
129.2388389999999
 20
63.36818499999999
 30
0.0
 11
130.1738389999999
 21
62.947885
 31
0.0
  0
LINE
  5
2AE
330
1E
100
AcDbEntity
  8
0
100
AcDbLine
 10
132.5008389999999
 20
62.15408499999999
 30
0.0
 11
139.6558389999999
 21
57.405685
 31
0.0
  0
LINE
  5
2AF
330
1E
100
AcDbEntity
  8
0
100
AcDbLine
 10
130.5228389999999
 20
62.832085
 30
0.0
 11
130.569067927947
 21
63.0479947930312
 31
0.0
  0
LINE
  5
2B0
330
1E
100
AcDbEntity
  8
0
100
AcDbLine
 10
130.1738389999999
 20
62.947885
 30
0.0
 11
130.5228389999999
 21
62.832085
 31
0.0
  0
LINE
  5
2B1
330
1E
100
AcDbEntity
  8
0
100
AcDbLine
 10
115.6078389999999
 20
66.735885
 30
0.0
 11
117.3428389999999
 21
66.49178499999999
 31
0.0
  0
LINE
  5
2B2
330
1E
100
AcDbEntity
  8
0
100
AcDbLine
 10
117.3428389999999
 20
66.49178499999999
 30
0.0
 11
119.678839
 21
66.14748500000001
 31
0.0
  0
LINE
  5
2B3
330
1E
100
AcDbEntity
  8
0
100
AcDbLine
 10
119.678839
 20
66.14748500000001
 30
0.0
 11
122.684839
 21
65.563985
 31
0.0
  0
LINE
  5
2B4
330
1E
100
AcDbEntity
  8
0
100
AcDbLine
 10
122.684839
 20
65.563985
 30
0.0
 11
125.311839
 21
64.894785
 31
0.0
  0
LINE
  5
2B5
330
1E
100
AcDbEntity
  8
0
100
AcDbLine
 10
125.311839
 20
64.894785
 30
0.0
 11
127.562839
 21
64.08418499999999
 31
0.0
  0
LINE
  5
2B6
330
1E
100
AcDbEntity
  8
0
100
AcDbLine
 10
127.562839
 20
64.08418499999999
 30
0.0
 11
129.2388389999999
 21
63.36818499999999
 31
0.0
  0
LINE
  5
2B7
330
1E
100
AcDbEntity
  8
0
100
AcDbLine
 10
157.2418389999999
 20
66.086285
 30
0.0
 11
167.3518389999999
 21
60.56898499999999
 31
0.0
  0
LINE
  5
2BA
330
1E
100
AcDbEntity
  8
0
100
AcDbLine
 10
167.3518389999999
 20
60.56898499999999
 30
0.0
 11
183.2138389999999
 21
51.778785
 31
0.0
  0
LINE
  5
2BD
330
1E
100
AcDbEntity
  8
0
100
AcDbLine
 10
183.2138389999999
 20
51.778785
 30
0.0
 11
202.8938389999999
 21
40.27308499999999
 31
0.0
  0
LINE
  5
2C0
330
1E
100
AcDbEntity
  8
0
100
AcDbLine
 10
202.8938389999999
 20
40.27308499999999
 30
0.0
 11
230.5238389999999
 21
24.083385
 31
0.0
  0
LINE
  5
2C3
330
1E
100
AcDbEntity
  8
0
100
AcDbLine
 10
93.507039
 20
66.87188499999999
 30
0.0
 11
93.57533899999999
 21
66.86248499999999
 31
0.0
  0
LINE
  5
2C4
330
1E
100
AcDbEntity
  8
0
100
AcDbLine
 10
93.57533899999999
 20
66.86248499999999
 30
0.0
 11
93.62087873821009
 21
67.503060189237
 31
0.0
  0
LINE
  5
2C5
330
1E
100
AcDbEntity
  8
0
100
AcDbLine
 10
93.381339
 20
66.884885
 30
0.0
 11
93.507039
 21
66.87188499999999
 31
0.0
  0
LINE
  5
2C6
330
1E
100
AcDbEntity
  8
0
100
AcDbLine
 10
93.508039
 20
66.857985
 30
0.0
 11
93.572339
 21
66.857985
 31
0.0
  0
LINE
  5
2C7
330
1E
100
AcDbEntity
  8
0
100
AcDbLine
 10
93.376839
 20
66.86308499999999
 30
0.0
 11
93.508039
 21
66.857985
 31
0.0
  0
LINE
  5
2C8
330
1E
100
AcDbEntity
  8
0
100
AcDbLine
 10
90.169139
 20
67.301885
 30
0.0
 11
90.298239
 21
67.27958499999999
 31
0.0
  0
LINE
  5
2C9
330
1E
100
AcDbEntity
  8
0
100
AcDbLine
 10
90.10653899999999
 20
67.320385
 30
0.0
 11
90.169139
 21
67.301885
 31
0.0
  0
LINE
  5
2CA
330
1E
100
AcDbEntity
  8
0
100
AcDbLine
 10
90.173839
 20
67.34248499999999
 30
0.0
 11
90.309839
 21
67.34368499999999
 31
0.0
  0
LINE
  5
2CB
330
1E
100
AcDbEntity
  8
0
100
AcDbLine
 10
90.105439
 20
67.33428499999999
 30
0.0
 11
90.1355129928058
 21
67.70799472208778
 31
0.0
  0
LINE
  5
2CC
330
1E
100
AcDbEntity
  8
0
100
AcDbLine
 10
90.105439
 20
67.33428499999999
 30
0.0
 11
90.173839
 21
67.34248499999999
 31
0.0
  0
LINE
  5
2CD
330
1E
100
AcDbEntity
  8
0
100
AcDbLine
 10
90.105439
 20
67.33428499999999
 30
0.0
 11
90.14971800073793
 21
67.8845110097934
 31
0.0
  0
LINE
  5
2CE
330
1E
100
AcDbEntity
  8
0
100
AcDbLine
 10
90.309839
 20
67.34368499999999
 30
0.0
 11
90.495639
 21
67.338385
 31
0.0
  0
LINE
  5
2CF
330
1E
100
AcDbEntity
  8
0
100
AcDbLine
 10
90.495639
 20
67.338385
 30
0.0
 11
90.718639
 21
67.32738499999999
 31
0.0
  0
LINE
  5
2D0
330
1E
100
AcDbEntity
  8
0
100
AcDbLine
 10
90.298239
 20
67.27958499999999
 30
0.0
 11
90.47673899999999
 21
67.255285
 31
0.0
  0
LINE
  5
2D1
330
1E
100
AcDbEntity
  8
0
100
AcDbLine
 10
90.47673899999999
 20
67.255285
 30
0.0
 11
90.70383900000001
 21
67.22978499999999
 31
0.0
  0
LINE
  5
2D2
330
1E
100
AcDbEntity
  8
0
100
AcDbLine
 10
90.95963899999999
 20
67.205585
 30
0.0
 11
91.217239
 21
67.18498499999999
 31
0.0
  0
LINE
  5
2D3
330
1E
100
AcDbEntity
  8
0
100
AcDbLine
 10
91.226239
 20
67.29008499999999
 30
0.0
 11
91.482039
 21
67.265885
 31
0.0
  0
LINE
  5
2D4
330
1E
100
AcDbEntity
  8
0
100
AcDbLine
 10
90.968639
 20
67.31068499999999
 30
0.0
 11
91.226239
 21
67.29008499999999
 31
0.0
  0
LINE
  5
2D5
330
1E
100
AcDbEntity
  8
0
100
AcDbLine
 10
90.718639
 20
67.32738499999999
 30
0.0
 11
90.968639
 21
67.31068499999999
 31
0.0
  0
LINE
  5
2D6
330
1E
100
AcDbEntity
  8
0
100
AcDbLine
 10
90.70383900000001
 20
67.22978499999999
 30
0.0
 11
90.95963899999999
 21
67.205585
 31
0.0
  0
LINE
  5
2D7
330
1E
100
AcDbEntity
  8
0
100
AcDbLine
 10
91.217239
 20
67.18498499999999
 30
0.0
 11
91.46723900000001
 21
67.168285
 31
0.0
  0
LINE
  5
2D8
330
1E
100
AcDbEntity
  8
0
100
AcDbLine
 10
91.59963899999999
 20
67.00298499999999
 30
0.0
 11
91.664039
 21
67.00298499999999
 31
0.0
  0
LINE
  5
2D9
330
1E
100
AcDbEntity
  8
0
100
AcDbLine
 10
91.664039
 20
67.00298499999999
 30
0.0
 11
91.79523899999999
 21
66.997885
 31
0.0
  0
LINE
  5
2DA
330
1E
100
AcDbEntity
  8
0
100
AcDbLine
 10
91.482039
 20
67.265885
 30
0.0
 11
91.709139
 21
67.240385
 31
0.0
  0
LINE
  5
2DB
330
1E
100
AcDbEntity
  8
0
100
AcDbLine
 10
91.46723900000001
 20
67.168285
 30
0.0
 11
91.608315688228
 21
67.16132606022199
 31
0.0
  0
LINE
  5
2DC
330
1E
100
AcDbEntity
  8
0
100
AcDbLine
 10
91.46723900000001
 20
67.168285
 30
0.0
 11
91.690239
 21
67.157285
 31
0.0
  0
LINE
  5
2DD
330
1E
100
AcDbEntity
  8
0
100
AcDbLine
 10
91.59673899999999
 20
66.998485
 30
0.0
 11
91.665039
 21
66.989085
 31
0.0
  0
LINE
  5
2DE
330
1E
100
AcDbEntity
  8
0
100
AcDbLine
 10
91.59673899999999
 20
66.998485
 30
0.0
 11
91.608315688228
 21
67.16132606022199
 31
0.0
  0
LINE
  5
2DF
330
1E
100
AcDbEntity
  8
0
100
AcDbLine
 10
91.79523899999999
 20
66.997885
 30
0.0
 11
91.984539
 21
66.987785
 31
0.0
  0
LINE
  5
2E0
330
1E
100
AcDbEntity
  8
0
100
AcDbLine
 10
91.876039
 20
67.15198499999999
 30
0.0
 11
92.01203900000001
 21
67.15318499999999
 31
0.0
  0
LINE
  5
2E1
330
1E
100
AcDbEntity
  8
0
100
AcDbLine
 10
91.690239
 20
67.157285
 30
0.0
 11
91.876039
 21
67.15198499999999
 31
0.0
  0
LINE
  5
2E2
330
1E
100
AcDbEntity
  8
0
100
AcDbLine
 10
91.88763900000001
 20
67.21608499999999
 30
0.0
 11
92.01673900000001
 21
67.19378499999999
 31
0.0
  0
LINE
  5
2E3
330
1E
100
AcDbEntity
  8
0
100
AcDbLine
 10
91.709139
 20
67.240385
 30
0.0
 11
91.88763900000001
 21
67.21608499999999
 31
0.0
  0
LINE
  5
2E4
330
1E
100
AcDbEntity
  8
0
100
AcDbLine
 10
91.665039
 20
66.989085
 30
0.0
 11
91.790639
 21
66.976085
 31
0.0
  0
LINE
  5
2E5
330
1E
100
AcDbEntity
  8
0
100
AcDbLine
 10
91.790639
 20
66.976085
 30
0.0
 11
91.976039
 21
66.959385
 31
0.0
  0
LINE
  5
2E6
330
1E
100
AcDbEntity
  8
0
100
AcDbLine
 10
91.984539
 20
66.987785
 30
0.0
 11
92.20963899999999
 21
66.974085
 31
0.0
  0
LINE
  5
2E7
330
1E
100
AcDbEntity
  8
0
100
AcDbLine
 10
92.20963899999999
 20
66.974085
 30
0.0
 11
92.45833899999999
 21
66.957585
 31
0.0
  0
LINE
  5
2E8
330
1E
100
AcDbEntity
  8
0
100
AcDbLine
 10
92.01673900000001
 20
67.19378499999999
 30
0.0
 11
92.079339
 21
67.17538499999999
 31
0.0
  0
LINE
  5
2E9
330
1E
100
AcDbEntity
  8
0
100
AcDbLine
 10
92.08053900000001
 20
67.16138499999999
 30
0.0
 11
92.124035513998
 21
67.70191471327859
 31
0.0
  0
LINE
  5
2EA
330
1E
100
AcDbEntity
  8
0
100
AcDbLine
 10
92.01203900000001
 20
67.15318499999999
 30
0.0
 11
92.08053900000001
 21
67.16138499999999
 31
0.0
  0
LINE
  5
2EB
330
1E
100
AcDbEntity
  8
0
100
AcDbLine
 10
91.976039
 20
66.959385
 30
0.0
 11
92.20613900000001
 21
66.940685
 31
0.0
  0
LINE
  5
2EC
330
1E
100
AcDbEntity
  8
0
100
AcDbLine
 10
92.20613900000001
 20
66.940685
 30
0.0
 11
92.45583899999999
 21
66.921685
 31
0.0
  0
LINE
  5
2ED
330
1E
100
AcDbEntity
  8
0
100
AcDbLine
 10
92.713739
 20
66.903385
 30
0.0
 11
92.962339
 21
66.88688499999999
 31
0.0
  0
LINE
  5
2EE
330
1E
100
AcDbEntity
  8
0
100
AcDbLine
 10
93.196039
 20
66.90158499999999
 30
0.0
 11
93.381339
 21
66.884885
 31
0.0
  0
LINE
  5
2EF
330
1E
100
AcDbEntity
  8
0
100
AcDbLine
 10
92.96583899999999
 20
66.92028499999999
 30
0.0
 11
93.196039
 21
66.90158499999999
 31
0.0
  0
LINE
  5
2F0
330
1E
100
AcDbEntity
  8
0
100
AcDbLine
 10
92.71623899999999
 20
66.939285
 30
0.0
 11
92.96583899999999
 21
66.92028499999999
 31
0.0
  0
LINE
  5
2F1
330
1E
100
AcDbEntity
  8
0
100
AcDbLine
 10
92.45833899999999
 20
66.957585
 30
0.0
 11
92.71623899999999
 21
66.939285
 31
0.0
  0
LINE
  5
2F2
330
1E
100
AcDbEntity
  8
0
100
AcDbLine
 10
100.260839
 20
67.232485
 30
0.0
 11
100.3618389999999
 21
67.239485
 31
0.0
  0
LINE
  5
2F3
330
1E
100
AcDbEntity
  8
0
100
AcDbLine
 10
100.3618389999999
 20
67.239485
 30
0.0
 11
100.5268389999999
 21
67.24218499999999
 31
0.0
  0
LINE
  5
2F4
330
1E
100
AcDbEntity
  8
0
100
AcDbLine
 10
100.2588389999999
 20
67.209485
 30
0.0
 11
100.3588389999999
 21
67.19468499999999
 31
0.0
  0
LINE
  5
2F5
330
1E
100
AcDbEntity
  8
0
100
AcDbLine
 10
100.228839
 20
67.22228499999999
 30
0.0
 11
100.243842211136
 21
67.5875400047569
 31
0.0
  0
LINE
  5
2F6
330
1E
100
AcDbEntity
  8
0
100
AcDbLine
 10
100.228839
 20
67.22228499999999
 30
0.0
 11
100.2471996454459
 21
67.6692771524739
 31
0.0
  0
LINE
  5
2F7
330
1E
100
AcDbEntity
  8
0
100
AcDbLine
 10
100.3588389999999
 20
67.19468499999999
 30
0.0
 11
100.512839
 21
67.179185
 31
0.0
  0
LINE
  5
2F8
330
1E
100
AcDbEntity
  8
0
100
AcDbLine
 10
100.5268389999999
 20
67.24218499999999
 30
0.0
 11
100.734839
 21
67.24058499999999
 31
0.0
  0
LINE
  5
2F9
330
1E
100
AcDbEntity
  8
0
100
AcDbLine
 10
100.734839
 20
67.24058499999999
 30
0.0
 11
100.972839
 21
67.235385
 31
0.0
  0
LINE
  5
2FA
330
1E
100
AcDbEntity
  8
0
100
AcDbLine
 10
100.512839
 20
67.179185
 30
0.0
 11
100.7208389999999
 21
67.163285
 31
0.0
  0
LINE
  5
2FB
330
1E
100
AcDbEntity
  8
0
100
AcDbLine
 10
100.7208389999999
 20
67.163285
 30
0.0
 11
100.965839
 21
67.148685
 31
0.0
  0
LINE
  5
2FC
330
1E
100
AcDbEntity
  8
0
100
AcDbLine
 10
101.228839
 20
67.226285
 30
0.0
 11
101.485839
 21
67.214485
 31
0.0
  0
LINE
  5
2FD
330
1E
100
AcDbEntity
  8
0
100
AcDbLine
 10
100.972839
 20
67.235385
 30
0.0
 11
101.228839
 21
67.226285
 31
0.0
  0
LINE
  5
2FE
330
1E
100
AcDbEntity
  8
0
100
AcDbLine
 10
100.965839
 20
67.148685
 30
0.0
 11
101.222839
 21
67.13688499999999
 31
0.0
  0
LINE
  5
2FF
330
1E
100
AcDbEntity
  8
0
100
AcDbLine
 10
101.222839
 20
67.13688499999999
 30
0.0
 11
101.478839
 21
67.127785
 31
0.0
  0
LINE
  5
300
330
1E
100
AcDbEntity
  8
0
100
AcDbLine
 10
101.7538389999999
 20
67.102785
 30
0.0
 11
101.8488389999999
 21
67.099485
 31
0.0
  0
LINE
  5
301
330
1E
100
AcDbEntity
  8
0
100
AcDbLine
 10
101.924839
 20
67.120985
 30
0.0
 11
102.0898389999999
 21
67.123685
 31
0.0
  0
LINE
  5
302
330
1E
100
AcDbEntity
  8
0
100
AcDbLine
 10
101.8488389999999
 20
67.099485
 30
0.0
 11
102.0088389999999
 21
67.093885
 31
0.0
  0
LINE
  5
303
330
1E
100
AcDbEntity
  8
0
100
AcDbLine
 10
102.0088389999999
 20
67.093885
 30
0.0
 11
102.220839
 21
67.08648499999999
 31
0.0
  0
LINE
  5
304
330
1E
100
AcDbEntity
  8
0
100
AcDbLine
 10
102.220839
 20
67.08648499999999
 30
0.0
 11
102.460839
 21
67.078085
 31
0.0
  0
LINE
  5
305
330
1E
100
AcDbEntity
  8
0
100
AcDbLine
 10
102.460839
 20
67.078085
 30
0.0
 11
102.716839
 21
67.069185
 31
0.0
  0
LINE
  5
306
330
1E
100
AcDbEntity
  8
0
100
AcDbLine
 10
103.424839
 20
67.04448499999999
 30
0.0
 11
103.5838389999999
 21
67.03888499999999
 31
0.0
  0
LINE
  5
307
330
1E
100
AcDbEntity
  8
0
100
AcDbLine
 10
113.5838389999999
 20
66.98618499999999
 30
0.0
 11
115.6078389999999
 21
66.735885
 31
0.0
  0
LINE
  5
308
330
1E
100
AcDbEntity
  8
0
100
AcDbLine
 10
103.715839
 20
67.034285
 30
0.0
 11
103.737378833539
 21
67.64930878993109
 31
0.0
  0
LINE
  5
309
330
1E
100
AcDbEntity
  8
0
100
AcDbLine
 10
103.5838389999999
 20
67.03888499999999
 30
0.0
 11
103.6798389999999
 21
67.035485
 31
0.0
  0
LINE
  5
30A
330
1E
100
AcDbEntity
  8
0
100
AcDbLine
 10
102.972839
 20
67.060185
 30
0.0
 11
103.212839
 21
67.051885
 31
0.0
  0
LINE
  5
30B
330
1E
100
AcDbEntity
  8
0
100
AcDbLine
 10
103.212839
 20
67.051885
 30
0.0
 11
103.424839
 21
67.04448499999999
 31
0.0
  0
LINE
  5
30C
330
1E
100
AcDbEntity
  8
0
100
AcDbLine
 10
102.716839
 20
67.069185
 30
0.0
 11
102.972839
 21
67.060185
 31
0.0
  0
LINE
  5
30D
330
1E
100
AcDbEntity
  8
0
100
AcDbLine
 10
102.2228389999999
 20
67.14088499999999
 30
0.0
 11
102.245467263896
 21
67.698573928579
 31
0.0
  0
LINE
  5
30E
330
1E
100
AcDbEntity
  8
0
100
AcDbLine
 10
102.0898389999999
 20
67.123685
 30
0.0
 11
102.1908389999999
 21
67.130685
 31
0.0
  0
LINE
  5
30F
330
1E
100
AcDbEntity
  8
0
100
AcDbLine
 10
102.0928389999999
 20
67.16848500000001
 30
0.0
 11
102.192839
 21
67.153685
 31
0.0
  0
LINE
  5
310
330
1E
100
AcDbEntity
  8
0
100
AcDbLine
 10
101.938839
 20
67.18408499999999
 30
0.0
 11
102.0928389999999
 21
67.16848500000001
 31
0.0
  0
LINE
  5
311
330
1E
100
AcDbEntity
  8
0
100
AcDbLine
 10
111.8438389999999
 20
67.217685
 30
0.0
 11
113.5838389999999
 21
66.98618499999999
 31
0.0
  0
LINE
  5
312
330
1E
100
AcDbEntity
  8
0
100
AcDbLine
 10
101.7308389999999
 20
67.19988499999999
 30
0.0
 11
101.938839
 21
67.18408499999999
 31
0.0
  0
LINE
  5
313
330
1E
100
AcDbEntity
  8
0
100
AcDbLine
 10
101.485839
 20
67.214485
 30
0.0
 11
101.7308389999999
 21
67.19988499999999
 31
0.0
  0
LINE
  5
314
330
1E
100
AcDbEntity
  8
0
100
AcDbLine
 10
101.7178389999999
 20
67.122585
 30
0.0
 11
101.924839
 21
67.120985
 31
0.0
  0
LINE
  5
315
330
1E
100
AcDbEntity
  8
0
100
AcDbLine
 10
101.478839
 20
67.127785
 30
0.0
 11
101.7178389999999
 21
67.122585
 31
0.0
  0
LINE
  5
316
330
1E
100
AcDbEntity
  8
0
100
AcDbLine
 10
98.19663900000001
 20
67.36468499999999
 30
0.0
 11
98.439539
 21
67.34148499999999
 31
0.0
  0
LINE
  5
317
330
1E
100
AcDbEntity
  8
0
100
AcDbLine
 10
97.995739
 20
67.39038499999999
 30
0.0
 11
98.19663900000001
 21
67.36468499999999
 31
0.0
  0
LINE
  5
318
330
1E
100
AcDbEntity
  8
0
100
AcDbLine
 10
98.702339
 20
67.32318499999999
 30
0.0
 11
98.958139
 21
67.311485
 31
0.0
  0
LINE
  5
319
330
1E
100
AcDbEntity
  8
0
100
AcDbLine
 10
98.439539
 20
67.34148499999999
 30
0.0
 11
98.702339
 21
67.32318499999999
 31
0.0
  0
LINE
  5
31A
330
1E
100
AcDbEntity
  8
0
100
AcDbLine
 10
98.958139
 20
67.311485
 30
0.0
 11
99.19853899999999
 21
67.305785
 31
0.0
  0
LINE
  5
31C
330
1E
100
AcDbEntity
  8
0
100
AcDbLine
 10
99.565839
 20
67.31578499999999
 30
0.0
 11
99.67183900000001
 21
67.330885
 31
0.0
  0
LINE
  5
31D
330
1E
100
AcDbEntity
  8
0
100
AcDbLine
 10
99.57983900000002
 20
67.40228499999999
 30
0.0
 11
99.67383900000001
 21
67.375985
 31
0.0
  0
LINE
  5
31E
330
1E
100
AcDbEntity
  8
0
100
AcDbLine
 10
110.371839
 20
67.39218499999999
 30
0.0
 11
111.8438389999999
 21
67.217685
 31
0.0
  0
LINE
  5
31F
330
1E
100
AcDbEntity
  8
0
100
AcDbLine
 10
99.707839
 20
67.351685
 30
0.0
 11
99.72099757536051
 21
67.57928258477931
 31
0.0
  0
LINE
  5
320
330
1E
100
AcDbEntity
  8
0
100
AcDbLine
 10
99.707839
 20
67.351685
 30
0.0
 11
99.74452221183028
 21
67.98617697088291
 31
0.0
  0
LINE
  5
321
330
1E
100
AcDbEntity
  8
0
100
AcDbLine
 10
99.403739
 20
67.307585
 30
0.0
 11
99.565839
 21
67.31578499999999
 31
0.0
  0
LINE
  5
322
330
1E
100
AcDbEntity
  8
0
100
AcDbLine
 10
99.19853899999999
 20
67.305785
 30
0.0
 11
99.403739
 21
67.307585
 31
0.0
  0
LINE
  5
323
330
1E
100
AcDbEntity
  8
0
100
AcDbLine
 10
92.45583899999999
 20
66.921685
 30
0.0
 11
92.713739
 21
66.903385
 31
0.0
  0
LINE
  5
324
330
1E
100
AcDbEntity
  8
0
100
AcDbLine
 10
92.962339
 20
66.88688499999999
 30
0.0
 11
93.187539
 21
66.87318499999999
 31
0.0
  0
LINE
  5
325
330
1E
100
AcDbEntity
  8
0
100
AcDbLine
 10
84.20273900000001
 20
67.405585
 30
0.0
 11
84.2515045030224
 21
68.1030190865947
 31
0.0
  0
LINE
  5
326
330
1E
100
AcDbEntity
  8
0
100
AcDbLine
 10
97.83913900000001
 20
67.41718500000001
 30
0.0
 11
97.995739
 21
67.39038499999999
 31
0.0
  0
LINE
  5
327
330
1E
100
AcDbEntity
  8
0
100
AcDbLine
 10
99.42283899999999
 20
67.429185
 30
0.0
 11
99.57983900000002
 21
67.40228499999999
 31
0.0
  0
LINE
  5
328
330
1E
100
AcDbEntity
  8
0
100
AcDbLine
 10
99.22233900000001
 20
67.454885
 30
0.0
 11
99.42283899999999
 21
67.429185
 31
0.0
  0
LINE
  5
329
330
1E
100
AcDbEntity
  8
0
100
AcDbLine
 10
97.74533900000001
 20
67.443585
 30
0.0
 11
97.83913900000001
 21
67.41718500000001
 31
0.0
  0
LINE
  5
32A
330
1E
100
AcDbEntity
  8
0
100
AcDbLine
 10
84.071039
 20
67.41478499999999
 30
0.0
 11
84.166839
 21
67.40808499999999
 31
0.0
  0
LINE
  5
32B
330
1E
100
AcDbEntity
  8
0
100
AcDbLine
 10
83.91143900000001
 20
67.425885
 30
0.0
 11
84.071039
 21
67.41478499999999
 31
0.0
  0
LINE
  5
32C
330
1E
100
AcDbEntity
  8
0
100
AcDbLine
 10
82.193439
 20
67.69038499999999
 30
0.0
 11
82.449439
 21
67.67238499999999
 31
0.0
  0
LINE
  5
32D
330
1E
100
AcDbEntity
  8
0
100
AcDbLine
 10
82.20763899999999
 20
67.545085
 30
0.0
 11
82.2128087080827
 21
67.61902109029221
 31
0.0
  0
LINE
  5
32E
330
1E
100
AcDbEntity
  8
0
100
AcDbLine
 10
82.243539
 20
67.542585
 30
0.0
 11
82.339339
 21
67.53588499999999
 31
0.0
  0
LINE
  5
32F
330
1E
100
AcDbEntity
  8
0
100
AcDbLine
 10
82.44373900000001
 20
67.600785
 30
0.0
 11
82.69973900000001
 21
67.582785
 31
0.0
  0
LINE
  5
330
330
1E
100
AcDbEntity
  8
0
100
AcDbLine
 10
82.69973900000001
 20
67.582785
 30
0.0
 11
82.937539
 21
67.56858499999999
 31
0.0
  0
LINE
  5
331
330
1E
100
AcDbEntity
  8
0
100
AcDbLine
 10
82.705239
 20
67.652185
 30
0.0
 11
82.950239
 21
67.630285
 31
0.0
  0
LINE
  5
332
330
1E
100
AcDbEntity
  8
0
100
AcDbLine
 10
82.449439
 20
67.67238499999999
 30
0.0
 11
82.705239
 21
67.652185
 31
0.0
  0
LINE
  5
333
330
1E
100
AcDbEntity
  8
0
100
AcDbLine
 10
82.339339
 20
67.53588499999999
 30
0.0
 11
82.49893900000001
 21
67.52468499999999
 31
0.0
  0
LINE
  5
334
330
1E
100
AcDbEntity
  8
0
100
AcDbLine
 10
82.49893900000001
 20
67.52468499999999
 30
0.0
 11
82.710439
 21
67.509885
 31
0.0
  0
LINE
  5
335
330
1E
100
AcDbEntity
  8
0
100
AcDbLine
 10
83.14473900000001
 20
67.558685
 30
0.0
 11
83.308739
 21
67.554085
 31
0.0
  0
LINE
  5
336
330
1E
100
AcDbEntity
  8
0
100
AcDbLine
 10
82.937539
 20
67.56858499999999
 30
0.0
 11
83.14473900000001
 21
67.558685
 31
0.0
  0
LINE
  5
337
330
1E
100
AcDbEntity
  8
0
100
AcDbLine
 10
83.15823899999999
 20
67.608785
 30
0.0
 11
83.31163899999999
 21
67.589885
 31
0.0
  0
LINE
  5
338
330
1E
100
AcDbEntity
  8
0
100
AcDbLine
 10
82.950239
 20
67.630285
 30
0.0
 11
83.15823899999999
 21
67.608785
 31
0.0
  0
LINE
  5
339
330
1E
100
AcDbEntity
  8
0
100
AcDbLine
 10
82.710439
 20
67.509885
 30
0.0
 11
82.949839
 21
67.493185
 31
0.0
  0
LINE
  5
33A
330
1E
100
AcDbEntity
  8
0
100
AcDbLine
 10
82.949839
 20
67.493185
 30
0.0
 11
83.20523900000001
 21
67.475285
 31
0.0
  0
LINE
  5
33B
330
1E
100
AcDbEntity
  8
0
100
AcDbLine
 10
109.764839
 20
67.46598500000001
 30
0.0
 11
110.371839
 21
67.39218499999999
 31
0.0
  0
LINE
  5
33C
330
1E
100
AcDbEntity
  8
0
100
AcDbLine
 10
83.44123899999999
 20
67.562285
 30
0.0
 11
83.49023149770779
 21
68.21854740881128
 31
0.0
  0
LINE
  5
33D
330
1E
100
AcDbEntity
  8
0
100
AcDbLine
 10
83.308739
 20
67.554085
 30
0.0
 11
83.409439
 21
67.555385
 31
0.0
  0
LINE
  5
33E
330
1E
100
AcDbEntity
  8
0
100
AcDbLine
 10
83.31163899999999
 20
67.589885
 30
0.0
 11
83.41113900000001
 21
67.573785
 31
0.0
  0
LINE
  5
33F
330
1E
100
AcDbEntity
  8
0
100
AcDbLine
 10
93.648939
 20
67.483385
 30
0.0
 11
97.71606660405501
 21
67.5476181936323
 31
0.0
  0
LINE
  5
340
330
1E
100
AcDbEntity
  8
0
100
AcDbLine
 10
97.747039
 20
67.488685
 30
0.0
 11
97.85333900000001
 21
67.503685
 31
0.0
  0
LINE
  5
341
330
1E
100
AcDbEntity
  8
0
100
AcDbLine
 10
97.85333900000001
 20
67.503685
 30
0.0
 11
98.01523900000001
 21
67.51188499999999
 31
0.0
  0
LINE
  5
342
330
1E
100
AcDbEntity
  8
0
100
AcDbLine
 10
98.01523900000001
 20
67.51188499999999
 30
0.0
 11
98.220439
 21
67.51368499999999
 31
0.0
  0
LINE
  5
343
330
1E
100
AcDbEntity
  8
0
100
AcDbLine
 10
98.97943900000001
 20
67.47808499999999
 30
0.0
 11
99.22233900000001
 21
67.454885
 31
0.0
  0
LINE
  5
344
330
1E
100
AcDbEntity
  8
0
100
AcDbLine
 10
98.71663900000001
 20
67.496285
 30
0.0
 11
98.97943900000001
 21
67.47808499999999
 31
0.0
  0
LINE
  5
345
330
1E
100
AcDbEntity
  8
0
100
AcDbLine
 10
98.46083900000001
 20
67.50808499999999
 30
0.0
 11
98.71663900000001
 21
67.496285
 31
0.0
  0
LINE
  5
346
330
1E
100
AcDbEntity
  8
0
100
AcDbLine
 10
99.72099757536051
 20
67.57928258477931
 30
0.0
 11
100.243842211136
 21
67.5875400047569
 31
0.0
  0
LINE
  5
347
330
1E
100
AcDbEntity
  8
0
100
AcDbLine
 10
98.220439
 20
67.51368499999999
 30
0.0
 11
98.46083900000001
 21
67.50808499999999
 31
0.0
  0
LINE
  5
348
330
1E
100
AcDbEntity
  8
0
100
AcDbLine
 10
88.058639
 20
67.622585
 30
0.0
 11
88.192839
 21
67.628185
 31
0.0
  0
LINE
  5
349
330
1E
100
AcDbEntity
  8
0
100
AcDbLine
 10
86.35933900000001
 20
67.810185
 30
0.0
 11
86.483039
 21
67.778685
 31
0.0
  0
LINE
  5
34A
330
1E
100
AcDbEntity
  8
0
100
AcDbLine
 10
86.292939
 20
67.83788499999999
 30
0.0
 11
86.35933900000001
 21
67.810185
 31
0.0
  0
LINE
  5
34B
330
1E
100
AcDbEntity
  8
0
100
AcDbLine
 10
86.368039
 20
67.87488499999999
 30
0.0
 11
86.502239
 21
67.88048499999999
 31
0.0
  0
LINE
  5
34C
330
1E
100
AcDbEntity
  8
0
100
AcDbLine
 10
86.294339
 20
67.860385
 30
0.0
 11
86.3034754774353
 21
67.9529729511995
 31
0.0
  0
LINE
  5
34D
330
1E
100
AcDbEntity
  8
0
100
AcDbLine
 10
86.294339
 20
67.860385
 30
0.0
 11
86.368039
 21
67.87488499999999
 31
0.0
  0
LINE
  5
34E
330
1E
100
AcDbEntity
  8
0
100
AcDbLine
 10
86.294339
 20
67.860385
 30
0.0
 11
86.35817637453259
 21
68.50730518994939
 31
0.0
  0
LINE
  5
34F
330
1E
100
AcDbEntity
  8
0
100
AcDbLine
 10
86.664139
 20
67.745385
 30
0.0
 11
86.883639
 21
67.71238499999999
 31
0.0
  0
LINE
  5
350
330
1E
100
AcDbEntity
  8
0
100
AcDbLine
 10
86.883639
 20
67.71238499999999
 30
0.0
 11
87.137439
 21
67.68118499999999
 31
0.0
  0
LINE
  5
351
330
1E
100
AcDbEntity
  8
0
100
AcDbLine
 10
87.137439
 20
67.68118499999999
 30
0.0
 11
87.401739
 21
67.655185
 31
0.0
  0
LINE
  5
352
330
1E
100
AcDbEntity
  8
0
100
AcDbLine
 10
87.42343899999999
 20
67.821885
 30
0.0
 11
87.677239
 21
67.790685
 31
0.0
  0
LINE
  5
353
330
1E
100
AcDbEntity
  8
0
100
AcDbLine
 10
87.159139
 20
67.84788499999999
 30
0.0
 11
87.42343899999999
 21
67.821885
 31
0.0
  0
LINE
  5
354
330
1E
100
AcDbEntity
  8
0
100
AcDbLine
 10
86.91053899999999
 20
67.866585
 30
0.0
 11
87.159139
 21
67.84788499999999
 31
0.0
  0
LINE
  5
355
330
1E
100
AcDbEntity
  8
0
100
AcDbLine
 10
86.502239
 20
67.88048499999999
 30
0.0
 11
86.68493899999999
 21
67.878085
 31
0.0
  0
LINE
  5
356
330
1E
100
AcDbEntity
  8
0
100
AcDbLine
 10
86.68493899999999
 20
67.878085
 30
0.0
 11
86.91053899999999
 21
67.866585
 31
0.0
  0
LINE
  5
357
330
1E
100
AcDbEntity
  8
0
100
AcDbLine
 10
86.483039
 20
67.778685
 30
0.0
 11
86.664139
 21
67.745385
 31
0.0
  0
LINE
  5
358
330
1E
100
AcDbEntity
  8
0
100
AcDbLine
 10
87.401739
 20
67.655185
 30
0.0
 11
87.650339
 21
67.63648499999999
 31
0.0
  0
LINE
  5
359
330
1E
100
AcDbEntity
  8
0
100
AcDbLine
 10
88.077839
 20
67.724285
 30
0.0
 11
88.20153899999999
 21
67.692885
 31
0.0
  0
LINE
  5
35A
330
1E
100
AcDbEntity
  8
0
100
AcDbLine
 10
88.20153899999999
 20
67.692885
 30
0.0
 11
88.267939
 21
67.66508499999999
 31
0.0
  0
LINE
  5
35B
330
1E
100
AcDbEntity
  8
0
100
AcDbLine
 10
88.266539
 20
67.642685
 30
0.0
 11
88.32889731179839
 21
68.27426195672789
 31
0.0
  0
LINE
  5
35C
330
1E
100
AcDbEntity
  8
0
100
AcDbLine
 10
88.192839
 20
67.628185
 30
0.0
 11
88.266539
 21
67.642685
 31
0.0
  0
LINE
  5
35D
330
1E
100
AcDbEntity
  8
0
100
AcDbLine
 10
87.896739
 20
67.75768499999999
 30
0.0
 11
88.077839
 21
67.724285
 31
0.0
  0
LINE
  5
35E
330
1E
100
AcDbEntity
  8
0
100
AcDbLine
 10
88.28466980054001
 20
67.82631722957529
 30
0.0
 11
90.1355129928058
 21
67.70799472208778
 31
0.0
  0
LINE
  5
35F
330
1E
100
AcDbEntity
  8
0
100
AcDbLine
 10
87.677239
 20
67.790685
 30
0.0
 11
87.896739
 21
67.75768499999999
 31
0.0
  0
LINE
  5
360
330
1E
100
AcDbEntity
  8
0
100
AcDbLine
 10
87.650339
 20
67.63648499999999
 30
0.0
 11
87.875939
 21
67.62498499999999
 31
0.0
  0
LINE
  5
361
330
1E
100
AcDbEntity
  8
0
100
AcDbLine
 10
87.875939
 20
67.62498499999999
 30
0.0
 11
88.058639
 21
67.622585
 31
0.0
  0
LINE
  5
362
330
1E
100
AcDbEntity
  8
0
100
AcDbLine
 10
103.701084711833
 20
67.64214112589211
 30
0.0
 11
106.5848389999999
 21
67.687685
 31
0.0
  0
LINE
  5
363
330
1E
100
AcDbEntity
  8
0
100
AcDbLine
 10
106.5848389999999
 20
67.687685
 30
0.0
 11
108.360896593892
 21
67.85762664531159
 31
0.0
  0
LINE
  5
364
330
1E
100
AcDbEntity
  8
0
100
AcDbLine
 10
108.910839
 20
67.75968500000001
 30
0.0
 11
109.1648389999999
 21
67.756085
 31
0.0
  0
LINE
  5
365
330
1E
100
AcDbEntity
  8
0
100
AcDbLine
 10
109.5498389999999
 20
67.49508500000001
 30
0.0
 11
109.764839
 21
67.46598500000001
 31
0.0
  0
LINE
  5
366
330
1E
100
AcDbEntity
  8
0
100
AcDbLine
 10
109.1648389999999
 20
67.756085
 30
0.0
 11
109.4308389999999
 21
67.76668499999999
 31
0.0
  0
LINE
  5
367
330
1E
100
AcDbEntity
  8
0
100
AcDbLine
 10
108.3198389999999
 20
67.88518499999999
 30
0.0
 11
108.3218389999999
 21
67.93528499999999
 31
0.0
  0
LINE
  5
368
330
1E
100
AcDbEntity
  8
0
100
AcDbLine
 10
108.3198389999999
 20
67.88518499999999
 30
0.0
 11
108.3858389999999
 21
67.840885
 31
0.0
  0
LINE
  5
369
330
1E
100
AcDbEntity
  8
0
100
AcDbLine
 10
108.3218389999999
 20
67.93528499999999
 30
0.0
 11
108.3968389999999
 21
67.986385
 31
0.0
  0
LINE
  5
36A
330
1E
100
AcDbEntity
  8
0
100
AcDbLine
 10
108.3968389999999
 20
67.986385
 30
0.0
 11
108.5318389999999
 21
68.033485
 31
0.0
  0
LINE
  5
36B
330
1E
100
AcDbEntity
  8
0
100
AcDbLine
 10
108.3858389999999
 20
67.840885
 30
0.0
 11
108.5098389999999
 21
67.803285
 31
0.0
  0
LINE
  5
36C
330
1E
100
AcDbEntity
  8
0
100
AcDbLine
 10
108.6908389999999
 20
67.77608499999999
 30
0.0
 11
108.910839
 21
67.75968500000001
 31
0.0
  0
LINE
  5
36D
330
1E
100
AcDbEntity
  8
0
100
AcDbLine
 10
109.6798389999999
 20
67.78938499999999
 30
0.0
 11
109.906839
 21
67.822085
 31
0.0
  0
LINE
  5
36E
330
1E
100
AcDbEntity
  8
0
100
AcDbLine
 10
110.300839
 20
67.961985
 30
0.0
 11
110.303839
 21
68.012085
 31
0.0
  0
LINE
  5
36F
330
1E
100
AcDbEntity
  8
0
100
AcDbLine
 10
110.2268389999999
 20
67.91088499999999
 30
0.0
 11
110.300839
 21
67.961985
 31
0.0
  0
LINE
  5
370
330
1E
100
AcDbEntity
  8
0
100
AcDbLine
 10
110.0908389999999
 20
67.863885
 30
0.0
 11
110.2268389999999
 21
67.91088499999999
 31
0.0
  0
LINE
  5
371
330
1E
100
AcDbEntity
  8
0
100
AcDbLine
 10
109.906839
 20
67.822085
 30
0.0
 11
110.0908389999999
 21
67.863885
 31
0.0
  0
LINE
  5
372
330
1E
100
AcDbEntity
  8
0
100
AcDbLine
 10
108.5098389999999
 20
67.803285
 30
0.0
 11
108.6908389999999
 21
67.77608499999999
 31
0.0
  0
LINE
  5
373
330
1E
100
AcDbEntity
  8
0
100
AcDbLine
 10
109.4308389999999
 20
67.76668499999999
 30
0.0
 11
109.5967059595249
 21
67.7818062047439
 31
0.0
  0
LINE
  5
374
330
1E
100
AcDbEntity
  8
0
100
AcDbLine
 10
109.4308389999999
 20
67.76668499999999
 30
0.0
 11
109.6798389999999
 21
67.78938499999999
 31
0.0
  0
LINE
  5
375
330
1E
100
AcDbEntity
  8
0
100
AcDbLine
 10
97.711439
 20
67.46778499999999
 30
0.0
 11
97.71606660405501
 21
67.5476181936323
 31
0.0
  0
LINE
  5
376
330
1E
100
AcDbEntity
  8
0
100
AcDbLine
 10
97.711439
 20
67.46778499999999
 30
0.0
 11
97.74426688913592
 21
68.0341159130984
 31
0.0
  0
LINE
  5
377
330
1E
100
AcDbEntity
  8
0
100
AcDbLine
 10
83.20523900000001
 20
67.475285
 30
0.0
 11
83.46053899999999
 21
67.45748499999999
 31
0.0
  0
LINE
  5
378
330
1E
100
AcDbEntity
  8
0
100
AcDbLine
 10
83.46053899999999
 20
67.45748499999999
 30
0.0
 11
83.700039
 21
67.440685
 31
0.0
  0
LINE
  5
379
330
1E
100
AcDbEntity
  8
0
100
AcDbLine
 10
82.18793899999999
 20
67.620985
 30
0.0
 11
82.44373900000001
 21
67.600785
 31
0.0
  0
LINE
  5
37A
330
1E
100
AcDbEntity
  8
0
100
AcDbLine
 10
108.5318389999999
 20
68.033485
 30
0.0
 11
108.7158389999999
 21
68.075185
 31
0.0
  0
LINE
  5
37B
330
1E
100
AcDbEntity
  8
0
100
AcDbLine
 10
110.2378389999999
 20
68.05638499999999
 30
0.0
 11
110.303839
 21
68.012085
 31
0.0
  0
LINE
  5
37C
330
1E
100
AcDbEntity
  8
0
100
AcDbLine
 10
108.7158389999999
 20
68.075185
 30
0.0
 11
108.9428389999999
 21
68.107885
 31
0.0
  0
LINE
  5
37D
330
1E
100
AcDbEntity
  8
0
100
AcDbLine
 10
81.152639
 20
68.03508499999999
 30
0.0
 11
81.17440513264179
 21
68.28086915916109
 31
0.0
  0
LINE
  5
37E
330
1E
100
AcDbEntity
  8
0
100
AcDbLine
 10
81.152639
 20
68.03508499999999
 30
0.0
 11
81.2040216424962
 21
68.61530013464211
 31
0.0
  0
LINE
  5
37F
330
1E
100
AcDbEntity
  8
0
100
AcDbLine
 10
80.850439
 20
68.01228499999999
 30
0.0
 11
81.011739
 21
68.012085
 31
0.0
  0
LINE
  5
380
330
1E
100
AcDbEntity
  8
0
100
AcDbLine
 10
80.645939
 20
68.01928499999999
 30
0.0
 11
80.850439
 21
68.01228499999999
 31
0.0
  0
LINE
  5
381
330
1E
100
AcDbEntity
  8
0
100
AcDbLine
 10
79.646139
 20
68.10828499999999
 30
0.0
 11
79.888639
 21
68.07948499999999
 31
0.0
  0
LINE
  5
382
330
1E
100
AcDbEntity
  8
0
100
AcDbLine
 10
90.825139
 20
68.083585
 30
0.0
 11
93.57929850981909
 21
68.1578901541083
 31
0.0
  0
LINE
  5
383
330
1E
100
AcDbEntity
  8
0
100
AcDbLine
 10
84.2501912563773
 20
68.08423730608121
 30
0.0
 11
86.3034754774353
 21
67.9529729511995
 31
0.0
  0
LINE
  5
384
330
1E
100
AcDbEntity
  8
0
100
AcDbLine
 10
94.19243900000001
 20
68.119985
 30
0.0
 11
94.400939
 21
68.12108499999999
 31
0.0
  0
LINE
  5
385
330
1E
100
AcDbEntity
  8
0
100
AcDbLine
 10
94.400939
 20
68.12108499999999
 30
0.0
 11
94.55973900000001
 21
68.132785
 31
0.0
  0
LINE
  5
386
330
1E
100
AcDbEntity
  8
0
100
AcDbLine
 10
110.1138389999999
 20
68.09408499999999
 30
0.0
 11
110.2378389999999
 21
68.05638499999999
 31
0.0
  0
LINE
  5
387
330
1E
100
AcDbEntity
  8
0
100
AcDbLine
 10
109.9328389999999
 20
68.121185
 30
0.0
 11
110.1138389999999
 21
68.09408499999999
 31
0.0
  0
LINE
  5
388
330
1E
100
AcDbEntity
  8
0
100
AcDbLine
 10
108.9428389999999
 20
68.107885
 30
0.0
 11
109.1928389999999
 21
68.130585
 31
0.0
  0
LINE
  5
389
330
1E
100
AcDbEntity
  8
0
100
AcDbLine
 10
81.02463900000001
 20
68.081085
 30
0.0
 11
81.11853899999999
 21
68.05598499999999
 31
0.0
  0
LINE
  5
38A
330
1E
100
AcDbEntity
  8
0
100
AcDbLine
 10
80.868139
 20
68.10918499999999
 30
0.0
 11
81.02463900000001
 21
68.081085
 31
0.0
  0
LINE
  5
38B
330
1E
100
AcDbEntity
  8
0
100
AcDbLine
 10
79.888639
 20
68.07948499999999
 30
0.0
 11
80.15093900000001
 21
68.05398499999999
 31
0.0
  0
LINE
  5
38C
330
1E
100
AcDbEntity
  8
0
100
AcDbLine
 10
75.59883899999999
 20
68.09038499999999
 30
0.0
 11
75.70146676943529
 21
68.89776958992889
 31
0.0
  0
LINE
  5
38D
330
1E
100
AcDbEntity
  8
0
100
AcDbLine
 10
75.335739
 20
68.089285
 30
0.0
 11
75.553439
 21
68.07868499999999
 31
0.0
  0
LINE
  5
38E
330
1E
100
AcDbEntity
  8
0
100
AcDbLine
 10
79.19503900000001
 20
68.190485
 30
0.0
 11
79.289039
 21
68.165485
 31
0.0
  0
LINE
  5
38F
330
1E
100
AcDbEntity
  8
0
100
AcDbLine
 10
79.196139
 20
68.226685
 30
0.0
 11
79.301839
 21
68.234385
 31
0.0
  0
LINE
  5
390
330
1E
100
AcDbEntity
  8
0
100
AcDbLine
 10
79.301839
 20
68.234385
 30
0.0
 11
79.463239
 21
68.234285
 31
0.0
  0
LINE
  5
391
330
1E
100
AcDbEntity
  8
0
100
AcDbLine
 10
79.161039
 20
68.21148499999999
 30
0.0
 11
79.18535708810471
 21
68.486228243266
 31
0.0
  0
LINE
  5
392
330
1E
100
AcDbEntity
  8
0
100
AcDbLine
 10
79.161039
 20
68.21148499999999
 30
0.0
 11
79.2190908759492
 21
68.8673490879692
 31
0.0
  0
LINE
  5
393
330
1E
100
AcDbEntity
  8
0
100
AcDbLine
 10
79.289039
 20
68.165485
 30
0.0
 11
79.44543900000001
 21
68.13728499999999
 31
0.0
  0
LINE
  5
394
330
1E
100
AcDbEntity
  8
0
100
AcDbLine
 10
93.953939
 20
68.128085
 30
0.0
 11
94.19243900000001
 21
68.119985
 31
0.0
  0
LINE
  5
395
330
1E
100
AcDbEntity
  8
0
100
AcDbLine
 10
94.55973900000001
 20
68.132785
 30
0.0
 11
94.66543900000001
 21
68.152885
 31
0.0
  0
LINE
  5
396
330
1E
100
AcDbEntity
  8
0
100
AcDbLine
 10
108.309503853619
 20
68.12664600919379
 30
0.0
 11
108.3198389999999
 21
67.88518499999999
 31
0.0
  0
LINE
  5
397
330
1E
100
AcDbEntity
  8
0
100
AcDbLine
 10
109.7128389999999
 20
68.137585
 30
0.0
 11
109.9328389999999
 21
68.121185
 31
0.0
  0
LINE
  5
398
330
1E
100
AcDbEntity
  8
0
100
AcDbLine
 10
109.1928389999999
 20
68.130585
 30
0.0
 11
109.4578389999999
 21
68.14118499999999
 31
0.0
  0
LINE
  5
399
330
1E
100
AcDbEntity
  8
0
100
AcDbLine
 10
93.69123899999999
 20
68.14628499999999
 30
0.0
 11
93.953939
 21
68.128085
 31
0.0
  0
LINE
  5
39A
330
1E
100
AcDbEntity
  8
0
100
AcDbLine
 10
93.429839
 20
68.17338499999999
 30
0.0
 11
93.69123899999999
 21
68.14628499999999
 31
0.0
  0
LINE
  5
39B
330
1E
100
AcDbEntity
  8
0
100
AcDbLine
 10
94.70739892067319
 20
68.1883254555421
 30
0.0
 11
103.156839
 21
68.416285
 31
0.0
  0
LINE
  5
39C
330
1E
100
AcDbEntity
  8
0
100
AcDbLine
 10
94.706839
 20
68.18178499999999
 30
0.0
 11
94.75012416795479
 21
68.68740075987879
 31
0.0
  0
LINE
  5
39D
330
1E
100
AcDbEntity
  8
0
100
AcDbLine
 10
94.66543900000001
 20
68.152885
 30
0.0
 11
94.706839
 21
68.18178499999999
 31
0.0
  0
LINE
  5
39E
330
1E
100
AcDbEntity
  8
0
100
AcDbLine
 10
109.4578389999999
 20
68.14118499999999
 30
0.0
 11
109.7128389999999
 21
68.137585
 31
0.0
  0
LINE
  5
39F
330
1E
100
AcDbEntity
  8
0
100
AcDbLine
 10
80.667439
 20
68.138185
 30
0.0
 11
80.868139
 21
68.10918499999999
 31
0.0
  0
LINE
  5
3A0
330
1E
100
AcDbEntity
  8
0
100
AcDbLine
 10
80.424939
 20
68.166985
 30
0.0
 11
80.667439
 21
68.138185
 31
0.0
  0
LINE
  5
3A1
330
1E
100
AcDbEntity
  8
0
100
AcDbLine
 10
93.19493900000001
 20
68.20628499999999
 30
0.0
 11
93.429839
 21
68.17338499999999
 31
0.0
  0
LINE
  5
3A2
330
1E
100
AcDbEntity
  8
0
100
AcDbLine
 10
80.16273899999999
 20
68.192585
 30
0.0
 11
80.424939
 21
68.166985
 31
0.0
  0
LINE
  5
3A3
330
1E
100
AcDbEntity
  8
0
100
AcDbLine
 10
79.907539
 20
68.21268499999999
 30
0.0
 11
80.16273899999999
 21
68.192585
 31
0.0
  0
LINE
  5
3A4
330
1E
100
AcDbEntity
  8
0
100
AcDbLine
 10
79.463239
 20
68.234285
 30
0.0
 11
79.66773899999999
 21
68.22718499999999
 31
0.0
  0
LINE
  5
3A5
330
1E
100
AcDbEntity
  8
0
100
AcDbLine
 10
79.66773899999999
 20
68.22718499999999
 30
0.0
 11
79.907539
 21
68.21268499999999
 31
0.0
  0
LINE
  5
3A6
330
1E
100
AcDbEntity
  8
0
100
AcDbLine
 10
79.44543900000001
 20
68.13728499999999
 30
0.0
 11
79.646139
 21
68.10828499999999
 31
0.0
  0
LINE
  5
3A7
330
1E
100
AcDbEntity
  8
0
100
AcDbLine
 10
74.95583899999999
 20
68.122885
 30
0.0
 11
75.335739
 21
68.089285
 31
0.0
  0
LINE
  5
3A8
330
1E
100
AcDbEntity
  8
0
100
AcDbLine
 10
74.461439
 20
68.17448500000001
 30
0.0
 11
74.95583899999999
 21
68.122885
 31
0.0
  0
LINE
  5
3A9
330
1E
100
AcDbEntity
  8
0
100
AcDbLine
 10
70.657739
 20
68.711185
 30
0.0
 11
70.7557178296961
 21
69.48199584068361
 31
0.0
  0
LINE
  5
3AA
330
1E
100
AcDbEntity
  8
0
100
AcDbLine
 10
70.657739
 20
68.711185
 30
0.0
 11
70.76613899999999
 21
68.68008499999999
 31
0.0
  0
LINE
  5
3AB
330
1E
100
AcDbEntity
  8
0
100
AcDbLine
 10
70.76613899999999
 20
68.68008499999999
 30
0.0
 11
71.044639
 21
68.628985
 31
0.0
  0
LINE
  5
3AC
330
1E
100
AcDbEntity
  8
0
100
AcDbLine
 10
71.044639
 20
68.628985
 30
0.0
 11
71.45273900000001
 21
68.563585
 31
0.0
  0
LINE
  5
3AD
330
1E
100
AcDbEntity
  8
0
100
AcDbLine
 10
71.45273900000001
 20
68.563585
 30
0.0
 11
71.990939
 21
68.48488499999999
 31
0.0
  0
LINE
  5
3AE
330
1E
100
AcDbEntity
  8
0
100
AcDbLine
 10
71.990939
 20
68.48488499999999
 30
0.0
 11
72.612639
 21
68.399885
 31
0.0
  0
LINE
  5
3AF
330
1E
100
AcDbEntity
  8
0
100
AcDbLine
 10
72.612639
 20
68.399885
 30
0.0
 11
73.25203899999999
 21
68.31748499999999
 31
0.0
  0
LINE
  5
3B0
330
1E
100
AcDbEntity
  8
0
100
AcDbLine
 10
75.598539
 20
68.949885
 30
0.0
 11
75.801239
 21
68.911885
 31
0.0
  0
LINE
  5
3B1
330
1E
100
AcDbEntity
  8
0
100
AcDbLine
 10
75.801239
 20
68.911885
 30
0.0
 11
76.035839
 21
68.875685
 31
0.0
  0
LINE
  5
3B2
330
1E
100
AcDbEntity
  8
0
100
AcDbLine
 10
76.035839
 20
68.875685
 30
0.0
 11
76.296639
 21
68.843085
 31
0.0
  0
LINE
  5
3B3
330
1E
100
AcDbEntity
  8
0
100
AcDbLine
 10
76.296639
 20
68.843085
 30
0.0
 11
76.55863899999999
 21
68.81748499999999
 31
0.0
  0
LINE
  5
3B4
330
1E
100
AcDbEntity
  8
0
100
AcDbLine
 10
76.55863899999999
 20
68.81748499999999
 30
0.0
 11
76.796339
 21
68.801085
 31
0.0
  0
LINE
  5
3B5
330
1E
100
AcDbEntity
  8
0
100
AcDbLine
 10
76.796339
 20
68.801085
 30
0.0
 11
77.00403900000001
 21
68.793385
 31
0.0
  0
LINE
  5
3B6
330
1E
100
AcDbEntity
  8
0
100
AcDbLine
 10
76.82343900000001
 20
68.968985
 30
0.0
 11
77.026239
 21
68.93098499999999
 31
0.0
  0
LINE
  5
3B7
330
1E
100
AcDbEntity
  8
0
100
AcDbLine
 10
81.17440513264179
 20
68.28086915916109
 30
0.0
 11
81.4929775615017
 21
68.2605031504379
 31
0.0
  0
LINE
  5
3B8
330
1E
100
AcDbEntity
  8
0
100
AcDbLine
 10
77.026239
 20
68.93098499999999
 30
0.0
 11
77.17753899999999
 21
68.89368499999999
 31
0.0
  0
LINE
  5
3B9
330
1E
100
AcDbEntity
  8
0
100
AcDbLine
 10
77.17753899999999
 20
68.89368499999999
 30
0.0
 11
77.27503900000001
 21
68.859285
 31
0.0
  0
LINE
  5
3BA
330
1E
100
AcDbEntity
  8
0
100
AcDbLine
 10
77.307439
 20
68.829685
 30
0.0
 11
77.36622080534928
 21
69.35990063685109
 31
0.0
  0
LINE
  5
3BB
330
1E
100
AcDbEntity
  8
0
100
AcDbLine
 10
77.161839
 20
68.79628499999999
 30
0.0
 11
77.26683900000001
 21
68.80808499999999
 31
0.0
  0
LINE
  5
3BC
330
1E
100
AcDbEntity
  8
0
100
AcDbLine
 10
77.00403900000001
 20
68.793385
 30
0.0
 11
77.161839
 21
68.79628499999999
 31
0.0
  0
LINE
  5
3BD
330
1E
100
AcDbEntity
  8
0
100
AcDbLine
 10
75.44713900000001
 20
68.987185
 30
0.0
 11
75.598539
 21
68.949885
 31
0.0
  0
LINE
  5
3BE
330
1E
100
AcDbEntity
  8
0
100
AcDbLine
 10
76.58893899999999
 20
69.005185
 30
0.0
 11
76.82343900000001
 21
68.968985
 31
0.0
  0
LINE
  5
3BF
330
1E
100
AcDbEntity
  8
0
100
AcDbLine
 10
75.349639
 20
69.021585
 30
0.0
 11
75.44713900000001
 21
68.987185
 31
0.0
  0
LINE
  5
3C0
330
1E
100
AcDbEntity
  8
0
100
AcDbLine
 10
76.328039
 20
69.037785
 30
0.0
 11
76.58893899999999
 21
69.005185
 31
0.0
  0
LINE
  5
3C1
330
1E
100
AcDbEntity
  8
0
100
AcDbLine
 10
80.86323900000001
 20
69.014785
 30
0.0
 11
81.11853899999999
 21
68.990685
 31
0.0
  0
LINE
  5
3C2
330
1E
100
AcDbEntity
  8
0
100
AcDbLine
 10
81.11853899999999
 20
68.990685
 30
0.0
 11
81.34153899999999
 21
68.977485
 31
0.0
  0
LINE
  5
3C3
330
1E
100
AcDbEntity
  8
0
100
AcDbLine
 10
81.34153899999999
 20
68.977485
 30
0.0
 11
81.52783900000001
 21
68.974285
 31
0.0
  0
LINE
  5
3C4
330
1E
100
AcDbEntity
  8
0
100
AcDbLine
 10
88.13361060917101
 20
68.2891790516239
 30
0.0
 11
90.825139
 21
68.083585
 31
0.0
  0
LINE
  5
3C5
330
1E
100
AcDbEntity
  8
0
100
AcDbLine
 10
92.992039
 20
68.24298500000001
 30
0.0
 11
93.19493900000001
 21
68.20628499999999
 31
0.0
  0
LINE
  5
3C6
330
1E
100
AcDbEntity
  8
0
100
AcDbLine
 10
92.840839
 20
68.28158499999999
 30
0.0
 11
92.992039
 21
68.24298500000001
 31
0.0
  0
LINE
  5
3C7
330
1E
100
AcDbEntity
  8
0
100
AcDbLine
 10
92.743739
 20
68.319285
 30
0.0
 11
92.840839
 21
68.28158499999999
 31
0.0
  0
LINE
  5
3C8
330
1E
100
AcDbEntity
  8
0
100
AcDbLine
 10
92.711839
 20
68.354485
 30
0.0
 11
92.7666410961673
 21
68.9946304541084
 31
0.0
  0
LINE
  5
3C9
330
1E
100
AcDbEntity
  8
0
100
AcDbLine
 10
92.711839
 20
68.354485
 30
0.0
 11
92.75323900000001
 21
68.383285
 31
0.0
  0
LINE
  5
3CA
330
1E
100
AcDbEntity
  8
0
100
AcDbLine
 10
92.75323900000001
 20
68.383285
 30
0.0
 11
92.85893900000001
 21
68.403385
 31
0.0
  0
LINE
  5
3CB
330
1E
100
AcDbEntity
  8
0
100
AcDbLine
 10
92.85893900000001
 20
68.403385
 30
0.0
 11
93.017639
 21
68.41508499999999
 31
0.0
  0
LINE
  5
3CC
330
1E
100
AcDbEntity
  8
0
100
AcDbLine
 10
94.223739
 20
68.329885
 30
0.0
 11
94.42653900000001
 21
68.29318499999999
 31
0.0
  0
LINE
  5
3CD
330
1E
100
AcDbEntity
  8
0
100
AcDbLine
 10
93.98883899999999
 20
68.362785
 30
0.0
 11
94.223739
 21
68.329885
 31
0.0
  0
LINE
  5
3CE
330
1E
100
AcDbEntity
  8
0
100
AcDbLine
 10
93.72743900000001
 20
68.38998499999999
 30
0.0
 11
93.98883899999999
 21
68.362785
 31
0.0
  0
LINE
  5
3CF
330
1E
100
AcDbEntity
  8
0
100
AcDbLine
 10
93.46473899999999
 20
68.40818500000001
 30
0.0
 11
93.72743900000001
 21
68.38998499999999
 31
0.0
  0
LINE
  5
3D0
330
1E
100
AcDbEntity
  8
0
100
AcDbLine
 10
93.226139
 20
68.416285
 30
0.0
 11
93.46473899999999
 21
68.40818500000001
 31
0.0
  0
LINE
  5
3D1
330
1E
100
AcDbEntity
  8
0
100
AcDbLine
 10
93.017639
 20
68.41508499999999
 30
0.0
 11
93.226139
 21
68.416285
 31
0.0
  0
LINE
  5
3D2
330
1E
100
AcDbEntity
  8
0
100
AcDbLine
 10
94.42653900000001
 20
68.29318499999999
 30
0.0
 11
94.577839
 21
68.25468499999999
 31
0.0
  0
LINE
  5
3D3
330
1E
100
AcDbEntity
  8
0
100
AcDbLine
 10
103.7673293675539
 20
68.50448210899919
 30
0.0
 11
104.6346236695169
 21
68.6297794996709
 31
0.0
  0
LINE
  5
3D4
330
1E
100
AcDbEntity
  8
0
100
AcDbLine
 10
103.156839
 20
68.416285
 30
0.0
 11
104.6346236695169
 21
68.6297794996709
 31
0.0
  0
LINE
  5
3D5
330
1E
100
AcDbEntity
  8
0
100
AcDbLine
 10
94.577839
 20
68.25468499999999
 30
0.0
 11
94.67493899999999
 21
68.216985
 31
0.0
  0
LINE
  5
3D6
330
1E
100
AcDbEntity
  8
0
100
AcDbLine
 10
104.4768389999999
 20
68.70198499999999
 30
0.0
 11
104.4798389999999
 21
68.75208499999999
 31
0.0
  0
LINE
  5
3D7
330
1E
100
AcDbEntity
  8
0
100
AcDbLine
 10
104.4768389999999
 20
68.70198499999999
 30
0.0
 11
104.542839
 21
68.657685
 31
0.0
  0
LINE
  5
3D8
330
1E
100
AcDbEntity
  8
0
100
AcDbLine
 10
104.542839
 20
68.657685
 30
0.0
 11
104.666839
 21
68.619985
 31
0.0
  0
LINE
  5
3D9
330
1E
100
AcDbEntity
  8
0
100
AcDbLine
 10
104.4798389999999
 20
68.75208499999999
 30
0.0
 11
104.5538389999999
 21
68.803185
 31
0.0
  0
LINE
  5
3DA
330
1E
100
AcDbEntity
  8
0
100
AcDbLine
 10
104.5538389999999
 20
68.803185
 30
0.0
 11
104.689839
 21
68.850185
 31
0.0
  0
LINE
  5
3DB
330
1E
100
AcDbEntity
  8
0
100
AcDbLine
 10
104.689839
 20
68.850185
 30
0.0
 11
104.873839
 21
68.89198499999999
 31
0.0
  0
LINE
  5
3DC
330
1E
100
AcDbEntity
  8
0
100
AcDbLine
 10
104.666839
 20
68.619985
 30
0.0
 11
104.847839
 21
68.59288499999999
 31
0.0
  0
LINE
  5
3DD
330
1E
100
AcDbEntity
  8
0
100
AcDbLine
 10
104.847839
 20
68.59288499999999
 30
0.0
 11
105.0678389999999
 21
68.57648499999999
 31
0.0
  0
LINE
  5
3DE
330
1E
100
AcDbEntity
  8
0
100
AcDbLine
 10
105.0678389999999
 20
68.57648499999999
 30
0.0
 11
105.3228389999999
 21
68.572885
 31
0.0
  0
LINE
  5
3DF
330
1E
100
AcDbEntity
  8
0
100
AcDbLine
 10
105.3228389999999
 20
68.572885
 30
0.0
 11
105.5878389999999
 21
68.58348499999999
 31
0.0
  0
LINE
  5
3E0
330
1E
100
AcDbEntity
  8
0
100
AcDbLine
 10
105.5878389999999
 20
68.58348499999999
 30
0.0
 11
105.8378389999999
 21
68.606185
 31
0.0
  0
LINE
  5
3E1
330
1E
100
AcDbEntity
  8
0
100
AcDbLine
 10
105.8378389999999
 20
68.606185
 30
0.0
 11
106.0648389999999
 21
68.638885
 31
0.0
  0
LINE
  5
3E2
330
1E
100
AcDbEntity
  8
0
100
AcDbLine
 10
106.270839
 20
68.910785
 30
0.0
 11
106.3948389999999
 21
68.87318499999999
 31
0.0
  0
LINE
  5
3E4
330
1E
100
AcDbEntity
  8
0
100
AcDbLine
 10
106.4580813119829
 20
68.89321312777621
 30
0.0
 11
110.7598389999999
 21
69.514685
 31
0.0
  0
LINE
  5
3E5
330
1E
100
AcDbEntity
  8
0
100
AcDbLine
 10
106.4580813119829
 20
68.89321312777621
 30
0.0
 11
108.2655162761479
 21
69.15433197094841
 31
0.0
  0
LINE
  5
3E6
330
1E
100
AcDbEntity
  8
0
100
AcDbLine
 10
106.3948389999999
 20
68.87318499999999
 30
0.0
 11
106.4608389999999
 21
68.828785
 31
0.0
  0
LINE
  5
3E7
330
1E
100
AcDbEntity
  8
0
100
AcDbLine
 10
106.4588389999999
 20
68.778785
 30
0.0
 11
106.4608389999999
 21
68.828785
 31
0.0
  0
LINE
  5
3E8
330
1E
100
AcDbEntity
  8
0
100
AcDbLine
 10
106.3838389999999
 20
68.72768499999999
 30
0.0
 11
106.4588389999999
 21
68.778785
 31
0.0
  0
LINE
  5
3E9
330
1E
100
AcDbEntity
  8
0
100
AcDbLine
 10
106.2488389999999
 20
68.680585
 30
0.0
 11
106.3838389999999
 21
68.72768499999999
 31
0.0
  0
LINE
  5
3EA
330
1E
100
AcDbEntity
  8
0
100
AcDbLine
 10
106.0648389999999
 20
68.638885
 30
0.0
 11
106.2488389999999
 21
68.680585
 31
0.0
  0
LINE
  5
3EB
330
1E
100
AcDbEntity
  8
0
100
AcDbLine
 10
106.0898389999999
 20
68.93798499999999
 30
0.0
 11
106.270839
 21
68.910785
 31
0.0
  0
LINE
  5
3EC
330
1E
100
AcDbEntity
  8
0
100
AcDbLine
 10
105.8698389999999
 20
68.954385
 30
0.0
 11
106.0898389999999
 21
68.93798499999999
 31
0.0
  0
LINE
  5
3ED
330
1E
100
AcDbEntity
  8
0
100
AcDbLine
 10
105.615839
 20
68.95798499999999
 30
0.0
 11
105.8698389999999
 21
68.954385
 31
0.0
  0
LINE
  5
3EE
330
1E
100
AcDbEntity
  8
0
100
AcDbLine
 10
105.3498389999999
 20
68.94738499999999
 30
0.0
 11
105.615839
 21
68.95798499999999
 31
0.0
  0
LINE
  5
3EF
330
1E
100
AcDbEntity
  8
0
100
AcDbLine
 10
105.100839
 20
68.92468499999999
 30
0.0
 11
105.3498389999999
 21
68.94738499999999
 31
0.0
  0
LINE
  5
3F0
330
1E
100
AcDbEntity
  8
0
100
AcDbLine
 10
104.873839
 20
68.89198499999999
 30
0.0
 11
105.100839
 21
68.92468499999999
 31
0.0
  0
LINE
  5
3F1
330
1E
100
AcDbEntity
  8
0
100
AcDbLine
 10
81.739239
 20
69.030085
 30
0.0
 11
81.8210449551856
 21
69.6860290918849
 31
0.0
  0
LINE
  5
3F2
330
1E
100
AcDbEntity
  8
0
100
AcDbLine
 10
81.65823899999999
 20
68.982985
 30
0.0
 11
81.73223900000001
 21
69.001385
 31
0.0
  0
LINE
  5
3F3
330
1E
100
AcDbEntity
  8
0
100
AcDbLine
 10
81.52783900000001
 20
68.974285
 30
0.0
 11
81.65823899999999
 21
68.982985
 31
0.0
  0
LINE
  5
3F4
330
1E
100
AcDbEntity
  8
0
100
AcDbLine
 10
75.317239
 20
69.051185
 30
0.0
 11
75.3799870222154
 21
69.61720477905361
 31
0.0
  0
LINE
  5
3F5
330
1E
100
AcDbEntity
  8
0
100
AcDbLine
 10
76.066039
 20
69.063385
 30
0.0
 11
76.328039
 21
69.037785
 31
0.0
  0
LINE
  5
3F6
330
1E
100
AcDbEntity
  8
0
100
AcDbLine
 10
80.59973900000001
 20
69.047985
 30
0.0
 11
80.86323900000001
 21
69.014785
 31
0.0
  0
LINE
  5
3F7
330
1E
100
AcDbEntity
  8
0
100
AcDbLine
 10
73.25203899999999
 20
68.31748499999999
 30
0.0
 11
73.883939
 21
68.240185
 31
0.0
  0
LINE
  5
3F8
330
1E
100
AcDbEntity
  8
0
100
AcDbLine
 10
73.883939
 20
68.240185
 30
0.0
 11
74.461439
 21
68.17448500000001
 31
0.0
  0
LINE
  5
3F9
330
1E
100
AcDbEntity
  8
0
100
AcDbLine
 10
70.30983899999999
 20
69.056885
 30
0.0
 11
70.47443900000001
 21
69.075385
 31
0.0
  0
LINE
  5
3FA
330
1E
100
AcDbEntity
  8
0
100
AcDbLine
 10
69.553539
 20
69.103585
 30
0.0
 11
70.00293899999999
 21
69.065085
 31
0.0
  0
LINE
  5
3FB
330
1E
100
AcDbEntity
  8
0
100
AcDbLine
 10
68.379439
 20
69.25248499999999
 30
0.0
 11
69.009139
 21
69.165885
 31
0.0
  0
LINE
  5
3FC
330
1E
100
AcDbEntity
  8
0
100
AcDbLine
 10
69.009139
 20
69.165885
 30
0.0
 11
69.553539
 21
69.103585
 31
0.0
  0
LINE
  5
3FD
330
1E
100
AcDbEntity
  8
0
100
AcDbLine
 10
66.09413899999999
 20
69.681185
 30
0.0
 11
66.54743899999999
 21
69.576885
 31
0.0
  0
LINE
  5
3FE
330
1E
100
AcDbEntity
  8
0
100
AcDbLine
 10
65.761139
 20
69.773385
 30
0.0
 11
66.09413899999999
 21
69.681185
 31
0.0
  0
LINE
  5
3FF
330
1E
100
AcDbEntity
  8
0
100
AcDbLine
 10
65.578039
 20
69.847985
 30
0.0
 11
65.761139
 21
69.773385
 31
0.0
  0
LINE
  5
400
330
1E
100
AcDbEntity
  8
0
100
AcDbLine
 10
65.57473900000001
 20
69.89588499999999
 30
0.0
 11
65.71438440495819
 21
70.77209320652442
 31
0.0
  0
LINE
  5
401
330
1E
100
AcDbEntity
  8
0
100
AcDbLine
 10
65.57473900000001
 20
69.89588499999999
 30
0.0
 11
65.739339
 21
69.914385
 31
0.0
  0
LINE
  5
402
330
1E
100
AcDbEntity
  8
0
100
AcDbLine
 10
66.54743899999999
 20
69.576885
 30
0.0
 11
67.107039
 21
69.465885
 31
0.0
  0
LINE
  5
403
330
1E
100
AcDbEntity
  8
0
100
AcDbLine
 10
67.107039
 20
69.465885
 30
0.0
 11
67.72363900000001
 21
69.35628499999999
 31
0.0
  0
LINE
  5
404
330
1E
100
AcDbEntity
  8
0
100
AcDbLine
 10
67.72363900000001
 20
69.35628499999999
 30
0.0
 11
68.379439
 21
69.25248499999999
 31
0.0
  0
LINE
  5
405
330
1E
100
AcDbEntity
  8
0
100
AcDbLine
 10
68.942139
 20
69.505385
 30
0.0
 11
69.501739
 21
69.394385
 31
0.0
  0
LINE
  5
406
330
1E
100
AcDbEntity
  8
0
100
AcDbLine
 10
68.325539
 20
69.61498500000001
 30
0.0
 11
68.942139
 21
69.505385
 31
0.0
  0
LINE
  5
407
330
1E
100
AcDbEntity
  8
0
100
AcDbLine
 10
67.669739
 20
69.71878499999999
 30
0.0
 11
68.325539
 21
69.61498500000001
 31
0.0
  0
LINE
  5
408
330
1E
100
AcDbEntity
  8
0
100
AcDbLine
 10
67.040039
 20
69.805385
 30
0.0
 11
67.669739
 21
69.71878499999999
 31
0.0
  0
LINE
  5
409
330
1E
100
AcDbEntity
  8
0
100
AcDbLine
 10
66.495639
 20
69.867685
 30
0.0
 11
67.040039
 21
69.805385
 31
0.0
  0
LINE
  5
40A
330
1E
100
AcDbEntity
  8
0
100
AcDbLine
 10
64.90823899999999
 20
71.29388500000001
 30
0.0
 11
65.000139
 21
71.244185
 31
0.0
  0
LINE
  5
40B
330
1E
100
AcDbEntity
  8
0
100
AcDbLine
 10
64.88463900000001
 20
71.333085
 30
0.0
 11
65.0422553604302
 21
72.2346339564365
 31
0.0
  0
LINE
  5
40C
330
1E
100
AcDbEntity
  8
0
100
AcDbLine
 10
65.15573899999999
 20
71.18838499999999
 30
0.0
 11
65.35563899999999
 21
71.13218499999999
 31
0.0
  0
LINE
  5
40D
330
1E
100
AcDbEntity
  8
0
100
AcDbLine
 10
65.000139
 20
71.244185
 30
0.0
 11
65.15573899999999
 21
71.18838499999999
 31
0.0
  0
LINE
  5
40E
330
1E
100
AcDbEntity
  8
0
100
AcDbLine
 10
65.185639
 20
71.376085
 30
0.0
 11
65.396139
 21
71.361485
 31
0.0
  0
LINE
  5
40F
330
1E
100
AcDbEntity
  8
0
100
AcDbLine
 10
65.027839
 20
71.375485
 30
0.0
 11
65.185639
 21
71.376085
 31
0.0
  0
LINE
  5
410
330
1E
100
AcDbEntity
  8
0
100
AcDbLine
 10
64.922239
 20
71.361485
 30
0.0
 11
65.027839
 21
71.375485
 31
0.0
  0
LINE
  5
411
330
1E
100
AcDbEntity
  8
0
100
AcDbLine
 10
64.975439
 20
72.69858499999999
 30
0.0
 11
65.163539
 21
72.68878499999999
 31
0.0
  0
LINE
  5
412
330
1E
100
AcDbEntity
  8
0
100
AcDbLine
 10
65.163539
 20
72.68878499999999
 30
0.0
 11
65.29393899999999
 21
72.695185
 31
0.0
  0
LINE
  5
413
330
1E
100
AcDbEntity
  8
0
100
AcDbLine
 10
65.587439
 20
71.07778499999999
 30
0.0
 11
65.83933899999999
 21
71.02938499999999
 31
0.0
  0
LINE
  5
414
330
1E
100
AcDbEntity
  8
0
100
AcDbLine
 10
65.35563899999999
 20
71.13218499999999
 30
0.0
 11
65.587439
 21
71.07778499999999
 31
0.0
  0
LINE
  5
415
330
1E
100
AcDbEntity
  8
0
100
AcDbLine
 10
65.64113899999999
 20
71.33218499999999
 30
0.0
 11
65.894739
 21
71.29188499999999
 31
0.0
  0
LINE
  5
416
330
1E
100
AcDbEntity
  8
0
100
AcDbLine
 10
65.396139
 20
71.361485
 30
0.0
 11
65.64113899999999
 21
71.33218499999999
 31
0.0
  0
LINE
  5
417
330
1E
100
AcDbEntity
  8
0
100
AcDbLine
 10
65.29393899999999
 20
72.695185
 30
0.0
 11
65.368639
 21
72.71568499999999
 31
0.0
  0
LINE
  5
418
330
1E
100
AcDbEntity
  8
0
100
AcDbLine
 10
64.243439
 20
72.81258499999999
 30
0.0
 11
64.497339
 21
72.76378499999999
 31
0.0
  0
LINE
  5
419
330
1E
100
AcDbEntity
  8
0
100
AcDbLine
 10
64.497339
 20
72.76378499999999
 30
0.0
 11
64.744939
 21
72.724785
 31
0.0
  0
LINE
  5
41A
330
1E
100
AcDbEntity
  8
0
100
AcDbLine
 10
64.744939
 20
72.724785
 30
0.0
 11
64.975439
 21
72.69858499999999
 31
0.0
  0
LINE
  5
41B
330
1E
100
AcDbEntity
  8
0
100
AcDbLine
 10
64.000839
 20
72.86928499999999
 30
0.0
 11
64.243439
 21
72.81258499999999
 31
0.0
  0
LINE
  5
41C
330
1E
100
AcDbEntity
  8
0
100
AcDbLine
 10
63.782939
 20
72.92928499999999
 30
0.0
 11
64.000839
 21
72.86928499999999
 31
0.0
  0
LINE
  5
41D
330
1E
100
AcDbEntity
  8
0
100
AcDbLine
 10
63.60223900000001
 20
72.99048499999999
 30
0.0
 11
63.782939
 21
72.92928499999999
 31
0.0
  0
LINE
  5
41E
330
1E
100
AcDbEntity
  8
0
100
AcDbLine
 10
63.480039
 20
73.04658499999999
 30
0.0
 11
63.60223900000001
 21
72.99048499999999
 31
0.0
  0
LINE
  5
41F
330
1E
100
AcDbEntity
  8
0
100
AcDbLine
 10
63.424139
 20
73.092585
 30
0.0
 11
63.480039
 21
73.04658499999999
 31
0.0
  0
LINE
  5
420
330
1E
100
AcDbEntity
  8
0
100
AcDbLine
 10
64.30033900000001
 20
73.079985
 30
0.0
 11
64.55423899999999
 21
73.031085
 31
0.0
  0
LINE
  5
421
330
1E
100
AcDbEntity
  8
0
100
AcDbLine
 10
64.052639
 20
73.11888499999999
 30
0.0
 11
64.30033900000001
 21
73.079985
 31
0.0
  0
LINE
  5
422
330
1E
100
AcDbEntity
  8
0
100
AcDbLine
 10
63.822239
 20
73.145185
 30
0.0
 11
64.052639
 21
73.11888499999999
 31
0.0
  0
LINE
  5
423
330
1E
100
AcDbEntity
  8
0
100
AcDbLine
 10
63.63413900000001
 20
73.154985
 30
0.0
 11
63.822239
 21
73.145185
 31
0.0
  0
LINE
  5
424
330
1E
100
AcDbEntity
  8
0
100
AcDbLine
 10
63.50373900000001
 20
73.148485
 30
0.0
 11
63.63413900000001
 21
73.154985
 31
0.0
  0
LINE
  5
425
330
1E
100
AcDbEntity
  8
0
100
AcDbLine
 10
63.429039
 20
73.12798499999999
 30
0.0
 11
63.57378056753621
 21
73.87604080798389
 31
0.0
  0
LINE
  5
426
330
1E
100
AcDbEntity
  8
0
100
AcDbLine
 10
63.429039
 20
73.12798499999999
 30
0.0
 11
63.50373900000001
 21
73.148485
 31
0.0
  0
LINE
  5
427
330
1E
100
AcDbEntity
  8
0
100
AcDbLine
 10
64.55423899999999
 20
73.031085
 30
0.0
 11
64.79683900000001
 21
72.974385
 31
0.0
  0
LINE
  5
428
330
1E
100
AcDbEntity
  8
0
100
AcDbLine
 10
64.79683900000001
 20
72.974385
 30
0.0
 11
65.014739
 21
72.914485
 31
0.0
  0
LINE
  5
429
330
1E
100
AcDbEntity
  8
0
100
AcDbLine
 10
65.014739
 20
72.914485
 30
0.0
 11
65.19543900000001
 21
72.853285
 31
0.0
  0
LINE
  5
42A
330
1E
100
AcDbEntity
  8
0
100
AcDbLine
 10
65.19543900000001
 20
72.853285
 30
0.0
 11
65.317639
 21
72.79708499999999
 31
0.0
  0
LINE
  5
42B
330
1E
100
AcDbEntity
  8
0
100
AcDbLine
 10
65.317639
 20
72.79708499999999
 30
0.0
 11
65.373439
 21
72.751085
 31
0.0
  0
LINE
  5
42C
330
1E
100
AcDbEntity
  8
0
100
AcDbLine
 10
65.368639
 20
72.71568499999999
 30
0.0
 11
65.5133528407088
 21
73.4637963168807
 31
0.0
  0
LINE
  5
42D
330
1E
100
AcDbEntity
  8
0
100
AcDbLine
 10
66.338039
 20
70.959785
 30
0.0
 11
66.548439
 21
70.945285
 31
0.0
  0
LINE
  5
42E
330
1E
100
AcDbEntity
  8
0
100
AcDbLine
 10
66.548439
 20
70.945285
 30
0.0
 11
66.70623899999999
 21
70.945885
 31
0.0
  0
LINE
  5
42F
330
1E
100
AcDbEntity
  8
0
100
AcDbLine
 10
66.70623899999999
 20
70.945885
 30
0.0
 11
66.811839
 21
70.959785
 31
0.0
  0
LINE
  5
430
330
1E
100
AcDbEntity
  8
0
100
AcDbLine
 10
66.092939
 20
70.989085
 30
0.0
 11
66.338039
 21
70.959785
 31
0.0
  0
LINE
  5
431
330
1E
100
AcDbEntity
  8
0
100
AcDbLine
 10
65.83933899999999
 20
71.02938499999999
 30
0.0
 11
66.092939
 21
70.989085
 31
0.0
  0
LINE
  5
432
330
1E
100
AcDbEntity
  8
0
100
AcDbLine
 10
65.894739
 20
71.29188499999999
 30
0.0
 11
66.14673899999999
 21
71.24348499999999
 31
0.0
  0
LINE
  5
433
330
1E
100
AcDbEntity
  8
0
100
AcDbLine
 10
66.14673899999999
 20
71.24348499999999
 30
0.0
 11
66.378539
 21
71.18908499999999
 31
0.0
  0
LINE
  5
434
330
1E
100
AcDbEntity
  8
0
100
AcDbLine
 10
66.378539
 20
71.18908499999999
 30
0.0
 11
66.578439
 21
71.13298499999999
 31
0.0
  0
LINE
  5
435
330
1E
100
AcDbEntity
  8
0
100
AcDbLine
 10
66.578439
 20
71.13298499999999
 30
0.0
 11
66.733939
 21
71.077085
 31
0.0
  0
LINE
  5
436
330
1E
100
AcDbEntity
  8
0
100
AcDbLine
 10
66.733939
 20
71.077085
 30
0.0
 11
66.825839
 21
71.027385
 31
0.0
  0
LINE
  5
437
330
1E
100
AcDbEntity
  8
0
100
AcDbLine
 10
66.849439
 20
70.988285
 30
0.0
 11
66.95370010675471
 21
71.584647533274
 31
0.0
  0
LINE
  5
438
330
1E
100
AcDbEntity
  8
0
100
AcDbLine
 10
65.739339
 20
69.914385
 30
0.0
 11
66.04623899999999
 21
69.906185
 31
0.0
  0
LINE
  5
439
330
1E
100
AcDbEntity
  8
0
100
AcDbLine
 10
66.04623899999999
 20
69.906185
 30
0.0
 11
66.495639
 21
69.867685
 31
0.0
  0
LINE
  5
43A
330
1E
100
AcDbEntity
  8
0
100
AcDbLine
 10
69.501739
 20
69.394385
 30
0.0
 11
69.955039
 21
69.29008499999999
 31
0.0
  0
LINE
  5
43B
330
1E
100
AcDbEntity
  8
0
100
AcDbLine
 10
69.955039
 20
69.29008499999999
 30
0.0
 11
70.28803899999999
 21
69.197885
 31
0.0
  0
LINE
  5
43C
330
1E
100
AcDbEntity
  8
0
100
AcDbLine
 10
70.28803899999999
 20
69.197885
 30
0.0
 11
70.47113900000001
 21
69.123285
 31
0.0
  0
LINE
  5
43D
330
1E
100
AcDbEntity
  8
0
100
AcDbLine
 10
75.357939
 20
69.07268499999999
 30
0.0
 11
75.462839
 21
69.084585
 31
0.0
  0
LINE
  5
43E
330
1E
100
AcDbEntity
  8
0
100
AcDbLine
 10
75.462839
 20
69.084585
 30
0.0
 11
75.620739
 21
69.087485
 31
0.0
  0
LINE
  5
43F
330
1E
100
AcDbEntity
  8
0
100
AcDbLine
 10
75.828339
 20
69.079785
 30
0.0
 11
76.066039
 21
69.063385
 31
0.0
  0
LINE
  5
440
330
1E
100
AcDbEntity
  8
0
100
AcDbLine
 10
75.620739
 20
69.087485
 30
0.0
 11
75.828339
 21
69.079785
 31
0.0
  0
LINE
  5
441
330
1E
100
AcDbEntity
  8
0
100
AcDbLine
 10
80.35413899999999
 20
69.086585
 30
0.0
 11
80.59973900000001
 21
69.047985
 31
0.0
  0
LINE
  5
442
330
1E
100
AcDbEntity
  8
0
100
AcDbLine
 10
77.33893016919991
 20
69.11373735656351
 30
0.0
 11
86.3500954373222
 21
68.42541395502029
 31
0.0
  0
LINE
  5
443
330
1E
100
AcDbEntity
  8
0
100
AcDbLine
 10
79.76443899999999
 20
69.24838499999999
 30
0.0
 11
79.83558441246829
 21
69.81884974021849
 31
0.0
  0
LINE
  5
444
330
1E
100
AcDbEntity
  8
0
100
AcDbLine
 10
79.76443899999999
 20
69.24838499999999
 30
0.0
 11
79.829939
 21
69.211685
 31
0.0
  0
LINE
  5
445
330
1E
100
AcDbEntity
  8
0
100
AcDbLine
 10
80.13323900000001
 20
69.12838499999999
 30
0.0
 11
80.35413899999999
 21
69.086585
 31
0.0
  0
LINE
  5
446
330
1E
100
AcDbEntity
  8
0
100
AcDbLine
 10
79.956839
 20
69.17108499999999
 30
0.0
 11
80.13323900000001
 21
69.12838499999999
 31
0.0
  0
LINE
  5
447
330
1E
100
AcDbEntity
  8
0
100
AcDbLine
 10
79.829939
 20
69.211685
 30
0.0
 11
79.956839
 21
69.17108499999999
 31
0.0
  0
LINE
  5
448
330
1E
100
AcDbEntity
  8
0
100
AcDbLine
 10
79.771439
 20
69.277085
 30
0.0
 11
79.84533899999999
 21
69.295485
 31
0.0
  0
LINE
  5
449
330
1E
100
AcDbEntity
  8
0
100
AcDbLine
 10
79.84533899999999
 20
69.295485
 30
0.0
 11
79.97583900000001
 21
69.304185
 31
0.0
  0
LINE
  5
44A
330
1E
100
AcDbEntity
  8
0
100
AcDbLine
 10
81.149439
 20
69.191885
 30
0.0
 11
81.370439
 21
69.149985
 31
0.0
  0
LINE
  5
44B
330
1E
100
AcDbEntity
  8
0
100
AcDbLine
 10
80.903839
 20
69.230385
 30
0.0
 11
81.149439
 21
69.191885
 31
0.0
  0
LINE
  5
44C
330
1E
100
AcDbEntity
  8
0
100
AcDbLine
 10
80.640339
 20
69.26368499999999
 30
0.0
 11
80.903839
 21
69.230385
 31
0.0
  0
LINE
  5
44D
330
1E
100
AcDbEntity
  8
0
100
AcDbLine
 10
80.385039
 20
69.28778499999999
 30
0.0
 11
80.640339
 21
69.26368499999999
 31
0.0
  0
LINE
  5
44E
330
1E
100
AcDbEntity
  8
0
100
AcDbLine
 10
80.162139
 20
69.30098499999999
 30
0.0
 11
80.385039
 21
69.28778499999999
 31
0.0
  0
LINE
  5
44F
330
1E
100
AcDbEntity
  8
0
100
AcDbLine
 10
70.57939888795079
 20
69.7337484869168
 30
0.0
 11
75.3434892479912
 21
69.28797588270071
 31
0.0
  0
LINE
  5
450
330
1E
100
AcDbEntity
  8
0
100
AcDbLine
 10
70.5432641335538
 20
69.5070923483851
 30
0.0
 11
79.18535708810471
 21
68.486228243266
 31
0.0
  0
LINE
  5
451
330
1E
100
AcDbEntity
  8
0
100
AcDbLine
 10
70.968439
 20
69.93398499999999
 30
0.0
 11
71.203739
 21
69.88908499999999
 31
0.0
  0
LINE
  5
452
330
1E
100
AcDbEntity
  8
0
100
AcDbLine
 10
71.203739
 20
69.88908499999999
 30
0.0
 11
71.45633899999999
 21
69.849085
 31
0.0
  0
LINE
  5
453
330
1E
100
AcDbEntity
  8
0
100
AcDbLine
 10
71.45633899999999
 20
69.849085
 30
0.0
 11
71.718039
 21
69.81628499999999
 31
0.0
  0
LINE
  5
454
330
1E
100
AcDbEntity
  8
0
100
AcDbLine
 10
71.718039
 20
69.81628499999999
 30
0.0
 11
71.962439
 21
69.794485
 31
0.0
  0
LINE
  5
455
330
1E
100
AcDbEntity
  8
0
100
AcDbLine
 10
71.962439
 20
69.794485
 30
0.0
 11
72.166939
 21
69.78518499999999
 31
0.0
  0
LINE
  5
456
330
1E
100
AcDbEntity
  8
0
100
AcDbLine
 10
72.166939
 20
69.78518499999999
 30
0.0
 11
72.328739
 21
69.78718499999999
 31
0.0
  0
LINE
  5
457
330
1E
100
AcDbEntity
  8
0
100
AcDbLine
 10
70.770039
 20
69.98128499999999
 30
0.0
 11
70.968439
 21
69.93398499999999
 31
0.0
  0
LINE
  5
458
330
1E
100
AcDbEntity
  8
0
100
AcDbLine
 10
70.616039
 20
70.02768499999999
 30
0.0
 11
70.770039
 21
69.98128499999999
 31
0.0
  0
LINE
  5
459
330
1E
100
AcDbEntity
  8
0
100
AcDbLine
 10
70.51853900000001
 20
70.071185
 30
0.0
 11
70.616039
 21
70.02768499999999
 31
0.0
  0
LINE
  5
45A
330
1E
100
AcDbEntity
  8
0
100
AcDbLine
 10
70.491839
 20
70.10708499999999
 30
0.0
 11
70.58810241072359
 21
70.7938524824555
 31
0.0
  0
LINE
  5
45B
330
1E
100
AcDbEntity
  8
0
100
AcDbLine
 10
70.533639
 20
70.132285
 30
0.0
 11
70.634539
 21
70.147285
 31
0.0
  0
LINE
  5
45C
330
1E
100
AcDbEntity
  8
0
100
AcDbLine
 10
71.75963900000001
 20
70.04528499999999
 30
0.0
 11
71.994939
 21
70.00038499999999
 31
0.0
  0
LINE
  5
45D
330
1E
100
AcDbEntity
  8
0
100
AcDbLine
 10
71.507039
 20
70.085385
 30
0.0
 11
71.75963900000001
 21
70.04528499999999
 31
0.0
  0
LINE
  5
45E
330
1E
100
AcDbEntity
  8
0
100
AcDbLine
 10
71.245339
 20
70.118185
 30
0.0
 11
71.507039
 21
70.085385
 31
0.0
  0
LINE
  5
45F
330
1E
100
AcDbEntity
  8
0
100
AcDbLine
 10
71.000939
 20
70.13998499999999
 30
0.0
 11
71.245339
 21
70.118185
 31
0.0
  0
LINE
  5
460
330
1E
100
AcDbEntity
  8
0
100
AcDbLine
 10
70.796439
 20
70.14928499999999
 30
0.0
 11
71.000939
 21
70.13998499999999
 31
0.0
  0
LINE
  5
461
330
1E
100
AcDbEntity
  8
0
100
AcDbLine
 10
70.634539
 20
70.147285
 30
0.0
 11
70.796439
 21
70.14928499999999
 31
0.0
  0
LINE
  5
462
330
1E
100
AcDbEntity
  8
0
100
AcDbLine
 10
72.112339
 20
71.21178499999999
 30
0.0
 11
72.2024410355023
 21
71.7859181003681
 31
0.0
  0
LINE
  5
463
330
1E
100
AcDbEntity
  8
0
100
AcDbLine
 10
72.112339
 20
71.21178499999999
 30
0.0
 11
72.172139
 21
71.168885
 31
0.0
  0
LINE
  5
464
330
1E
100
AcDbEntity
  8
0
100
AcDbLine
 10
72.299839
 20
71.11898499999999
 30
0.0
 11
72.478339
 21
71.067385
 31
0.0
  0
LINE
  5
465
330
1E
100
AcDbEntity
  8
0
100
AcDbLine
 10
72.172139
 20
71.168885
 30
0.0
 11
72.299839
 21
71.11898499999999
 31
0.0
  0
LINE
  5
466
330
1E
100
AcDbEntity
  8
0
100
AcDbLine
 10
72.121439
 20
71.24398499999999
 30
0.0
 11
72.19123899999999
 21
71.265485
 31
0.0
  0
LINE
  5
467
330
1E
100
AcDbEntity
  8
0
100
AcDbLine
 10
72.32603899999999
 20
71.273285
 30
0.0
 11
72.50873900000001
 21
71.268585
 31
0.0
  0
LINE
  5
468
330
1E
100
AcDbEntity
  8
0
100
AcDbLine
 10
72.19123899999999
 20
71.265485
 30
0.0
 11
72.32603899999999
 21
71.273285
 31
0.0
  0
LINE
  5
469
330
1E
100
AcDbEntity
  8
0
100
AcDbLine
 10
71.994939
 20
70.00038499999999
 30
0.0
 11
72.19333899999999
 21
69.953085
 31
0.0
  0
LINE
  5
46A
330
1E
100
AcDbEntity
  8
0
100
AcDbLine
 10
72.19333899999999
 20
69.953085
 30
0.0
 11
72.34733900000001
 21
69.90668499999999
 31
0.0
  0
LINE
  5
46B
330
1E
100
AcDbEntity
  8
0
100
AcDbLine
 10
72.34733900000001
 20
69.90668499999999
 30
0.0
 11
72.444839
 21
69.863285
 31
0.0
  0
LINE
  5
46C
330
1E
100
AcDbEntity
  8
0
100
AcDbLine
 10
73.681139
 20
70.87828499999999
 30
0.0
 11
73.86373899999999
 21
70.87358499999999
 31
0.0
  0
LINE
  5
46D
330
1E
100
AcDbEntity
  8
0
100
AcDbLine
 10
73.86373899999999
 20
70.87358499999999
 30
0.0
 11
73.99863899999999
 21
70.88138499999999
 31
0.0
  0
LINE
  5
46E
330
1E
100
AcDbEntity
  8
0
100
AcDbLine
 10
72.941039
 20
70.968985
 30
0.0
 11
73.196239
 21
70.92838499999999
 31
0.0
  0
LINE
  5
46F
330
1E
100
AcDbEntity
  8
0
100
AcDbLine
 10
73.196239
 20
70.92838499999999
 30
0.0
 11
73.45183900000001
 21
70.896885
 31
0.0
  0
LINE
  5
470
330
1E
100
AcDbEntity
  8
0
100
AcDbLine
 10
73.45183900000001
 20
70.896885
 30
0.0
 11
73.681139
 21
70.87828499999999
 31
0.0
  0
LINE
  5
471
330
1E
100
AcDbEntity
  8
0
100
AcDbLine
 10
72.695339
 20
71.01608500000001
 30
0.0
 11
72.941039
 21
70.968985
 31
0.0
  0
LINE
  5
472
330
1E
100
AcDbEntity
  8
0
100
AcDbLine
 10
72.478339
 20
71.067385
 30
0.0
 11
72.695339
 21
71.01608500000001
 31
0.0
  0
LINE
  5
473
330
1E
100
AcDbEntity
  8
0
100
AcDbLine
 10
73.248839
 20
71.177885
 30
0.0
 11
73.494539
 21
71.130785
 31
0.0
  0
LINE
  5
474
330
1E
100
AcDbEntity
  8
0
100
AcDbLine
 10
72.99353899999999
 20
71.218485
 30
0.0
 11
73.248839
 21
71.177885
 31
0.0
  0
LINE
  5
475
330
1E
100
AcDbEntity
  8
0
100
AcDbLine
 10
72.738039
 20
71.25008499999999
 30
0.0
 11
72.99353899999999
 21
71.218485
 31
0.0
  0
LINE
  5
476
330
1E
100
AcDbEntity
  8
0
100
AcDbLine
 10
72.50873900000001
 20
71.268585
 30
0.0
 11
72.738039
 21
71.25008499999999
 31
0.0
  0
LINE
  5
477
330
1E
100
AcDbEntity
  8
0
100
AcDbLine
 10
73.494539
 20
71.130785
 30
0.0
 11
73.71143899999999
 21
71.07958499999999
 31
0.0
  0
LINE
  5
478
330
1E
100
AcDbEntity
  8
0
100
AcDbLine
 10
73.71143899999999
 20
71.07958499999999
 30
0.0
 11
73.890039
 21
71.027985
 31
0.0
  0
LINE
  5
479
330
1E
100
AcDbEntity
  8
0
100
AcDbLine
 10
73.890039
 20
71.027985
 30
0.0
 11
74.017639
 21
70.97808499999999
 31
0.0
  0
LINE
  5
47A
330
1E
100
AcDbEntity
  8
0
100
AcDbLine
 10
74.017639
 20
70.97808499999999
 30
0.0
 11
74.077539
 21
70.935185
 31
0.0
  0
LINE
  5
47B
330
1E
100
AcDbEntity
  8
0
100
AcDbLine
 10
74.077539
 20
70.935185
 30
0.0
 11
74.13226242838309
 21
71.2837711039462
 31
0.0
  0
LINE
  5
47C
330
1E
100
AcDbEntity
  8
0
100
AcDbLine
 10
73.99863899999999
 20
70.88138499999999
 30
0.0
 11
74.06833899999999
 21
70.902985
 31
0.0
  0
LINE
  5
47D
330
1E
100
AcDbEntity
  8
0
100
AcDbLine
 10
72.471539
 20
69.82738499999999
 30
0.0
 11
72.55647573764459
 21
70.43334513627259
 31
0.0
  0
LINE
  5
47E
330
1E
100
AcDbEntity
  8
0
100
AcDbLine
 10
72.328739
 20
69.78718499999999
 30
0.0
 11
72.42963899999999
 21
69.80218499999999
 31
0.0
  0
LINE
  5
47F
330
1E
100
AcDbEntity
  8
0
100
AcDbLine
 10
79.97583900000001
 20
69.304185
 30
0.0
 11
80.162139
 21
69.30098499999999
 31
0.0
  0
LINE
  5
480
330
1E
100
AcDbEntity
  8
0
100
AcDbLine
 10
81.370439
 20
69.149985
 30
0.0
 11
81.546839
 21
69.10738499999999
 31
0.0
  0
LINE
  5
481
330
1E
100
AcDbEntity
  8
0
100
AcDbLine
 10
81.546839
 20
69.10738499999999
 30
0.0
 11
81.67363899999999
 21
69.06678499999999
 31
0.0
  0
LINE
  5
482
330
1E
100
AcDbEntity
  8
0
100
AcDbLine
 10
81.803039
 20
70.877685
 30
0.0
 11
81.89983899999999
 21
70.828685
 31
0.0
  0
LINE
  5
483
330
1E
100
AcDbEntity
  8
0
100
AcDbLine
 10
81.777239
 20
70.92078499999999
 30
0.0
 11
81.87596367633659
 21
71.72911645506109
 31
0.0
  0
LINE
  5
484
330
1E
100
AcDbEntity
  8
0
100
AcDbLine
 10
81.777239
 20
70.92078499999999
 30
0.0
 11
81.820239
 21
70.954285
 31
0.0
  0
LINE
  5
485
330
1E
100
AcDbEntity
  8
0
100
AcDbLine
 10
81.777239
 20
70.92078499999999
 30
0.0
 11
81.803039
 21
70.877685
 31
0.0
  0
LINE
  5
486
330
1E
100
AcDbEntity
  8
0
100
AcDbLine
 10
81.89983899999999
 20
70.828685
 30
0.0
 11
82.053439
 21
70.77898499999999
 31
0.0
  0
LINE
  5
487
330
1E
100
AcDbEntity
  8
0
100
AcDbLine
 10
81.820239
 20
70.954285
 30
0.0
 11
81.922239
 21
70.977985
 31
0.0
  0
LINE
  5
488
330
1E
100
AcDbEntity
  8
0
100
AcDbLine
 10
81.922239
 20
70.977985
 30
0.0
 11
82.085339
 21
70.98878499999999
 31
0.0
  0
LINE
  5
489
330
1E
100
AcDbEntity
  8
0
100
AcDbLine
 10
81.67363899999999
 20
69.06678499999999
 30
0.0
 11
81.739239
 21
69.030085
 31
0.0
  0
LINE
  5
48A
330
1E
100
AcDbEntity
  8
0
100
AcDbLine
 10
104.456700595504
 20
69.17248046218301
 30
0.0
 11
104.4768389999999
 21
68.70198499999999
 31
0.0
  0
LINE
  5
48B
330
1E
100
AcDbEntity
  8
0
100
AcDbLine
 10
106.4361251116729
 20
69.4061779266803
 30
0.0
 11
106.4608389999999
 21
68.828785
 31
0.0
  0
LINE
  5
48C
330
1E
100
AcDbEntity
  8
0
100
AcDbLine
 10
98.770939
 20
69.91488499999999
 30
0.0
 11
98.89663900000002
 21
69.85788499999999
 31
0.0
  0
LINE
  5
48D
330
1E
100
AcDbEntity
  8
0
100
AcDbLine
 10
98.70733900000001
 20
69.97898499999999
 30
0.0
 11
98.71835493411319
 21
70.75846284885559
 31
0.0
  0
LINE
  5
48E
330
1E
100
AcDbEntity
  8
0
100
AcDbLine
 10
98.70733900000001
 20
69.97898499999999
 30
0.0
 11
98.716839
 21
70.04388500000001
 31
0.0
  0
LINE
  5
48F
330
1E
100
AcDbEntity
  8
0
100
AcDbLine
 10
98.70733900000001
 20
69.97898499999999
 30
0.0
 11
98.770939
 21
69.91488499999999
 31
0.0
  0
LINE
  5
490
330
1E
100
AcDbEntity
  8
0
100
AcDbLine
 10
98.716839
 20
70.04388500000001
 30
0.0
 11
98.79363900000001
 21
70.103385
 31
0.0
  0
LINE
  5
491
330
1E
100
AcDbEntity
  8
0
100
AcDbLine
 10
99.072639
 20
69.80908499999999
 30
0.0
 11
99.293939
 21
69.773385
 31
0.0
  0
LINE
  5
492
330
1E
100
AcDbEntity
  8
0
100
AcDbLine
 10
99.293939
 20
69.773385
 30
0.0
 11
99.540839
 21
69.751285
 31
0.0
  0
LINE
  5
493
330
1E
100
AcDbEntity
  8
0
100
AcDbLine
 10
98.89663900000002
 20
69.85788499999999
 30
0.0
 11
99.072639
 21
69.80908499999999
 31
0.0
  0
LINE
  5
494
330
1E
100
AcDbEntity
  8
0
100
AcDbLine
 10
98.79363900000001
 20
70.103385
 30
0.0
 11
98.927139
 21
70.15588499999999
 31
0.0
  0
LINE
  5
495
330
1E
100
AcDbEntity
  8
0
100
AcDbLine
 10
82.251639
 20
70.730485
 30
0.0
 11
82.487139
 21
70.686785
 31
0.0
  0
LINE
  5
496
330
1E
100
AcDbEntity
  8
0
100
AcDbLine
 10
82.487139
 20
70.686785
 30
0.0
 11
82.74013899999999
 21
70.65008500000001
 31
0.0
  0
LINE
  5
497
330
1E
100
AcDbEntity
  8
0
100
AcDbLine
 10
82.74013899999999
 20
70.65008500000001
 30
0.0
 11
83.00253899999999
 21
70.622685
 31
0.0
  0
LINE
  5
498
330
1E
100
AcDbEntity
  8
0
100
AcDbLine
 10
83.00253899999999
 20
70.622685
 30
0.0
 11
83.24783899999999
 21
70.60818499999999
 31
0.0
  0
LINE
  5
499
330
1E
100
AcDbEntity
  8
0
100
AcDbLine
 10
83.24783899999999
 20
70.60818499999999
 30
0.0
 11
83.45343900000001
 21
70.607085
 31
0.0
  0
LINE
  5
49A
330
1E
100
AcDbEntity
  8
0
100
AcDbLine
 10
83.45343900000001
 20
70.607085
 30
0.0
 11
83.616439
 21
70.617885
 31
0.0
  0
LINE
  5
49B
330
1E
100
AcDbEntity
  8
0
100
AcDbLine
 10
82.053439
 20
70.77898499999999
 30
0.0
 11
82.251639
 21
70.730485
 31
0.0
  0
LINE
  5
49C
330
1E
100
AcDbEntity
  8
0
100
AcDbLine
 10
83.051639
 20
70.90908500000001
 30
0.0
 11
83.287139
 21
70.865385
 31
0.0
  0
LINE
  5
49D
330
1E
100
AcDbEntity
  8
0
100
AcDbLine
 10
82.798639
 20
70.945785
 30
0.0
 11
83.051639
 21
70.90908500000001
 31
0.0
  0
LINE
  5
49E
330
1E
100
AcDbEntity
  8
0
100
AcDbLine
 10
82.53613900000001
 20
70.973185
 30
0.0
 11
82.798639
 21
70.945785
 31
0.0
  0
LINE
  5
49F
330
1E
100
AcDbEntity
  8
0
100
AcDbLine
 10
82.290939
 20
70.987685
 30
0.0
 11
82.53613900000001
 21
70.973185
 31
0.0
  0
LINE
  5
4A0
330
1E
100
AcDbEntity
  8
0
100
AcDbLine
 10
82.085339
 20
70.98878499999999
 30
0.0
 11
82.290939
 21
70.987685
 31
0.0
  0
LINE
  5
4A1
330
1E
100
AcDbEntity
  8
0
100
AcDbLine
 10
83.287139
 20
70.865385
 30
0.0
 11
83.48533899999999
 21
70.816885
 31
0.0
  0
LINE
  5
4A2
330
1E
100
AcDbEntity
  8
0
100
AcDbLine
 10
83.48533899999999
 20
70.816885
 30
0.0
 11
83.638939
 21
70.767185
 31
0.0
  0
LINE
  5
4A3
330
1E
100
AcDbEntity
  8
0
100
AcDbLine
 10
83.638939
 20
70.767185
 30
0.0
 11
83.735639
 21
70.71818499999999
 31
0.0
  0
LINE
  5
4A4
330
1E
100
AcDbEntity
  8
0
100
AcDbLine
 10
83.735639
 20
70.71818499999999
 30
0.0
 11
83.761439
 21
70.67508499999999
 31
0.0
  0
LINE
  5
4A5
330
1E
100
AcDbEntity
  8
0
100
AcDbLine
 10
83.761439
 20
70.67508499999999
 30
0.0
 11
83.78600538851459
 21
70.87623831972329
 31
0.0
  0
LINE
  5
4A6
330
1E
100
AcDbEntity
  8
0
100
AcDbLine
 10
83.761439
 20
70.67508499999999
 30
0.0
 11
83.78600538851459
 21
70.87623831972329
 31
0.0
  0
LINE
  5
4A7
330
1E
100
AcDbEntity
  8
0
100
AcDbLine
 10
83.71853900000001
 20
70.641685
 30
0.0
 11
83.761439
 21
70.67508499999999
 31
0.0
  0
LINE
  5
4A8
330
1E
100
AcDbEntity
  8
0
100
AcDbLine
 10
83.616439
 20
70.617885
 30
0.0
 11
83.71853900000001
 21
70.641685
 31
0.0
  0
LINE
  5
4A9
330
1E
100
AcDbEntity
  8
0
100
AcDbLine
 10
91.852639
 20
71.385485
 30
0.0
 11
92.11803899999999
 21
71.37958499999999
 31
0.0
  0
LINE
  5
4AA
330
1E
100
AcDbEntity
  8
0
100
AcDbLine
 10
92.11803899999999
 20
71.37958499999999
 30
0.0
 11
92.375939
 21
71.39178499999999
 31
0.0
  0
LINE
  5
4AB
330
1E
100
AcDbEntity
  8
0
100
AcDbLine
 10
91.384539
 20
71.443285
 30
0.0
 11
91.605939
 21
71.407585
 31
0.0
  0
LINE
  5
4AC
330
1E
100
AcDbEntity
  8
0
100
AcDbLine
 10
91.605939
 20
71.407585
 30
0.0
 11
91.852639
 21
71.385485
 31
0.0
  0
LINE
  5
4AD
330
1E
100
AcDbEntity
  8
0
100
AcDbLine
 10
92.375939
 20
71.39178499999999
 30
0.0
 11
92.60173899999999
 21
71.419585
 31
0.0
  0
LINE
  5
4AE
330
1E
100
AcDbEntity
  8
0
100
AcDbLine
 10
92.60173899999999
 20
71.419585
 30
0.0
 11
92.791139
 21
71.460185
 31
0.0
  0
LINE
  5
4AF
330
1E
100
AcDbEntity
  8
0
100
AcDbLine
 10
91.08283900000001
 20
71.54908499999999
 30
0.0
 11
91.208539
 21
71.491985
 31
0.0
  0
LINE
  5
4B0
330
1E
100
AcDbEntity
  8
0
100
AcDbLine
 10
91.019239
 20
71.613185
 30
0.0
 11
91.02922332394779
 21
72.317061685005
 31
0.0
  0
LINE
  5
4B1
330
1E
100
AcDbEntity
  8
0
100
AcDbLine
 10
91.019239
 20
71.613185
 30
0.0
 11
91.028739
 21
71.67808499999999
 31
0.0
  0
LINE
  5
4B2
330
1E
100
AcDbEntity
  8
0
100
AcDbLine
 10
91.019239
 20
71.613185
 30
0.0
 11
91.08283900000001
 21
71.54908499999999
 31
0.0
  0
LINE
  5
4B3
330
1E
100
AcDbEntity
  8
0
100
AcDbLine
 10
91.028739
 20
71.67808499999999
 30
0.0
 11
91.105639
 21
71.73758499999999
 31
0.0
  0
LINE
  5
4B4
330
1E
100
AcDbEntity
  8
0
100
AcDbLine
 10
91.208539
 20
71.491985
 30
0.0
 11
91.384539
 21
71.443285
 31
0.0
  0
LINE
  5
4B5
330
1E
100
AcDbEntity
  8
0
100
AcDbLine
 10
91.105639
 20
71.73758499999999
 30
0.0
 11
91.239039
 21
71.79008499999999
 31
0.0
  0
LINE
  5
4B6
330
1E
100
AcDbEntity
  8
0
100
AcDbLine
 10
92.42433899999999
 20
71.842685
 30
0.0
 11
92.645639
 21
71.806985
 31
0.0
  0
LINE
  5
4B7
330
1E
100
AcDbEntity
  8
0
100
AcDbLine
 10
92.17753899999999
 20
71.86478499999999
 30
0.0
 11
92.42433899999999
 21
71.842685
 31
0.0
  0
LINE
  5
4B8
330
1E
100
AcDbEntity
  8
0
100
AcDbLine
 10
91.91213899999999
 20
71.87068499999999
 30
0.0
 11
92.17753899999999
 21
71.86478499999999
 31
0.0
  0
LINE
  5
4B9
330
1E
100
AcDbEntity
  8
0
100
AcDbLine
 10
91.654239
 20
71.858485
 30
0.0
 11
91.91213899999999
 21
71.87068499999999
 31
0.0
  0
LINE
  5
4BA
330
1E
100
AcDbEntity
  8
0
100
AcDbLine
 10
91.428439
 20
71.830685
 30
0.0
 11
91.654239
 21
71.858485
 31
0.0
  0
LINE
  5
4BB
330
1E
100
AcDbEntity
  8
0
100
AcDbLine
 10
91.239039
 20
71.79008499999999
 30
0.0
 11
91.428439
 21
71.830685
 31
0.0
  0
LINE
  5
4BC
330
1E
100
AcDbEntity
  8
0
100
AcDbLine
 10
92.645639
 20
71.806985
 30
0.0
 11
92.821639
 21
71.758285
 31
0.0
  0
LINE
  5
4BD
330
1E
100
AcDbEntity
  8
0
100
AcDbLine
 10
92.821639
 20
71.758285
 30
0.0
 11
92.947339
 21
71.701185
 31
0.0
  0
LINE
  5
4BE
330
1E
100
AcDbEntity
  8
0
100
AcDbLine
 10
92.947339
 20
71.701185
 30
0.0
 11
93.01093900000001
 21
71.637085
 31
0.0
  0
LINE
  5
4BF
330
1E
100
AcDbEntity
  8
0
100
AcDbLine
 10
93.01093900000001
 20
71.637085
 30
0.0
 11
93.02236794622221
 21
72.4428464885678
 31
0.0
  0
LINE
  5
4C0
330
1E
100
AcDbEntity
  8
0
100
AcDbLine
 10
93.001439
 20
71.572185
 30
0.0
 11
93.01093900000001
 21
71.637085
 31
0.0
  0
LINE
  5
4C1
330
1E
100
AcDbEntity
  8
0
100
AcDbLine
 10
92.92463899999999
 20
71.512685
 30
0.0
 11
93.001439
 21
71.572185
 31
0.0
  0
LINE
  5
4C2
330
1E
100
AcDbEntity
  8
0
100
AcDbLine
 10
92.791139
 20
71.460185
 30
0.0
 11
92.92463899999999
 21
71.512685
 31
0.0
  0
LINE
  5
4C3
330
1E
100
AcDbEntity
  8
0
100
AcDbLine
 10
99.342339
 20
70.22438499999999
 30
0.0
 11
99.59983900000001
 21
70.23658499999999
 31
0.0
  0
LINE
  5
4C4
330
1E
100
AcDbEntity
  8
0
100
AcDbLine
 10
99.11653900000001
 20
70.196585
 30
0.0
 11
99.342339
 21
70.22438499999999
 31
0.0
  0
LINE
  5
4C5
330
1E
100
AcDbEntity
  8
0
100
AcDbLine
 10
98.927139
 20
70.15588499999999
 30
0.0
 11
99.11653900000001
 21
70.196585
 31
0.0
  0
LINE
  5
4C6
330
1E
100
AcDbEntity
  8
0
100
AcDbLine
 10
99.540839
 20
69.751285
 30
0.0
 11
99.805839
 21
69.745385
 31
0.0
  0
LINE
  5
4C7
330
1E
100
AcDbEntity
  8
0
100
AcDbLine
 10
99.805839
 20
69.745385
 30
0.0
 11
100.0638389999999
 21
69.75758499999999
 31
0.0
  0
LINE
  5
4C8
330
1E
100
AcDbEntity
  8
0
100
AcDbLine
 10
100.0638389999999
 20
69.75758499999999
 30
0.0
 11
100.2898389999999
 21
69.78538499999999
 31
0.0
  0
LINE
  5
4C9
330
1E
100
AcDbEntity
  8
0
100
AcDbLine
 10
100.2898389999999
 20
69.78538499999999
 30
0.0
 11
100.478839
 21
69.825985
 31
0.0
  0
LINE
  5
4CA
330
1E
100
AcDbEntity
  8
0
100
AcDbLine
 10
110.7598389999999
 20
69.514685
 30
0.0
 11
116.7588389999999
 21
71.54968499999999
 31
0.0
  0
LINE
  5
4CD
330
1E
100
AcDbEntity
  8
0
100
AcDbLine
 10
100.689839
 20
69.937985
 30
0.0
 11
100.698839
 21
70.00298499999999
 31
0.0
  0
LINE
  5
4CE
330
1E
100
AcDbEntity
  8
0
100
AcDbLine
 10
100.612839
 20
69.878585
 30
0.0
 11
100.689839
 21
69.937985
 31
0.0
  0
LINE
  5
4CF
330
1E
100
AcDbEntity
  8
0
100
AcDbLine
 10
100.478839
 20
69.825985
 30
0.0
 11
100.612839
 21
69.878585
 31
0.0
  0
LINE
  5
4D0
330
1E
100
AcDbEntity
  8
0
100
AcDbLine
 10
100.112839
 20
70.208585
 30
0.0
 11
100.3338389999999
 21
70.17288499999999
 31
0.0
  0
LINE
  5
4D1
330
1E
100
AcDbEntity
  8
0
100
AcDbLine
 10
99.86583900000001
 20
70.23068499999999
 30
0.0
 11
100.112839
 21
70.208585
 31
0.0
  0
LINE
  5
4D2
330
1E
100
AcDbEntity
  8
0
100
AcDbLine
 10
99.59983900000001
 20
70.23658499999999
 30
0.0
 11
99.86583900000001
 21
70.23068499999999
 31
0.0
  0
LINE
  5
4D3
330
1E
100
AcDbEntity
  8
0
100
AcDbLine
 10
100.3338389999999
 20
70.17288499999999
 30
0.0
 11
100.509839
 21
70.12408499999999
 31
0.0
  0
LINE
  5
4D4
330
1E
100
AcDbEntity
  8
0
100
AcDbLine
 10
100.509839
 20
70.12408499999999
 30
0.0
 11
100.635839
 21
70.06708499999999
 31
0.0
  0
LINE
  5
4D5
330
1E
100
AcDbEntity
  8
0
100
AcDbLine
 10
100.635839
 20
70.06708499999999
 30
0.0
 11
100.698839
 21
70.00298499999999
 31
0.0
  0
LINE
  5
4D6
330
1E
100
AcDbEntity
  8
0
100
AcDbLine
 10
116.7588389999999
 20
71.54968499999999
 30
0.0
 11
119.7778389999999
 21
74.11668500000001
 31
0.0
  0
LINE
  5
4D9
330
1E
100
AcDbEntity
  8
0
100
AcDbLine
 10
100.698839
 20
70.00298499999999
 30
0.0
 11
100.707037200139
 21
70.57065180103009
 31
0.0
  0
LINE
  5
4DA
330
1E
100
AcDbEntity
  8
0
100
AcDbLine
 10
72.09963899999999
 20
73.24688499999999
 30
0.0
 11
72.311339
 21
73.239485
 31
0.0
  0
LINE
  5
4DB
330
1E
100
AcDbEntity
  8
0
100
AcDbLine
 10
72.311339
 20
73.239485
 30
0.0
 11
72.470539
 21
73.24828499999999
 31
0.0
  0
LINE
  5
4DC
330
1E
100
AcDbEntity
  8
0
100
AcDbLine
 10
71.347339
 20
73.354885
 30
0.0
 11
71.59953900000001
 21
73.30768499999999
 31
0.0
  0
LINE
  5
4DD
330
1E
100
AcDbEntity
  8
0
100
AcDbLine
 10
71.59953900000001
 20
73.30768499999999
 30
0.0
 11
71.853639
 21
73.270785
 31
0.0
  0
LINE
  5
4DE
330
1E
100
AcDbEntity
  8
0
100
AcDbLine
 10
71.853639
 20
73.270785
 30
0.0
 11
72.09963899999999
 21
73.24688499999999
 31
0.0
  0
LINE
  5
4DF
330
1E
100
AcDbEntity
  8
0
100
AcDbLine
 10
72.470539
 20
73.24828499999999
 30
0.0
 11
72.577639
 21
73.27098499999999
 31
0.0
  0
LINE
  5
4E1
330
1E
100
AcDbEntity
  8
0
100
AcDbLine
 10
72.594439
 20
73.355485
 30
0.0
 11
72.61663900000001
 21
73.30808499999999
 31
0.0
  0
LINE
  5
4E2
330
1E
100
AcDbEntity
  8
0
100
AcDbLine
 10
72.61663900000001
 20
73.30808499999999
 30
0.0
 11
72.76129702847931
 21
74.1830951455246
 31
0.0
  0
LINE
  5
4E3
330
1E
100
AcDbEntity
  8
0
100
AcDbLine
 10
72.577639
 20
73.27098499999999
 30
0.0
 11
72.61663900000001
 21
73.30808499999999
 31
0.0
  0
LINE
  5
4E4
330
1E
100
AcDbEntity
  8
0
100
AcDbLine
 10
70.47443900000001
 20
69.075385
 30
0.0
 11
70.61175033819191
 21
69.9366737567837
 31
0.0
  0
LINE
  5
4E5
330
1E
100
AcDbEntity
  8
0
100
AcDbLine
 10
70.00293899999999
 20
69.065085
 30
0.0
 11
70.30983899999999
 21
69.056885
 31
0.0
  0
LINE
  5
4E6
330
1E
100
AcDbEntity
  8
0
100
AcDbLine
 10
62.189739
 20
70.72588499999999
 30
0.0
 11
62.24343882514629
 21
70.9784802673063
 31
0.0
  0
LINE
  5
4E7
330
1E
100
AcDbEntity
  8
0
100
AcDbLine
 10
49.458339
 20
73.43198499999999
 30
0.0
 11
49.884539
 21
73.284385
 31
0.0
  0
LINE
  5
4E8
330
1E
100
AcDbEntity
  8
0
100
AcDbLine
 10
50.050139
 20
73.52898499999999
 30
0.0
 11
50.606539
 21
73.40268499999999
 31
0.0
  0
LINE
  5
4E9
330
1E
100
AcDbEntity
  8
0
100
AcDbLine
 10
54.914939
 20
73.38788499999999
 30
0.0
 11
55.019139
 21
73.39588499999999
 31
0.0
  0
LINE
  5
4EA
330
1E
100
AcDbEntity
  8
0
100
AcDbLine
 10
54.750139
 20
73.400085
 30
0.0
 11
54.914939
 21
73.38788499999999
 31
0.0
  0
LINE
  5
4EB
330
1E
100
AcDbEntity
  8
0
100
AcDbLine
 10
71.115739
 20
73.41058499999999
 30
0.0
 11
71.347339
 21
73.354885
 31
0.0
  0
LINE
  5
4EC
330
1E
100
AcDbEntity
  8
0
100
AcDbLine
 10
54.544639
 20
73.43008499999999
 30
0.0
 11
54.750139
 21
73.400085
 31
0.0
  0
LINE
  5
4ED
330
1E
100
AcDbEntity
  8
0
100
AcDbLine
 10
54.310739
 20
73.47468499999999
 30
0.0
 11
54.544639
 21
73.43008499999999
 31
0.0
  0
LINE
  5
4F0
330
1E
100
AcDbEntity
  8
0
100
AcDbLine
 10
55.056639
 20
73.42208499999999
 30
0.0
 11
55.2793145452812
 21
74.30978554063479
 31
0.0
  0
LINE
  5
4F1
330
1E
100
AcDbEntity
  8
0
100
AcDbLine
 10
54.06093900000001
 20
73.532985
 30
0.0
 11
54.310739
 21
73.47468499999999
 31
0.0
  0
LINE
  5
4F2
330
1E
100
AcDbEntity
  8
0
100
AcDbLine
 10
54.943039
 20
73.519085
 30
0.0
 11
55.033839
 21
73.463285
 31
0.0
  0
LINE
  5
4F3
330
1E
100
AcDbEntity
  8
0
100
AcDbLine
 10
70.916439
 20
73.46998499999999
 30
0.0
 11
71.115739
 21
73.41058499999999
 31
0.0
  0
LINE
  5
4F4
330
1E
100
AcDbEntity
  8
0
100
AcDbLine
 10
70.761739
 20
73.531285
 30
0.0
 11
70.916439
 21
73.46998499999999
 31
0.0
  0
LINE
  5
4F5
330
1E
100
AcDbEntity
  8
0
100
AcDbLine
 10
72.149839
 20
73.532985
 30
0.0
 11
72.34913900000001
 21
73.473585
 31
0.0
  0
LINE
  5
4F6
330
1E
100
AcDbEntity
  8
0
100
AcDbLine
 10
72.34913900000001
 20
73.473585
 30
0.0
 11
72.50373899999999
 21
73.412385
 31
0.0
  0
LINE
  5
4F7
330
1E
100
AcDbEntity
  8
0
100
AcDbLine
 10
72.50373899999999
 20
73.412385
 30
0.0
 11
72.594439
 21
73.355485
 31
0.0
  0
LINE
  5
4F8
330
1E
100
AcDbEntity
  8
0
100
AcDbLine
 10
50.606539
 20
73.40268499999999
 30
0.0
 11
51.214439
 21
73.25208499999999
 31
0.0
  0
LINE
  5
4F9
330
1E
100
AcDbEntity
  8
0
100
AcDbLine
 10
49.174639
 20
73.549385
 30
0.0
 11
49.458339
 21
73.43198499999999
 31
0.0
  0
LINE
  5
4FA
330
1E
100
AcDbEntity
  8
0
100
AcDbLine
 10
48.604539
 20
73.39078499999999
 30
0.0
 11
48.716239
 21
73.37498499999999
 31
0.0
  0
LINE
  5
4FB
330
1E
100
AcDbEntity
  8
0
100
AcDbLine
 10
48.716239
 20
73.37498499999999
 30
0.0
 11
48.9402430153816
 21
74.11897057780459
 31
0.0
  0
LINE
  5
4FC
330
1E
100
AcDbEntity
  8
0
100
AcDbLine
 10
48.329339
 20
73.45728499999999
 30
0.0
 11
48.604539
 21
73.39078499999999
 31
0.0
  0
LINE
  5
4FD
330
1E
100
AcDbEntity
  8
0
100
AcDbLine
 10
53.812839
 20
73.599385
 30
0.0
 11
54.06093900000001
 21
73.532985
 31
0.0
  0
LINE
  5
4FE
330
1E
100
AcDbEntity
  8
0
100
AcDbLine
 10
54.799139
 20
73.58378499999999
 30
0.0
 11
54.943039
 21
73.519085
 31
0.0
  0
LINE
  5
4FF
330
1E
100
AcDbEntity
  8
0
100
AcDbLine
 10
49.593639
 20
73.617985
 30
0.0
 11
50.050139
 21
73.52898499999999
 31
0.0
  0
LINE
  5
500
330
1E
100
AcDbEntity
  8
0
100
AcDbLine
 10
54.600939
 20
73.656085
 30
0.0
 11
54.799139
 21
73.58378499999999
 31
0.0
  0
LINE
  5
501
330
1E
100
AcDbEntity
  8
0
100
AcDbLine
 10
53.577139
 20
73.67218499999999
 30
0.0
 11
53.812839
 21
73.599385
 31
0.0
  0
LINE
  5
502
330
1E
100
AcDbEntity
  8
0
100
AcDbLine
 10
53.378939
 20
73.74448499999999
 30
0.0
 11
53.577139
 21
73.67218499999999
 31
0.0
  0
LINE
  5
503
330
1E
100
AcDbEntity
  8
0
100
AcDbLine
 10
53.234939
 20
73.809285
 30
0.0
 11
53.378939
 21
73.74448499999999
 31
0.0
  0
LINE
  5
504
330
1E
100
AcDbEntity
  8
0
100
AcDbLine
 10
53.144239
 20
73.864985
 30
0.0
 11
53.234939
 21
73.809285
 31
0.0
  0
LINE
  5
505
330
1E
100
AcDbEntity
  8
0
100
AcDbLine
 10
53.86723899999999
 20
73.85358499999999
 30
0.0
 11
54.117139
 21
73.79538499999999
 31
0.0
  0
LINE
  5
506
330
1E
100
AcDbEntity
  8
0
100
AcDbLine
 10
54.117139
 20
73.79538499999999
 30
0.0
 11
54.365139
 21
73.72898499999999
 31
0.0
  0
LINE
  5
507
330
1E
100
AcDbEntity
  8
0
100
AcDbLine
 10
54.365139
 20
73.72898499999999
 30
0.0
 11
54.600939
 21
73.656085
 31
0.0
  0
LINE
  5
508
330
1E
100
AcDbEntity
  8
0
100
AcDbLine
 10
49.251939
 20
73.669285
 30
0.0
 11
49.593639
 21
73.617985
 31
0.0
  0
LINE
  5
509
330
1E
100
AcDbEntity
  8
0
100
AcDbLine
 10
49.054339
 20
73.675585
 30
0.0
 11
49.251939
 21
73.669285
 31
0.0
  0
LINE
  5
50A
330
1E
100
AcDbEntity
  8
0
100
AcDbLine
 10
49.031739
 20
73.633185
 30
0.0
 11
49.174639
 21
73.549385
 31
0.0
  0
LINE
  5
50B
330
1E
100
AcDbEntity
  8
0
100
AcDbLine
 10
49.031739
 20
73.633185
 30
0.0
 11
49.2566669179245
 21
74.47584498406129
 31
0.0
  0
LINE
  5
50C
330
1E
100
AcDbEntity
  8
0
100
AcDbLine
 10
70.67113899999999
 20
73.58818499999999
 30
0.0
 11
70.761739
 21
73.531285
 31
0.0
  0
LINE
  5
50D
330
1E
100
AcDbEntity
  8
0
100
AcDbLine
 10
70.648939
 20
73.635485
 30
0.0
 11
70.75200956338379
 21
74.25894012111481
 31
0.0
  0
LINE
  5
50E
330
1E
100
AcDbEntity
  8
0
100
AcDbLine
 10
70.648939
 20
73.635485
 30
0.0
 11
70.687939
 21
73.672585
 31
0.0
  0
LINE
  5
50F
330
1E
100
AcDbEntity
  8
0
100
AcDbLine
 10
70.648939
 20
73.635485
 30
0.0
 11
70.67113899999999
 21
73.58818499999999
 31
0.0
  0
LINE
  5
510
330
1E
100
AcDbEntity
  8
0
100
AcDbLine
 10
71.666039
 20
73.635885
 30
0.0
 11
71.918239
 21
73.58868499999999
 31
0.0
  0
LINE
  5
511
330
1E
100
AcDbEntity
  8
0
100
AcDbLine
 10
71.41193900000001
 20
73.67288499999999
 30
0.0
 11
71.666039
 21
73.635885
 31
0.0
  0
LINE
  5
512
330
1E
100
AcDbEntity
  8
0
100
AcDbLine
 10
70.687939
 20
73.672585
 30
0.0
 11
70.795039
 21
73.695285
 31
0.0
  0
LINE
  5
513
330
1E
100
AcDbEntity
  8
0
100
AcDbLine
 10
71.918239
 20
73.58868499999999
 30
0.0
 11
72.149839
 21
73.532985
 31
0.0
  0
LINE
  5
514
330
1E
100
AcDbEntity
  8
0
100
AcDbLine
 10
71.16593899999999
 20
73.696685
 30
0.0
 11
71.41193900000001
 21
73.67288499999999
 31
0.0
  0
LINE
  5
515
330
1E
100
AcDbEntity
  8
0
100
AcDbLine
 10
70.954239
 20
73.70408499999999
 30
0.0
 11
71.16593899999999
 21
73.696685
 31
0.0
  0
LINE
  5
516
330
1E
100
AcDbEntity
  8
0
100
AcDbLine
 10
70.795039
 20
73.695285
 30
0.0
 11
70.954239
 21
73.70408499999999
 31
0.0
  0
LINE
  5
517
330
1E
100
AcDbEntity
  8
0
100
AcDbLine
 10
47.929939
 20
73.563585
 30
0.0
 11
48.329339
 21
73.45728499999999
 31
0.0
  0
LINE
  5
518
330
1E
100
AcDbEntity
  8
0
100
AcDbLine
 10
47.406239
 20
73.71048499999999
 30
0.0
 11
47.929939
 21
73.563585
 31
0.0
  0
LINE
  5
519
330
1E
100
AcDbEntity
  8
0
100
AcDbLine
 10
46.835639
 20
76.584485
 30
0.0
 11
47.052739
 21
76.50818499999999
 31
0.0
  0
LINE
  5
51A
330
1E
100
AcDbEntity
  8
0
100
AcDbLine
 10
46.666939
 20
76.654485
 30
0.0
 11
46.835639
 21
76.584485
 31
0.0
  0
LINE
  5
51B
330
1E
100
AcDbEntity
  8
0
100
AcDbLine
 10
46.546839
 20
76.716385
 30
0.0
 11
46.666939
 21
76.654485
 31
0.0
  0
LINE
  5
51C
330
1E
100
AcDbEntity
  8
0
100
AcDbLine
 10
47.298939
 20
76.43308499999999
 30
0.0
 11
47.548639
 21
76.36628499999999
 31
0.0
  0
LINE
  5
51D
330
1E
100
AcDbEntity
  8
0
100
AcDbLine
 10
47.052739
 20
76.50818499999999
 30
0.0
 11
47.298939
 21
76.43308499999999
 31
0.0
  0
LINE
  5
51E
330
1E
100
AcDbEntity
  8
0
100
AcDbLine
 10
47.108839
 20
76.73928499999999
 30
0.0
 11
47.352439
 21
76.68228499999999
 31
0.0
  0
LINE
  5
51F
330
1E
100
AcDbEntity
  8
0
100
AcDbLine
 10
47.352439
 20
76.68228499999999
 30
0.0
 11
47.602139
 21
76.61558499999999
 31
0.0
  0
LINE
  5
520
330
1E
100
AcDbEntity
  8
0
100
AcDbLine
 10
46.889839
 20
76.78068499999999
 30
0.0
 11
47.108839
 21
76.73928499999999
 31
0.0
  0
LINE
  5
521
330
1E
100
AcDbEntity
  8
0
100
AcDbLine
 10
46.70573899999999
 20
76.806185
 30
0.0
 11
46.889839
 21
76.78068499999999
 31
0.0
  0
LINE
  5
522
330
1E
100
AcDbEntity
  8
0
100
AcDbLine
 10
46.568839
 20
76.81248499999999
 30
0.0
 11
46.70573899999999
 21
76.806185
 31
0.0
  0
LINE
  5
523
330
1E
100
AcDbEntity
  8
0
100
AcDbLine
 10
46.496639
 20
76.797685
 30
0.0
 11
46.58843857628149
 21
77.1383930785595
 31
0.0
  0
LINE
  5
524
330
1E
100
AcDbEntity
  8
0
100
AcDbLine
 10
46.496639
 20
76.797685
 30
0.0
 11
46.568839
 21
76.81248499999999
 31
0.0
  0
LINE
  5
525
330
1E
100
AcDbEntity
  8
0
100
AcDbLine
 10
46.491939
 20
76.76448499999999
 30
0.0
 11
46.546839
 21
76.716385
 31
0.0
  0
LINE
  5
526
330
1E
100
AcDbEntity
  8
0
100
AcDbLine
 10
47.513239
 20
75.132485
 30
0.0
 11
47.6820756821602
 21
75.7205321629244
 31
0.0
  0
LINE
  5
527
330
1E
100
AcDbEntity
  8
0
100
AcDbLine
 10
47.77433900000001
 20
74.969985
 30
0.0
 11
47.964939
 21
74.895285
 31
0.0
  0
LINE
  5
528
330
1E
100
AcDbEntity
  8
0
100
AcDbLine
 10
47.627239
 20
75.03758499999999
 30
0.0
 11
47.77433900000001
 21
74.969985
 31
0.0
  0
LINE
  5
529
330
1E
100
AcDbEntity
  8
0
100
AcDbLine
 10
48.696539
 20
74.67318500000001
 30
0.0
 11
48.929739
 21
74.61848499999999
 31
0.0
  0
LINE
  5
52A
330
1E
100
AcDbEntity
  8
0
100
AcDbLine
 10
48.449539
 20
74.739385
 30
0.0
 11
48.696539
 21
74.67318500000001
 31
0.0
  0
LINE
  5
52B
330
1E
100
AcDbEntity
  8
0
100
AcDbLine
 10
48.929739
 20
74.61848499999999
 30
0.0
 11
49.130239
 21
74.580985
 31
0.0
  0
LINE
  5
52C
330
1E
100
AcDbEntity
  8
0
100
AcDbLine
 10
49.130239
 20
74.580985
 30
0.0
 11
49.289839
 21
74.560785
 31
0.0
  0
LINE
  5
52D
330
1E
100
AcDbEntity
  8
0
100
AcDbLine
 10
49.289839
 20
74.560785
 30
0.0
 11
49.396539
 21
74.560785
 31
0.0
  0
LINE
  5
52E
330
1E
100
AcDbEntity
  8
0
100
AcDbLine
 10
49.435539
 20
74.58268499999999
 30
0.0
 11
49.6269310204073
 21
75.2492909363812
 31
0.0
  0
LINE
  5
52F
330
1E
100
AcDbEntity
  8
0
100
AcDbLine
 10
49.321539
 20
74.677485
 30
0.0
 11
49.407539
 21
74.622785
 31
0.0
  0
LINE
  5
530
330
1E
100
AcDbEntity
  8
0
100
AcDbLine
 10
48.197039
 20
74.81578499999999
 30
0.0
 11
48.449539
 21
74.739385
 31
0.0
  0
LINE
  5
531
330
1E
100
AcDbEntity
  8
0
100
AcDbLine
 10
47.964939
 20
74.895285
 30
0.0
 11
48.197039
 21
74.81578499999999
 31
0.0
  0
LINE
  5
532
330
1E
100
AcDbEntity
  8
0
100
AcDbLine
 10
48.019039
 20
75.096685
 30
0.0
 11
48.25223900000001
 21
75.041985
 31
0.0
  0
LINE
  5
533
330
1E
100
AcDbEntity
  8
0
100
AcDbLine
 10
48.25223900000001
 20
75.041985
 30
0.0
 11
48.499239
 21
74.975785
 31
0.0
  0
LINE
  5
534
330
1E
100
AcDbEntity
  8
0
100
AcDbLine
 10
48.499239
 20
74.975785
 30
0.0
 11
48.751739
 21
74.899385
 31
0.0
  0
LINE
  5
535
330
1E
100
AcDbEntity
  8
0
100
AcDbLine
 10
48.751739
 20
74.899385
 30
0.0
 11
48.983839
 21
74.81988499999999
 31
0.0
  0
LINE
  5
536
330
1E
100
AcDbEntity
  8
0
100
AcDbLine
 10
48.983839
 20
74.81988499999999
 30
0.0
 11
49.174439
 21
74.74518499999999
 31
0.0
  0
LINE
  5
537
330
1E
100
AcDbEntity
  8
0
100
AcDbLine
 10
49.174439
 20
74.74518499999999
 30
0.0
 11
49.321539
 21
74.677485
 31
0.0
  0
LINE
  5
538
330
1E
100
AcDbEntity
  8
0
100
AcDbLine
 10
47.818539
 20
75.134185
 30
0.0
 11
48.019039
 21
75.096685
 31
0.0
  0
LINE
  5
539
330
1E
100
AcDbEntity
  8
0
100
AcDbLine
 10
47.548639
 20
76.36628499999999
 30
0.0
 11
47.792339
 21
76.30938499999999
 31
0.0
  0
LINE
  5
53A
330
1E
100
AcDbEntity
  8
0
100
AcDbLine
 10
47.602139
 20
76.61558499999999
 30
0.0
 11
47.848439
 21
76.540485
 31
0.0
  0
LINE
  5
53B
330
1E
100
AcDbEntity
  8
0
100
AcDbLine
 10
47.792339
 20
76.30938499999999
 30
0.0
 11
48.01133899999999
 21
76.26798499999999
 31
0.0
  0
LINE
  5
53C
330
1E
100
AcDbEntity
  8
0
100
AcDbLine
 10
48.01133899999999
 20
76.26798499999999
 30
0.0
 11
48.195439
 21
76.242485
 31
0.0
  0
LINE
  5
53D
330
1E
100
AcDbEntity
  8
0
100
AcDbLine
 10
48.195439
 20
76.242485
 30
0.0
 11
48.332339
 21
76.23618499999999
 31
0.0
  0
LINE
  5
53E
330
1E
100
AcDbEntity
  8
0
100
AcDbLine
 10
48.332339
 20
76.23618499999999
 30
0.0
 11
48.404439
 21
76.250985
 31
0.0
  0
LINE
  5
53F
330
1E
100
AcDbEntity
  8
0
100
AcDbLine
 10
48.404439
 20
76.250985
 30
0.0
 11
48.55567083711139
 21
76.8122719985503
 31
0.0
  0
LINE
  5
540
330
1E
100
AcDbEntity
  8
0
100
AcDbLine
 10
48.354239
 20
76.33218499999999
 30
0.0
 11
48.40923899999999
 21
76.284085
 31
0.0
  0
LINE
  5
541
330
1E
100
AcDbEntity
  8
0
100
AcDbLine
 10
47.848439
 20
76.540485
 30
0.0
 11
48.06543900000001
 21
76.464185
 31
0.0
  0
LINE
  5
542
330
1E
100
AcDbEntity
  8
0
100
AcDbLine
 10
48.06543900000001
 20
76.464185
 30
0.0
 11
48.234239
 21
76.39418499999999
 31
0.0
  0
LINE
  5
543
330
1E
100
AcDbEntity
  8
0
100
AcDbLine
 10
48.234239
 20
76.39418499999999
 30
0.0
 11
48.354239
 21
76.33218499999999
 31
0.0
  0
LINE
  5
544
330
1E
100
AcDbEntity
  8
0
100
AcDbLine
 10
47.658939
 20
75.15438499999999
 30
0.0
 11
47.818539
 21
75.134185
 31
0.0
  0
LINE
  5
545
330
1E
100
AcDbEntity
  8
0
100
AcDbLine
 10
47.55223899999999
 20
75.154285
 30
0.0
 11
47.658939
 21
75.15438499999999
 31
0.0
  0
LINE
  5
546
330
1E
100
AcDbEntity
  8
0
100
AcDbLine
 10
47.541239
 20
75.09238499999999
 30
0.0
 11
47.627239
 21
75.03758499999999
 31
0.0
  0
LINE
  5
547
330
1E
100
AcDbEntity
  8
0
100
AcDbLine
 10
49.725439
 20
77.95718499999999
 30
0.0
 11
49.975039
 21
77.897785
 31
0.0
  0
LINE
  5
548
330
1E
100
AcDbEntity
  8
0
100
AcDbLine
 10
49.478239
 20
78.026785
 30
0.0
 11
49.725439
 21
77.95718499999999
 31
0.0
  0
LINE
  5
549
330
1E
100
AcDbEntity
  8
0
100
AcDbLine
 10
49.975039
 20
77.897785
 30
0.0
 11
50.209239
 21
77.85438499999999
 31
0.0
  0
LINE
  5
54A
330
1E
100
AcDbEntity
  8
0
100
AcDbLine
 10
50.209239
 20
77.85438499999999
 30
0.0
 11
50.415539
 21
77.82758499999999
 31
0.0
  0
LINE
  5
54B
330
1E
100
AcDbEntity
  8
0
100
AcDbLine
 10
50.415539
 20
77.82758499999999
 30
0.0
 11
50.581639
 21
77.820685
 31
0.0
  0
LINE
  5
54C
330
1E
100
AcDbEntity
  8
0
100
AcDbLine
 10
50.581639
 20
77.820685
 30
0.0
 11
50.687639
 21
77.835785
 31
0.0
  0
LINE
  5
54D
330
1E
100
AcDbEntity
  8
0
100
AcDbLine
 10
49.243839
 20
78.104985
 30
0.0
 11
49.478239
 21
78.026785
 31
0.0
  0
LINE
  5
54E
330
1E
100
AcDbEntity
  8
0
100
AcDbLine
 10
49.047439
 20
78.18438499999999
 30
0.0
 11
49.243839
 21
78.104985
 31
0.0
  0
LINE
  5
54F
330
1E
100
AcDbEntity
  8
0
100
AcDbLine
 10
48.905539
 20
78.25718499999999
 30
0.0
 11
49.047439
 21
78.18438499999999
 31
0.0
  0
LINE
  5
550
330
1E
100
AcDbEntity
  8
0
100
AcDbLine
 10
48.816939
 20
78.32148499999999
 30
0.0
 11
48.905539
 21
78.25718499999999
 31
0.0
  0
LINE
  5
551
330
1E
100
AcDbEntity
  8
0
100
AcDbLine
 10
49.54853899999999
 20
78.343485
 30
0.0
 11
49.79813899999999
 21
78.283985
 31
0.0
  0
LINE
  5
552
330
1E
100
AcDbEntity
  8
0
100
AcDbLine
 10
49.79813899999999
 20
78.283985
 30
0.0
 11
50.045339
 21
78.21448499999999
 31
0.0
  0
LINE
  5
553
330
1E
100
AcDbEntity
  8
0
100
AcDbLine
 10
50.045339
 20
78.21448499999999
 30
0.0
 11
50.279739
 21
78.136185
 31
0.0
  0
LINE
  5
554
330
1E
100
AcDbEntity
  8
0
100
AcDbLine
 10
50.279739
 20
78.136185
 30
0.0
 11
50.476139
 21
78.05678499999999
 31
0.0
  0
LINE
  5
555
330
1E
100
AcDbEntity
  8
0
100
AcDbLine
 10
50.476139
 20
78.05678499999999
 30
0.0
 11
50.61803900000001
 21
77.98408499999999
 31
0.0
  0
LINE
  5
556
330
1E
100
AcDbEntity
  8
0
100
AcDbLine
 10
50.687639
 20
77.835785
 30
0.0
 11
50.727139
 21
77.869985
 31
0.0
  0
LINE
  5
557
330
1E
100
AcDbEntity
  8
0
100
AcDbLine
 10
50.706639
 20
77.919785
 30
0.0
 11
50.727139
 21
77.869985
 31
0.0
  0
LINE
  5
558
330
1E
100
AcDbEntity
  8
0
100
AcDbLine
 10
50.727139
 20
77.869985
 30
0.0
 11
50.886592644298
 21
78.48148571950971
 31
0.0
  0
LINE
  5
559
330
1E
100
AcDbEntity
  8
0
100
AcDbLine
 10
50.61803900000001
 20
77.98408499999999
 30
0.0
 11
50.706639
 21
77.919785
 31
0.0
  0
LINE
  5
55A
330
1E
100
AcDbEntity
  8
0
100
AcDbLine
 10
49.314339
 20
78.38688499999999
 30
0.0
 11
49.54853899999999
 21
78.343485
 31
0.0
  0
LINE
  5
55B
330
1E
100
AcDbEntity
  8
0
100
AcDbLine
 10
49.108139
 20
78.413685
 30
0.0
 11
49.314339
 21
78.38688499999999
 31
0.0
  0
LINE
  5
55C
330
1E
100
AcDbEntity
  8
0
100
AcDbLine
 10
49.787439
 20
97.577285
 30
0.0
 11
55.362839
 21
96.392185
 31
0.0
  0
LINE
  5
55D
330
1E
100
AcDbEntity
  8
0
100
AcDbLine
 10
48.941939
 20
78.420585
 30
0.0
 11
49.108139
 21
78.413685
 31
0.0
  0
LINE
  5
55E
330
1E
100
AcDbEntity
  8
0
100
AcDbLine
 10
48.83593900000001
 20
78.405485
 30
0.0
 11
48.941939
 21
78.420585
 31
0.0
  0
LINE
  5
55F
330
1E
100
AcDbEntity
  8
0
100
AcDbLine
 10
48.796439
 20
78.371285
 30
0.0
 11
48.816939
 21
78.32148499999999
 31
0.0
  0
LINE
  5
560
330
1E
100
AcDbEntity
  8
0
100
AcDbLine
 10
48.796439
 20
78.371285
 30
0.0
 11
49.0201747102322
 21
79.2294783284118
 31
0.0
  0
LINE
  5
561
330
1E
100
AcDbEntity
  8
0
100
AcDbLine
 10
48.796439
 20
78.371285
 30
0.0
 11
48.83593900000001
 21
78.405485
 31
0.0
  0
LINE
  5
562
330
1E
100
AcDbEntity
  8
0
100
AcDbLine
 10
53.633339
 20
73.898185
 30
0.0
 11
53.86723899999999
 21
73.85358499999999
 31
0.0
  0
LINE
  5
563
330
1E
100
AcDbEntity
  8
0
100
AcDbLine
 10
53.427939
 20
73.928185
 30
0.0
 11
53.633339
 21
73.898185
 31
0.0
  0
LINE
  5
564
330
1E
100
AcDbEntity
  8
0
100
AcDbLine
 10
53.263039
 20
73.940485
 30
0.0
 11
53.427939
 21
73.928185
 31
0.0
  0
LINE
  5
565
330
1E
100
AcDbEntity
  8
0
100
AcDbLine
 10
53.158939
 20
73.93238499999999
 30
0.0
 11
53.263039
 21
73.940485
 31
0.0
  0
LINE
  5
566
330
1E
100
AcDbEntity
  8
0
100
AcDbLine
 10
53.121439
 20
73.906285
 30
0.0
 11
53.2687444203507
 21
74.49349047282879
 31
0.0
  0
LINE
  5
567
330
1E
100
AcDbEntity
  8
0
100
AcDbLine
 10
56.712339
 20
74.432185
 30
0.0
 11
56.902239
 21
74.414585
 31
0.0
  0
LINE
  5
568
330
1E
100
AcDbEntity
  8
0
100
AcDbLine
 10
56.902239
 20
74.414585
 30
0.0
 11
57.036739
 21
74.416085
 31
0.0
  0
LINE
  5
569
330
1E
100
AcDbEntity
  8
0
100
AcDbLine
 10
57.036739
 20
74.416085
 30
0.0
 11
57.106439
 21
74.435485
 31
0.0
  0
LINE
  5
56A
330
1E
100
AcDbEntity
  8
0
100
AcDbLine
 10
79.776639
 20
74.12638499999999
 30
0.0
 11
80.03383900000001
 21
74.102085
 31
0.0
  0
LINE
  5
56B
330
1E
100
AcDbEntity
  8
0
100
AcDbLine
 10
80.03383900000001
 20
74.102085
 30
0.0
 11
80.29263900000001
 21
74.09758499999999
 31
0.0
  0
LINE
  5
56C
330
1E
100
AcDbEntity
  8
0
100
AcDbLine
 10
80.29263900000001
 20
74.09758499999999
 30
0.0
 11
80.52633900000001
 21
74.114885
 31
0.0
  0
LINE
  5
56D
330
1E
100
AcDbEntity
  8
0
100
AcDbLine
 10
80.52633900000001
 20
74.114885
 30
0.0
 11
80.713939
 21
74.150885
 31
0.0
  0
LINE
  5
56E
330
1E
100
AcDbEntity
  8
0
100
AcDbLine
 10
79.53013900000001
 20
74.167485
 30
0.0
 11
79.776639
 21
74.12638499999999
 31
0.0
  0
LINE
  5
56F
330
1E
100
AcDbEntity
  8
0
100
AcDbLine
 10
80.713939
 20
74.150885
 30
0.0
 11
80.854139
 21
74.20198499999999
 31
0.0
  0
LINE
  5
570
330
1E
100
AcDbEntity
  8
0
100
AcDbLine
 10
79.313939
 20
74.224785
 30
0.0
 11
79.53013900000001
 21
74.167485
 31
0.0
  0
LINE
  5
571
330
1E
100
AcDbEntity
  8
0
100
AcDbLine
 10
79.137439
 20
74.292585
 30
0.0
 11
79.313939
 21
74.224785
 31
0.0
  0
LINE
  5
572
330
1E
100
AcDbEntity
  8
0
100
AcDbLine
 10
79.01303900000001
 20
74.369585
 30
0.0
 11
79.137439
 21
74.292585
 31
0.0
  0
LINE
  5
573
330
1E
100
AcDbEntity
  8
0
100
AcDbLine
 10
56.488939
 20
74.465985
 30
0.0
 11
56.712339
 21
74.432185
 31
0.0
  0
LINE
  5
575
330
1E
100
AcDbEntity
  8
0
100
AcDbLine
 10
57.116439
 20
74.469785
 30
0.0
 11
57.2884849213642
 21
75.21200949017771
 31
0.0
  0
LINE
  5
576
330
1E
100
AcDbEntity
  8
0
100
AcDbLine
 10
78.95753899999999
 20
74.448385
 30
0.0
 11
79.03211419548441
 21
75.3157190488222
 31
0.0
  0
LINE
  5
577
330
1E
100
AcDbEntity
  8
0
100
AcDbLine
 10
78.95753899999999
 20
74.448385
 30
0.0
 11
78.97163899999999
 21
74.521185
 31
0.0
  0
LINE
  5
578
330
1E
100
AcDbEntity
  8
0
100
AcDbLine
 10
78.95753899999999
 20
74.448385
 30
0.0
 11
79.01303900000001
 21
74.369585
 31
0.0
  0
LINE
  5
579
330
1E
100
AcDbEntity
  8
0
100
AcDbLine
 10
119.7778389999999
 20
74.11668500000001
 30
0.0
 11
121.2898389999999
 21
76.756185
 31
0.0
  0
LINE
  5
57C
330
1E
100
AcDbEntity
  8
0
100
AcDbLine
 10
80.88773899999999
 20
74.418485
 30
0.0
 11
80.943239
 21
74.339685
 31
0.0
  0
LINE
  5
57D
330
1E
100
AcDbEntity
  8
0
100
AcDbLine
 10
80.943239
 20
74.339685
 30
0.0
 11
81.01601410336479
 21
75.1865991675546
 31
0.0
  0
LINE
  5
57E
330
1E
100
AcDbEntity
  8
0
100
AcDbLine
 10
80.929139
 20
74.266885
 30
0.0
 11
80.943239
 21
74.339685
 31
0.0
  0
LINE
  5
57F
330
1E
100
AcDbEntity
  8
0
100
AcDbLine
 10
80.854139
 20
74.20198499999999
 30
0.0
 11
80.929139
 21
74.266885
 31
0.0
  0
LINE
  5
580
330
1E
100
AcDbEntity
  8
0
100
AcDbLine
 10
55.992339
 20
74.571585
 30
0.0
 11
56.244139
 21
74.512885
 31
0.0
  0
LINE
  5
581
330
1E
100
AcDbEntity
  8
0
100
AcDbLine
 10
56.244139
 20
74.512885
 30
0.0
 11
56.488939
 21
74.465985
 31
0.0
  0
LINE
  5
582
330
1E
100
AcDbEntity
  8
0
100
AcDbLine
 10
55.750239
 20
74.636685
 30
0.0
 11
55.992339
 21
74.571585
 31
0.0
  0
LINE
  5
583
330
1E
100
AcDbEntity
  8
0
100
AcDbLine
 10
55.529039
 20
74.706485
 30
0.0
 11
55.750239
 21
74.636685
 31
0.0
  0
LINE
  5
584
330
1E
100
AcDbEntity
  8
0
100
AcDbLine
 10
55.353239
 20
74.77398499999999
 30
0.0
 11
55.529039
 21
74.706485
 31
0.0
  0
LINE
  5
585
330
1E
100
AcDbEntity
  8
0
100
AcDbLine
 10
55.236739
 20
74.832885
 30
0.0
 11
55.353239
 21
74.77398499999999
 31
0.0
  0
LINE
  5
586
330
1E
100
AcDbEntity
  8
0
100
AcDbLine
 10
56.049139
 20
74.838885
 30
0.0
 11
56.300939
 21
74.78028499999999
 31
0.0
  0
LINE
  5
587
330
1E
100
AcDbEntity
  8
0
100
AcDbLine
 10
56.300939
 20
74.78028499999999
 30
0.0
 11
56.543039
 21
74.71518499999999
 31
0.0
  0
LINE
  5
588
330
1E
100
AcDbEntity
  8
0
100
AcDbLine
 10
56.543039
 20
74.71518499999999
 30
0.0
 11
56.764239
 21
74.645385
 31
0.0
  0
LINE
  5
589
330
1E
100
AcDbEntity
  8
0
100
AcDbLine
 10
56.764239
 20
74.645385
 30
0.0
 11
56.940039
 21
74.57778499999999
 31
0.0
  0
LINE
  5
58A
330
1E
100
AcDbEntity
  8
0
100
AcDbLine
 10
56.940039
 20
74.57778499999999
 30
0.0
 11
57.056539
 21
74.51888499999999
 31
0.0
  0
LINE
  5
58D
330
1E
100
AcDbEntity
  8
0
100
AcDbLine
 10
57.056539
 20
74.51888499999999
 30
0.0
 11
57.116439
 21
74.469785
 31
0.0
  0
LINE
  5
58E
330
1E
100
AcDbEntity
  8
0
100
AcDbLine
 10
55.804439
 20
74.885785
 30
0.0
 11
56.049139
 21
74.838885
 31
0.0
  0
LINE
  5
58F
330
1E
100
AcDbEntity
  8
0
100
AcDbLine
 10
55.581039
 20
74.919685
 30
0.0
 11
55.804439
 21
74.885785
 31
0.0
  0
LINE
  5
590
330
1E
100
AcDbEntity
  8
0
100
AcDbLine
 10
55.391039
 20
74.937285
 30
0.0
 11
55.581039
 21
74.919685
 31
0.0
  0
LINE
  5
591
330
1E
100
AcDbEntity
  8
0
100
AcDbLine
 10
55.256539
 20
74.93568499999999
 30
0.0
 11
55.391039
 21
74.937285
 31
0.0
  0
LINE
  5
592
330
1E
100
AcDbEntity
  8
0
100
AcDbLine
 10
55.186839
 20
74.91638499999999
 30
0.0
 11
55.256539
 21
74.93568499999999
 31
0.0
  0
LINE
  5
593
330
1E
100
AcDbEntity
  8
0
100
AcDbLine
 10
55.176839
 20
74.882085
 30
0.0
 11
55.3488834067603
 21
75.62430295601458
 31
0.0
  0
LINE
  5
594
330
1E
100
AcDbEntity
  8
0
100
AcDbLine
 10
55.176839
 20
74.882085
 30
0.0
 11
55.236739
 21
74.832885
 31
0.0
  0
LINE
  5
595
330
1E
100
AcDbEntity
  8
0
100
AcDbLine
 10
61.266039
 20
75.725685
 30
0.0
 11
61.479139
 21
75.70878499999999
 31
0.0
  0
LINE
  5
596
330
1E
100
AcDbEntity
  8
0
100
AcDbLine
 10
61.479139
 20
75.70878499999999
 30
0.0
 11
61.643339
 21
75.711585
 31
0.0
  0
LINE
  5
597
330
1E
100
AcDbEntity
  8
0
100
AcDbLine
 10
61.643339
 20
75.711585
 30
0.0
 11
61.745839
 21
75.73238499999999
 31
0.0
  0
LINE
  5
598
330
1E
100
AcDbEntity
  8
0
100
AcDbLine
 10
60.776039
 20
75.80638499999999
 30
0.0
 11
61.027739
 21
75.75928499999999
 31
0.0
  0
LINE
  5
599
330
1E
100
AcDbEntity
  8
0
100
AcDbLine
 10
61.027739
 20
75.75928499999999
 30
0.0
 11
61.266039
 21
75.725685
 31
0.0
  0
LINE
  5
59A
330
1E
100
AcDbEntity
  8
0
100
AcDbLine
 10
61.745839
 20
75.73238499999999
 30
0.0
 11
61.790339
 21
75.768385
 31
0.0
  0
LINE
  5
59B
330
1E
100
AcDbEntity
  8
0
100
AcDbLine
 10
60.526939
 20
75.865685
 30
0.0
 11
60.776039
 21
75.80638499999999
 31
0.0
  0
LINE
  5
59C
330
1E
100
AcDbEntity
  8
0
100
AcDbLine
 10
60.295639
 20
75.93198499999999
 30
0.0
 11
60.526939
 21
75.865685
 31
0.0
  0
LINE
  5
59D
330
1E
100
AcDbEntity
  8
0
100
AcDbLine
 10
60.094039
 20
76.003185
 30
0.0
 11
60.295639
 21
75.93198499999999
 31
0.0
  0
LINE
  5
59E
330
1E
100
AcDbEntity
  8
0
100
AcDbLine
 10
59.945239
 20
76.072485
 30
0.0
 11
60.094039
 21
76.003185
 31
0.0
  0
LINE
  5
59F
330
1E
100
AcDbEntity
  8
0
100
AcDbLine
 10
59.860039
 20
76.133185
 30
0.0
 11
59.945239
 21
76.072485
 31
0.0
  0
LINE
  5
5A0
330
1E
100
AcDbEntity
  8
0
100
AcDbLine
 10
55.009739
 20
79.39078499999999
 30
0.0
 11
55.236939
 21
79.37278499999999
 31
0.0
  0
LINE
  5
5A1
330
1E
100
AcDbEntity
  8
0
100
AcDbLine
 10
55.236939
 20
79.37278499999999
 30
0.0
 11
55.43343899999999
 21
79.381585
 31
0.0
  0
LINE
  5
5A2
330
1E
100
AcDbEntity
  8
0
100
AcDbLine
 10
55.43343899999999
 20
79.381585
 30
0.0
 11
55.576439
 21
79.418185
 31
0.0
  0
LINE
  5
5A3
330
1E
100
AcDbEntity
  8
0
100
AcDbLine
 10
54.513139
 20
79.496285
 30
0.0
 11
54.76343899999999
 21
79.43178499999999
 31
0.0
  0
LINE
  5
5A4
330
1E
100
AcDbEntity
  8
0
100
AcDbLine
 10
54.274939
 20
79.577285
 30
0.0
 11
54.513139
 21
79.496285
 31
0.0
  0
LINE
  5
5A5
330
1E
100
AcDbEntity
  8
0
100
AcDbLine
 10
54.76343899999999
 20
79.43178499999999
 30
0.0
 11
55.009739
 21
79.39078499999999
 31
0.0
  0
LINE
  5
5A6
330
1E
100
AcDbEntity
  8
0
100
AcDbLine
 10
55.576439
 20
79.418185
 30
0.0
 11
55.655839
 21
79.477085
 31
0.0
  0
LINE
  5
5A7
330
1E
100
AcDbEntity
  8
0
100
AcDbLine
 10
55.655839
 20
79.477085
 30
0.0
 11
55.676039
 21
79.553685
 31
0.0
  0
LINE
  5
5A8
330
1E
100
AcDbEntity
  8
0
100
AcDbLine
 10
54.060139
 20
79.67348499999999
 30
0.0
 11
54.274939
 21
79.577285
 31
0.0
  0
LINE
  5
5A9
330
1E
100
AcDbEntity
  8
0
100
AcDbLine
 10
53.892939
 20
79.77598499999999
 30
0.0
 11
54.060139
 21
79.67348499999999
 31
0.0
  0
LINE
  5
5AA
330
1E
100
AcDbEntity
  8
0
100
AcDbLine
 10
53.786039
 20
79.87458499999999
 30
0.0
 11
53.892939
 21
79.77598499999999
 31
0.0
  0
LINE
  5
5AB
330
1E
100
AcDbEntity
  8
0
100
AcDbLine
 10
55.137639
 20
79.942385
 30
0.0
 11
55.35243900000001
 21
79.84618499999999
 31
0.0
  0
LINE
  5
5AC
330
1E
100
AcDbEntity
  8
0
100
AcDbLine
 10
55.35243900000001
 20
79.84618499999999
 30
0.0
 11
55.519739
 21
79.743585
 31
0.0
  0
LINE
  5
5AD
330
1E
100
AcDbEntity
  8
0
100
AcDbLine
 10
55.519739
 20
79.743585
 30
0.0
 11
55.626539
 21
79.64508499999999
 31
0.0
  0
LINE
  5
5AE
330
1E
100
AcDbEntity
  8
0
100
AcDbLine
 10
55.626539
 20
79.64508499999999
 30
0.0
 11
55.676039
 21
79.553685
 31
0.0
  0
LINE
  5
5AF
330
1E
100
AcDbEntity
  8
0
100
AcDbLine
 10
55.676039
 20
79.553685
 30
0.0
 11
55.88155304295789
 21
80.3524345624069
 31
0.0
  0
LINE
  5
5B0
330
1E
100
AcDbEntity
  8
0
100
AcDbLine
 10
54.64913899999999
 20
80.08788499999999
 30
0.0
 11
54.899439
 21
80.023285
 31
0.0
  0
LINE
  5
5B1
330
1E
100
AcDbEntity
  8
0
100
AcDbLine
 10
54.899439
 20
80.023285
 30
0.0
 11
55.137639
 21
79.942385
 31
0.0
  0
LINE
  5
5B2
330
1E
100
AcDbEntity
  8
0
100
AcDbLine
 10
54.402939
 20
80.128885
 30
0.0
 11
54.64913899999999
 21
80.08788499999999
 31
0.0
  0
LINE
  5
5B4
330
1E
100
AcDbEntity
  8
0
100
AcDbLine
 10
54.341239
 20
92.00878499999999
 30
0.0
 11
63.719639
 21
90.015385
 31
0.0
  0
LINE
  5
5B5
330
1E
100
AcDbEntity
  8
0
100
AcDbLine
 10
55.362839
 20
96.392185
 30
0.0
 11
58.395139
 21
95.74768500000001
 31
0.0
  0
LINE
  5
5B6
330
1E
100
AcDbEntity
  8
0
100
AcDbLine
 10
58.395139
 20
95.74768500000001
 30
0.0
 11
61.427339
 21
95.103185
 31
0.0
  0
LINE
  5
5B7
330
1E
100
AcDbEntity
  8
0
100
AcDbLine
 10
54.17563900000001
 20
80.146885
 30
0.0
 11
54.402939
 21
80.128885
 31
0.0
  0
LINE
  5
5B8
330
1E
100
AcDbEntity
  8
0
100
AcDbLine
 10
53.979239
 20
80.13808500000001
 30
0.0
 11
54.17563900000001
 21
80.146885
 31
0.0
  0
LINE
  5
5B9
330
1E
100
AcDbEntity
  8
0
100
AcDbLine
 10
53.836139
 20
80.10148499999999
 30
0.0
 11
53.979239
 21
80.13808500000001
 31
0.0
  0
LINE
  5
5BA
330
1E
100
AcDbEntity
  8
0
100
AcDbLine
 10
53.756839
 20
80.042485
 30
0.0
 11
53.836139
 21
80.10148499999999
 31
0.0
  0
LINE
  5
5BB
330
1E
100
AcDbEntity
  8
0
100
AcDbLine
 10
53.736539
 20
79.96598500000001
 30
0.0
 11
53.756839
 21
80.042485
 31
0.0
  0
LINE
  5
5BC
330
1E
100
AcDbEntity
  8
0
100
AcDbLine
 10
53.736539
 20
79.96598500000001
 30
0.0
 11
53.88158166326671
 21
80.5297068856051
 31
0.0
  0
LINE
  5
5BD
330
1E
100
AcDbEntity
  8
0
100
AcDbLine
 10
53.736539
 20
79.96598500000001
 30
0.0
 11
53.786039
 21
79.87458499999999
 31
0.0
  0
LINE
  5
5BE
330
1E
100
AcDbEntity
  8
0
100
AcDbLine
 10
60.596539
 20
76.193185
 30
0.0
 11
60.84823899999999
 21
76.146085
 31
0.0
  0
LINE
  5
5BF
330
1E
100
AcDbEntity
  8
0
100
AcDbLine
 10
60.358339
 20
76.22678499999999
 30
0.0
 11
60.596539
 21
76.193185
 31
0.0
  0
LINE
  5
5C4
330
1E
100
AcDbEntity
  8
0
100
AcDbLine
 10
60.145239
 20
76.243685
 30
0.0
 11
60.358339
 21
76.22678499999999
 31
0.0
  0
LINE
  5
5C5
330
1E
100
AcDbEntity
  8
0
100
AcDbLine
 10
59.981039
 20
76.24098499999999
 30
0.0
 11
60.145239
 21
76.243685
 31
0.0
  0
LINE
  5
5C6
330
1E
100
AcDbEntity
  8
0
100
AcDbLine
 10
59.878439
 20
76.220185
 30
0.0
 11
59.981039
 21
76.24098499999999
 31
0.0
  0
LINE
  5
5C7
330
1E
100
AcDbEntity
  8
0
100
AcDbLine
 10
59.834039
 20
76.184185
 30
0.0
 11
59.878439
 21
76.220185
 31
0.0
  0
LINE
  5
5C8
330
1E
100
AcDbEntity
  8
0
100
AcDbLine
 10
59.834039
 20
76.184185
 30
0.0
 11
59.860039
 21
76.133185
 31
0.0
  0
LINE
  5
5C9
330
1E
100
AcDbEntity
  8
0
100
AcDbLine
 10
60.84823899999999
 20
76.146085
 30
0.0
 11
61.097339
 21
76.08678499999999
 31
0.0
  0
LINE
  5
5CB
330
1E
100
AcDbEntity
  8
0
100
AcDbLine
 10
61.427339
 20
95.103185
 30
0.0
 11
64.65523899999999
 21
94.417085
 31
0.0
  0
LINE
  5
5CC
330
1E
100
AcDbEntity
  8
0
100
AcDbLine
 10
61.097339
 20
76.08678499999999
 30
0.0
 11
61.328639
 21
76.020585
 31
0.0
  0
LINE
  5
5CD
330
1E
100
AcDbEntity
  8
0
100
AcDbLine
 10
61.328639
 20
76.020585
 30
0.0
 11
61.530239
 21
75.949285
 31
0.0
  0
LINE
  5
5D0
330
1E
100
AcDbEntity
  8
0
100
AcDbLine
 10
61.530239
 20
75.949285
 30
0.0
 11
61.679139
 21
75.87998499999999
 31
0.0
  0
LINE
  5
5D1
330
1E
100
AcDbEntity
  8
0
100
AcDbLine
 10
61.679139
 20
75.87998499999999
 30
0.0
 11
61.764339
 21
75.819285
 31
0.0
  0
LINE
  5
5D2
330
1E
100
AcDbEntity
  8
0
100
AcDbLine
 10
78.97163899999999
 20
74.521185
 30
0.0
 11
79.046739
 21
74.586085
 31
0.0
  0
LINE
  5
5D3
330
1E
100
AcDbEntity
  8
0
100
AcDbLine
 10
79.046739
 20
74.586085
 30
0.0
 11
79.18683900000001
 21
74.637185
 31
0.0
  0
LINE
  5
5D4
330
1E
100
AcDbEntity
  8
0
100
AcDbLine
 10
68.102339
 20
76.63818499999999
 30
0.0
 11
68.337639
 21
76.638785
 31
0.0
  0
LINE
  5
5D5
330
1E
100
AcDbEntity
  8
0
100
AcDbLine
 10
67.596839
 20
76.70398500000001
 30
0.0
 11
67.851739
 21
76.661185
 31
0.0
  0
LINE
  5
5D6
330
1E
100
AcDbEntity
  8
0
100
AcDbLine
 10
67.851739
 20
76.661185
 30
0.0
 11
68.102339
 21
76.63818499999999
 31
0.0
  0
LINE
  5
5D7
330
1E
100
AcDbEntity
  8
0
100
AcDbLine
 10
68.337639
 20
76.638785
 30
0.0
 11
68.532139
 21
76.66438499999999
 31
0.0
  0
LINE
  5
5D8
330
1E
100
AcDbEntity
  8
0
100
AcDbLine
 10
68.532139
 20
76.66438499999999
 30
0.0
 11
68.669839
 21
76.710885
 31
0.0
  0
LINE
  5
5D9
330
1E
100
AcDbEntity
  8
0
100
AcDbLine
 10
68.669839
 20
76.710885
 30
0.0
 11
68.752239
 21
76.77428499999999
 31
0.0
  0
LINE
  5
5DA
330
1E
100
AcDbEntity
  8
0
100
AcDbLine
 10
67.355239
 20
76.76668499999999
 30
0.0
 11
67.596839
 21
76.70398500000001
 31
0.0
  0
LINE
  5
5DB
330
1E
100
AcDbEntity
  8
0
100
AcDbLine
 10
67.140339
 20
76.842685
 30
0.0
 11
67.355239
 21
76.76668499999999
 31
0.0
  0
LINE
  5
5DC
330
1E
100
AcDbEntity
  8
0
100
AcDbLine
 10
66.964439
 20
76.93058499999999
 30
0.0
 11
67.140339
 21
76.842685
 31
0.0
  0
LINE
  5
5DD
330
1E
100
AcDbEntity
  8
0
100
AcDbLine
 10
66.848639
 20
77.02218499999999
 30
0.0
 11
66.964439
 21
76.93058499999999
 31
0.0
  0
LINE
  5
5DE
330
1E
100
AcDbEntity
  8
0
100
AcDbLine
 10
66.80003899999999
 20
77.108385
 30
0.0
 11
66.812739
 21
77.186585
 31
0.0
  0
LINE
  5
5DF
330
1E
100
AcDbEntity
  8
0
100
AcDbLine
 10
66.80003899999999
 20
77.108385
 30
0.0
 11
66.848639
 21
77.02218499999999
 31
0.0
  0
LINE
  5
5E0
330
1E
100
AcDbEntity
  8
0
100
AcDbLine
 10
66.812739
 20
77.186585
 30
0.0
 11
66.9498360761611
 21
77.99976775221859
 31
0.0
  0
LINE
  5
5E1
330
1E
100
AcDbEntity
  8
0
100
AcDbLine
 10
66.812739
 20
77.186585
 30
0.0
 11
66.895139
 21
77.24988499999999
 31
0.0
  0
LINE
  5
5E9
330
1E
100
AcDbEntity
  8
0
100
AcDbLine
 10
63.719739
 20
90.015385
 30
0.0
 11
73.098139
 21
88.02188499999999
 31
0.0
  0
LINE
  5
5EB
330
1E
100
AcDbEntity
  8
0
100
AcDbLine
 10
63.719639
 20
90.015385
 30
0.0
 11
73.098039
 21
88.02198500000001
 31
0.0
  0
LINE
  5
5EC
330
1E
100
AcDbEntity
  8
0
100
AcDbLine
 10
64.65523899999999
 20
94.417085
 30
0.0
 11
67.883139
 21
93.73098500000001
 31
0.0
  0
LINE
  5
5ED
330
1E
100
AcDbEntity
  8
0
100
AcDbLine
 10
67.713239
 20
77.299685
 30
0.0
 11
67.968139
 21
77.256885
 31
0.0
  0
LINE
  5
5EE
330
1E
100
AcDbEntity
  8
0
100
AcDbLine
 10
67.883139
 20
93.73098500000001
 30
0.0
 11
70.91543900000001
 21
93.08638499999998
 31
0.0
  0
LINE
  5
5EF
330
1E
100
AcDbEntity
  8
0
100
AcDbLine
 10
67.46263899999999
 20
77.322585
 30
0.0
 11
67.713239
 21
77.299685
 31
0.0
  0
LINE
  5
5F0
330
1E
100
AcDbEntity
  8
0
100
AcDbLine
 10
67.227339
 20
77.322085
 30
0.0
 11
67.46263899999999
 21
77.322585
 31
0.0
  0
LINE
  5
5F1
330
1E
100
AcDbEntity
  8
0
100
AcDbLine
 10
67.03283899999999
 20
77.296485
 30
0.0
 11
67.227339
 21
77.322085
 31
0.0
  0
LINE
  5
5F2
330
1E
100
AcDbEntity
  8
0
100
AcDbLine
 10
66.895139
 20
77.24988499999999
 30
0.0
 11
67.03283899999999
 21
77.296485
 31
0.0
  0
LINE
  5
5F3
330
1E
100
AcDbEntity
  8
0
100
AcDbLine
 10
67.968139
 20
77.256885
 30
0.0
 11
68.209739
 21
77.194185
 31
0.0
  0
LINE
  5
5F4
330
1E
100
AcDbEntity
  8
0
100
AcDbLine
 10
68.209739
 20
77.194185
 30
0.0
 11
68.424639
 21
77.118085
 31
0.0
  0
LINE
  5
5F5
330
1E
100
AcDbEntity
  8
0
100
AcDbLine
 10
68.424639
 20
77.118085
 30
0.0
 11
68.600539
 21
77.030185
 31
0.0
  0
LINE
  5
5F6
330
1E
100
AcDbEntity
  8
0
100
AcDbLine
 10
68.600539
 20
77.030185
 30
0.0
 11
68.716339
 21
76.93858500000001
 31
0.0
  0
LINE
  5
5F7
330
1E
100
AcDbEntity
  8
0
100
AcDbLine
 10
73.098139
 20
88.02188499999999
 30
0.0
 11
81.43213900000001
 21
86.250485
 31
0.0
  0
LINE
  5
5F8
330
1E
100
AcDbEntity
  8
0
100
AcDbLine
 10
73.098139
 20
88.02188499999999
 30
0.0
 11
79.66063900019451
 21
86.6270190892315
 31
0.0
  0
LINE
  5
5FA
330
1E
100
AcDbEntity
  8
0
100
AcDbLine
 10
73.098039
 20
88.02198500000001
 30
0.0
 11
81.43203900000001
 21
86.250485
 31
0.0
  0
LINE
  5
5FB
330
1E
100
AcDbEntity
  8
0
100
AcDbLine
 10
73.098039
 20
88.02198500000001
 30
0.0
 11
79.66063900018579
 21
86.6270190892334
 31
0.0
  0
LINE
  5
5FD
330
1E
100
AcDbEntity
  8
0
100
AcDbLine
 10
68.716339
 20
76.93858500000001
 30
0.0
 11
68.764839
 21
76.852485
 31
0.0
  0
LINE
  5
5FE
330
1E
100
AcDbEntity
  8
0
100
AcDbLine
 10
68.752239
 20
76.77428499999999
 30
0.0
 11
68.764839
 21
76.852485
 31
0.0
  0
LINE
  5
5FF
330
1E
100
AcDbEntity
  8
0
100
AcDbLine
 10
68.752239
 20
76.77428499999999
 30
0.0
 11
68.8490188723108
 21
77.34814745827219
 31
0.0
  0
LINE
  5
600
330
1E
100
AcDbEntity
  8
0
100
AcDbLine
 10
80.124139
 20
74.66168499999999
 30
0.0
 11
80.37063899999999
 21
74.62058499999999
 31
0.0
  0
LINE
  5
602
330
1E
100
AcDbEntity
  8
0
100
AcDbLine
 10
79.866939
 20
74.685985
 30
0.0
 11
80.124139
 21
74.66168499999999
 31
0.0
  0
LINE
  5
603
330
1E
100
AcDbEntity
  8
0
100
AcDbLine
 10
79.60813900000001
 20
74.69048499999999
 30
0.0
 11
79.866939
 21
74.685985
 31
0.0
  0
LINE
  5
604
330
1E
100
AcDbEntity
  8
0
100
AcDbLine
 10
79.37443899999999
 20
74.67318500000001
 30
0.0
 11
79.60813900000001
 21
74.69048499999999
 31
0.0
  0
LINE
  5
605
330
1E
100
AcDbEntity
  8
0
100
AcDbLine
 10
79.18683900000001
 20
74.637185
 30
0.0
 11
79.37443899999999
 21
74.67318500000001
 31
0.0
  0
LINE
  5
606
330
1E
100
AcDbEntity
  8
0
100
AcDbLine
 10
80.37063899999999
 20
74.62058499999999
 30
0.0
 11
80.586839
 21
74.56328499999999
 31
0.0
  0
LINE
  5
609
330
1E
100
AcDbEntity
  8
0
100
AcDbLine
 10
116.4418389999999
 20
78.80888500000001
 30
0.0
 11
118.5828389999999
 21
78.35388499999999
 31
0.0
  0
LINE
  5
60A
330
1E
100
AcDbEntity
  8
0
100
AcDbLine
 10
113.9278389999999
 20
79.34328499999999
 30
0.0
 11
116.4418389999999
 21
78.80898499999999
 31
0.0
  0
LINE
  5
60B
330
1E
100
AcDbEntity
  8
0
100
AcDbLine
 10
113.9278389999999
 20
79.34328499999999
 30
0.0
 11
116.4418389999999
 21
78.80888500000001
 31
0.0
  0
LINE
  5
60C
330
1E
100
AcDbEntity
  8
0
100
AcDbLine
 10
116.4418389999999
 20
78.80898499999999
 30
0.0
 11
118.5828389999999
 21
78.35388499999999
 31
0.0
  0
LINE
  5
60D
330
1E
100
AcDbEntity
  8
0
100
AcDbLine
 10
81.43213900000001
 20
86.250485
 30
0.0
 11
87.698239
 21
84.91858499999999
 31
0.0
  0
LINE
  5
60F
330
1E
100
AcDbEntity
  8
0
100
AcDbLine
 10
81.43203900000001
 20
86.250485
 30
0.0
 11
87.698239
 21
84.91858499999999
 31
0.0
  0
LINE
  5
611
330
1E
100
AcDbEntity
  8
0
100
AcDbLine
 10
87.698239
 20
84.91858499999999
 30
0.0
 11
92.880239
 21
83.817085
 31
0.0
  0
LINE
  5
612
330
1E
100
AcDbEntity
  8
0
100
AcDbLine
 10
87.698239
 20
84.91858499999999
 30
0.0
 11
92.880339
 21
83.817085
 31
0.0
  0
LINE
  5
613
330
1E
100
AcDbEntity
  8
0
100
AcDbLine
 10
92.880339
 20
83.817085
 30
0.0
 11
98.63643899999999
 21
82.59358500000001
 31
0.0
  0
LINE
  5
615
330
1E
100
AcDbEntity
  8
0
100
AcDbLine
 10
92.880239
 20
83.817085
 30
0.0
 11
98.63633900000001
 21
82.59358500000001
 31
0.0
  0
LINE
  5
616
330
1E
100
AcDbEntity
  8
0
100
AcDbLine
 10
98.63643899999999
 20
82.59358500000001
 30
0.0
 11
104.1238389999999
 21
81.42718499999999
 31
0.0
  0
LINE
  5
618
330
1E
100
AcDbEntity
  8
0
100
AcDbLine
 10
98.63633900000001
 20
82.59358500000001
 30
0.0
 11
104.1238389999999
 21
81.42718499999999
 31
0.0
  0
LINE
  5
61A
330
1E
100
AcDbEntity
  8
0
100
AcDbLine
 10
110.9098389999999
 20
79.984785
 30
0.0
 11
113.9278389999999
 21
79.34328499999999
 31
0.0
  0
LINE
  5
61C
330
1E
100
AcDbEntity
  8
0
100
AcDbLine
 10
104.1238389999999
 20
81.42718499999999
 30
0.0
 11
107.6068389999999
 21
80.68698499999999
 31
0.0
  0
LINE
  5
620
330
1E
100
AcDbEntity
  8
0
100
AcDbLine
 10
107.6068389999999
 20
80.68698499999999
 30
0.0
 11
110.9098389999999
 21
79.984785
 31
0.0
  0
LINE
  5
622
330
1E
100
AcDbEntity
  8
0
100
AcDbLine
 10
103.6768389999999
 20
85.61148499999999
 30
0.0
 11
127.8598389999999
 21
78.65248499999999
 31
0.0
  0
LINE
  5
625
330
1E
100
AcDbEntity
  8
0
100
AcDbLine
 10
89.10893900000001
 20
89.21928499999999
 30
0.0
 11
103.6768389999999
 21
85.61148499999999
 31
0.0
  0
LINE
  5
627
330
1E
100
AcDbEntity
  8
0
100
AcDbLine
 10
88.815539
 20
89.28168499999999
 30
0.0
 11
89.10893900000001
 21
89.21928499999999
 31
0.0
  0
LINE
  5
62A
330
1E
100
AcDbEntity
  8
0
100
AcDbLine
 10
121.2898389999999
 20
76.756185
 30
0.0
 11
121.4968389999999
 21
77.73438500000001
 31
0.0
  0
LINE
  5
631
330
1E
100
AcDbEntity
  8
0
100
AcDbLine
 10
133.0068389999999
 20
77.00338499999999
 30
0.0
 11
138.2858389999999
 21
75.18918499999999
 31
0.0
  0
LINE
  5
632
330
1E
100
AcDbEntity
  8
0
100
AcDbLine
 10
132.8868389999999
 20
77.04308499999999
 30
0.0
 11
133.0068389999999
 21
77.00338499999999
 31
0.0
  0
LINE
  5
637
330
1E
100
AcDbEntity
  8
0
100
AcDbLine
 10
128.1398389999999
 20
78.564385
 30
0.0
 11
132.8868389999999
 21
77.04308499999999
 31
0.0
  0
LINE
  5
638
330
1E
100
AcDbEntity
  8
0
100
AcDbLine
 10
127.8598389999999
 20
78.65248499999999
 30
0.0
 11
128.1398389999999
 21
78.564385
 31
0.0
  0
LINE
  5
63D
330
1E
100
AcDbEntity
  8
0
100
AcDbLine
 10
120.2928389999999
 20
77.990385
 30
0.0
 11
121.4968389999999
 21
77.73438500000001
 31
0.0
  0
LINE
  5
63E
330
1E
100
AcDbEntity
  8
0
100
AcDbLine
 10
118.5828389999999
 20
78.35388499999999
 30
0.0
 11
120.2928389999999
 21
77.990385
 31
0.0
  0
LINE
  5
63F
330
1E
100
AcDbEntity
  8
0
100
AcDbLine
 10
138.2858389999999
 20
75.18918499999999
 30
0.0
 11
146.8978389999999
 21
71.351685
 31
0.0
  0
LINE
  5
640
330
1E
100
AcDbEntity
  8
0
100
AcDbLine
 10
80.586839
 20
74.56328499999999
 30
0.0
 11
80.76343900000001
 21
74.495485
 31
0.0
  0
LINE
  5
641
330
1E
100
AcDbEntity
  8
0
100
AcDbLine
 10
80.76343900000001
 20
74.495485
 30
0.0
 11
80.88773899999999
 21
74.418485
 31
0.0
  0
LINE
  5
642
330
1E
100
AcDbEntity
  8
0
100
AcDbLine
 10
61.764339
 20
75.819285
 30
0.0
 11
61.790339
 21
75.768385
 31
0.0
  0
LINE
  5
643
330
1E
100
AcDbEntity
  8
0
100
AcDbLine
 10
46.803739
 20
73.885785
 30
0.0
 11
47.406239
 21
73.71048499999999
 31
0.0
  0
LINE
  5
648
330
1E
100
AcDbEntity
  8
0
100
AcDbLine
 10
146.8978389999999
 20
71.351685
 30
0.0
 11
157.2418389999999
 21
66.086285
 31
0.0
  0
LINE
  5
649
330
1E
100
AcDbEntity
  8
0
100
AcDbLine
 10
132.5008389999999
 20
62.15408499999999
 30
0.0
 11
130.569067927947
 21
63.0479947930312
 31
0.0
  0
LINE
  5
64A
330
1E
100
AcDbEntity
  8
0
100
AcDbLine
 10
88.815539
 20
89.28168499999999
 30
0.0
 11
70.91543900000001
 21
93.08638499999998
 31
0.0
  0
ENDSEC
  0
SECTION
  2
OBJECTS
  0
DICTIONARY
  5
C
330
0
100
AcDbDictionary
281
     1
  3
ACAD_GROUP
350
D
  3
ACAD_LAYOUT
350
19
  3
ACAD_MLINESTYLE
350
16
  3
ACAD_PLOTSETTINGS
350
18
  3
ACAD_PLOTSTYLENAME
350
E
  3
AcDbVariableDictionary
350
64B
  0
DICTIONARY
  5
D
102
{ACAD_REACTORS
330
C
102
}
330
C
100
AcDbDictionary
281
     1
  0
DICTIONARY
  5
19
102
{ACAD_REACTORS
330
C
102
}
330
C
100
AcDbDictionary
281
     1
  3
Layout1
350
1D
  3
Model
350
21
  0
DICTIONARY
  5
16
102
{ACAD_REACTORS
330
C
102
}
330
C
100
AcDbDictionary
281
     1
  3
Standard
350
17
  0
DICTIONARY
  5
18
102
{ACAD_REACTORS
330
C
102
}
330
C
100
AcDbDictionary
281
     1
  0
ACDBDICTIONARYWDFLT
  5
E
102
{ACAD_REACTORS
330
C
102
}
330
C
100
AcDbDictionary
281
     1
  3
Normal
350
F
100
AcDbDictionaryWithDefault
340
F
  0
DICTIONARY
  5
64B
102
{ACAD_REACTORS
330
C
102
}
330
C
100
AcDbDictionary
281
     1
  3
DIMASSOC
350
64C
  0
LAYOUT
  5
1D
102
{ACAD_REACTORS
330
19
102
}
330
19
100
AcDbPlotSettings
  1

  2
hp deskjet 980c series
  4

  6

 40
0.0
 41
0.0
 42
0.0
 43
0.0
 44
0.0
 45
0.0
 46
0.0
 47
0.0
 48
0.0
 49
0.0
140
0.0
141
0.0
142
1.0
143
1.0
 70
   688
 72
     0
 73
     0
 74
     5
  7

 75
    16
147
1.0
148
0.0
149
0.0
100
AcDbLayout
  1
Layout1
 70
     1
 71
     1
 10
0.0
 20
0.0
 11
12.0
 21
9.0
 12
0.0
 22
0.0
 32
0.0
 14
1.000000000000000E+20
 24
1.000000000000000E+20
 34
1.000000000000000E+20
 15
-1.000000000000000E+20
 25
-1.000000000000000E+20
 35
-1.000000000000000E+20
146
0.0
 13
0.0
 23
0.0
 33
0.0
 16
1.0
 26
0.0
 36
0.0
 17
0.0
 27
1.0
 37
0.0
 76
     0
330
1A
  0
LAYOUT
  5
21
102
{ACAD_REACTORS
330
19
102
}
330
19
100
AcDbPlotSettings
  1

  2
hp deskjet 980c series
  4

  6

 40
0.0
 41
0.0
 42
0.0
 43
0.0
 44
0.0
 45
0.0
 46
0.0
 47
0.0
 48
0.0
 49
0.0
140
0.0
141
0.0
142
1.0
143
1.0
 70
  1712
 72
     0
 73
     0
 74
     0
  7

 75
     0
147
1.0
148
0.0
149
0.0
100
AcDbLayout
  1
Model
 70
     1
 71
     0
 10
0.0
 20
0.0
 11
12.0
 21
9.0
 12
0.0
 22
0.0
 32
0.0
 14
0.0
 24
0.0
 34
0.0
 15
0.0
 25
0.0
 35
0.0
146
0.0
 13
0.0
 23
0.0
 33
0.0
 16
1.0
 26
0.0
 36
0.0
 17
0.0
 27
1.0
 37
0.0
 76
     0
330
1E
  0
MLINESTYLE
  5
17
102
{ACAD_REACTORS
330
16
102
}
330
16
100
AcDbMlineStyle
  2
STANDARD
 70
     0
  3

 62
   256
 51
90.0
 52
90.0
 71
     2
 49
0.5
 62
   256
  6
BYLAYER
 49
-0.5
 62
   256
  6
BYLAYER
  0
ACDBPLACEHOLDER
  5
F
102
{ACAD_REACTORS
330
E
102
}
330
E
  0
DICTIONARYVAR
  5
64C
102
{ACAD_REACTORS
330
64B
102
}
330
64B
100
DictionaryVariables
280
     0
  1
1
  0
ENDSEC
  0
EOF
