  0
SECTION
  2
HEADER
  9
$ACADVER
  1
AC1015
  9
$ACADMAINTVER
 70
    13
  9
$DWGCODEPAGE
  3
ANSI_1252
  9
$INSBASE
 10
0.0
 20
0.0
 30
0.0
  9
$EXTMIN
 10
0.0000000000000062
 20
0.168999999999998
 30
0.0
  9
$EXTMAX
 10
27.99999999999999
 20
134.831
 30
0.0
  9
$LIMMIN
 10
0.0
 20
0.0
  9
$LIMMAX
 10
12.0
 20
9.0
  9
$ORTHOMODE
 70
     0
  9
$REGENMODE
 70
     1
  9
$FILLMODE
 70
     1
  9
$QTEXTMODE
 70
     0
  9
$MIRRTEXT
 70
     1
  9
$LTSCALE
 40
1.0
  9
$ATTMODE
 70
     1
  9
$TEXTSIZE
 40
0.2
  9
$TRACEWID
 40
0.05
  9
$TEXTSTYLE
  7
Standard
  9
$CLAYER
  8
0
  9
$CELTYPE
  6
Continuous
  9
$CECOLOR
 62
   256
  9
$CELTSCALE
 40
1.0
  9
$DISPSILH
 70
     0
  9
$DIMSCALE
 40
1.0
  9
$DIMASZ
 40
0.18
  9
$DIMEXO
 40
0.0625
  9
$DIMDLI
 40
0.38
  9
$DIMRND
 40
0.0
  9
$DIMDLE
 40
0.0
  9
$DIMEXE
 40
0.18
  9
$DIMTP
 40
0.0
  9
$DIMTM
 40
0.0
  9
$DIMTXT
 40
0.18
  9
$DIMCEN
 40
0.09
  9
$DIMTSZ
 40
0.0
  9
$DIMTOL
 70
     0
  9
$DIMLIM
 70
     0
  9
$DIMTIH
 70
     1
  9
$DIMTOH
 70
     1
  9
$DIMSE1
 70
     0
  9
$DIMSE2
 70
     0
  9
$DIMTAD
 70
     0
  9
$DIMZIN
 70
     0
  9
$DIMBLK
  1

  9
$DIMASO
 70
     1
  9
$DIMSHO
 70
     1
  9
$DIMPOST
  1

  9
$DIMAPOST
  1

  9
$DIMALT
 70
     0
  9
$DIMALTD
 70
     2
  9
$DIMALTF
 40
25.4
  9
$DIMLFAC
 40
1.0
  9
$DIMTOFL
 70
     0
  9
$DIMTVP
 40
0.0
  9
$DIMTIX
 70
     0
  9
$DIMSOXD
 70
     0
  9
$DIMSAH
 70
     0
  9
$DIMBLK1
  1

  9
$DIMBLK2
  1

  9
$DIMSTYLE
  2
Standard
  9
$DIMCLRD
 70
     0
  9
$DIMCLRE
 70
     0
  9
$DIMCLRT
 70
     0
  9
$DIMTFAC
 40
1.0
  9
$DIMGAP
 40
0.09
  9
$DIMJUST
 70
     0
  9
$DIMSD1
 70
     0
  9
$DIMSD2
 70
     0
  9
$DIMTOLJ
 70
     1
  9
$DIMTZIN
 70
     0
  9
$DIMALTZ
 70
     0
  9
$DIMALTTZ
 70
     0
  9
$DIMUPT
 70
     0
  9
$DIMDEC
 70
     4
  9
$DIMTDEC
 70
     4
  9
$DIMALTU
 70
     2
  9
$DIMALTTD
 70
     2
  9
$DIMTXSTY
  7
Standard
  9
$DIMAUNIT
 70
     0
  9
$DIMADEC
 70
     0
  9
$DIMALTRND
 40
0.0
  9
$DIMAZIN
 70
     0
  9
$DIMDSEP
 70
    46
  9
$DIMATFIT
 70
     3
  9
$DIMFRAC
 70
     0
  9
$DIMLDRBLK
  1

  9
$DIMLUNIT
 70
     2
  9
$DIMLWD
 70
    -2
  9
$DIMLWE
 70
    -2
  9
$DIMTMOVE
 70
     0
  9
$LUNITS
 70
     2
  9
$LUPREC
 70
     4
  9
$SKETCHINC
 40
0.1
  9
$FILLETRAD
 40
0.0
  9
$AUNITS
 70
     0
  9
$AUPREC
 70
     0
  9
$MENU
  1
.
  9
$ELEVATION
 40
0.0
  9
$PELEVATION
 40
0.0
  9
$THICKNESS
 40
0.0
  9
$LIMCHECK
 70
     0
  9
$CHAMFERA
 40
0.0
  9
$CHAMFERB
 40
0.0
  9
$CHAMFERC
 40
0.0
  9
$CHAMFERD
 40
0.0
  9
$SKPOLY
 70
     0
  9
$TDCREATE
 40
2454907.854246597
  9
$TDUCREATE
 40
2454907.812579930
  9
$TDUPDATE
 40
2454907.859041701
  9
$TDUUPDATE
 40
2454907.817375034
  9
$TDINDWG
 40
0.0047951042
  9
$TDUSRTIMER
 40
0.0047951042
  9
$USRTIMER
 70
     1
  9
$ANGBASE
 50
0.0
  9
$ANGDIR
 70
     0
  9
$PDMODE
 70
     0
  9
$PDSIZE
 40
0.0
  9
$PLINEWID
 40
0.0
  9
$SPLFRAME
 70
     0
  9
$SPLINETYPE
 70
     6
  9
$SPLINESEGS
 70
     8
  9
$HANDSEED
  5
407
  9
$SURFTAB1
 70
     6
  9
$SURFTAB2
 70
     6
  9
$SURFTYPE
 70
     6
  9
$SURFU
 70
     6
  9
$SURFV
 70
     6
  9
$UCSBASE
  2

  9
$UCSNAME
  2

  9
$UCSORG
 10
0.0
 20
0.0
 30
0.0
  9
$UCSXDIR
 10
1.0
 20
0.0
 30
0.0
  9
$UCSYDIR
 10
0.0
 20
1.0
 30
0.0
  9
$UCSORTHOREF
  2

  9
$UCSORTHOVIEW
 70
     1
  9
$UCSORGTOP
 10
0.0
 20
0.0
 30
0.0
  9
$UCSORGBOTTOM
 10
0.0
 20
0.0
 30
0.0
  9
$UCSORGLEFT
 10
0.0
 20
0.0
 30
0.0
  9
$UCSORGRIGHT
 10
0.0
 20
0.0
 30
0.0
  9
$UCSORGFRONT
 10
0.0
 20
0.0
 30
0.0
  9
$UCSORGBACK
 10
0.0
 20
0.0
 30
0.0
  9
$PUCSBASE
  2

  9
$PUCSNAME
  2

  9
$PUCSORG
 10
0.0
 20
0.0
 30
0.0
  9
$PUCSXDIR
 10
1.0
 20
0.0
 30
0.0
  9
$PUCSYDIR
 10
0.0
 20
1.0
 30
0.0
  9
$PUCSORTHOREF
  2

  9
$PUCSORTHOVIEW
 70
     0
  9
$PUCSORGTOP
 10
0.0
 20
0.0
 30
0.0
  9
$PUCSORGBOTTOM
 10
0.0
 20
0.0
 30
0.0
  9
$PUCSORGLEFT
 10
0.0
 20
0.0
 30
0.0
  9
$PUCSORGRIGHT
 10
0.0
 20
0.0
 30
0.0
  9
$PUCSORGFRONT
 10
0.0
 20
0.0
 30
0.0
  9
$PUCSORGBACK
 10
0.0
 20
0.0
 30
0.0
  9
$USERI1
 70
     0
  9
$USERI2
 70
     0
  9
$USERI3
 70
     0
  9
$USERI4
 70
     0
  9
$USERI5
 70
     0
  9
$USERR1
 40
0.0
  9
$USERR2
 40
0.0
  9
$USERR3
 40
0.0
  9
$USERR4
 40
0.0
  9
$USERR5
 40
0.0
  9
$WORLDVIEW
 70
     1
  9
$SHADEDGE
 70
     3
  9
$SHADEDIF
 70
    70
  9
$TILEMODE
 70
     1
  9
$MAXACTVP
 70
    64
  9
$PINSBASE
 10
0.0
 20
0.0
 30
0.0
  9
$PLIMCHECK
 70
     0
  9
$PEXTMIN
 10
1.000000000000000E+20
 20
1.000000000000000E+20
 30
1.000000000000000E+20
  9
$PEXTMAX
 10
-1.000000000000000E+20
 20
-1.000000000000000E+20
 30
-1.000000000000000E+20
  9
$PLIMMIN
 10
0.0
 20
0.0
  9
$PLIMMAX
 10
12.0
 20
9.0
  9
$UNITMODE
 70
     0
  9
$VISRETAIN
 70
     1
  9
$PLINEGEN
 70
     0
  9
$PSLTSCALE
 70
     1
  9
$TREEDEPTH
 70
  3020
  9
$CMLSTYLE
  2
Standard
  9
$CMLJUST
 70
     0
  9
$CMLSCALE
 40
1.0
  9
$PROXYGRAPHICS
 70
     1
  9
$MEASUREMENT
 70
     0
  9
$CELWEIGHT
370
    -1
  9
$ENDCAPS
280
     0
  9
$JOINSTYLE
280
     0
  9
$LWDISPLAY
290
     0
  9
$INSUNITS
 70
     0
  9
$HYPERLINKBASE
  1

  9
$STYLESHEET
  1

  9
$XEDIT
290
     1
  9
$CEPSNTYPE
380
     0
  9
$PSTYLEMODE
290
     1
  9
$FINGERPRINTGUID
  2
{5F4CFC1F-8879-4951-B7E2-3AE7A0B04F1B}
  9
$VERSIONGUID
  2
{DFE86BA9-9DE4-496A-B49E-D1BE10A75972}
  9
$EXTNAMES
290
     1
  9
$PSVPSCALE
 40
0.0
  9
$OLESTARTUP
290
     0
  0
ENDSEC
  0
SECTION
  2
CLASSES
  0
CLASS
  1
ACDBDICTIONARYWDFLT
  2
AcDbDictionaryWithDefault
  3
AutoCAD 2000
 90
        0
280
     0
281
     0
  0
CLASS
  1
ACDBPLACEHOLDER
  2
AcDbPlaceHolder
  3
AutoCAD 2000
 90
        0
280
     0
281
     0
  0
CLASS
  1
LAYOUT
  2
AcDbLayout
  3
AutoCAD 2000
 90
        0
280
     0
281
     0
  0
CLASS
  1
DICTIONARYVAR
  2
AcDbDictionaryVar
  3
AutoCAD 2000
 90
        0
280
     0
281
     0
  0
ENDSEC
  0
SECTION
  2
TABLES
  0
TABLE
  2
VPORT
  5
8
330
0
100
AcDbSymbolTable
 70
     2
  0
VPORT
  5
406
330
8
100
AcDbSymbolTableRecord
100
AcDbViewportTableRecord
  2
*Active
 70
     0
 10
0.0
 20
0.0
 11
1.0
 21
1.0
 12
14.0
 22
67.5
 13
0.0
 23
0.0
 14
1.0
 24
1.0
 15
0.0
 25
0.0
 16
0.0
 26
0.0
 36
1.0
 17
0.0
 27
0.0
 37
0.0
 40
135.5124968421052
 41
1.968387776606954
 42
50.0
 43
0.0
 44
0.0
 50
0.0
 51
0.0
 71
     0
 72
   100
 73
     1
 74
     3
 75
     0
 76
     0
 77
     0
 78
     0
281
     0
 65
     1
110
0.0
120
0.0
130
0.0
111
1.0
121
0.0
131
0.0
112
0.0
122
1.0
132
0.0
 79
     1
146
0.0
  0
ENDTAB
  0
TABLE
  2
LTYPE
  5
5
330
0
100
AcDbSymbolTable
 70
     1
  0
LTYPE
  5
13
330
5
100
AcDbSymbolTableRecord
100
AcDbLinetypeTableRecord
  2
ByBlock
 70
     0
  3

 72
    65
 73
     0
 40
0.0
  0
LTYPE
  5
14
330
5
100
AcDbSymbolTableRecord
100
AcDbLinetypeTableRecord
  2
ByLayer
 70
     0
  3

 72
    65
 73
     0
 40
0.0
  0
LTYPE
  5
15
330
5
100
AcDbSymbolTableRecord
100
AcDbLinetypeTableRecord
  2
Continuous
 70
     0
  3
Solid line
 72
    65
 73
     0
 40
0.0
  0
ENDTAB
  0
TABLE
  2
LAYER
  5
2
330
0
100
AcDbSymbolTable
 70
     1
  0
LAYER
  5
10
330
2
100
AcDbSymbolTableRecord
100
AcDbLayerTableRecord
  2
0
 70
     0
 62
     7
  6
Continuous
370
    -3
390
F
  0
ENDTAB
  0
TABLE
  2
STYLE
  5
3
330
0
100
AcDbSymbolTable
 70
     1
  0
STYLE
  5
11
330
3
100
AcDbSymbolTableRecord
100
AcDbTextStyleTableRecord
  2
Standard
 70
     0
 40
0.0
 41
1.0
 50
0.0
 71
     0
 42
0.2
  3
txt
  4

  0
ENDTAB
  0
TABLE
  2
VIEW
  5
6
330
0
100
AcDbSymbolTable
 70
     0
  0
ENDTAB
  0
TABLE
  2
UCS
  5
7
330
0
100
AcDbSymbolTable
 70
     0
  0
ENDTAB
  0
TABLE
  2
APPID
  5
9
330
0
100
AcDbSymbolTable
 70
     1
  0
APPID
  5
12
330
9
100
AcDbSymbolTableRecord
100
AcDbRegAppTableRecord
  2
ACAD
 70
     0
  0
ENDTAB
  0
TABLE
  2
DIMSTYLE
  5
A
330
0
100
AcDbSymbolTable
 70
     1
100
AcDbDimStyleTable
 71
     0
  0
DIMSTYLE
105
310
330
A
100
AcDbSymbolTableRecord
100
AcDbDimStyleTableRecord
  2
Standard
 70
     0
340
11
  0
ENDTAB
  0
TABLE
  2
BLOCK_RECORD
  5
1
330
0
100
AcDbSymbolTable
 70
     0
  0
BLOCK_RECORD
  5
1E
330
1
100
AcDbSymbolTableRecord
100
AcDbBlockTableRecord
  2
*Model_Space
340
21
  0
BLOCK_RECORD
  5
1A
330
1
100
AcDbSymbolTableRecord
100
AcDbBlockTableRecord
  2
*Paper_Space
340
1D
  0
ENDTAB
  0
ENDSEC
  0
SECTION
  2
BLOCKS
  0
BLOCK
  5
1F
330
1E
100
AcDbEntity
  8
0
100
AcDbBlockBegin
  2
*Model_Space
 70
     0
 10
0.0
 20
0.0
 30
0.0
  3
*Model_Space
  1

  0
ENDBLK
  5
20
330
1E
100
AcDbEntity
  8
0
100
AcDbBlockEnd
  0
BLOCK
  5
1B
330
1A
100
AcDbEntity
 67
     1
  8
0
100
AcDbBlockBegin
  2
*Paper_Space
 70
     0
 10
0.0
 20
0.0
 30
0.0
  3
*Paper_Space
  1

  0
ENDBLK
  5
1C
330
1A
100
AcDbEntity
 67
     1
  8
0
100
AcDbBlockEnd
  0
ENDSEC
  0
SECTION
  2
ENTITIES
  0
LINE
  5
22
330
1E
100
AcDbEntity
  8
0
100
AcDbLine
 10
10.92799999999999
 20
3.779999999999999
 30
0.0
 11
14.0
 21
3.167999999999979
 31
0.0
  0
LINE
  5
23
330
1E
100
AcDbEntity
  8
0
100
AcDbLine
 10
7.120000000000018
 20
2.498
 30
0.0
 11
9.160000000000009
 21
1.235999999999999
 31
0.0
  0
LINE
  5
24
330
1E
100
AcDbEntity
  8
0
100
AcDbLine
 10
6.920000000000009
 20
2.630999999999939
 30
0.0
 11
7.120000000000018
 21
2.498
 31
0.0
  0
LINE
  5
25
330
1E
100
AcDbEntity
  8
0
100
AcDbLine
 10
9.160000000000009
 20
1.235999999999999
 30
0.0
 11
11.48
 21
0.459999999999986
 31
0.0
  0
LINE
  5
26
330
1E
100
AcDbEntity
  8
0
100
AcDbLine
 10
11.48
 20
0.459999999999986
 30
0.0
 11
14.0
 21
0.168999999999998
 31
0.0
  0
LINE
  5
27
330
1E
100
AcDbEntity
  8
0
100
AcDbLine
 10
3.583999999999999
 20
11.731
 30
0.0
 11
5.504000000000009
 21
8.128999999999958
 31
0.0
  0
LINE
  5
28
330
1E
100
AcDbEntity
  8
0
100
AcDbLine
 10
2.432000000000009
 20
15.80799999999999
 30
0.0
 11
3.583999999999999
 21
11.731
 31
0.0
  0
LINE
  5
29
330
1E
100
AcDbEntity
  8
0
100
AcDbLine
 10
2.00000000000001
 20
77.041
 30
0.0
 11
2.00000000000001
 21
70.49800000000001
 31
0.0
  0
LINE
  5
2A
330
1E
100
AcDbEntity
  8
0
100
AcDbLine
 10
1.80370000000001
 20
82.89700000000001
 30
0.0
 11
2.00000000000001
 21
77.041
 31
0.0
  0
LINE
  5
2B
330
1E
100
AcDbEntity
  8
0
100
AcDbLine
 10
2.00000000000001
 20
70.49800000000001
 30
0.0
 11
2.00000000000001
 21
77.041
 31
0.0
  0
LINE
  5
2C
330
1E
100
AcDbEntity
  8
0
100
AcDbLine
 10
2.00000000000001
 20
70.49800000000001
 30
0.0
 11
2.00000000000001
 21
63.95399999999999
 31
0.0
  0
LINE
  5
2D
330
1E
100
AcDbEntity
  8
0
100
AcDbLine
 10
2.00000000000001
 20
63.95399999999999
 30
0.0
 11
2.00000000000001
 21
70.49800000000001
 31
0.0
  0
LINE
  5
2E
330
1E
100
AcDbEntity
  8
0
100
AcDbLine
 10
2.00000000000001
 20
63.95399999999999
 30
0.0
 11
2.00000000000001
 21
53.55399999999999
 31
0.0
  0
LINE
  5
2F
330
1E
100
AcDbEntity
  8
0
100
AcDbLine
 10
2.00000000000001
 20
53.55399999999999
 30
0.0
 11
2.00000000000001
 21
63.95399999999999
 31
0.0
  0
LINE
  5
30
330
1E
100
AcDbEntity
  8
0
100
AcDbLine
 10
2.00000000000001
 20
53.55399999999999
 30
0.0
 11
2.00000000000001
 21
40.054
 31
0.0
  0
LINE
  5
31
330
1E
100
AcDbEntity
  8
0
100
AcDbLine
 10
2.00000000000001
 20
40.054
 30
0.0
 11
2.00000000000001
 21
53.55399999999999
 31
0.0
  0
LINE
  5
32
330
1E
100
AcDbEntity
  8
0
100
AcDbLine
 10
2.00000000000001
 20
40.054
 30
0.0
 11
2.00000000000001
 21
21.065
 31
0.0
  0
LINE
  5
33
330
1E
100
AcDbEntity
  8
0
100
AcDbLine
 10
2.00000000000001
 20
21.065
 30
0.0
 11
2.00000000000001
 21
40.054
 31
0.0
  0
LINE
  5
34
330
1E
100
AcDbEntity
  8
0
100
AcDbLine
 10
2.00000000000001
 20
21.065
 30
0.0
 11
2.432000000000009
 21
15.80799999999999
 31
0.0
  0
LINE
  5
35
330
1E
100
AcDbEntity
  8
0
100
AcDbLine
 10
4.000000000000009
 20
10.9505666666666
 30
0.0
 11
4.000000000000009
 21
8.357999999999989
 31
0.0
  0
LINE
  5
36
330
1E
100
AcDbEntity
  8
0
100
AcDbLine
 10
4.000000000000009
 20
8.357999999999989
 30
0.0
 11
4.360000000000009
 21
6.28699999999997
 31
0.0
  0
LINE
  5
37
330
1E
100
AcDbEntity
  8
0
100
AcDbLine
 10
4.000000000000009
 20
8.357999999999989
 30
0.0
 11
4.000000000000009
 21
10.9505666666666
 31
0.0
  0
LINE
  5
38
330
1E
100
AcDbEntity
  8
0
100
AcDbLine
 10
8.048000000000008
 20
5.41099999999999
 30
0.0
 11
10.92799999999999
 21
3.779999999999999
 31
0.0
  0
LINE
  5
39
330
1E
100
AcDbEntity
  8
0
100
AcDbLine
 10
5.504000000000009
 20
8.128999999999958
 30
0.0
 11
8.048000000000008
 21
5.41099999999999
 31
0.0
  0
LINE
  5
3A
330
1E
100
AcDbEntity
  8
0
100
AcDbLine
 10
4.360000000000009
 20
6.28699999999997
 30
0.0
 11
5.320000000000009
 21
4.34599999999999
 31
0.0
  0
LINE
  5
3B
330
1E
100
AcDbEntity
  8
0
100
AcDbLine
 10
5.320000000000009
 20
4.34599999999999
 30
0.0
 11
6.920000000000009
 21
2.630999999999939
 31
0.0
  0
LINE
  5
3F
330
1E
100
AcDbEntity
  8
0
100
AcDbLine
 10
11.5605
 20
86.07200000000011
 30
0.0
 11
11.9891
 21
86.195
 31
0.0
  0
LINE
  5
40
330
1E
100
AcDbEntity
  8
0
100
AcDbLine
 10
1.48030000000001
 20
86.65
 30
0.0
 11
1.80370000000001
 21
82.89700000000001
 31
0.0
  0
LINE
  5
41
330
1E
100
AcDbEntity
  8
0
100
AcDbLine
 10
9.56040000000001
 20
86.69299999999999
 30
0.0
 11
10.56049999999999
 21
86.2730000000001
 31
0.0
  0
LINE
  5
43
330
1E
100
AcDbEntity
  8
0
100
AcDbLine
 10
9.131800000000009
 20
87.0820000000001
 30
0.0
 11
9.56040000000001
 21
87.20499999999999
 31
0.0
  0
LINE
  5
44
330
1E
100
AcDbEntity
  8
0
100
AcDbLine
 10
9.131800000000009
 20
87.0820000000001
 30
0.0
 11
9.56040000000001
 21
86.69299999999999
 31
0.0
  0
LINE
  5
46
330
1E
100
AcDbEntity
  8
0
100
AcDbLine
 10
10.56049999999999
 20
87.004
 30
0.0
 11
11.5605
 21
86.584
 31
0.0
  0
LINE
  5
48
330
1E
100
AcDbEntity
  8
0
100
AcDbLine
 10
11.5605
 20
86.584
 30
0.0
 11
11.9891
 21
86.195
 31
0.0
  0
LINE
  5
49
330
1E
100
AcDbEntity
  8
0
100
AcDbLine
 10
10.56049999999999
 20
86.2730000000001
 30
0.0
 11
11.5605
 21
86.07200000000011
 31
0.0
  0
LINE
  5
4D
330
1E
100
AcDbEntity
  8
0
100
AcDbLine
 10
1.3648
 20
87.809
 30
0.0
 11
1.48030000000001
 21
86.65
 31
0.0
  0
LINE
  5
4E
330
1E
100
AcDbEntity
  8
0
100
AcDbLine
 10
1.35044968106935
 20
87.9599579004393
 30
0.0
 11
1.3648
 21
87.809
 31
0.0
  0
LINE
  5
4F
330
1E
100
AcDbEntity
  8
0
100
AcDbLine
 10
5.913100000000009
 20
88.1120000000001
 30
0.0
 11
6.279000000000009
 21
88.18700000000001
 31
0.0
  0
LINE
  5
52
330
1E
100
AcDbEntity
  8
0
100
AcDbLine
 10
9.56040000000001
 20
87.20499999999999
 30
0.0
 11
10.56049999999999
 21
87.004
 31
0.0
  0
LINE
  5
53
330
1E
100
AcDbEntity
  8
0
100
AcDbLine
 10
11.5605
 20
88.16599999999999
 30
0.0
 11
11.9891
 21
88.36
 31
0.0
  0
LINE
  5
55
330
1E
100
AcDbEntity
  8
0
100
AcDbLine
 10
5.913100000000009
 20
88.76100000000009
 30
0.0
 11
6.279000000000009
 21
88.18700000000001
 31
0.0
  0
LINE
  5
56
330
1E
100
AcDbEntity
  8
0
100
AcDbLine
 10
5.059300000000009
 20
88.55400000000001
 30
0.0
 11
5.913100000000009
 21
88.1120000000001
 31
0.0
  0
LINE
  5
57
330
1E
100
AcDbEntity
  8
0
100
AcDbLine
 10
9.56040000000001
 20
88.77399999999999
 30
0.0
 11
10.56049999999999
 21
88.33099999999999
 31
0.0
  0
LINE
  5
59
330
1E
100
AcDbEntity
  8
0
100
AcDbLine
 10
11.5605
 20
88.815
 30
0.0
 11
11.9891
 21
88.36
 31
0.0
  0
LINE
  5
5B
330
1E
100
AcDbEntity
  8
0
100
AcDbLine
 10
10.56049999999999
 20
88.33099999999999
 30
0.0
 11
11.5605
 21
88.16599999999999
 31
0.0
  0
LINE
  5
5E
330
1E
100
AcDbEntity
  8
0
100
AcDbLine
 10
4.20550000000002
 20
89.274
 30
0.0
 11
5.059300000000009
 21
88.55400000000001
 31
0.0
  0
LINE
  5
60
330
1E
100
AcDbEntity
  8
0
100
AcDbLine
 10
9.131800000000009
 20
89.229
 30
0.0
 11
9.56040000000001
 21
89.42299999999999
 31
0.0
  0
LINE
  5
61
330
1E
100
AcDbEntity
  8
0
100
AcDbLine
 10
9.131800000000009
 20
89.229
 30
0.0
 11
9.56040000000001
 21
88.77399999999999
 31
0.0
  0
LINE
  5
62
330
1E
100
AcDbEntity
  8
0
100
AcDbLine
 10
1.047300000000009
 20
89.4600000000001
 30
0.0
 11
1.35044968106935
 21
87.9599579004393
 31
0.0
  0
LINE
  5
63
330
1E
100
AcDbEntity
  8
0
100
AcDbLine
 10
0.7529000000000071
 20
91.195
 30
0.0
 11
1.047300000000009
 21
89.4600000000001
 31
0.0
  0
LINE
  5
64
330
1E
100
AcDbEntity
  8
0
100
AcDbLine
 10
0.7529000000000071
 20
91.13899999999999
 30
0.0
 11
0.772855950665238
 21
91.07739274998579
 31
0.0
  0
LINE
  5
65
330
1E
100
AcDbEntity
  8
0
100
AcDbLine
 10
3.839600000000009
 20
89.84799999999999
 30
0.0
 11
4.20550000000002
 21
89.92299999999998
 31
0.0
  0
LINE
  5
67
330
1E
100
AcDbEntity
  8
0
100
AcDbLine
 10
3.839600000000009
 20
89.84799999999999
 30
0.0
 11
4.20550000000002
 21
89.274
 31
0.0
  0
LINE
  5
6A
330
1E
100
AcDbEntity
  8
0
100
AcDbLine
 10
4.20550000000002
 20
89.92299999999998
 30
0.0
 11
5.059300000000009
 21
89.48100000000001
 31
0.0
  0
LINE
  5
6C
330
1E
100
AcDbEntity
  8
0
100
AcDbLine
 10
5.059300000000009
 20
89.48100000000001
 30
0.0
 11
5.913100000000009
 21
88.76100000000009
 31
0.0
  0
LINE
  5
6D
330
1E
100
AcDbEntity
  8
0
100
AcDbLine
 10
5.913100000000009
 20
90.79299999999999
 30
0.0
 11
6.279000000000009
 21
90.868
 31
0.0
  0
LINE
  5
6F
330
1E
100
AcDbEntity
  8
0
100
AcDbLine
 10
5.913100000000009
 20
91.4420000000001
 30
0.0
 11
6.279000000000009
 21
90.868
 31
0.0
  0
LINE
  5
71
330
1E
100
AcDbEntity
  8
0
100
AcDbLine
 10
5.059300000000009
 20
91.23499999999999
 30
0.0
 11
5.913100000000009
 21
90.79299999999999
 31
0.0
  0
LINE
  5
73
330
1E
100
AcDbEntity
  8
0
100
AcDbLine
 10
9.56040000000001
 20
89.42299999999999
 30
0.0
 11
10.56049999999999
 21
89.25800000000009
 31
0.0
  0
LINE
  5
75
330
1E
100
AcDbEntity
  8
0
100
AcDbLine
 10
10.56049999999999
 20
89.25800000000009
 30
0.0
 11
11.5605
 21
88.815
 31
0.0
  0
LINE
  5
76
330
1E
100
AcDbEntity
  8
0
100
AcDbLine
 10
0.613200000000013
 20
92.064
 30
0.0
 11
0.7529000000000071
 21
91.13899999999999
 31
0.0
  0
LINE
  5
77
330
1E
100
AcDbEntity
  8
0
100
AcDbLine
 10
4.20550000000002
 20
91.956
 30
0.0
 11
5.059300000000009
 21
91.23499999999999
 31
0.0
  0
LINE
  5
78
330
1E
100
AcDbEntity
  8
0
100
AcDbLine
 10
9.56040000000001
 20
91.865
 30
0.0
 11
10.56049999999999
 21
91.42100000000001
 31
0.0
  0
LINE
  5
7A
330
1E
100
AcDbEntity
  8
0
100
AcDbLine
 10
11.5605
 20
91.905
 30
0.0
 11
11.9891
 21
91.45000000000001
 31
0.0
  0
LINE
  5
7C
330
1E
100
AcDbEntity
  8
0
100
AcDbLine
 10
11.5605
 20
91.256
 30
0.0
 11
11.9891
 21
91.45000000000001
 31
0.0
  0
LINE
  5
7D
330
1E
100
AcDbEntity
  8
0
100
AcDbLine
 10
10.56049999999999
 20
91.42100000000001
 30
0.0
 11
11.5605
 21
91.256
 31
0.0
  0
LINE
  5
7F
330
1E
100
AcDbEntity
  8
0
100
AcDbLine
 10
5.059300000000009
 20
92.162
 30
0.0
 11
5.913100000000009
 21
91.4420000000001
 31
0.0
  0
LINE
  5
81
330
1E
100
AcDbEntity
  8
0
100
AcDbLine
 10
3.839600000000009
 20
92.529
 30
0.0
 11
4.20550000000002
 21
92.605
 31
0.0
  0
LINE
  5
83
330
1E
100
AcDbEntity
  8
0
100
AcDbLine
 10
3.839600000000009
 20
92.529
 30
0.0
 11
4.20550000000002
 21
91.956
 31
0.0
  0
LINE
  5
85
330
1E
100
AcDbEntity
  8
0
100
AcDbLine
 10
0.504600000000008
 20
93.16799999999998
 30
0.0
 11
0.613200000000013
 21
92.064
 31
0.0
  0
LINE
  5
86
330
1E
100
AcDbEntity
  8
0
100
AcDbLine
 10
0.380400000000007
 20
95.01700000000001
 30
0.0
 11
0.504600000000008
 21
93.16799999999998
 31
0.0
  0
LINE
  5
88
330
1E
100
AcDbEntity
  8
0
100
AcDbLine
 10
4.20550000000002
 20
92.605
 30
0.0
 11
5.059300000000009
 21
92.162
 31
0.0
  0
LINE
  5
89
330
1E
100
AcDbEntity
  8
0
100
AcDbLine
 10
4.20550000000002
 20
95.04600000000001
 30
0.0
 11
5.059300000000009
 21
94.325
 31
0.0
  0
LINE
  5
8A
330
1E
100
AcDbEntity
  8
0
100
AcDbLine
 10
3.839600000000009
 20
95.61899999999999
 30
0.0
 11
4.20550000000002
 21
95.69499999999999
 31
0.0
  0
LINE
  5
8C
330
1E
100
AcDbEntity
  8
0
100
AcDbLine
 10
3.839600000000009
 20
95.61899999999999
 30
0.0
 11
4.20550000000002
 21
95.04600000000001
 31
0.0
  0
LINE
  5
8E
330
1E
100
AcDbEntity
  8
0
100
AcDbLine
 10
4.20550000000002
 20
95.69499999999999
 30
0.0
 11
5.059300000000009
 21
95.25299999999999
 31
0.0
  0
LINE
  5
90
330
1E
100
AcDbEntity
  8
0
100
AcDbLine
 10
5.059300000000009
 20
95.25299999999999
 30
0.0
 11
5.913100000000009
 21
94.532
 31
0.0
  0
LINE
  5
91
330
1E
100
AcDbEntity
  8
0
100
AcDbLine
 10
5.913100000000009
 20
93.88299999999999
 30
0.0
 11
6.279000000000009
 21
93.95900000000001
 31
0.0
  0
LINE
  5
93
330
1E
100
AcDbEntity
  8
0
100
AcDbLine
 10
5.913100000000009
 20
94.532
 30
0.0
 11
6.279000000000009
 21
93.95900000000001
 31
0.0
  0
LINE
  5
96
330
1E
100
AcDbEntity
  8
0
100
AcDbLine
 10
5.059300000000009
 20
94.325
 30
0.0
 11
5.913100000000009
 21
93.88299999999999
 31
0.0
  0
LINE
  5
97
330
1E
100
AcDbEntity
  8
0
100
AcDbLine
 10
5.913100000000009
 20
96.973
 30
0.0
 11
6.279000000000009
 21
97.049
 31
0.0
  0
LINE
  5
99
330
1E
100
AcDbEntity
  8
0
100
AcDbLine
 10
0.256200000000006
 20
97.84200000000002
 30
0.0
 11
0.380400000000007
 21
95.01700000000001
 31
0.0
  0
LINE
  5
9A
330
1E
100
AcDbEntity
  8
0
100
AcDbLine
 10
4.20550000000002
 20
98.136
 30
0.0
 11
5.059300000000009
 21
97.416
 31
0.0
  0
LINE
  5
9C
330
1E
100
AcDbEntity
  8
0
100
AcDbLine
 10
5.059300000000009
 20
98.34299999999998
 30
0.0
 11
5.913100000000009
 21
97.62200000000001
 31
0.0
  0
LINE
  5
9E
330
1E
100
AcDbEntity
  8
0
100
AcDbLine
 10
5.913100000000009
 20
97.62200000000001
 30
0.0
 11
6.279000000000009
 21
97.049
 31
0.0
  0
LINE
  5
9F
330
1E
100
AcDbEntity
  8
0
100
AcDbLine
 10
5.059300000000009
 20
97.416
 30
0.0
 11
5.913100000000009
 21
96.973
 31
0.0
  0
LINE
  5
A1
330
1E
100
AcDbEntity
  8
0
100
AcDbLine
 10
9.131800000000009
 20
95.41
 30
0.0
 11
9.56040000000001
 21
95.60399999999999
 31
0.0
  0
LINE
  5
A2
330
1E
100
AcDbEntity
  8
0
100
AcDbLine
 10
9.131800000000009
 20
95.41
 30
0.0
 11
9.56040000000001
 21
94.95499999999999
 31
0.0
  0
LINE
  5
A4
330
1E
100
AcDbEntity
  8
0
100
AcDbLine
 10
9.131800000000009
 20
92.31900000000001
 30
0.0
 11
9.56040000000001
 21
92.51299999999998
 31
0.0
  0
LINE
  5
A5
330
1E
100
AcDbEntity
  8
0
100
AcDbLine
 10
9.131800000000009
 20
92.31900000000001
 30
0.0
 11
9.56040000000001
 21
91.865
 31
0.0
  0
LINE
  5
A6
330
1E
100
AcDbEntity
  8
0
100
AcDbLine
 10
9.56040000000001
 20
94.95499999999999
 30
0.0
 11
10.56049999999999
 21
94.51100000000002
 31
0.0
  0
LINE
  5
A8
330
1E
100
AcDbEntity
  8
0
100
AcDbLine
 10
9.56040000000001
 20
95.60399999999999
 30
0.0
 11
10.56049999999999
 21
95.43799999999999
 31
0.0
  0
LINE
  5
AA
330
1E
100
AcDbEntity
  8
0
100
AcDbLine
 10
9.56040000000001
 20
92.51299999999998
 30
0.0
 11
10.56049999999999
 21
92.34799999999999
 31
0.0
  0
LINE
  5
AC
330
1E
100
AcDbEntity
  8
0
100
AcDbLine
 10
10.56049999999999
 20
95.43799999999999
 30
0.0
 11
11.5605
 21
94.99500000000001
 31
0.0
  0
LINE
  5
AD
330
1E
100
AcDbEntity
  8
0
100
AcDbLine
 10
10.56049999999999
 20
94.51100000000002
 30
0.0
 11
11.5605
 21
94.3459999999999
 31
0.0
  0
LINE
  5
AF
330
1E
100
AcDbEntity
  8
0
100
AcDbLine
 10
10.56049999999999
 20
92.34799999999999
 30
0.0
 11
11.5605
 21
91.905
 31
0.0
  0
LINE
  5
B0
330
1E
100
AcDbEntity
  8
0
100
AcDbLine
 10
9.56040000000001
 20
98.045
 30
0.0
 11
10.56049999999999
 21
97.60100000000001
 31
0.0
  0
LINE
  5
B2
330
1E
100
AcDbEntity
  8
0
100
AcDbLine
 10
9.131800000000009
 20
98.50000000000001
 30
0.0
 11
9.56040000000001
 21
98.69399999999991
 31
0.0
  0
LINE
  5
B3
330
1E
100
AcDbEntity
  8
0
100
AcDbLine
 10
9.131800000000009
 20
98.50000000000001
 30
0.0
 11
9.56040000000001
 21
98.045
 31
0.0
  0
LINE
  5
B4
330
1E
100
AcDbEntity
  8
0
100
AcDbLine
 10
3.839600000000009
 20
98.71
 30
0.0
 11
4.20550000000002
 21
98.785
 31
0.0
  0
LINE
  5
B6
330
1E
100
AcDbEntity
  8
0
100
AcDbLine
 10
3.839600000000009
 20
98.71
 30
0.0
 11
4.20550000000002
 21
98.136
 31
0.0
  0
LINE
  5
B8
330
1E
100
AcDbEntity
  8
0
100
AcDbLine
 10
4.20550000000002
 20
98.785
 30
0.0
 11
5.059300000000009
 21
98.34299999999998
 31
0.0
  0
LINE
  5
B9
330
1E
100
AcDbEntity
  8
0
100
AcDbLine
 10
5.913100000000009
 20
100.0639999999999
 30
0.0
 11
6.279000000000009
 21
100.139
 31
0.0
  0
LINE
  5
BC
330
1E
100
AcDbEntity
  8
0
100
AcDbLine
 10
9.56040000000001
 20
98.69399999999991
 30
0.0
 11
10.56049999999999
 21
98.528
 31
0.0
  0
LINE
  5
BE
330
1E
100
AcDbEntity
  8
0
100
AcDbLine
 10
10.56049999999999
 20
98.528
 30
0.0
 11
11.5605
 21
98.085
 31
0.0
  0
LINE
  5
BF
330
1E
100
AcDbEntity
  8
0
100
AcDbLine
 10
10.56049999999999
 20
97.60100000000001
 30
0.0
 11
11.5605
 21
97.436
 31
0.0
  0
LINE
  5
C0
330
1E
100
AcDbEntity
  8
0
100
AcDbLine
 10
4.20550000000002
 20
101.2259999999999
 30
0.0
 11
5.059300000000009
 21
100.506
 31
0.0
  0
LINE
  5
C2
330
1E
100
AcDbEntity
  8
0
100
AcDbLine
 10
5.913100000000009
 20
100.7129999999999
 30
0.0
 11
6.279000000000009
 21
100.139
 31
0.0
  0
LINE
  5
C3
330
1E
100
AcDbEntity
  8
0
100
AcDbLine
 10
5.059300000000009
 20
100.506
 30
0.0
 11
5.913100000000009
 21
100.0639999999999
 31
0.0
  0
LINE
  5
C4
330
1E
100
AcDbEntity
  8
0
100
AcDbLine
 10
0.107300000000012
 20
101.657
 30
0.0
 11
0.256200000000006
 21
97.84200000000002
 31
0.0
  0
LINE
  5
C5
330
1E
100
AcDbEntity
  8
0
100
AcDbLine
 10
3.839600000000009
 20
101.8
 30
0.0
 11
4.20550000000002
 21
101.875
 31
0.0
  0
LINE
  5
C7
330
1E
100
AcDbEntity
  8
0
100
AcDbLine
 10
3.839600000000009
 20
101.8
 30
0.0
 11
4.20550000000002
 21
101.2259999999999
 31
0.0
  0
LINE
  5
C9
330
1E
100
AcDbEntity
  8
0
100
AcDbLine
 10
4.20550000000002
 20
101.875
 30
0.0
 11
5.059300000000009
 21
101.4329999999999
 31
0.0
  0
LINE
  5
CA
330
1E
100
AcDbEntity
  8
0
100
AcDbLine
 10
5.059300000000009
 20
101.4329999999999
 30
0.0
 11
5.913100000000009
 21
100.7129999999999
 31
0.0
  0
LINE
  5
CB
330
1E
100
AcDbEntity
  8
0
100
AcDbLine
 10
5.059300000000009
 20
103.2299999999999
 30
0.0
 11
5.913100000000009
 21
102.7879999999999
 31
0.0
  0
LINE
  5
CC
330
1E
100
AcDbEntity
  8
0
100
AcDbLine
 10
5.913100000000009
 20
102.7879999999999
 30
0.0
 11
6.279000000000009
 21
102.8629999999999
 31
0.0
  0
LINE
  5
CE
330
1E
100
AcDbEntity
  8
0
100
AcDbLine
 10
5.913100000000009
 20
103.437
 30
0.0
 11
6.279000000000009
 21
102.8629999999999
 31
0.0
  0
LINE
  5
CF
330
1E
100
AcDbEntity
  8
0
100
AcDbLine
 10
4.20550000000002
 20
104.5989999999999
 30
0.0
 11
5.059300000000009
 21
104.157
 31
0.0
  0
LINE
  5
D1
330
1E
100
AcDbEntity
  8
0
100
AcDbLine
 10
3.839600000000009
 20
104.5239999999999
 30
0.0
 11
4.20550000000002
 21
103.95
 31
0.0
  0
LINE
  5
D2
330
1E
100
AcDbEntity
  8
0
100
AcDbLine
 10
3.839600000000009
 20
104.5239999999999
 30
0.0
 11
4.20550000000002
 21
104.5989999999999
 31
0.0
  0
LINE
  5
D3
330
1E
100
AcDbEntity
  8
0
100
AcDbLine
 10
4.20550000000002
 20
103.95
 30
0.0
 11
5.059300000000009
 21
103.2299999999999
 31
0.0
  0
LINE
  5
D4
330
1E
100
AcDbEntity
  8
0
100
AcDbLine
 10
5.059300000000009
 20
104.157
 30
0.0
 11
5.913100000000009
 21
103.437
 31
0.0
  0
LINE
  5
D5
330
1E
100
AcDbEntity
  8
0
100
AcDbLine
 10
0.0536000000000074
 20
105.919
 30
0.0
 11
0.107300000000012
 21
101.657
 31
0.0
  0
LINE
  5
D6
330
1E
100
AcDbEntity
  8
0
100
AcDbLine
 10
5.059300000000009
 20
106.3199999999999
 30
0.0
 11
5.913100000000009
 21
105.8779999999999
 31
0.0
  0
LINE
  5
D7
330
1E
100
AcDbEntity
  8
0
100
AcDbLine
 10
5.913100000000009
 20
105.8779999999999
 30
0.0
 11
6.279000000000009
 21
105.9529999999999
 31
0.0
  0
LINE
  5
D9
330
1E
100
AcDbEntity
  8
0
100
AcDbLine
 10
9.56040000000001
 20
104.5329999999999
 30
0.0
 11
10.56049999999999
 21
104.367
 31
0.0
  0
LINE
  5
DB
330
1E
100
AcDbEntity
  8
0
100
AcDbLine
 10
9.131800000000009
 20
104.3379999999999
 30
0.0
 11
9.56040000000001
 21
103.8839999999999
 31
0.0
  0
LINE
  5
DC
330
1E
100
AcDbEntity
  8
0
100
AcDbLine
 10
9.131800000000009
 20
104.3379999999999
 30
0.0
 11
9.56040000000001
 21
104.5329999999999
 31
0.0
  0
LINE
  5
DD
330
1E
100
AcDbEntity
  8
0
100
AcDbLine
 10
9.56040000000001
 20
103.8839999999999
 30
0.0
 11
10.56049999999999
 21
103.4399999999999
 31
0.0
  0
LINE
  5
DF
330
1E
100
AcDbEntity
  8
0
100
AcDbLine
 10
9.56040000000001
 20
101.442
 30
0.0
 11
10.56049999999999
 21
101.2769999999999
 31
0.0
  0
LINE
  5
E2
330
1E
100
AcDbEntity
  8
0
100
AcDbLine
 10
9.131800000000009
 20
101.2479999999999
 30
0.0
 11
9.56040000000001
 21
100.7929999999999
 31
0.0
  0
LINE
  5
E3
330
1E
100
AcDbEntity
  8
0
100
AcDbLine
 10
9.131800000000009
 20
101.2479999999999
 30
0.0
 11
9.56040000000001
 21
101.442
 31
0.0
  0
LINE
  5
E4
330
1E
100
AcDbEntity
  8
0
100
AcDbLine
 10
10.56049999999999
 20
103.4399999999999
 30
0.0
 11
11.5605
 21
103.275
 31
0.0
  0
LINE
  5
E5
330
1E
100
AcDbEntity
  8
0
100
AcDbLine
 10
10.56049999999999
 20
104.367
 30
0.0
 11
11.5605
 21
103.9239999999999
 31
0.0
  0
LINE
  5
E7
330
1E
100
AcDbEntity
  8
0
100
AcDbLine
 10
9.56040000000001
 20
100.7929999999999
 30
0.0
 11
10.56049999999999
 21
100.35
 31
0.0
  0
LINE
  5
E8
330
1E
100
AcDbEntity
  8
0
100
AcDbLine
 10
10.56049999999999
 20
100.35
 30
0.0
 11
11.5605
 21
100.185
 31
0.0
  0
LINE
  5
EA
330
1E
100
AcDbEntity
  8
0
100
AcDbLine
 10
11.5605
 20
94.99500000000001
 30
0.0
 11
11.9891
 21
94.54
 31
0.0
  0
LINE
  5
EB
330
1E
100
AcDbEntity
  8
0
100
AcDbLine
 10
11.5605
 20
94.3459999999999
 30
0.0
 11
11.9891
 21
94.54
 31
0.0
  0
LINE
  5
ED
330
1E
100
AcDbEntity
  8
0
100
AcDbLine
 10
11.5605
 20
98.085
 30
0.0
 11
11.9891
 21
97.62999999999999
 31
0.0
  0
LINE
  5
EE
330
1E
100
AcDbEntity
  8
0
100
AcDbLine
 10
11.5605
 20
97.436
 30
0.0
 11
11.9891
 21
97.62999999999999
 31
0.0
  0
LINE
  5
EF
330
1E
100
AcDbEntity
  8
0
100
AcDbLine
 10
11.5605
 20
100.185
 30
0.0
 11
11.9891
 21
100.3789999999999
 31
0.0
  0
LINE
  5
F0
330
1E
100
AcDbEntity
  8
0
100
AcDbLine
 10
11.5605
 20
103.275
 30
0.0
 11
11.9891
 21
103.4689999999999
 31
0.0
  0
LINE
  5
F2
330
1E
100
AcDbEntity
  8
0
100
AcDbLine
 10
11.5605
 20
103.9239999999999
 30
0.0
 11
11.9891
 21
103.4689999999999
 31
0.0
  0
LINE
  5
F4
330
1E
100
AcDbEntity
  8
0
100
AcDbLine
 10
11.5605
 20
100.834
 30
0.0
 11
11.9891
 21
100.3789999999999
 31
0.0
  0
LINE
  5
F5
330
1E
100
AcDbEntity
  8
0
100
AcDbLine
 10
10.56049999999999
 20
101.2769999999999
 30
0.0
 11
11.5605
 21
100.834
 31
0.0
  0
LINE
  5
F8
330
1E
100
AcDbEntity
  8
0
100
AcDbLine
 10
5.913100000000009
 20
106.5269999999999
 30
0.0
 11
6.279000000000009
 21
105.9529999999999
 31
0.0
  0
LINE
  5
F9
330
1E
100
AcDbEntity
  8
0
100
AcDbLine
 10
4.20550000000002
 20
107.04
 30
0.0
 11
5.059300000000009
 21
106.3199999999999
 31
0.0
  0
LINE
  5
FA
330
1E
100
AcDbEntity
  8
0
100
AcDbLine
 10
5.059300000000009
 20
107.247
 30
0.0
 11
5.913100000000009
 21
106.5269999999999
 31
0.0
  0
LINE
  5
FC
330
1E
100
AcDbEntity
  8
0
100
AcDbLine
 10
9.131800000000009
 20
107.4289999999999
 30
0.0
 11
9.56040000000001
 21
106.9739999999999
 31
0.0
  0
LINE
  5
FD
330
1E
100
AcDbEntity
  8
0
100
AcDbLine
 10
9.131800000000009
 20
107.4289999999999
 30
0.0
 11
9.56040000000001
 21
107.623
 31
0.0
  0
LINE
  5
FE
330
1E
100
AcDbEntity
  8
0
100
AcDbLine
 10
9.56040000000001
 20
106.9739999999999
 30
0.0
 11
10.56049999999999
 21
106.53
 31
0.0
  0
LINE
  5
FF
330
1E
100
AcDbEntity
  8
0
100
AcDbLine
 10
10.56049999999999
 20
106.53
 30
0.0
 11
11.5605
 21
106.3649999999999
 31
0.0
  0
LINE
  5
100
330
1E
100
AcDbEntity
  8
0
100
AcDbLine
 10
11.5605
 20
106.3649999999999
 30
0.0
 11
11.9891
 21
106.559
 31
0.0
  0
LINE
  5
107
330
1E
100
AcDbEntity
  8
0
100
AcDbLine
 10
11.5605
 20
107.014
 30
0.0
 11
11.9891
 21
106.559
 31
0.0
  0
LINE
  5
109
330
1E
100
AcDbEntity
  8
0
100
AcDbLine
 10
4.20550000000002
 20
107.6889999999999
 30
0.0
 11
5.059300000000009
 21
107.247
 31
0.0
  0
LINE
  5
10B
330
1E
100
AcDbEntity
  8
0
100
AcDbLine
 10
3.839600000000009
 20
107.6139999999999
 30
0.0
 11
4.20550000000002
 21
107.04
 31
0.0
  0
LINE
  5
10C
330
1E
100
AcDbEntity
  8
0
100
AcDbLine
 10
3.839600000000009
 20
107.6139999999999
 30
0.0
 11
4.20550000000002
 21
107.6889999999999
 31
0.0
  0
LINE
  5
10E
330
1E
100
AcDbEntity
  8
0
100
AcDbLine
 10
9.56040000000001
 20
107.623
 30
0.0
 11
10.56049999999999
 21
107.457
 31
0.0
  0
LINE
  5
10F
330
1E
100
AcDbEntity
  8
0
100
AcDbLine
 10
10.56049999999999
 20
107.457
 30
0.0
 11
11.5605
 21
107.014
 31
0.0
  0
LINE
  5
111
330
1E
100
AcDbEntity
  8
0
100
AcDbLine
 10
4.20550000000002
 20
110.1299999999999
 30
0.0
 11
5.059300000000009
 21
109.41
 31
0.0
  0
LINE
  5
112
330
1E
100
AcDbEntity
  8
0
100
AcDbLine
 10
5.059300000000009
 20
109.41
 30
0.0
 11
5.913100000000009
 21
108.9679999999999
 31
0.0
  0
LINE
  5
113
330
1E
100
AcDbEntity
  8
0
100
AcDbLine
 10
0.0000000000000062
 20
110.8589999999999
 30
0.0
 11
0.0536000000000074
 21
115.7429999999999
 31
0.0
  0
LINE
  5
114
330
1E
100
AcDbEntity
  8
0
100
AcDbLine
 10
0.0000000000000062
 20
110.803
 30
0.0
 11
0.0536000000000074
 21
115.687
 31
0.0
  0
LINE
  5
115
330
1E
100
AcDbEntity
  8
0
100
AcDbLine
 10
0.0000000000000062
 20
110.803
 30
0.0
 11
0.0536000000000074
 21
105.919
 31
0.0
  0
LINE
  5
117
330
1E
100
AcDbEntity
  8
0
100
AcDbLine
 10
3.839600000000009
 20
113.7939999999999
 30
0.0
 11
4.20550000000002
 21
113.221
 31
0.0
  0
LINE
  5
118
330
1E
100
AcDbEntity
  8
0
100
AcDbLine
 10
3.839600000000009
 20
113.7939999999999
 30
0.0
 11
4.20550000000002
 21
113.87
 31
0.0
  0
LINE
  5
11A
330
1E
100
AcDbEntity
  8
0
100
AcDbLine
 10
4.20550000000002
 20
113.87
 30
0.0
 11
5.059300000000009
 21
113.427
 31
0.0
  0
LINE
  5
11C
330
1E
100
AcDbEntity
  8
0
100
AcDbLine
 10
4.20550000000002
 20
113.221
 30
0.0
 11
5.059300000000009
 21
112.5
 31
0.0
  0
LINE
  5
11D
330
1E
100
AcDbEntity
  8
0
100
AcDbLine
 10
5.059300000000009
 20
112.5
 30
0.0
 11
5.913100000000009
 21
112.0579999999999
 31
0.0
  0
LINE
  5
11E
330
1E
100
AcDbEntity
  8
0
100
AcDbLine
 10
5.059300000000009
 20
113.427
 30
0.0
 11
5.913100000000009
 21
112.707
 31
0.0
  0
LINE
  5
121
330
1E
100
AcDbEntity
  8
0
100
AcDbLine
 10
4.20550000000002
 20
110.779
 30
0.0
 11
5.059300000000009
 21
110.3369999999999
 31
0.0
  0
LINE
  5
123
330
1E
100
AcDbEntity
  8
0
100
AcDbLine
 10
3.839600000000009
 20
110.704
 30
0.0
 11
4.20550000000002
 21
110.1299999999999
 31
0.0
  0
LINE
  5
124
330
1E
100
AcDbEntity
  8
0
100
AcDbLine
 10
3.839600000000009
 20
110.704
 30
0.0
 11
4.20550000000002
 21
110.779
 31
0.0
  0
LINE
  5
125
330
1E
100
AcDbEntity
  8
0
100
AcDbLine
 10
5.059300000000009
 20
110.3369999999999
 30
0.0
 11
5.913100000000009
 21
109.617
 31
0.0
  0
LINE
  5
127
330
1E
100
AcDbEntity
  8
0
100
AcDbLine
 10
5.913100000000009
 20
108.9679999999999
 30
0.0
 11
6.279000000000009
 21
109.043
 31
0.0
  0
LINE
  5
128
330
1E
100
AcDbEntity
  8
0
100
AcDbLine
 10
11.5605
 20
109.4549999999999
 30
0.0
 11
11.9891
 21
109.6489999999999
 31
0.0
  0
LINE
  5
129
330
1E
100
AcDbEntity
  8
0
100
AcDbLine
 10
5.913100000000009
 20
112.0579999999999
 30
0.0
 11
6.279000000000009
 21
112.1329999999999
 31
0.0
  0
LINE
  5
12C
330
1E
100
AcDbEntity
  8
0
100
AcDbLine
 10
5.913100000000009
 20
112.707
 30
0.0
 11
6.279000000000009
 21
112.1329999999999
 31
0.0
  0
LINE
  5
12F
330
1E
100
AcDbEntity
  8
0
100
AcDbLine
 10
9.56040000000001
 20
114.85
 30
0.0
 11
10.56049999999999
 21
114.721
 31
0.0
  0
LINE
  5
132
330
1E
100
AcDbEntity
  8
0
100
AcDbLine
 10
9.131800000000009
 20
114.586
 30
0.0
 11
9.56040000000001
 21
114.067
 31
0.0
  0
LINE
  5
133
330
1E
100
AcDbEntity
  8
0
100
AcDbLine
 10
9.131800000000009
 20
114.586
 30
0.0
 11
9.56040000000001
 21
114.85
 31
0.0
  0
LINE
  5
134
330
1E
100
AcDbEntity
  8
0
100
AcDbLine
 10
9.56040000000001
 20
114.067
 30
0.0
 11
10.56049999999999
 21
113.6029999999999
 31
0.0
  0
LINE
  5
136
330
1E
100
AcDbEntity
  8
0
100
AcDbLine
 10
9.56040000000001
 20
110.7129999999999
 30
0.0
 11
10.56049999999999
 21
110.5479999999999
 31
0.0
  0
LINE
  5
138
330
1E
100
AcDbEntity
  8
0
100
AcDbLine
 10
9.131800000000009
 20
110.5189999999999
 30
0.0
 11
9.56040000000001
 21
110.064
 31
0.0
  0
LINE
  5
139
330
1E
100
AcDbEntity
  8
0
100
AcDbLine
 10
9.131800000000009
 20
110.5189999999999
 30
0.0
 11
9.56040000000001
 21
110.7129999999999
 31
0.0
  0
LINE
  5
13A
330
1E
100
AcDbEntity
  8
0
100
AcDbLine
 10
10.56049999999999
 20
113.6029999999999
 30
0.0
 11
11.5605
 21
113.473
 31
0.0
  0
LINE
  5
13B
330
1E
100
AcDbEntity
  8
0
100
AcDbLine
 10
10.56049999999999
 20
114.721
 30
0.0
 11
11.5605
 21
114.256
 31
0.0
  0
LINE
  5
13D
330
1E
100
AcDbEntity
  8
0
100
AcDbLine
 10
9.56040000000001
 20
110.064
 30
0.0
 11
10.56049999999999
 21
109.621
 31
0.0
  0
LINE
  5
13E
330
1E
100
AcDbEntity
  8
0
100
AcDbLine
 10
10.56049999999999
 20
109.621
 30
0.0
 11
11.5605
 21
109.4549999999999
 31
0.0
  0
LINE
  5
140
330
1E
100
AcDbEntity
  8
0
100
AcDbLine
 10
11.5605
 20
113.473
 30
0.0
 11
11.9891
 21
113.738
 31
0.0
  0
LINE
  5
143
330
1E
100
AcDbEntity
  8
0
100
AcDbLine
 10
11.5605
 20
114.256
 30
0.0
 11
11.9891
 21
113.738
 31
0.0
  0
LINE
  5
145
330
1E
100
AcDbEntity
  8
0
100
AcDbLine
 10
11.5605
 20
110.104
 30
0.0
 11
11.9891
 21
109.6489999999999
 31
0.0
  0
LINE
  5
146
330
1E
100
AcDbEntity
  8
0
100
AcDbLine
 10
10.56049999999999
 20
110.5479999999999
 30
0.0
 11
11.5605
 21
110.104
 31
0.0
  0
LINE
  5
149
330
1E
100
AcDbEntity
  8
0
100
AcDbLine
 10
5.913100000000009
 20
109.617
 30
0.0
 11
6.279000000000009
 21
109.043
 31
0.0
  0
LINE
  5
14B
330
1E
100
AcDbEntity
  8
0
100
AcDbLine
 10
0.0536000000000074
 20
115.7429999999999
 30
0.0
 11
0.107300000000012
 21
120.006
 31
0.0
  0
LINE
  5
14C
330
1E
100
AcDbEntity
  8
0
100
AcDbLine
 10
0.0536000000000074
 20
115.687
 30
0.0
 11
0.107300000000012
 21
119.95
 31
0.0
  0
LINE
  5
14D
330
1E
100
AcDbEntity
  8
0
100
AcDbLine
 10
4.20550000000002
 20
116.72
 30
0.0
 11
5.059300000000009
 21
115.999
 31
0.0
  0
LINE
  5
14E
330
1E
100
AcDbEntity
  8
0
100
AcDbLine
 10
5.059300000000009
 20
115.999
 30
0.0
 11
5.913100000000009
 21
115.5569999999999
 31
0.0
  0
LINE
  5
150
330
1E
100
AcDbEntity
  8
0
100
AcDbLine
 10
4.20550000000002
 20
117.369
 30
0.0
 11
5.059300000000009
 21
116.9259999999999
 31
0.0
  0
LINE
  5
152
330
1E
100
AcDbEntity
  8
0
100
AcDbLine
 10
3.839600000000009
 20
117.293
 30
0.0
 11
4.20550000000002
 21
116.72
 31
0.0
  0
LINE
  5
153
330
1E
100
AcDbEntity
  8
0
100
AcDbLine
 10
3.839600000000009
 20
117.293
 30
0.0
 11
4.20550000000002
 21
117.369
 31
0.0
  0
LINE
  5
154
330
1E
100
AcDbEntity
  8
0
100
AcDbLine
 10
5.059300000000009
 20
116.9259999999999
 30
0.0
 11
5.913100000000009
 21
116.206
 31
0.0
  0
LINE
  5
156
330
1E
100
AcDbEntity
  8
0
100
AcDbLine
 10
5.913100000000009
 20
115.5569999999999
 30
0.0
 11
6.279000000000009
 21
115.633
 31
0.0
  0
LINE
  5
159
330
1E
100
AcDbEntity
  8
0
100
AcDbLine
 10
5.913100000000009
 20
116.206
 30
0.0
 11
6.279000000000009
 21
115.633
 31
0.0
  0
LINE
  5
15A
330
1E
100
AcDbEntity
  8
0
100
AcDbLine
 10
0.107300000000012
 20
120.006
 30
0.0
 11
0.256200000000006
 21
123.8199999999999
 31
0.0
  0
LINE
  5
15B
330
1E
100
AcDbEntity
  8
0
100
AcDbLine
 10
0.107300000000012
 20
119.95
 30
0.0
 11
0.256200000000006
 21
123.764
 31
0.0
  0
LINE
  5
15D
330
1E
100
AcDbEntity
  8
0
100
AcDbLine
 10
4.20550000000002
 20
120.934
 30
0.0
 11
5.059300000000009
 21
120.4919999999999
 31
0.0
  0
LINE
  5
15F
330
1E
100
AcDbEntity
  8
0
100
AcDbLine
 10
3.839600000000009
 20
120.859
 30
0.0
 11
4.20550000000002
 21
120.2849999999999
 31
0.0
  0
LINE
  5
160
330
1E
100
AcDbEntity
  8
0
100
AcDbLine
 10
3.839600000000009
 20
120.859
 30
0.0
 11
4.20550000000002
 21
120.934
 31
0.0
  0
LINE
  5
161
330
1E
100
AcDbEntity
  8
0
100
AcDbLine
 10
4.20550000000002
 20
120.2849999999999
 30
0.0
 11
5.059300000000009
 21
119.565
 31
0.0
  0
LINE
  5
162
330
1E
100
AcDbEntity
  8
0
100
AcDbLine
 10
5.059300000000009
 20
119.565
 30
0.0
 11
5.913100000000009
 21
119.123
 31
0.0
  0
LINE
  5
163
330
1E
100
AcDbEntity
  8
0
100
AcDbLine
 10
5.913100000000009
 20
119.123
 30
0.0
 11
6.279000000000009
 21
119.198
 31
0.0
  0
LINE
  5
166
330
1E
100
AcDbEntity
  8
0
100
AcDbLine
 10
5.913100000000009
 20
119.772
 30
0.0
 11
6.279000000000009
 21
119.198
 31
0.0
  0
LINE
  5
167
330
1E
100
AcDbEntity
  8
0
100
AcDbLine
 10
5.059300000000009
 20
120.4919999999999
 30
0.0
 11
5.913100000000009
 21
119.772
 31
0.0
  0
LINE
  5
169
330
1E
100
AcDbEntity
  8
0
100
AcDbLine
 10
0.380400000000007
 20
126.645
 30
0.0
 11
0.504600000000008
 21
128.4939999999999
 31
0.0
  0
LINE
  5
16A
330
1E
100
AcDbEntity
  8
0
100
AcDbLine
 10
0.256200000000006
 20
123.8199999999999
 30
0.0
 11
0.380400000000007
 21
126.645
 31
0.0
  0
LINE
  5
16B
330
1E
100
AcDbEntity
  8
0
100
AcDbLine
 10
0.504600000000008
 20
128.4939999999999
 30
0.0
 11
0.6353581203076221
 21
129.7455576461289
 31
0.0
  0
LINE
  5
16D
330
1E
100
AcDbEntity
  8
0
100
AcDbLine
 10
0.6353581203076221
 20
129.7455576461289
 30
0.0
 11
0.7157000000000091
 21
130.4799999999999
 31
0.0
  0
LINE
  5
171
330
1E
100
AcDbEntity
  8
0
100
AcDbLine
 10
0.256200000000006
 20
123.764
 30
0.0
 11
0.380400000000007
 21
126.5889999999999
 31
0.0
  0
LINE
  5
176
330
1E
100
AcDbEntity
  8
0
100
AcDbLine
 10
0.839000000000011
 20
131.406
 30
0.0
 11
1.101100000000009
 21
132.126
 31
0.0
  0
LINE
  5
177
330
1E
100
AcDbEntity
  8
0
100
AcDbLine
 10
0.7157000000000091
 20
130.4799999999999
 30
0.0
 11
0.839000000000011
 21
131.406
 31
0.0
  0
LINE
  5
179
330
1E
100
AcDbEntity
  8
0
100
AcDbLine
 10
1.101100000000009
 20
132.126
 30
0.0
 11
1.37870000000001
 21
132.727
 31
0.0
  0
LINE
  5
17F
330
1E
100
AcDbEntity
  8
0
100
AcDbLine
 10
1.37870000000001
 20
132.727
 30
0.0
 11
1.77950000000002
 21
133.241
 31
0.0
  0
LINE
  5
180
330
1E
100
AcDbEntity
  8
0
100
AcDbLine
 10
1.77950000000002
 20
133.241
 30
0.0
 11
2.195800000000009
 21
133.6179999999999
 31
0.0
  0
LINE
  5
185
330
1E
100
AcDbEntity
  8
0
100
AcDbLine
 10
2.195800000000009
 20
133.6179999999999
 30
0.0
 11
2.750900000000009
 21
133.858
 31
0.0
  0
LINE
  5
186
330
1E
100
AcDbEntity
  8
0
100
AcDbLine
 10
2.750900000000009
 20
133.858
 30
0.0
 11
3.383
 21
134.047
 31
0.0
  0
LINE
  5
189
330
1E
100
AcDbEntity
  8
0
100
AcDbLine
 10
3.383
 20
134.047
 30
0.0
 11
4.523900000000009
 21
134.2189999999999
 31
0.0
  0
LINE
  5
18A
330
1E
100
AcDbEntity
  8
0
100
AcDbLine
 10
4.523900000000009
 20
134.2189999999999
 30
0.0
 11
6.250700000000009
 21
134.442
 31
0.0
  0
LINE
  5
191
330
1E
100
AcDbEntity
  8
0
100
AcDbLine
 10
6.250700000000009
 20
134.442
 30
0.0
 11
6.534500000000009
 21
134.4779999999999
 31
0.0
  0
LINE
  5
192
330
1E
100
AcDbEntity
  8
0
100
AcDbLine
 10
8.517300000000009
 20
134.714
 30
0.0
 11
11.0723
 21
134.773
 31
0.0
  0
LINE
  5
195
330
1E
100
AcDbEntity
  8
0
100
AcDbLine
 10
9.56040000000001
 20
119.367
 30
0.0
 11
10.56049999999999
 21
119.2379999999999
 31
0.0
  0
LINE
  5
197
330
1E
100
AcDbEntity
  8
0
100
AcDbLine
 10
9.131800000000009
 20
119.103
 30
0.0
 11
9.56040000000001
 21
118.5839999999999
 31
0.0
  0
LINE
  5
198
330
1E
100
AcDbEntity
  8
0
100
AcDbLine
 10
9.131800000000009
 20
119.103
 30
0.0
 11
9.56040000000001
 21
119.367
 31
0.0
  0
LINE
  5
199
330
1E
100
AcDbEntity
  8
0
100
AcDbLine
 10
9.56040000000001
 20
118.5839999999999
 30
0.0
 11
10.56049999999999
 21
118.1189999999999
 31
0.0
  0
LINE
  5
19A
330
1E
100
AcDbEntity
  8
0
100
AcDbLine
 10
10.56049999999999
 20
118.1189999999999
 30
0.0
 11
11.5605
 21
117.9899999999999
 31
0.0
  0
LINE
  5
19B
330
1E
100
AcDbEntity
  8
0
100
AcDbLine
 10
11.5605
 20
117.9899999999999
 30
0.0
 11
11.9891
 21
118.2539999999999
 31
0.0
  0
LINE
  5
1A2
330
1E
100
AcDbEntity
  8
0
100
AcDbLine
 10
11.0723
 20
134.773
 30
0.0
 11
14.0
 21
134.831
 31
0.0
  0
LINE
  5
1A4
330
1E
100
AcDbEntity
  8
0
100
AcDbLine
 10
11.5605
 20
118.7729999999999
 30
0.0
 11
11.9891
 21
118.2539999999999
 31
0.0
  0
LINE
  5
1A5
330
1E
100
AcDbEntity
  8
0
100
AcDbLine
 10
10.56049999999999
 20
119.2379999999999
 30
0.0
 11
11.5605
 21
118.7729999999999
 31
0.0
  0
LINE
  5
314
330
1E
100
AcDbEntity
  8
0
100
AcDbLine
 10
6.534500000000009
 20
134.4779999999999
 30
0.0
 11
8.517300000000009
 21
134.714
 31
0.0
  0
LINE
  5
315
330
1E
100
AcDbEntity
  8
0
100
AcDbLine
 10
25.99999999999999
 20
63.95399999999999
 30
0.0
 11
25.99999999999999
 21
70.49800000000001
 31
0.0
  0
LINE
  5
316
330
1E
100
AcDbEntity
  8
0
100
AcDbLine
 10
25.99999999999999
 20
70.49800000000001
 30
0.0
 11
25.99999999999999
 21
63.95399999999999
 31
0.0
  0
LINE
  5
317
330
1E
100
AcDbEntity
  8
0
100
AcDbLine
 10
24.416
 20
11.731
 30
0.0
 11
22.49599999999999
 21
8.128999999999958
 31
0.0
  0
LINE
  5
318
330
1E
100
AcDbEntity
  8
0
100
AcDbLine
 10
23.63999999999998
 20
6.28699999999997
 30
0.0
 11
22.67999999999999
 21
4.34599999999999
 31
0.0
  0
LINE
  5
319
330
1E
100
AcDbEntity
  8
0
100
AcDbLine
 10
25.99999999999999
 20
21.065
 30
0.0
 11
25.99999999999999
 21
40.054
 31
0.0
  0
LINE
  5
31A
330
1E
100
AcDbEntity
  8
0
100
AcDbLine
 10
25.99999999999999
 20
40.054
 30
0.0
 11
25.99999999999999
 21
21.065
 31
0.0
  0
LINE
  5
31B
330
1E
100
AcDbEntity
  8
0
100
AcDbLine
 10
25.56799999999999
 20
15.80799999999999
 30
0.0
 11
24.416
 21
11.731
 31
0.0
  0
LINE
  5
31C
330
1E
100
AcDbEntity
  8
0
100
AcDbLine
 10
25.99999999999999
 20
21.065
 30
0.0
 11
25.56799999999999
 21
15.80799999999999
 31
0.0
  0
LINE
  5
31D
330
1E
100
AcDbEntity
  8
0
100
AcDbLine
 10
23.99999999999999
 20
8.357999999999989
 30
0.0
 11
23.63999999999998
 21
6.28699999999997
 31
0.0
  0
LINE
  5
31E
330
1E
100
AcDbEntity
  8
0
100
AcDbLine
 10
23.99999999999999
 20
8.357999999999989
 30
0.0
 11
23.99999999999999
 21
10.9505666666666
 31
0.0
  0
LINE
  5
31F
330
1E
100
AcDbEntity
  8
0
100
AcDbLine
 10
23.99999999999999
 20
10.9505666666666
 30
0.0
 11
23.99999999999999
 21
8.357999999999989
 31
0.0
  0
LINE
  5
320
330
1E
100
AcDbEntity
  8
0
100
AcDbLine
 10
25.99999999999999
 20
40.054
 30
0.0
 11
25.99999999999999
 21
53.55399999999999
 31
0.0
  0
LINE
  5
321
330
1E
100
AcDbEntity
  8
0
100
AcDbLine
 10
25.99999999999999
 20
53.55399999999999
 30
0.0
 11
25.99999999999999
 21
40.054
 31
0.0
  0
LINE
  5
322
330
1E
100
AcDbEntity
  8
0
100
AcDbLine
 10
25.99999999999999
 20
53.55399999999999
 30
0.0
 11
25.99999999999999
 21
63.95399999999999
 31
0.0
  0
LINE
  5
323
330
1E
100
AcDbEntity
  8
0
100
AcDbLine
 10
25.99999999999999
 20
63.95399999999999
 30
0.0
 11
25.99999999999999
 21
53.55399999999999
 31
0.0
  0
LINE
  5
324
330
1E
100
AcDbEntity
  8
0
100
AcDbLine
 10
18.83999999999998
 20
1.235999999999999
 30
0.0
 11
16.52
 21
0.459999999999986
 31
0.0
  0
LINE
  5
325
330
1E
100
AcDbEntity
  8
0
100
AcDbLine
 10
19.95199999999999
 20
5.41099999999999
 30
0.0
 11
17.072
 21
3.779999999999999
 31
0.0
  0
LINE
  5
326
330
1E
100
AcDbEntity
  8
0
100
AcDbLine
 10
22.67999999999999
 20
4.34599999999999
 30
0.0
 11
21.07999999999999
 21
2.630999999999939
 31
0.0
  0
LINE
  5
327
330
1E
100
AcDbEntity
  8
0
100
AcDbLine
 10
20.87999999999998
 20
2.498
 30
0.0
 11
18.83999999999998
 21
1.235999999999999
 31
0.0
  0
LINE
  5
328
330
1E
100
AcDbEntity
  8
0
100
AcDbLine
 10
21.07999999999999
 20
2.630999999999939
 30
0.0
 11
20.87999999999998
 21
2.498
 31
0.0
  0
LINE
  5
329
330
1E
100
AcDbEntity
  8
0
100
AcDbLine
 10
22.49599999999999
 20
8.128999999999958
 30
0.0
 11
19.95199999999999
 21
5.41099999999999
 31
0.0
  0
LINE
  5
32A
330
1E
100
AcDbEntity
  8
0
100
AcDbLine
 10
16.52
 20
0.459999999999986
 30
0.0
 11
14.0
 21
0.168999999999998
 31
0.0
  0
LINE
  5
32B
330
1E
100
AcDbEntity
  8
0
100
AcDbLine
 10
17.072
 20
3.779999999999999
 30
0.0
 11
14.0
 21
3.167999999999979
 31
0.0
  0
LINE
  5
32C
330
1E
100
AcDbEntity
  8
0
100
AcDbLine
 10
23.47609999999999
 20
134.2189999999999
 30
0.0
 11
21.74929999999999
 21
134.442
 31
0.0
  0
LINE
  5
32D
330
1E
100
AcDbEntity
  8
0
100
AcDbLine
 10
22.94069999999999
 20
120.4919999999999
 30
0.0
 11
22.08689999999998
 21
119.772
 31
0.0
  0
LINE
  5
32E
330
1E
100
AcDbEntity
  8
0
100
AcDbLine
 10
22.94069999999999
 20
119.565
 30
0.0
 11
22.08689999999998
 21
119.123
 31
0.0
  0
LINE
  5
32F
330
1E
100
AcDbEntity
  8
0
100
AcDbLine
 10
22.94069999999999
 20
116.9259999999999
 30
0.0
 11
22.08689999999998
 21
116.206
 31
0.0
  0
LINE
  5
330
330
1E
100
AcDbEntity
  8
0
100
AcDbLine
 10
22.94069999999999
 20
115.999
 30
0.0
 11
22.08689999999998
 21
115.5569999999999
 31
0.0
  0
LINE
  5
331
330
1E
100
AcDbEntity
  8
0
100
AcDbLine
 10
22.94069999999999
 20
110.3369999999999
 30
0.0
 11
22.08689999999998
 21
109.617
 31
0.0
  0
LINE
  5
332
330
1E
100
AcDbEntity
  8
0
100
AcDbLine
 10
22.94069999999999
 20
113.427
 30
0.0
 11
22.08689999999998
 21
112.707
 31
0.0
  0
LINE
  5
333
330
1E
100
AcDbEntity
  8
0
100
AcDbLine
 10
22.94069999999999
 20
112.5
 30
0.0
 11
22.08689999999998
 21
112.0579999999999
 31
0.0
  0
LINE
  5
334
330
1E
100
AcDbEntity
  8
0
100
AcDbLine
 10
22.94069999999999
 20
109.41
 30
0.0
 11
22.08689999999998
 21
108.9679999999999
 31
0.0
  0
LINE
  5
335
330
1E
100
AcDbEntity
  8
0
100
AcDbLine
 10
22.94069999999999
 20
107.247
 30
0.0
 11
22.08689999999998
 21
106.5269999999999
 31
0.0
  0
LINE
  5
336
330
1E
100
AcDbEntity
  8
0
100
AcDbLine
 10
22.94069999999999
 20
106.3199999999999
 30
0.0
 11
22.08689999999998
 21
105.8779999999999
 31
0.0
  0
LINE
  5
337
330
1E
100
AcDbEntity
  8
0
100
AcDbLine
 10
22.94069999999999
 20
104.157
 30
0.0
 11
22.08689999999998
 21
103.437
 31
0.0
  0
LINE
  5
338
330
1E
100
AcDbEntity
  8
0
100
AcDbLine
 10
22.94069999999999
 20
103.2299999999999
 30
0.0
 11
22.08689999999998
 21
102.7879999999999
 31
0.0
  0
LINE
  5
339
330
1E
100
AcDbEntity
  8
0
100
AcDbLine
 10
22.94069999999999
 20
101.4329999999999
 30
0.0
 11
22.08689999999998
 21
100.7129999999999
 31
0.0
  0
LINE
  5
33A
330
1E
100
AcDbEntity
  8
0
100
AcDbLine
 10
22.94069999999999
 20
100.506
 30
0.0
 11
22.08689999999998
 21
100.0639999999999
 31
0.0
  0
LINE
  5
33B
330
1E
100
AcDbEntity
  8
0
100
AcDbLine
 10
22.94069999999999
 20
97.416
 30
0.0
 11
22.08689999999998
 21
96.973
 31
0.0
  0
LINE
  5
33C
330
1E
100
AcDbEntity
  8
0
100
AcDbLine
 10
22.94069999999999
 20
98.34299999999998
 30
0.0
 11
22.08689999999998
 21
97.62200000000001
 31
0.0
  0
LINE
  5
33D
330
1E
100
AcDbEntity
  8
0
100
AcDbLine
 10
22.94069999999999
 20
94.325
 30
0.0
 11
22.08689999999998
 21
93.88299999999999
 31
0.0
  0
LINE
  5
33E
330
1E
100
AcDbEntity
  8
0
100
AcDbLine
 10
22.94069999999999
 20
95.25299999999999
 30
0.0
 11
22.08689999999998
 21
94.532
 31
0.0
  0
LINE
  5
33F
330
1E
100
AcDbEntity
  8
0
100
AcDbLine
 10
22.94069999999999
 20
92.162
 30
0.0
 11
22.08689999999998
 21
91.4420000000001
 31
0.0
  0
LINE
  5
340
330
1E
100
AcDbEntity
  8
0
100
AcDbLine
 10
22.94069999999999
 20
91.23499999999999
 30
0.0
 11
22.08689999999998
 21
90.79299999999999
 31
0.0
  0
LINE
  5
341
330
1E
100
AcDbEntity
  8
0
100
AcDbLine
 10
22.94069999999999
 20
89.48100000000001
 30
0.0
 11
22.08689999999998
 21
88.76100000000009
 31
0.0
  0
LINE
  5
342
330
1E
100
AcDbEntity
  8
0
100
AcDbLine
 10
22.94069999999999
 20
88.55400000000001
 30
0.0
 11
22.08689999999998
 21
88.1120000000001
 31
0.0
  0
LINE
  5
343
330
1E
100
AcDbEntity
  8
0
100
AcDbLine
 10
27.99999999999999
 20
110.803
 30
0.0
 11
27.94639999999999
 21
105.919
 31
0.0
  0
LINE
  5
344
330
1E
100
AcDbEntity
  8
0
100
AcDbLine
 10
23.79449999999998
 20
110.1299999999999
 30
0.0
 11
22.94069999999999
 21
109.41
 31
0.0
  0
LINE
  5
345
330
1E
100
AcDbEntity
  8
0
100
AcDbLine
 10
27.24709999999999
 20
91.195
 30
0.0
 11
26.95269999999998
 21
89.4600000000001
 31
0.0
  0
LINE
  5
346
330
1E
100
AcDbEntity
  8
0
100
AcDbLine
 10
27.89269999999998
 20
101.657
 30
0.0
 11
27.74379999999999
 21
97.84200000000002
 31
0.0
  0
LINE
  5
347
330
1E
100
AcDbEntity
  8
0
100
AcDbLine
 10
27.61959999999999
 20
95.01700000000001
 30
0.0
 11
27.49539999999999
 21
93.16799999999998
 31
0.0
  0
LINE
  5
348
330
1E
100
AcDbEntity
  8
0
100
AcDbLine
 10
27.24709999999999
 20
91.13899999999999
 30
0.0
 11
27.22714404933476
 21
91.07739274998579
 31
0.0
  0
LINE
  5
349
330
1E
100
AcDbEntity
  8
0
100
AcDbLine
 10
27.49539999999999
 20
93.16799999999998
 30
0.0
 11
27.38679999999998
 21
92.064
 31
0.0
  0
LINE
  5
34A
330
1E
100
AcDbEntity
  8
0
100
AcDbLine
 10
27.38679999999998
 20
92.064
 30
0.0
 11
27.24709999999999
 21
91.13899999999999
 31
0.0
  0
LINE
  5
34B
330
1E
100
AcDbEntity
  8
0
100
AcDbLine
 10
27.74379999999999
 20
97.84200000000002
 30
0.0
 11
27.61959999999999
 21
95.01700000000001
 31
0.0
  0
LINE
  5
34C
330
1E
100
AcDbEntity
  8
0
100
AcDbLine
 10
27.94639999999999
 20
105.919
 30
0.0
 11
27.89269999999998
 21
101.657
 31
0.0
  0
LINE
  5
34D
330
1E
100
AcDbEntity
  8
0
100
AcDbLine
 10
26.95269999999998
 20
89.4600000000001
 30
0.0
 11
26.64955031893065
 21
87.9599579004393
 31
0.0
  0
LINE
  5
34E
330
1E
100
AcDbEntity
  8
0
100
AcDbLine
 10
26.19629999999999
 20
82.89700000000001
 30
0.0
 11
25.99999999999999
 21
77.041
 31
0.0
  0
LINE
  5
34F
330
1E
100
AcDbEntity
  8
0
100
AcDbLine
 10
25.99999999999999
 20
70.49800000000001
 30
0.0
 11
25.99999999999999
 21
77.041
 31
0.0
  0
LINE
  5
350
330
1E
100
AcDbEntity
  8
0
100
AcDbLine
 10
25.99999999999999
 20
77.041
 30
0.0
 11
25.99999999999999
 21
70.49800000000001
 31
0.0
  0
LINE
  5
351
330
1E
100
AcDbEntity
  8
0
100
AcDbLine
 10
26.51969999999999
 20
86.65
 30
0.0
 11
26.19629999999999
 21
82.89700000000001
 31
0.0
  0
LINE
  5
352
330
1E
100
AcDbEntity
  8
0
100
AcDbLine
 10
26.6352
 20
87.809
 30
0.0
 11
26.51969999999999
 21
86.65
 31
0.0
  0
LINE
  5
353
330
1E
100
AcDbEntity
  8
0
100
AcDbLine
 10
26.64955031893065
 20
87.9599579004393
 30
0.0
 11
26.6352
 21
87.809
 31
0.0
  0
LINE
  5
354
330
1E
100
AcDbEntity
  8
0
100
AcDbLine
 10
24.16039999999998
 20
98.71
 30
0.0
 11
23.79449999999998
 21
98.136
 31
0.0
  0
LINE
  5
355
330
1E
100
AcDbEntity
  8
0
100
AcDbLine
 10
24.16039999999998
 20
98.71
 30
0.0
 11
23.79449999999998
 21
98.785
 31
0.0
  0
LINE
  5
356
330
1E
100
AcDbEntity
  8
0
100
AcDbLine
 10
24.16039999999998
 20
95.61899999999999
 30
0.0
 11
23.79449999999998
 21
95.04600000000001
 31
0.0
  0
LINE
  5
357
330
1E
100
AcDbEntity
  8
0
100
AcDbLine
 10
24.16039999999998
 20
95.61899999999999
 30
0.0
 11
23.79449999999998
 21
95.69499999999999
 31
0.0
  0
LINE
  5
358
330
1E
100
AcDbEntity
  8
0
100
AcDbLine
 10
24.16039999999998
 20
92.529
 30
0.0
 11
23.79449999999998
 21
91.956
 31
0.0
  0
LINE
  5
359
330
1E
100
AcDbEntity
  8
0
100
AcDbLine
 10
24.16039999999998
 20
92.529
 30
0.0
 11
23.79449999999998
 21
92.605
 31
0.0
  0
LINE
  5
35A
330
1E
100
AcDbEntity
  8
0
100
AcDbLine
 10
24.16039999999998
 20
89.84799999999999
 30
0.0
 11
23.79449999999998
 21
89.274
 31
0.0
  0
LINE
  5
35B
330
1E
100
AcDbEntity
  8
0
100
AcDbLine
 10
24.16039999999998
 20
89.84799999999999
 30
0.0
 11
23.79449999999998
 21
89.92299999999998
 31
0.0
  0
LINE
  5
35C
330
1E
100
AcDbEntity
  8
0
100
AcDbLine
 10
23.79449999999998
 20
92.605
 30
0.0
 11
22.94069999999999
 21
92.162
 31
0.0
  0
LINE
  5
35D
330
1E
100
AcDbEntity
  8
0
100
AcDbLine
 10
23.79449999999998
 20
91.956
 30
0.0
 11
22.94069999999999
 21
91.23499999999999
 31
0.0
  0
LINE
  5
35E
330
1E
100
AcDbEntity
  8
0
100
AcDbLine
 10
23.79449999999998
 20
89.92299999999998
 30
0.0
 11
22.94069999999999
 21
89.48100000000001
 31
0.0
  0
LINE
  5
35F
330
1E
100
AcDbEntity
  8
0
100
AcDbLine
 10
23.79449999999998
 20
89.274
 30
0.0
 11
22.94069999999999
 21
88.55400000000001
 31
0.0
  0
LINE
  5
360
330
1E
100
AcDbEntity
  8
0
100
AcDbLine
 10
23.79449999999998
 20
98.785
 30
0.0
 11
22.94069999999999
 21
98.34299999999998
 31
0.0
  0
LINE
  5
361
330
1E
100
AcDbEntity
  8
0
100
AcDbLine
 10
23.79449999999998
 20
98.136
 30
0.0
 11
22.94069999999999
 21
97.416
 31
0.0
  0
LINE
  5
362
330
1E
100
AcDbEntity
  8
0
100
AcDbLine
 10
23.79449999999998
 20
95.69499999999999
 30
0.0
 11
22.94069999999999
 21
95.25299999999999
 31
0.0
  0
LINE
  5
363
330
1E
100
AcDbEntity
  8
0
100
AcDbLine
 10
23.79449999999998
 20
95.04600000000001
 30
0.0
 11
22.94069999999999
 21
94.325
 31
0.0
  0
LINE
  5
364
330
1E
100
AcDbEntity
  8
0
100
AcDbLine
 10
24.16039999999998
 20
107.6139999999999
 30
0.0
 11
23.79449999999998
 21
107.6889999999999
 31
0.0
  0
LINE
  5
365
330
1E
100
AcDbEntity
  8
0
100
AcDbLine
 10
24.16039999999998
 20
107.6139999999999
 30
0.0
 11
23.79449999999998
 21
107.04
 31
0.0
  0
LINE
  5
366
330
1E
100
AcDbEntity
  8
0
100
AcDbLine
 10
24.16039999999998
 20
104.5239999999999
 30
0.0
 11
23.79449999999998
 21
104.5989999999999
 31
0.0
  0
LINE
  5
367
330
1E
100
AcDbEntity
  8
0
100
AcDbLine
 10
24.16039999999998
 20
104.5239999999999
 30
0.0
 11
23.79449999999998
 21
103.95
 31
0.0
  0
LINE
  5
368
330
1E
100
AcDbEntity
  8
0
100
AcDbLine
 10
24.16039999999998
 20
101.8
 30
0.0
 11
23.79449999999998
 21
101.2259999999999
 31
0.0
  0
LINE
  5
369
330
1E
100
AcDbEntity
  8
0
100
AcDbLine
 10
24.16039999999998
 20
101.8
 30
0.0
 11
23.79449999999998
 21
101.875
 31
0.0
  0
LINE
  5
36A
330
1E
100
AcDbEntity
  8
0
100
AcDbLine
 10
23.79449999999998
 20
104.5989999999999
 30
0.0
 11
22.94069999999999
 21
104.157
 31
0.0
  0
LINE
  5
36B
330
1E
100
AcDbEntity
  8
0
100
AcDbLine
 10
23.79449999999998
 20
103.95
 30
0.0
 11
22.94069999999999
 21
103.2299999999999
 31
0.0
  0
LINE
  5
36C
330
1E
100
AcDbEntity
  8
0
100
AcDbLine
 10
23.79449999999998
 20
101.875
 30
0.0
 11
22.94069999999999
 21
101.4329999999999
 31
0.0
  0
LINE
  5
36D
330
1E
100
AcDbEntity
  8
0
100
AcDbLine
 10
23.79449999999998
 20
101.2259999999999
 30
0.0
 11
22.94069999999999
 21
100.506
 31
0.0
  0
LINE
  5
36E
330
1E
100
AcDbEntity
  8
0
100
AcDbLine
 10
23.79449999999998
 20
107.6889999999999
 30
0.0
 11
22.94069999999999
 21
107.247
 31
0.0
  0
LINE
  5
36F
330
1E
100
AcDbEntity
  8
0
100
AcDbLine
 10
23.79449999999998
 20
107.04
 30
0.0
 11
22.94069999999999
 21
106.3199999999999
 31
0.0
  0
LINE
  5
370
330
1E
100
AcDbEntity
  8
0
100
AcDbLine
 10
27.16099999999999
 20
131.406
 30
0.0
 11
26.89889999999999
 21
132.126
 31
0.0
  0
LINE
  5
371
330
1E
100
AcDbEntity
  8
0
100
AcDbLine
 10
27.28429999999999
 20
130.4799999999999
 30
0.0
 11
27.16099999999999
 21
131.406
 31
0.0
  0
LINE
  5
372
330
1E
100
AcDbEntity
  8
0
100
AcDbLine
 10
27.89269999999998
 20
119.95
 30
0.0
 11
27.74379999999999
 21
123.764
 31
0.0
  0
LINE
  5
373
330
1E
100
AcDbEntity
  8
0
100
AcDbLine
 10
27.89269999999998
 20
120.006
 30
0.0
 11
27.74379999999999
 21
123.8199999999999
 31
0.0
  0
LINE
  5
374
330
1E
100
AcDbEntity
  8
0
100
AcDbLine
 10
27.99999999999999
 20
110.803
 30
0.0
 11
27.94639999999999
 21
115.687
 31
0.0
  0
LINE
  5
375
330
1E
100
AcDbEntity
  8
0
100
AcDbLine
 10
27.99999999999999
 20
110.8589999999999
 30
0.0
 11
27.94639999999999
 21
115.7429999999999
 31
0.0
  0
LINE
  5
376
330
1E
100
AcDbEntity
  8
0
100
AcDbLine
 10
27.94639999999999
 20
115.687
 30
0.0
 11
27.89269999999998
 21
119.95
 31
0.0
  0
LINE
  5
377
330
1E
100
AcDbEntity
  8
0
100
AcDbLine
 10
27.94639999999999
 20
115.7429999999999
 30
0.0
 11
27.89269999999998
 21
120.006
 31
0.0
  0
LINE
  5
378
330
1E
100
AcDbEntity
  8
0
100
AcDbLine
 10
27.74379999999999
 20
123.764
 30
0.0
 11
27.61959999999999
 21
126.5889999999999
 31
0.0
  0
LINE
  5
379
330
1E
100
AcDbEntity
  8
0
100
AcDbLine
 10
27.74379999999999
 20
123.8199999999999
 30
0.0
 11
27.61959999999999
 21
126.645
 31
0.0
  0
LINE
  5
37A
330
1E
100
AcDbEntity
  8
0
100
AcDbLine
 10
27.61959999999999
 20
126.645
 30
0.0
 11
27.49539999999999
 21
128.4939999999999
 31
0.0
  0
LINE
  5
37B
330
1E
100
AcDbEntity
  8
0
100
AcDbLine
 10
27.49539999999999
 20
128.4939999999999
 30
0.0
 11
27.36464187969238
 21
129.7455576461289
 31
0.0
  0
LINE
  5
37C
330
1E
100
AcDbEntity
  8
0
100
AcDbLine
 10
27.36464187969238
 20
129.7455576461289
 30
0.0
 11
27.28429999999999
 21
130.4799999999999
 31
0.0
  0
LINE
  5
37D
330
1E
100
AcDbEntity
  8
0
100
AcDbLine
 10
23.79449999999998
 20
120.2849999999999
 30
0.0
 11
22.94069999999999
 21
119.565
 31
0.0
  0
LINE
  5
37E
330
1E
100
AcDbEntity
  8
0
100
AcDbLine
 10
24.16039999999998
 20
117.293
 30
0.0
 11
23.79449999999998
 21
117.369
 31
0.0
  0
LINE
  5
37F
330
1E
100
AcDbEntity
  8
0
100
AcDbLine
 10
24.16039999999998
 20
117.293
 30
0.0
 11
23.79449999999998
 21
116.72
 31
0.0
  0
LINE
  5
380
330
1E
100
AcDbEntity
  8
0
100
AcDbLine
 10
24.16039999999998
 20
110.704
 30
0.0
 11
23.79449999999998
 21
110.779
 31
0.0
  0
LINE
  5
381
330
1E
100
AcDbEntity
  8
0
100
AcDbLine
 10
24.16039999999998
 20
110.704
 30
0.0
 11
23.79449999999998
 21
110.1299999999999
 31
0.0
  0
LINE
  5
382
330
1E
100
AcDbEntity
  8
0
100
AcDbLine
 10
24.16039999999998
 20
113.7939999999999
 30
0.0
 11
23.79449999999998
 21
113.87
 31
0.0
  0
LINE
  5
383
330
1E
100
AcDbEntity
  8
0
100
AcDbLine
 10
24.16039999999998
 20
113.7939999999999
 30
0.0
 11
23.79449999999998
 21
113.221
 31
0.0
  0
LINE
  5
384
330
1E
100
AcDbEntity
  8
0
100
AcDbLine
 10
23.79449999999998
 20
110.779
 30
0.0
 11
22.94069999999999
 21
110.3369999999999
 31
0.0
  0
LINE
  5
385
330
1E
100
AcDbEntity
  8
0
100
AcDbLine
 10
23.79449999999998
 20
113.221
 30
0.0
 11
22.94069999999999
 21
112.5
 31
0.0
  0
LINE
  5
386
330
1E
100
AcDbEntity
  8
0
100
AcDbLine
 10
23.79449999999998
 20
113.87
 30
0.0
 11
22.94069999999999
 21
113.427
 31
0.0
  0
LINE
  5
387
330
1E
100
AcDbEntity
  8
0
100
AcDbLine
 10
23.79449999999998
 20
117.369
 30
0.0
 11
22.94069999999999
 21
116.9259999999999
 31
0.0
  0
LINE
  5
388
330
1E
100
AcDbEntity
  8
0
100
AcDbLine
 10
23.79449999999998
 20
116.72
 30
0.0
 11
22.94069999999999
 21
115.999
 31
0.0
  0
LINE
  5
389
330
1E
100
AcDbEntity
  8
0
100
AcDbLine
 10
24.16039999999998
 20
120.859
 30
0.0
 11
23.79449999999998
 21
120.934
 31
0.0
  0
LINE
  5
38A
330
1E
100
AcDbEntity
  8
0
100
AcDbLine
 10
24.16039999999998
 20
120.859
 30
0.0
 11
23.79449999999998
 21
120.2849999999999
 31
0.0
  0
LINE
  5
38B
330
1E
100
AcDbEntity
  8
0
100
AcDbLine
 10
23.79449999999998
 20
120.934
 30
0.0
 11
22.94069999999999
 21
120.4919999999999
 31
0.0
  0
LINE
  5
38C
330
1E
100
AcDbEntity
  8
0
100
AcDbLine
 10
25.24909999999999
 20
133.858
 30
0.0
 11
24.617
 21
134.047
 31
0.0
  0
LINE
  5
38D
330
1E
100
AcDbEntity
  8
0
100
AcDbLine
 10
26.22049999999997
 20
133.241
 30
0.0
 11
25.80419999999999
 21
133.6179999999999
 31
0.0
  0
LINE
  5
38E
330
1E
100
AcDbEntity
  8
0
100
AcDbLine
 10
26.62129999999999
 20
132.727
 30
0.0
 11
26.22049999999997
 21
133.241
 31
0.0
  0
LINE
  5
38F
330
1E
100
AcDbEntity
  8
0
100
AcDbLine
 10
26.89889999999999
 20
132.126
 30
0.0
 11
26.62129999999999
 21
132.727
 31
0.0
  0
LINE
  5
390
330
1E
100
AcDbEntity
  8
0
100
AcDbLine
 10
25.80419999999999
 20
133.6179999999999
 30
0.0
 11
25.24909999999999
 21
133.858
 31
0.0
  0
LINE
  5
391
330
1E
100
AcDbEntity
  8
0
100
AcDbLine
 10
24.617
 20
134.047
 30
0.0
 11
23.47609999999999
 21
134.2189999999999
 31
0.0
  0
LINE
  5
392
330
1E
100
AcDbEntity
  8
0
100
AcDbLine
 10
22.08689999999998
 20
109.617
 30
0.0
 11
21.72099999999999
 21
109.043
 31
0.0
  0
LINE
  5
393
330
1E
100
AcDbEntity
  8
0
100
AcDbLine
 10
17.4395
 20
109.621
 30
0.0
 11
16.4395
 21
109.4549999999999
 31
0.0
  0
LINE
  5
394
330
1E
100
AcDbEntity
  8
0
100
AcDbLine
 10
16.4395
 20
109.4549999999999
 30
0.0
 11
16.0109
 21
109.6489999999999
 31
0.0
  0
LINE
  5
395
330
1E
100
AcDbEntity
  8
0
100
AcDbLine
 10
18.43959999999999
 20
107.623
 30
0.0
 11
17.4395
 21
107.457
 31
0.0
  0
LINE
  5
396
330
1E
100
AcDbEntity
  8
0
100
AcDbLine
 10
18.43959999999999
 20
106.9739999999999
 30
0.0
 11
17.4395
 21
106.53
 31
0.0
  0
LINE
  5
397
330
1E
100
AcDbEntity
  8
0
100
AcDbLine
 10
18.43959999999999
 20
100.7929999999999
 30
0.0
 11
17.4395
 21
100.35
 31
0.0
  0
LINE
  5
398
330
1E
100
AcDbEntity
  8
0
100
AcDbLine
 10
18.43959999999999
 20
101.442
 30
0.0
 11
17.4395
 21
101.2769999999999
 31
0.0
  0
LINE
  5
399
330
1E
100
AcDbEntity
  8
0
100
AcDbLine
 10
18.43959999999999
 20
103.8839999999999
 30
0.0
 11
17.4395
 21
103.4399999999999
 31
0.0
  0
LINE
  5
39A
330
1E
100
AcDbEntity
  8
0
100
AcDbLine
 10
18.43959999999999
 20
104.5329999999999
 30
0.0
 11
17.4395
 21
104.367
 31
0.0
  0
LINE
  5
39B
330
1E
100
AcDbEntity
  8
0
100
AcDbLine
 10
18.43959999999999
 20
98.69399999999991
 30
0.0
 11
17.4395
 21
98.528
 31
0.0
  0
LINE
  5
39C
330
1E
100
AcDbEntity
  8
0
100
AcDbLine
 10
18.43959999999999
 20
98.045
 30
0.0
 11
17.4395
 21
97.60100000000001
 31
0.0
  0
LINE
  5
39D
330
1E
100
AcDbEntity
  8
0
100
AcDbLine
 10
18.43959999999999
 20
92.51299999999998
 30
0.0
 11
17.4395
 21
92.34799999999999
 31
0.0
  0
LINE
  5
39E
330
1E
100
AcDbEntity
  8
0
100
AcDbLine
 10
18.43959999999999
 20
95.60399999999999
 30
0.0
 11
17.4395
 21
95.43799999999999
 31
0.0
  0
LINE
  5
39F
330
1E
100
AcDbEntity
  8
0
100
AcDbLine
 10
18.43959999999999
 20
94.95499999999999
 30
0.0
 11
17.4395
 21
94.51100000000002
 31
0.0
  0
LINE
  5
3A0
330
1E
100
AcDbEntity
  8
0
100
AcDbLine
 10
18.43959999999999
 20
91.865
 30
0.0
 11
17.4395
 21
91.42100000000001
 31
0.0
  0
LINE
  5
3A1
330
1E
100
AcDbEntity
  8
0
100
AcDbLine
 10
18.43959999999999
 20
89.42299999999999
 30
0.0
 11
17.4395
 21
89.25800000000009
 31
0.0
  0
LINE
  5
3A2
330
1E
100
AcDbEntity
  8
0
100
AcDbLine
 10
18.43959999999999
 20
88.77399999999999
 30
0.0
 11
17.4395
 21
88.33099999999999
 31
0.0
  0
LINE
  5
3A3
330
1E
100
AcDbEntity
  8
0
100
AcDbLine
 10
18.43959999999999
 20
87.20499999999999
 30
0.0
 11
17.4395
 21
87.004
 31
0.0
  0
LINE
  5
3A4
330
1E
100
AcDbEntity
  8
0
100
AcDbLine
 10
18.43959999999999
 20
86.69299999999999
 30
0.0
 11
17.4395
 21
86.2730000000001
 31
0.0
  0
LINE
  5
3A5
330
1E
100
AcDbEntity
  8
0
100
AcDbLine
 10
22.08689999999998
 20
88.76100000000009
 30
0.0
 11
21.72099999999999
 21
88.18700000000001
 31
0.0
  0
LINE
  5
3A6
330
1E
100
AcDbEntity
  8
0
100
AcDbLine
 10
22.08689999999998
 20
88.1120000000001
 30
0.0
 11
21.72099999999999
 21
88.18700000000001
 31
0.0
  0
LINE
  5
3A7
330
1E
100
AcDbEntity
  8
0
100
AcDbLine
 10
18.86819999999999
 20
87.0820000000001
 30
0.0
 11
18.43959999999999
 21
86.69299999999999
 31
0.0
  0
LINE
  5
3A8
330
1E
100
AcDbEntity
  8
0
100
AcDbLine
 10
18.86819999999999
 20
87.0820000000001
 30
0.0
 11
18.43959999999999
 21
87.20499999999999
 31
0.0
  0
LINE
  5
3A9
330
1E
100
AcDbEntity
  8
0
100
AcDbLine
 10
22.08689999999998
 20
91.4420000000001
 30
0.0
 11
21.72099999999999
 21
90.868
 31
0.0
  0
LINE
  5
3AA
330
1E
100
AcDbEntity
  8
0
100
AcDbLine
 10
22.08689999999998
 20
90.79299999999999
 30
0.0
 11
21.72099999999999
 21
90.868
 31
0.0
  0
LINE
  5
3AB
330
1E
100
AcDbEntity
  8
0
100
AcDbLine
 10
22.08689999999998
 20
94.532
 30
0.0
 11
21.72099999999999
 21
93.95900000000001
 31
0.0
  0
LINE
  5
3AC
330
1E
100
AcDbEntity
  8
0
100
AcDbLine
 10
22.08689999999998
 20
93.88299999999999
 30
0.0
 11
21.72099999999999
 21
93.95900000000001
 31
0.0
  0
LINE
  5
3AD
330
1E
100
AcDbEntity
  8
0
100
AcDbLine
 10
22.08689999999998
 20
97.62200000000001
 30
0.0
 11
21.72099999999999
 21
97.049
 31
0.0
  0
LINE
  5
3AE
330
1E
100
AcDbEntity
  8
0
100
AcDbLine
 10
22.08689999999998
 20
96.973
 30
0.0
 11
21.72099999999999
 21
97.049
 31
0.0
  0
LINE
  5
3AF
330
1E
100
AcDbEntity
  8
0
100
AcDbLine
 10
22.08689999999998
 20
100.7129999999999
 30
0.0
 11
21.72099999999999
 21
100.139
 31
0.0
  0
LINE
  5
3B0
330
1E
100
AcDbEntity
  8
0
100
AcDbLine
 10
22.08689999999998
 20
100.0639999999999
 30
0.0
 11
21.72099999999999
 21
100.139
 31
0.0
  0
LINE
  5
3B1
330
1E
100
AcDbEntity
  8
0
100
AcDbLine
 10
22.08689999999998
 20
103.437
 30
0.0
 11
21.72099999999999
 21
102.8629999999999
 31
0.0
  0
LINE
  5
3B2
330
1E
100
AcDbEntity
  8
0
100
AcDbLine
 10
22.08689999999998
 20
102.7879999999999
 30
0.0
 11
21.72099999999999
 21
102.8629999999999
 31
0.0
  0
LINE
  5
3B3
330
1E
100
AcDbEntity
  8
0
100
AcDbLine
 10
22.08689999999998
 20
106.5269999999999
 30
0.0
 11
21.72099999999999
 21
105.9529999999999
 31
0.0
  0
LINE
  5
3B4
330
1E
100
AcDbEntity
  8
0
100
AcDbLine
 10
22.08689999999998
 20
105.8779999999999
 30
0.0
 11
21.72099999999999
 21
105.9529999999999
 31
0.0
  0
LINE
  5
3B5
330
1E
100
AcDbEntity
  8
0
100
AcDbLine
 10
22.08689999999998
 20
108.9679999999999
 30
0.0
 11
21.72099999999999
 21
109.043
 31
0.0
  0
LINE
  5
3B6
330
1E
100
AcDbEntity
  8
0
100
AcDbLine
 10
18.86819999999999
 20
89.229
 30
0.0
 11
18.43959999999999
 21
88.77399999999999
 31
0.0
  0
LINE
  5
3B7
330
1E
100
AcDbEntity
  8
0
100
AcDbLine
 10
18.86819999999999
 20
89.229
 30
0.0
 11
18.43959999999999
 21
89.42299999999999
 31
0.0
  0
LINE
  5
3B8
330
1E
100
AcDbEntity
  8
0
100
AcDbLine
 10
18.86819999999999
 20
92.31900000000001
 30
0.0
 11
18.43959999999999
 21
91.865
 31
0.0
  0
LINE
  5
3B9
330
1E
100
AcDbEntity
  8
0
100
AcDbLine
 10
18.86819999999999
 20
92.31900000000001
 30
0.0
 11
18.43959999999999
 21
92.51299999999998
 31
0.0
  0
LINE
  5
3BA
330
1E
100
AcDbEntity
  8
0
100
AcDbLine
 10
18.86819999999999
 20
95.41
 30
0.0
 11
18.43959999999999
 21
94.95499999999999
 31
0.0
  0
LINE
  5
3BB
330
1E
100
AcDbEntity
  8
0
100
AcDbLine
 10
18.86819999999999
 20
95.41
 30
0.0
 11
18.43959999999999
 21
95.60399999999999
 31
0.0
  0
LINE
  5
3BC
330
1E
100
AcDbEntity
  8
0
100
AcDbLine
 10
18.86819999999999
 20
98.50000000000001
 30
0.0
 11
18.43959999999999
 21
98.045
 31
0.0
  0
LINE
  5
3BD
330
1E
100
AcDbEntity
  8
0
100
AcDbLine
 10
18.86819999999999
 20
98.50000000000001
 30
0.0
 11
18.43959999999999
 21
98.69399999999991
 31
0.0
  0
LINE
  5
3BE
330
1E
100
AcDbEntity
  8
0
100
AcDbLine
 10
18.86819999999999
 20
104.3379999999999
 30
0.0
 11
18.43959999999999
 21
103.8839999999999
 31
0.0
  0
LINE
  5
3BF
330
1E
100
AcDbEntity
  8
0
100
AcDbLine
 10
18.86819999999999
 20
101.2479999999999
 30
0.0
 11
18.43959999999999
 21
101.442
 31
0.0
  0
LINE
  5
3C0
330
1E
100
AcDbEntity
  8
0
100
AcDbLine
 10
18.86819999999999
 20
101.2479999999999
 30
0.0
 11
18.43959999999999
 21
100.7929999999999
 31
0.0
  0
LINE
  5
3C1
330
1E
100
AcDbEntity
  8
0
100
AcDbLine
 10
18.86819999999999
 20
104.3379999999999
 30
0.0
 11
18.43959999999999
 21
104.5329999999999
 31
0.0
  0
LINE
  5
3C2
330
1E
100
AcDbEntity
  8
0
100
AcDbLine
 10
18.86819999999999
 20
107.4289999999999
 30
0.0
 11
18.43959999999999
 21
107.623
 31
0.0
  0
LINE
  5
3C3
330
1E
100
AcDbEntity
  8
0
100
AcDbLine
 10
18.86819999999999
 20
107.4289999999999
 30
0.0
 11
18.43959999999999
 21
106.9739999999999
 31
0.0
  0
LINE
  5
3C4
330
1E
100
AcDbEntity
  8
0
100
AcDbLine
 10
16.4395
 20
88.815
 30
0.0
 11
16.0109
 21
88.36
 31
0.0
  0
LINE
  5
3C5
330
1E
100
AcDbEntity
  8
0
100
AcDbLine
 10
16.4395
 20
88.16599999999999
 30
0.0
 11
16.0109
 21
88.36
 31
0.0
  0
LINE
  5
3C6
330
1E
100
AcDbEntity
  8
0
100
AcDbLine
 10
16.4395
 20
86.584
 30
0.0
 11
16.0109
 21
86.195
 31
0.0
  0
LINE
  5
3C7
330
1E
100
AcDbEntity
  8
0
100
AcDbLine
 10
16.4395
 20
86.07200000000011
 30
0.0
 11
16.0109
 21
86.195
 31
0.0
  0
LINE
  5
3C8
330
1E
100
AcDbEntity
  8
0
100
AcDbLine
 10
17.4395
 20
88.33099999999999
 30
0.0
 11
16.4395
 21
88.16599999999999
 31
0.0
  0
LINE
  5
3C9
330
1E
100
AcDbEntity
  8
0
100
AcDbLine
 10
17.4395
 20
86.2730000000001
 30
0.0
 11
16.4395
 21
86.07200000000011
 31
0.0
  0
LINE
  5
3CA
330
1E
100
AcDbEntity
  8
0
100
AcDbLine
 10
17.4395
 20
87.004
 30
0.0
 11
16.4395
 21
86.584
 31
0.0
  0
LINE
  5
3CB
330
1E
100
AcDbEntity
  8
0
100
AcDbLine
 10
16.4395
 20
107.014
 30
0.0
 11
16.0109
 21
106.559
 31
0.0
  0
LINE
  5
3CC
330
1E
100
AcDbEntity
  8
0
100
AcDbLine
 10
16.4395
 20
106.3649999999999
 30
0.0
 11
16.0109
 21
106.559
 31
0.0
  0
LINE
  5
3CD
330
1E
100
AcDbEntity
  8
0
100
AcDbLine
 10
16.4395
 20
100.834
 30
0.0
 11
16.0109
 21
100.3789999999999
 31
0.0
  0
LINE
  5
3CE
330
1E
100
AcDbEntity
  8
0
100
AcDbLine
 10
16.4395
 20
103.9239999999999
 30
0.0
 11
16.0109
 21
103.4689999999999
 31
0.0
  0
LINE
  5
3CF
330
1E
100
AcDbEntity
  8
0
100
AcDbLine
 10
16.4395
 20
103.275
 30
0.0
 11
16.0109
 21
103.4689999999999
 31
0.0
  0
LINE
  5
3D0
330
1E
100
AcDbEntity
  8
0
100
AcDbLine
 10
16.4395
 20
100.185
 30
0.0
 11
16.0109
 21
100.3789999999999
 31
0.0
  0
LINE
  5
3D1
330
1E
100
AcDbEntity
  8
0
100
AcDbLine
 10
16.4395
 20
97.436
 30
0.0
 11
16.0109
 21
97.62999999999999
 31
0.0
  0
LINE
  5
3D2
330
1E
100
AcDbEntity
  8
0
100
AcDbLine
 10
16.4395
 20
98.085
 30
0.0
 11
16.0109
 21
97.62999999999999
 31
0.0
  0
LINE
  5
3D3
330
1E
100
AcDbEntity
  8
0
100
AcDbLine
 10
16.4395
 20
94.3459999999999
 30
0.0
 11
16.0109
 21
94.54
 31
0.0
  0
LINE
  5
3D4
330
1E
100
AcDbEntity
  8
0
100
AcDbLine
 10
16.4395
 20
94.99500000000001
 30
0.0
 11
16.0109
 21
94.54
 31
0.0
  0
LINE
  5
3D5
330
1E
100
AcDbEntity
  8
0
100
AcDbLine
 10
16.4395
 20
91.256
 30
0.0
 11
16.0109
 21
91.45000000000001
 31
0.0
  0
LINE
  5
3D6
330
1E
100
AcDbEntity
  8
0
100
AcDbLine
 10
16.4395
 20
91.905
 30
0.0
 11
16.0109
 21
91.45000000000001
 31
0.0
  0
LINE
  5
3D7
330
1E
100
AcDbEntity
  8
0
100
AcDbLine
 10
17.4395
 20
97.60100000000001
 30
0.0
 11
16.4395
 21
97.436
 31
0.0
  0
LINE
  5
3D8
330
1E
100
AcDbEntity
  8
0
100
AcDbLine
 10
17.4395
 20
98.528
 30
0.0
 11
16.4395
 21
98.085
 31
0.0
  0
LINE
  5
3D9
330
1E
100
AcDbEntity
  8
0
100
AcDbLine
 10
17.4395
 20
92.34799999999999
 30
0.0
 11
16.4395
 21
91.905
 31
0.0
  0
LINE
  5
3DA
330
1E
100
AcDbEntity
  8
0
100
AcDbLine
 10
17.4395
 20
94.51100000000002
 30
0.0
 11
16.4395
 21
94.3459999999999
 31
0.0
  0
LINE
  5
3DB
330
1E
100
AcDbEntity
  8
0
100
AcDbLine
 10
17.4395
 20
95.43799999999999
 30
0.0
 11
16.4395
 21
94.99500000000001
 31
0.0
  0
LINE
  5
3DC
330
1E
100
AcDbEntity
  8
0
100
AcDbLine
 10
17.4395
 20
91.42100000000001
 30
0.0
 11
16.4395
 21
91.256
 31
0.0
  0
LINE
  5
3DD
330
1E
100
AcDbEntity
  8
0
100
AcDbLine
 10
17.4395
 20
89.25800000000009
 30
0.0
 11
16.4395
 21
88.815
 31
0.0
  0
LINE
  5
3DE
330
1E
100
AcDbEntity
  8
0
100
AcDbLine
 10
17.4395
 20
107.457
 30
0.0
 11
16.4395
 21
107.014
 31
0.0
  0
LINE
  5
3DF
330
1E
100
AcDbEntity
  8
0
100
AcDbLine
 10
17.4395
 20
106.53
 30
0.0
 11
16.4395
 21
106.3649999999999
 31
0.0
  0
LINE
  5
3E0
330
1E
100
AcDbEntity
  8
0
100
AcDbLine
 10
17.4395
 20
101.2769999999999
 30
0.0
 11
16.4395
 21
100.834
 31
0.0
  0
LINE
  5
3E1
330
1E
100
AcDbEntity
  8
0
100
AcDbLine
 10
17.4395
 20
100.35
 30
0.0
 11
16.4395
 21
100.185
 31
0.0
  0
LINE
  5
3E2
330
1E
100
AcDbEntity
  8
0
100
AcDbLine
 10
17.4395
 20
104.367
 30
0.0
 11
16.4395
 21
103.9239999999999
 31
0.0
  0
LINE
  5
3E3
330
1E
100
AcDbEntity
  8
0
100
AcDbLine
 10
17.4395
 20
103.4399999999999
 30
0.0
 11
16.4395
 21
103.275
 31
0.0
  0
LINE
  5
3E4
330
1E
100
AcDbEntity
  8
0
100
AcDbLine
 10
18.43959999999999
 20
118.5839999999999
 30
0.0
 11
17.4395
 21
118.1189999999999
 31
0.0
  0
LINE
  5
3E5
330
1E
100
AcDbEntity
  8
0
100
AcDbLine
 10
18.43959999999999
 20
119.367
 30
0.0
 11
17.4395
 21
119.2379999999999
 31
0.0
  0
LINE
  5
3E6
330
1E
100
AcDbEntity
  8
0
100
AcDbLine
 10
19.48269999999999
 20
134.714
 30
0.0
 11
16.9277
 21
134.773
 31
0.0
  0
LINE
  5
3E7
330
1E
100
AcDbEntity
  8
0
100
AcDbLine
 10
18.43959999999999
 20
110.064
 30
0.0
 11
17.4395
 21
109.621
 31
0.0
  0
LINE
  5
3E8
330
1E
100
AcDbEntity
  8
0
100
AcDbLine
 10
18.43959999999999
 20
110.7129999999999
 30
0.0
 11
17.4395
 21
110.5479999999999
 31
0.0
  0
LINE
  5
3E9
330
1E
100
AcDbEntity
  8
0
100
AcDbLine
 10
18.43959999999999
 20
114.067
 30
0.0
 11
17.4395
 21
113.6029999999999
 31
0.0
  0
LINE
  5
3EA
330
1E
100
AcDbEntity
  8
0
100
AcDbLine
 10
18.43959999999999
 20
114.85
 30
0.0
 11
17.4395
 21
114.721
 31
0.0
  0
LINE
  5
3EB
330
1E
100
AcDbEntity
  8
0
100
AcDbLine
 10
22.08689999999998
 20
112.707
 30
0.0
 11
21.72099999999999
 21
112.1329999999999
 31
0.0
  0
LINE
  5
3EC
330
1E
100
AcDbEntity
  8
0
100
AcDbLine
 10
22.08689999999998
 20
112.0579999999999
 30
0.0
 11
21.72099999999999
 21
112.1329999999999
 31
0.0
  0
LINE
  5
3ED
330
1E
100
AcDbEntity
  8
0
100
AcDbLine
 10
22.08689999999998
 20
116.206
 30
0.0
 11
21.72099999999999
 21
115.633
 31
0.0
  0
LINE
  5
3EE
330
1E
100
AcDbEntity
  8
0
100
AcDbLine
 10
22.08689999999998
 20
115.5569999999999
 30
0.0
 11
21.72099999999999
 21
115.633
 31
0.0
  0
LINE
  5
3EF
330
1E
100
AcDbEntity
  8
0
100
AcDbLine
 10
22.08689999999998
 20
119.772
 30
0.0
 11
21.72099999999999
 21
119.198
 31
0.0
  0
LINE
  5
3F0
330
1E
100
AcDbEntity
  8
0
100
AcDbLine
 10
22.08689999999998
 20
119.123
 30
0.0
 11
21.72099999999999
 21
119.198
 31
0.0
  0
LINE
  5
3F1
330
1E
100
AcDbEntity
  8
0
100
AcDbLine
 10
18.86819999999999
 20
114.586
 30
0.0
 11
18.43959999999999
 21
114.85
 31
0.0
  0
LINE
  5
3F2
330
1E
100
AcDbEntity
  8
0
100
AcDbLine
 10
18.86819999999999
 20
110.5189999999999
 30
0.0
 11
18.43959999999999
 21
110.7129999999999
 31
0.0
  0
LINE
  5
3F3
330
1E
100
AcDbEntity
  8
0
100
AcDbLine
 10
18.86819999999999
 20
110.5189999999999
 30
0.0
 11
18.43959999999999
 21
110.064
 31
0.0
  0
LINE
  5
3F4
330
1E
100
AcDbEntity
  8
0
100
AcDbLine
 10
18.86819999999999
 20
114.586
 30
0.0
 11
18.43959999999999
 21
114.067
 31
0.0
  0
LINE
  5
3F5
330
1E
100
AcDbEntity
  8
0
100
AcDbLine
 10
18.86819999999999
 20
119.103
 30
0.0
 11
18.43959999999999
 21
119.367
 31
0.0
  0
LINE
  5
3F6
330
1E
100
AcDbEntity
  8
0
100
AcDbLine
 10
18.86819999999999
 20
119.103
 30
0.0
 11
18.43959999999999
 21
118.5839999999999
 31
0.0
  0
LINE
  5
3F7
330
1E
100
AcDbEntity
  8
0
100
AcDbLine
 10
21.46549999999999
 20
134.4779999999999
 30
0.0
 11
19.48269999999999
 21
134.714
 31
0.0
  0
LINE
  5
3F8
330
1E
100
AcDbEntity
  8
0
100
AcDbLine
 10
21.74929999999999
 20
134.442
 30
0.0
 11
21.46549999999999
 21
134.4779999999999
 31
0.0
  0
LINE
  5
3F9
330
1E
100
AcDbEntity
  8
0
100
AcDbLine
 10
16.4395
 20
118.7729999999999
 30
0.0
 11
16.0109
 21
118.2539999999999
 31
0.0
  0
LINE
  5
3FA
330
1E
100
AcDbEntity
  8
0
100
AcDbLine
 10
16.4395
 20
117.9899999999999
 30
0.0
 11
16.0109
 21
118.2539999999999
 31
0.0
  0
LINE
  5
3FB
330
1E
100
AcDbEntity
  8
0
100
AcDbLine
 10
16.4395
 20
110.104
 30
0.0
 11
16.0109
 21
109.6489999999999
 31
0.0
  0
LINE
  5
3FC
330
1E
100
AcDbEntity
  8
0
100
AcDbLine
 10
16.4395
 20
114.256
 30
0.0
 11
16.0109
 21
113.738
 31
0.0
  0
LINE
  5
3FD
330
1E
100
AcDbEntity
  8
0
100
AcDbLine
 10
16.4395
 20
113.473
 30
0.0
 11
16.0109
 21
113.738
 31
0.0
  0
LINE
  5
3FE
330
1E
100
AcDbEntity
  8
0
100
AcDbLine
 10
17.4395
 20
119.2379999999999
 30
0.0
 11
16.4395
 21
118.7729999999999
 31
0.0
  0
LINE
  5
3FF
330
1E
100
AcDbEntity
  8
0
100
AcDbLine
 10
17.4395
 20
118.1189999999999
 30
0.0
 11
16.4395
 21
117.9899999999999
 31
0.0
  0
LINE
  5
400
330
1E
100
AcDbEntity
  8
0
100
AcDbLine
 10
17.4395
 20
110.5479999999999
 30
0.0
 11
16.4395
 21
110.104
 31
0.0
  0
LINE
  5
401
330
1E
100
AcDbEntity
  8
0
100
AcDbLine
 10
17.4395
 20
114.721
 30
0.0
 11
16.4395
 21
114.256
 31
0.0
  0
LINE
  5
402
330
1E
100
AcDbEntity
  8
0
100
AcDbLine
 10
17.4395
 20
113.6029999999999
 30
0.0
 11
16.4395
 21
113.473
 31
0.0
  0
LINE
  5
403
330
1E
100
AcDbEntity
  8
0
100
AcDbLine
 10
16.9277
 20
134.773
 30
0.0
 11
14.0
 21
134.831
 31
0.0
  0
ENDSEC
  0
SECTION
  2
OBJECTS
  0
DICTIONARY
  5
C
330
0
100
AcDbDictionary
281
     1
  3
ACAD_GROUP
350
D
  3
ACAD_LAYOUT
350
19
  3
ACAD_MLINESTYLE
350
16
  3
ACAD_PLOTSETTINGS
350
18
  3
ACAD_PLOTSTYLENAME
350
E
  3
AcDbVariableDictionary
350
404
  0
DICTIONARY
  5
D
102
{ACAD_REACTORS
330
C
102
}
330
C
100
AcDbDictionary
281
     1
  0
DICTIONARY
  5
19
102
{ACAD_REACTORS
330
C
102
}
330
C
100
AcDbDictionary
281
     1
  3
Layout1
350
1D
  3
Model
350
21
  0
DICTIONARY
  5
16
102
{ACAD_REACTORS
330
C
102
}
330
C
100
AcDbDictionary
281
     1
  3
Standard
350
17
  0
DICTIONARY
  5
18
102
{ACAD_REACTORS
330
C
102
}
330
C
100
AcDbDictionary
281
     1
  0
ACDBDICTIONARYWDFLT
  5
E
102
{ACAD_REACTORS
330
C
102
}
330
C
100
AcDbDictionary
281
     1
  3
Normal
350
F
100
AcDbDictionaryWithDefault
340
F
  0
DICTIONARY
  5
404
102
{ACAD_REACTORS
330
C
102
}
330
C
100
AcDbDictionary
281
     1
  3
DIMASSOC
350
405
  0
LAYOUT
  5
1D
102
{ACAD_REACTORS
330
19
102
}
330
19
100
AcDbPlotSettings
  1

  2
hp deskjet 980c series
  4

  6

 40
0.0
 41
0.0
 42
0.0
 43
0.0
 44
0.0
 45
0.0
 46
0.0
 47
0.0
 48
0.0
 49
0.0
140
0.0
141
0.0
142
1.0
143
1.0
 70
   688
 72
     0
 73
     0
 74
     5
  7

 75
    16
147
1.0
148
0.0
149
0.0
100
AcDbLayout
  1
Layout1
 70
     1
 71
     1
 10
0.0
 20
0.0
 11
12.0
 21
9.0
 12
0.0
 22
0.0
 32
0.0
 14
1.000000000000000E+20
 24
1.000000000000000E+20
 34
1.000000000000000E+20
 15
-1.000000000000000E+20
 25
-1.000000000000000E+20
 35
-1.000000000000000E+20
146
0.0
 13
0.0
 23
0.0
 33
0.0
 16
1.0
 26
0.0
 36
0.0
 17
0.0
 27
1.0
 37
0.0
 76
     0
330
1A
  0
LAYOUT
  5
21
102
{ACAD_REACTORS
330
19
102
}
330
19
100
AcDbPlotSettings
  1

  2
hp deskjet 980c series
  4

  6

 40
0.0
 41
0.0
 42
0.0
 43
0.0
 44
0.0
 45
0.0
 46
0.0
 47
0.0
 48
0.0
 49
0.0
140
0.0
141
0.0
142
1.0
143
1.0
 70
  1712
 72
     0
 73
     0
 74
     0
  7

 75
     0
147
1.0
148
0.0
149
0.0
100
AcDbLayout
  1
Model
 70
     1
 71
     0
 10
0.0
 20
0.0
 11
12.0
 21
9.0
 12
0.0
 22
0.0
 32
0.0
 14
0.0
 24
0.0
 34
0.0
 15
0.0
 25
0.0
 35
0.0
146
0.0
 13
0.0
 23
0.0
 33
0.0
 16
1.0
 26
0.0
 36
0.0
 17
0.0
 27
1.0
 37
0.0
 76
     0
330
1E
  0
MLINESTYLE
  5
17
102
{ACAD_REACTORS
330
16
102
}
330
16
100
AcDbMlineStyle
  2
STANDARD
 70
     0
  3

 62
   256
 51
90.0
 52
90.0
 71
     2
 49
0.5
 62
   256
  6
BYLAYER
 49
-0.5
 62
   256
  6
BYLAYER
  0
ACDBPLACEHOLDER
  5
F
102
{ACAD_REACTORS
330
E
102
}
330
E
  0
DICTIONARYVAR
  5
405
102
{ACAD_REACTORS
330
404
102
}
330
404
100
DictionaryVariables
280
     0
  1
1
  0
ENDSEC
  0
EOF
