  0
SECTION
  2
HEADER
  9
$ACADVER
  1
AC1015
  9
$ACADMAINTVER
 70
    13
  9
$DWGCODEPAGE
  3
ANSI_1252
  9
$INSBASE
 10
0.0
 20
0.0
 30
0.0
  9
$EXTMIN
 10
0.0
 20
0.0
 30
0.0
  9
$EXTMAX
 10
109.0
 20
109.0
 30
0.0
  9
$LIMMIN
 10
0.0
 20
0.0
  9
$LIMMAX
 10
12.0
 20
9.0
  9
$ORTHOMODE
 70
     0
  9
$REGENMODE
 70
     1
  9
$FILLMODE
 70
     1
  9
$QTEXTMODE
 70
     0
  9
$MIRRTEXT
 70
     1
  9
$LTSCALE
 40
1.0
  9
$ATTMODE
 70
     1
  9
$TEXTSIZE
 40
0.2
  9
$TRACEWID
 40
0.05
  9
$TEXTSTYLE
  7
Standard
  9
$CLAYER
  8
0
  9
$CELTYPE
  6
Continuous
  9
$CECOLOR
 62
   256
  9
$CELTSCALE
 40
1.0
  9
$DISPSILH
 70
     0
  9
$DIMSCALE
 40
1.0
  9
$DIMASZ
 40
0.18
  9
$DIMEXO
 40
0.0625
  9
$DIMDLI
 40
0.38
  9
$DIMRND
 40
0.0
  9
$DIMDLE
 40
0.0
  9
$DIMEXE
 40
0.18
  9
$DIMTP
 40
0.0
  9
$DIMTM
 40
0.0
  9
$DIMTXT
 40
0.18
  9
$DIMCEN
 40
0.09
  9
$DIMTSZ
 40
0.0
  9
$DIMTOL
 70
     0
  9
$DIMLIM
 70
     0
  9
$DIMTIH
 70
     1
  9
$DIMTOH
 70
     1
  9
$DIMSE1
 70
     0
  9
$DIMSE2
 70
     0
  9
$DIMTAD
 70
     0
  9
$DIMZIN
 70
     0
  9
$DIMBLK
  1

  9
$DIMASO
 70
     1
  9
$DIMSHO
 70
     1
  9
$DIMPOST
  1

  9
$DIMAPOST
  1

  9
$DIMALT
 70
     0
  9
$DIMALTD
 70
     2
  9
$DIMALTF
 40
25.4
  9
$DIMLFAC
 40
1.0
  9
$DIMTOFL
 70
     0
  9
$DIMTVP
 40
0.0
  9
$DIMTIX
 70
     0
  9
$DIMSOXD
 70
     0
  9
$DIMSAH
 70
     0
  9
$DIMBLK1
  1

  9
$DIMBLK2
  1

  9
$DIMSTYLE
  2
Standard
  9
$DIMCLRD
 70
     0
  9
$DIMCLRE
 70
     0
  9
$DIMCLRT
 70
     0
  9
$DIMTFAC
 40
1.0
  9
$DIMGAP
 40
0.09
  9
$DIMJUST
 70
     0
  9
$DIMSD1
 70
     0
  9
$DIMSD2
 70
     0
  9
$DIMTOLJ
 70
     1
  9
$DIMTZIN
 70
     0
  9
$DIMALTZ
 70
     0
  9
$DIMALTTZ
 70
     0
  9
$DIMUPT
 70
     0
  9
$DIMDEC
 70
     4
  9
$DIMTDEC
 70
     4
  9
$DIMALTU
 70
     2
  9
$DIMALTTD
 70
     2
  9
$DIMTXSTY
  7
Standard
  9
$DIMAUNIT
 70
     0
  9
$DIMADEC
 70
     0
  9
$DIMALTRND
 40
0.0
  9
$DIMAZIN
 70
     0
  9
$DIMDSEP
 70
    46
  9
$DIMATFIT
 70
     3
  9
$DIMFRAC
 70
     0
  9
$DIMLDRBLK
  1

  9
$DIMLUNIT
 70
     2
  9
$DIMLWD
 70
    -2
  9
$DIMLWE
 70
    -2
  9
$DIMTMOVE
 70
     0
  9
$LUNITS
 70
     2
  9
$LUPREC
 70
     4
  9
$SKETCHINC
 40
0.1
  9
$FILLETRAD
 40
0.0
  9
$AUNITS
 70
     0
  9
$AUPREC
 70
     0
  9
$MENU
  1
.
  9
$ELEVATION
 40
0.0
  9
$PELEVATION
 40
0.0
  9
$THICKNESS
 40
0.0
  9
$LIMCHECK
 70
     0
  9
$CHAMFERA
 40
0.0
  9
$CHAMFERB
 40
0.0
  9
$CHAMFERC
 40
0.0
  9
$CHAMFERD
 40
0.0
  9
$SKPOLY
 70
     0
  9
$TDCREATE
 40
2454907.841032615
  9
$TDUCREATE
 40
2454907.799365948
  9
$TDUPDATE
 40
2454907.845453912
  9
$TDUUPDATE
 40
2454907.803787245
  9
$TDINDWG
 40
0.0044212963
  9
$TDUSRTIMER
 40
0.0044212963
  9
$USRTIMER
 70
     1
  9
$ANGBASE
 50
0.0
  9
$ANGDIR
 70
     0
  9
$PDMODE
 70
     0
  9
$PDSIZE
 40
0.0
  9
$PLINEWID
 40
0.0
  9
$SPLFRAME
 70
     0
  9
$SPLINETYPE
 70
     6
  9
$SPLINESEGS
 70
     8
  9
$HANDSEED
  5
384
  9
$SURFTAB1
 70
     6
  9
$SURFTAB2
 70
     6
  9
$SURFTYPE
 70
     6
  9
$SURFU
 70
     6
  9
$SURFV
 70
     6
  9
$UCSBASE
  2

  9
$UCSNAME
  2

  9
$UCSORG
 10
0.0
 20
0.0
 30
0.0
  9
$UCSXDIR
 10
1.0
 20
0.0
 30
0.0
  9
$UCSYDIR
 10
0.0
 20
1.0
 30
0.0
  9
$UCSORTHOREF
  2

  9
$UCSORTHOVIEW
 70
     1
  9
$UCSORGTOP
 10
0.0
 20
0.0
 30
0.0
  9
$UCSORGBOTTOM
 10
0.0
 20
0.0
 30
0.0
  9
$UCSORGLEFT
 10
0.0
 20
0.0
 30
0.0
  9
$UCSORGRIGHT
 10
0.0
 20
0.0
 30
0.0
  9
$UCSORGFRONT
 10
0.0
 20
0.0
 30
0.0
  9
$UCSORGBACK
 10
0.0
 20
0.0
 30
0.0
  9
$PUCSBASE
  2

  9
$PUCSNAME
  2

  9
$PUCSORG
 10
0.0
 20
0.0
 30
0.0
  9
$PUCSXDIR
 10
1.0
 20
0.0
 30
0.0
  9
$PUCSYDIR
 10
0.0
 20
1.0
 30
0.0
  9
$PUCSORTHOREF
  2

  9
$PUCSORTHOVIEW
 70
     0
  9
$PUCSORGTOP
 10
0.0
 20
0.0
 30
0.0
  9
$PUCSORGBOTTOM
 10
0.0
 20
0.0
 30
0.0
  9
$PUCSORGLEFT
 10
0.0
 20
0.0
 30
0.0
  9
$PUCSORGRIGHT
 10
0.0
 20
0.0
 30
0.0
  9
$PUCSORGFRONT
 10
0.0
 20
0.0
 30
0.0
  9
$PUCSORGBACK
 10
0.0
 20
0.0
 30
0.0
  9
$USERI1
 70
     0
  9
$USERI2
 70
     0
  9
$USERI3
 70
     0
  9
$USERI4
 70
     0
  9
$USERI5
 70
     0
  9
$USERR1
 40
0.0
  9
$USERR2
 40
0.0
  9
$USERR3
 40
0.0
  9
$USERR4
 40
0.0
  9
$USERR5
 40
0.0
  9
$WORLDVIEW
 70
     1
  9
$SHADEDGE
 70
     3
  9
$SHADEDIF
 70
    70
  9
$TILEMODE
 70
     1
  9
$MAXACTVP
 70
    64
  9
$PINSBASE
 10
0.0
 20
0.0
 30
0.0
  9
$PLIMCHECK
 70
     0
  9
$PEXTMIN
 10
1.000000000000000E+20
 20
1.000000000000000E+20
 30
1.000000000000000E+20
  9
$PEXTMAX
 10
-1.000000000000000E+20
 20
-1.000000000000000E+20
 30
-1.000000000000000E+20
  9
$PLIMMIN
 10
0.0
 20
0.0
  9
$PLIMMAX
 10
12.0
 20
9.0
  9
$UNITMODE
 70
     0
  9
$VISRETAIN
 70
     1
  9
$PLINEGEN
 70
     0
  9
$PSLTSCALE
 70
     1
  9
$TREEDEPTH
 70
  3020
  9
$CMLSTYLE
  2
Standard
  9
$CMLJUST
 70
     0
  9
$CMLSCALE
 40
1.0
  9
$PROXYGRAPHICS
 70
     1
  9
$MEASUREMENT
 70
     0
  9
$CELWEIGHT
370
    -1
  9
$ENDCAPS
280
     0
  9
$JOINSTYLE
280
     0
  9
$LWDISPLAY
290
     0
  9
$INSUNITS
 70
     0
  9
$HYPERLINKBASE
  1

  9
$STYLESHEET
  1

  9
$XEDIT
290
     1
  9
$CEPSNTYPE
380
     0
  9
$PSTYLEMODE
290
     1
  9
$FINGERPRINTGUID
  2
{9960740A-FD84-43CB-9130-C7B3E1561029}
  9
$VERSIONGUID
  2
{402C26B9-7388-46A4-A94C-81DA1CCAAFE0}
  9
$EXTNAMES
290
     1
  9
$PSVPSCALE
 40
0.0
  9
$OLESTARTUP
290
     0
  0
ENDSEC
  0
SECTION
  2
CLASSES
  0
CLASS
  1
ACDBDICTIONARYWDFLT
  2
AcDbDictionaryWithDefault
  3
AutoCAD 2000
 90
        0
280
     0
281
     0
  0
CLASS
  1
ACDBPLACEHOLDER
  2
AcDbPlaceHolder
  3
AutoCAD 2000
 90
        0
280
     0
281
     0
  0
CLASS
  1
LAYOUT
  2
AcDbLayout
  3
AutoCAD 2000
 90
        0
280
     0
281
     0
  0
CLASS
  1
DICTIONARYVAR
  2
AcDbDictionaryVar
  3
AutoCAD 2000
 90
        0
280
     0
281
     0
  0
ENDSEC
  0
SECTION
  2
TABLES
  0
TABLE
  2
VPORT
  5
8
330
0
100
AcDbSymbolTable
 70
     2
  0
VPORT
  5
383
330
8
100
AcDbSymbolTableRecord
100
AcDbViewportTableRecord
  2
*Active
 70
     0
 10
0.0
 20
0.0
 11
1.0
 21
1.0
 12
54.5
 22
54.5
 13
0.0
 23
0.0
 14
1.0
 24
1.0
 15
0.0
 25
0.0
 16
0.0
 26
0.0
 36
1.0
 17
0.0
 27
0.0
 37
0.0
 40
109.6884210526315
 41
1.968387776606954
 42
50.0
 43
0.0
 44
0.0
 50
0.0
 51
0.0
 71
     0
 72
   100
 73
     1
 74
     3
 75
     0
 76
     0
 77
     0
 78
     0
281
     0
 65
     1
110
0.0
120
0.0
130
0.0
111
1.0
121
0.0
131
0.0
112
0.0
122
1.0
132
0.0
 79
     1
146
0.0
  0
ENDTAB
  0
TABLE
  2
LTYPE
  5
5
330
0
100
AcDbSymbolTable
 70
     1
  0
LTYPE
  5
13
330
5
100
AcDbSymbolTableRecord
100
AcDbLinetypeTableRecord
  2
ByBlock
 70
     0
  3

 72
    65
 73
     0
 40
0.0
  0
LTYPE
  5
14
330
5
100
AcDbSymbolTableRecord
100
AcDbLinetypeTableRecord
  2
ByLayer
 70
     0
  3

 72
    65
 73
     0
 40
0.0
  0
LTYPE
  5
15
330
5
100
AcDbSymbolTableRecord
100
AcDbLinetypeTableRecord
  2
Continuous
 70
     0
  3
Solid line
 72
    65
 73
     0
 40
0.0
  0
ENDTAB
  0
TABLE
  2
LAYER
  5
2
330
0
100
AcDbSymbolTable
 70
     1
  0
LAYER
  5
10
330
2
100
AcDbSymbolTableRecord
100
AcDbLayerTableRecord
  2
0
 70
     0
 62
     7
  6
Continuous
370
    -3
390
F
  0
ENDTAB
  0
TABLE
  2
STYLE
  5
3
330
0
100
AcDbSymbolTable
 70
     1
  0
STYLE
  5
11
330
3
100
AcDbSymbolTableRecord
100
AcDbTextStyleTableRecord
  2
Standard
 70
     0
 40
0.0
 41
1.0
 50
0.0
 71
     0
 42
0.2
  3
txt
  4

  0
ENDTAB
  0
TABLE
  2
VIEW
  5
6
330
0
100
AcDbSymbolTable
 70
     0
  0
ENDTAB
  0
TABLE
  2
UCS
  5
7
330
0
100
AcDbSymbolTable
 70
     0
  0
ENDTAB
  0
TABLE
  2
APPID
  5
9
330
0
100
AcDbSymbolTable
 70
     1
  0
APPID
  5
12
330
9
100
AcDbSymbolTableRecord
100
AcDbRegAppTableRecord
  2
ACAD
 70
     0
  0
ENDTAB
  0
TABLE
  2
DIMSTYLE
  5
A
330
0
100
AcDbSymbolTable
 70
     1
100
AcDbDimStyleTable
 71
     0
  0
DIMSTYLE
105
2AD
330
A
100
AcDbSymbolTableRecord
100
AcDbDimStyleTableRecord
  2
Standard
 70
     0
340
11
  0
ENDTAB
  0
TABLE
  2
BLOCK_RECORD
  5
1
330
0
100
AcDbSymbolTable
 70
     0
  0
BLOCK_RECORD
  5
1E
330
1
100
AcDbSymbolTableRecord
100
AcDbBlockTableRecord
  2
*Model_Space
340
21
  0
BLOCK_RECORD
  5
1A
330
1
100
AcDbSymbolTableRecord
100
AcDbBlockTableRecord
  2
*Paper_Space
340
1D
  0
ENDTAB
  0
ENDSEC
  0
SECTION
  2
BLOCKS
  0
BLOCK
  5
1F
330
1E
100
AcDbEntity
  8
0
100
AcDbBlockBegin
  2
*Model_Space
 70
     0
 10
0.0
 20
0.0
 30
0.0
  3
*Model_Space
  1

  0
ENDBLK
  5
20
330
1E
100
AcDbEntity
  8
0
100
AcDbBlockEnd
  0
BLOCK
  5
1B
330
1A
100
AcDbEntity
 67
     1
  8
0
100
AcDbBlockBegin
  2
*Paper_Space
 70
     0
 10
0.0
 20
0.0
 30
0.0
  3
*Paper_Space
  1

  0
ENDBLK
  5
1C
330
1A
100
AcDbEntity
 67
     1
  8
0
100
AcDbBlockEnd
  0
ENDSEC
  0
SECTION
  2
ENTITIES
  0
LINE
  5
4E
330
1E
100
AcDbEntity
  8
0
100
AcDbLine
 10
21.1877
 20
25.7986
 30
0.0
 11
23.243
 21
26.6388
 31
0.0
  0
LINE
  5
4F
330
1E
100
AcDbEntity
  8
0
100
AcDbLine
 10
19.0557
 20
25.49139999999999
 30
0.0
 11
21.1877
 21
25.7986
 31
0.0
  0
LINE
  5
55
330
1E
100
AcDbEntity
  8
0
100
AcDbLine
 10
16.7968
 20
25.80379999999999
 30
0.0
 11
19.0557
 21
25.49139999999999
 31
0.0
  0
LINE
  5
56
330
1E
100
AcDbEntity
  8
0
100
AcDbLine
 10
14.6844
 20
26.6627
 30
0.0
 11
16.7968
 21
25.80379999999999
 31
0.0
  0
LINE
  5
59
330
1E
100
AcDbEntity
  8
0
100
AcDbLine
 10
12.9916
 20
27.9947
 30
0.0
 11
14.6844
 21
26.6627
 31
0.0
  0
LINE
  5
5C
330
1E
100
AcDbEntity
  8
0
100
AcDbLine
 10
23.243
 20
26.6388
 30
0.0
 11
24.9982
 21
27.9986
 31
0.0
  0
LINE
  5
63
330
1E
100
AcDbEntity
  8
0
100
AcDbLine
 10
24.9982
 20
27.9986
 30
0.0
 11
26.3303
 21
29.6914
 31
0.0
  0
LINE
  5
64
330
1E
100
AcDbEntity
  8
0
100
AcDbLine
 10
10.7915
 20
31.8053
 30
0.0
 11
11.6317
 21
29.75
 31
0.0
  0
LINE
  5
67
330
1E
100
AcDbEntity
  8
0
100
AcDbLine
 10
10.79679999999999
 20
36.19619999999999
 30
0.0
 11
11.65569999999999
 21
38.30859999999999
 31
0.0
  0
LINE
  5
6E
330
1E
100
AcDbEntity
  8
0
100
AcDbLine
 10
10.4844
 20
33.9373
 30
0.0
 11
10.7915
 21
31.8053
 31
0.0
  0
LINE
  5
6F
330
1E
100
AcDbEntity
  8
0
100
AcDbLine
 10
10.4844
 20
33.9373
 30
0.0
 11
10.79679999999999
 21
36.19619999999999
 31
0.0
  0
LINE
  5
75
330
1E
100
AcDbEntity
  8
0
100
AcDbLine
 10
11.6317
 20
29.75
 30
0.0
 11
12.9916
 21
27.9947
 31
0.0
  0
LINE
  5
7C
330
1E
100
AcDbEntity
  8
0
100
AcDbLine
 10
26.3303
 20
29.6914
 30
0.0
 11
27.1891
 21
31.80379999999999
 31
0.0
  0
LINE
  5
81
330
1E
100
AcDbEntity
  8
0
100
AcDbLine
 10
34.0686
 20
28.515
 30
0.0
 11
35.2738
 21
28.2925
 31
0.0
  0
LINE
  5
82
330
1E
100
AcDbEntity
  8
0
100
AcDbLine
 10
35.2738
 20
28.2925
 30
0.0
 11
37.5021
 21
28.0271
 31
0.0
  0
LINE
  5
83
330
1E
100
AcDbEntity
  8
0
100
AcDbLine
 10
32.2207
 20
29.1035
 30
0.0
 11
33.0763
 21
28.7588
 31
0.0
  0
LINE
  5
84
330
1E
100
AcDbEntity
  8
0
100
AcDbLine
 10
33.0763
 20
28.7588
 30
0.0
 11
34.0686
 21
28.515
 31
0.0
  0
LINE
  5
85
330
1E
100
AcDbEntity
  8
0
100
AcDbLine
 10
30.95499999999999
 20
29.8883
 30
0.0
 11
31.6086
 21
29.45429999999999
 31
0.0
  0
LINE
  5
86
330
1E
100
AcDbEntity
  8
0
100
AcDbLine
 10
31.6086
 20
29.45429999999999
 30
0.0
 11
32.2207
 21
29.1035
 31
0.0
  0
LINE
  5
87
330
1E
100
AcDbEntity
  8
0
100
AcDbLine
 10
30.3887
 20
30.3887
 30
0.0
 11
30.95499999999999
 21
29.8883
 31
0.0
  0
LINE
  5
90
330
1E
100
AcDbEntity
  8
0
100
AcDbLine
 10
29.8883
 20
30.95499999999999
 30
0.0
 11
30.3887
 21
30.3887
 31
0.0
  0
LINE
  5
92
330
1E
100
AcDbEntity
  8
0
100
AcDbLine
 10
29.45429999999999
 20
31.6086
 30
0.0
 11
29.8883
 21
30.95499999999999
 31
0.0
  0
LINE
  5
94
330
1E
100
AcDbEntity
  8
0
100
AcDbLine
 10
29.1035
 20
32.2207
 30
0.0
 11
29.45429999999999
 21
31.6086
 31
0.0
  0
LINE
  5
96
330
1E
100
AcDbEntity
  8
0
100
AcDbLine
 10
28.7588
 20
33.0763
 30
0.0
 11
29.1035
 21
32.2207
 31
0.0
  0
LINE
  5
98
330
1E
100
AcDbEntity
  8
0
100
AcDbLine
 10
28.515
 20
34.0686
 30
0.0
 11
28.7588
 21
33.0763
 31
0.0
  0
LINE
  5
9A
330
1E
100
AcDbEntity
  8
0
100
AcDbLine
 10
28.2925
 20
35.2738
 30
0.0
 11
28.515
 21
34.0686
 31
0.0
  0
LINE
  5
9B
330
1E
100
AcDbEntity
  8
0
100
AcDbLine
 10
27.1891
 20
31.80379999999999
 30
0.0
 11
27.5015
 21
34.0627
 31
0.0
  0
LINE
  5
9D
330
1E
100
AcDbEntity
  8
0
100
AcDbLine
 10
28.0271
 20
37.5021
 30
0.0
 11
28.2925
 21
35.2738
 31
0.0
  0
LINE
  5
9E
330
1E
100
AcDbEntity
  8
0
100
AcDbLine
 10
27.1944
 20
36.19469999999999
 30
0.0
 11
27.5015
 21
34.0627
 31
0.0
  0
LINE
  5
A1
330
1E
100
AcDbEntity
  8
0
100
AcDbLine
 10
12.9877
 20
40.0014
 30
0.0
 11
14.743
 21
41.3612
 31
0.0
  0
LINE
  5
A3
330
1E
100
AcDbEntity
  8
0
100
AcDbLine
 10
11.65569999999999
 20
38.30859999999999
 30
0.0
 11
12.9877
 21
40.0014
 31
0.0
  0
LINE
  5
A4
330
1E
100
AcDbEntity
  8
0
100
AcDbLine
 10
24.99439999999999
 20
40.0053
 30
0.0
 11
26.35419999999999
 21
38.25
 31
0.0
  0
LINE
  5
B3
330
1E
100
AcDbEntity
  8
0
100
AcDbLine
 10
0.0000000000000001
 20
54.5
 30
0.0
 11
0.072342
 21
59.14789999999999
 31
0.0
  0
LINE
  5
B4
330
1E
100
AcDbEntity
  8
0
100
AcDbLine
 10
0.072342
 20
59.14789999999999
 30
0.0
 11
0.308402
 21
66.03889999999999
 31
0.0
  0
LINE
  5
B7
330
1E
100
AcDbEntity
  8
0
100
AcDbLine
 10
0.308402
 20
66.03889999999999
 30
0.0
 11
0.800197
 21
74.96500000000001
 31
0.0
  0
LINE
  5
B9
330
1E
100
AcDbEntity
  8
0
100
AcDbLine
 10
1.39175
 20
82.78870000000001
 30
0.0
 11
2.03549
 21
88.1868
 31
0.0
  0
LINE
  5
BA
330
1E
100
AcDbEntity
  8
0
100
AcDbLine
 10
0.800197
 20
74.96500000000001
 30
0.0
 11
1.39175
 21
82.78870000000001
 31
0.0
  0
LINE
  5
BD
330
1E
100
AcDbEntity
  8
0
100
AcDbLine
 10
2.56157
 20
92.60290000000001
 30
0.0
 11
3.002419999999999
 21
94.99129999999999
 31
0.0
  0
LINE
  5
BF
330
1E
100
AcDbEntity
  8
0
100
AcDbLine
 10
3.243979999999869
 20
95.9745999999995
 30
0.0
 11
3.485519999999999
 21
96.9579
 31
0.0
  0
LINE
  5
C0
330
1E
100
AcDbEntity
  8
0
100
AcDbLine
 10
3.002419999999999
 20
94.99129999999999
 30
0.0
 11
3.48554
 21
96.9579
 31
0.0
  0
LINE
  5
C2
330
1E
100
AcDbEntity
  8
0
100
AcDbLine
 10
3.48554
 20
96.9579
 30
0.0
 11
4.168859999999999
 21
98.6536
 31
0.0
  0
LINE
  5
C4
330
1E
100
AcDbEntity
  8
0
100
AcDbLine
 10
4.585985999995499
 20
99.38133999999219
 30
0.0
 11
4.864049999999999
 21
99.8665
 31
0.0
  0
LINE
  5
C5
330
1E
100
AcDbEntity
  8
0
100
AcDbLine
 10
4.168859999999999
 20
98.6536
 30
0.0
 11
4.864069999999999
 21
99.8665
 31
0.0
  0
LINE
  5
C8
330
1E
100
AcDbEntity
  8
0
100
AcDbLine
 10
5.724149999999999
 20
101.162
 30
0.0
 11
6.71581
 21
102.2839999999999
 31
0.0
  0
LINE
  5
C9
330
1E
100
AcDbEntity
  8
0
100
AcDbLine
 10
4.864049999999999
 20
99.8665
 30
0.0
 11
5.724149999999999
 21
101.162
 31
0.0
  0
LINE
  5
CA
330
1E
100
AcDbEntity
  8
0
100
AcDbLine
 10
4.585985999995569
 20
99.3813399999923
 30
0.0
 11
4.864049999999999
 21
99.8665
 31
0.0
  0
LINE
  5
CB
330
1E
100
AcDbEntity
  8
0
100
AcDbLine
 10
3.485519999999999
 20
96.9579
 30
0.0
 11
3.75886799999844
 21
97.6361799999961
 31
0.0
  0
LINE
  5
CC
330
1E
100
AcDbEntity
  8
0
100
AcDbLine
 10
3.485519999999999
 20
96.9579
 30
0.0
 11
3.758867999997939
 21
97.63617999999491
 31
0.0
  0
LINE
  5
CD
330
1E
100
AcDbEntity
  8
0
100
AcDbLine
 10
3.24398
 20
95.97459999999999
 30
0.0
 11
3.485519999999999
 21
96.9579
 31
0.0
  0
LINE
  5
CE
330
1E
100
AcDbEntity
  8
0
100
AcDbLine
 10
2.561549999999999
 20
92.60290000000001
 30
0.0
 11
2.781995000001859
 21
93.7971000000101
 31
0.0
  0
LINE
  5
CF
330
1E
100
AcDbEntity
  8
0
100
AcDbLine
 10
2.561549999999999
 20
92.60290000000001
 30
0.0
 11
2.781995000002029
 21
93.797100000011
 31
0.0
  0
LINE
  5
D0
330
1E
100
AcDbEntity
  8
0
100
AcDbLine
 10
2.03549
 20
88.1868
 30
0.0
 11
2.561549999999999
 21
92.60290000000001
 31
0.0
  0
LINE
  5
D1
330
1E
100
AcDbEntity
  8
0
100
AcDbLine
 10
0.308402
 20
66.03889999999999
 30
0.0
 11
0.800197
 21
74.96500000000001
 31
0.0
  0
LINE
  5
D2
330
1E
100
AcDbEntity
  8
0
100
AcDbLine
 10
0.072342
 20
59.14789999999999
 30
0.0
 11
0.308402
 21
66.03889999999999
 31
0.0
  0
LINE
  5
D3
330
1E
100
AcDbEntity
  8
0
100
AcDbLine
 10
0.0000000000000001
 20
54.5
 30
0.0
 11
0.072342
 21
59.14789999999999
 31
0.0
  0
LINE
  5
D6
330
1E
100
AcDbEntity
  8
0
100
AcDbLine
 10
6.71581
 20
102.2839999999999
 30
0.0
 11
7.838149999999999
 21
103.276
 31
0.0
  0
LINE
  5
D7
330
1E
100
AcDbEntity
  8
0
100
AcDbLine
 10
8.485824999993941
 20
103.7059999999959
 30
0.0
 11
9.13349
 21
104.136
 31
0.0
  0
LINE
  5
D8
330
1E
100
AcDbEntity
  8
0
100
AcDbLine
 10
8.485824999997589
 20
103.705999999998
 30
0.0
 11
9.13349
 21
104.136
 31
0.0
  0
LINE
  5
D9
330
1E
100
AcDbEntity
  8
0
100
AcDbLine
 10
7.838149999999999
 20
103.276
 30
0.0
 11
9.133499999999999
 21
104.136
 31
0.0
  0
LINE
  5
DC
330
1E
100
AcDbEntity
  8
0
100
AcDbLine
 10
9.13349
 20
104.136
 30
0.0
 11
10.3464
 21
104.831
 31
0.0
  0
LINE
  5
DD
330
1E
100
AcDbEntity
  8
0
100
AcDbLine
 10
10.3464
 20
104.831
 30
0.0
 11
12.0421
 21
105.5139999999999
 31
0.0
  0
LINE
  5
E0
330
1E
100
AcDbEntity
  8
0
100
AcDbLine
 10
12.0421
 20
105.5139999999999
 30
0.0
 11
14.0087
 21
105.9979999999999
 31
0.0
  0
LINE
  5
E1
330
1E
100
AcDbEntity
  8
0
100
AcDbLine
 10
14.0087
 20
105.9979999999999
 30
0.0
 11
16.3971
 21
106.4379999999999
 31
0.0
  0
LINE
  5
E3
330
1E
100
AcDbEntity
  8
0
100
AcDbLine
 10
0.0
 20
54.5
 30
0.0
 11
0.072342
 21
59.14789999999999
 31
0.0
  0
LINE
  5
E8
330
1E
100
AcDbEntity
  8
0
100
AcDbLine
 10
16.3971
 20
106.4379999999999
 30
0.0
 11
20.81319999999999
 21
106.9649999999999
 31
0.0
  0
LINE
  5
E9
330
1E
100
AcDbEntity
  8
0
100
AcDbLine
 10
16.7982
 20
42.20139999999999
 30
0.0
 11
18.93029999999999
 21
42.5086
 31
0.0
  0
LINE
  5
EB
330
1E
100
AcDbEntity
  8
0
100
AcDbLine
 10
23.3015
 20
41.33729999999999
 30
0.0
 11
24.99439999999999
 21
40.0053
 31
0.0
  0
LINE
  5
ED
330
1E
100
AcDbEntity
  8
0
100
AcDbLine
 10
18.93029999999999
 20
42.5086
 30
0.0
 11
21.1891
 21
42.19619999999999
 31
0.0
  0
LINE
  5
EF
330
1E
100
AcDbEntity
  8
0
100
AcDbLine
 10
20.81319999999999
 20
106.9649999999999
 30
0.0
 11
26.2112
 21
107.6079999999999
 31
0.0
  0
LINE
  5
F0
330
1E
100
AcDbEntity
  8
0
100
AcDbLine
 10
20.8132000000148
 20
106.965000000002
 30
0.0
 11
26.2112
 21
107.6079999999999
 31
0.0
  0
LINE
  5
F2
330
1E
100
AcDbEntity
  8
0
100
AcDbLine
 10
26.2112
 20
107.6079999999999
 30
0.0
 11
34.03499999999999
 21
108.2
 31
0.0
  0
LINE
  5
F3
330
1E
100
AcDbEntity
  8
0
100
AcDbLine
 10
21.1891
 20
42.19619999999999
 30
0.0
 11
23.3015
 21
41.33729999999999
 31
0.0
  0
LINE
  5
F8
330
1E
100
AcDbEntity
  8
0
100
AcDbLine
 10
14.743
 20
41.3612
 30
0.0
 11
16.7982
 21
42.20139999999999
 31
0.0
  0
LINE
  5
FA
330
1E
100
AcDbEntity
  8
0
100
AcDbLine
 10
27.0365
 20
52.15469999999999
 30
0.0
 11
27.15559999999999
 21
48.6776
 31
0.0
  0
LINE
  5
FB
330
1E
100
AcDbEntity
  8
0
100
AcDbLine
 10
27.7023
 20
40.2259
 30
0.0
 11
28.0271
 21
37.5021
 31
0.0
  0
LINE
  5
FD
330
1E
100
AcDbEntity
  8
0
100
AcDbLine
 10
27.4038
 20
44.1736
 30
0.0
 11
27.7023
 21
40.2259
 31
0.0
  0
LINE
  5
FF
330
1E
100
AcDbEntity
  8
0
100
AcDbLine
 10
27.15559999999999
 20
48.6776
 30
0.0
 11
27.4038
 21
44.1736
 31
0.0
  0
LINE
  5
103
330
1E
100
AcDbEntity
  8
0
100
AcDbLine
 10
27.15559999999999
 20
60.3224
 30
0.0
 11
27.4038
 21
64.8264
 31
0.0
  0
LINE
  5
104
330
1E
100
AcDbEntity
  8
0
100
AcDbLine
 10
27.0365
 20
56.8453
 30
0.0
 11
27.15559999999999
 21
60.3224
 31
0.0
  0
LINE
  5
105
330
1E
100
AcDbEntity
  8
0
100
AcDbLine
 10
27.4038
 20
64.8264
 30
0.0
 11
27.7023
 21
68.77410000000001
 31
0.0
  0
LINE
  5
106
330
1E
100
AcDbEntity
  8
0
100
AcDbLine
 10
27.7023
 20
68.77410000000001
 30
0.0
 11
28.0271
 21
71.4979
 31
0.0
  0
LINE
  5
107
330
1E
100
AcDbEntity
  8
0
100
AcDbLine
 10
28.2925
 20
73.72620000000001
 30
0.0
 11
28.515
 21
74.9314
 31
0.0
  0
LINE
  5
108
330
1E
100
AcDbEntity
  8
0
100
AcDbLine
 10
28.0271
 20
71.4979
 30
0.0
 11
28.2925
 21
73.72620000000001
 31
0.0
  0
LINE
  5
109
330
1E
100
AcDbEntity
  8
0
100
AcDbLine
 10
28.7588
 20
75.92369999999999
 30
0.0
 11
29.1035
 21
76.7793
 31
0.0
  0
LINE
  5
10A
330
1E
100
AcDbEntity
  8
0
100
AcDbLine
 10
28.515
 20
74.9314
 30
0.0
 11
28.7588
 21
75.92369999999999
 31
0.0
  0
LINE
  5
10B
330
1E
100
AcDbEntity
  8
0
100
AcDbLine
 10
29.45429999999999
 20
77.3914
 30
0.0
 11
29.8883
 21
78.045
 31
0.0
  0
LINE
  5
10C
330
1E
100
AcDbEntity
  8
0
100
AcDbLine
 10
29.1035
 20
76.7793
 30
0.0
 11
29.45429999999999
 21
77.3914
 31
0.0
  0
LINE
  5
10D
330
1E
100
AcDbEntity
  8
0
100
AcDbLine
 10
29.8883
 20
78.045
 30
0.0
 11
30.3887
 21
78.6113
 31
0.0
  0
LINE
  5
118
330
1E
100
AcDbEntity
  8
0
100
AcDbLine
 10
30.3887
 20
78.6113
 30
0.0
 11
30.95499999999999
 21
79.11159999999999
 31
0.0
  0
LINE
  5
119
330
1E
100
AcDbEntity
  8
0
100
AcDbLine
 10
30.3887
 20
78.6113
 30
0.0
 11
30.95499999999999
 21
79.1117
 31
0.0
  0
LINE
  5
11B
330
1E
100
AcDbEntity
  8
0
100
AcDbLine
 10
30.95499999999999
 20
79.1117
 30
0.0
 11
31.6086
 21
79.5457
 31
0.0
  0
LINE
  5
11C
330
1E
100
AcDbEntity
  8
0
100
AcDbLine
 10
30.95499999999999
 20
79.11159999999999
 30
0.0
 11
31.6086
 21
79.5457
 31
0.0
  0
LINE
  5
11E
330
1E
100
AcDbEntity
  8
0
100
AcDbLine
 10
31.6086
 20
79.5457
 30
0.0
 11
32.2207
 21
79.8964
 31
0.0
  0
LINE
  5
120
330
1E
100
AcDbEntity
  8
0
100
AcDbLine
 10
32.2207
 20
79.8964
 30
0.0
 11
33.0763
 21
80.24120000000001
 31
0.0
  0
LINE
  5
121
330
1E
100
AcDbEntity
  8
0
100
AcDbLine
 10
32.2207
 20
79.8964
 30
0.0
 11
33.0763
 21
80.24129999999999
 31
0.0
  0
LINE
  5
123
330
1E
100
AcDbEntity
  8
0
100
AcDbLine
 10
33.0763
 20
80.24129999999999
 30
0.0
 11
34.0686
 21
80.485
 31
0.0
  0
LINE
  5
124
330
1E
100
AcDbEntity
  8
0
100
AcDbLine
 10
33.0763
 20
80.24120000000001
 30
0.0
 11
34.0686
 21
80.485
 31
0.0
  0
LINE
  5
126
330
1E
100
AcDbEntity
  8
0
100
AcDbLine
 10
34.0686
 20
80.485
 30
0.0
 11
35.2738
 21
80.7075
 31
0.0
  0
LINE
  5
129
330
1E
100
AcDbEntity
  8
0
100
AcDbLine
 10
34.03499999999999
 20
108.2
 30
0.0
 11
42.9611
 21
108.692
 31
0.0
  0
LINE
  5
12A
330
1E
100
AcDbEntity
  8
0
100
AcDbLine
 10
35.2738
 20
80.7075
 30
0.0
 11
37.5021
 21
80.97289999999999
 31
0.0
  0
LINE
  5
12C
330
1E
100
AcDbEntity
  8
0
100
AcDbLine
 10
27.0
 20
54.5
 30
0.0
 11
27.0365
 21
52.15469999999999
 31
0.0
  0
LINE
  5
12D
330
1E
100
AcDbEntity
  8
0
100
AcDbLine
 10
27.0
 20
54.5
 30
0.0
 11
27.0365
 21
56.8453
 31
0.0
  0
LINE
  5
12E
330
1E
100
AcDbEntity
  8
0
100
AcDbLine
 10
26.35419999999999
 20
38.25
 30
0.0
 11
27.1944
 21
36.19469999999999
 31
0.0
  0
LINE
  5
136
330
1E
100
AcDbEntity
  8
0
100
AcDbLine
 10
48.6776
 20
27.15559999999999
 30
0.0
 11
52.15469999999999
 21
27.0365
 31
0.0
  0
LINE
  5
137
330
1E
100
AcDbEntity
  8
0
100
AcDbLine
 10
52.15469999999999
 20
27.0365
 30
0.0
 11
54.5
 21
27.0
 31
0.0
  0
LINE
  5
138
330
1E
100
AcDbEntity
  8
0
100
AcDbLine
 10
48.6776
 20
27.15559999999999
 30
0.0
 11
52.15469999999999
 21
27.0365
 31
0.0
  0
LINE
  5
17D
330
1E
100
AcDbEntity
  8
0
100
AcDbLine
 10
52.15469999999999
 20
27.0365
 30
0.0
 11
54.5
 21
27.0
 31
0.0
  0
LINE
  5
17E
330
1E
100
AcDbEntity
  8
0
100
AcDbLine
 10
44.1736
 20
27.4038
 30
0.0
 11
48.6776
 21
27.15559999999999
 31
0.0
  0
LINE
  5
17F
330
1E
100
AcDbEntity
  8
0
100
AcDbLine
 10
44.1736
 20
27.4038
 30
0.0
 11
48.6776
 21
27.15559999999999
 31
0.0
  0
LINE
  5
180
330
1E
100
AcDbEntity
  8
0
100
AcDbLine
 10
37.5021
 20
80.97289999999999
 30
0.0
 11
40.2259
 21
81.2977
 31
0.0
  0
LINE
  5
181
330
1E
100
AcDbEntity
  8
0
100
AcDbLine
 10
40.2259
 20
81.2977
 30
0.0
 11
44.1736
 21
81.5962
 31
0.0
  0
LINE
  5
183
330
1E
100
AcDbEntity
  8
0
100
AcDbLine
 10
37.5021
 20
28.0271
 30
0.0
 11
40.2259
 21
27.7023
 31
0.0
  0
LINE
  5
184
330
1E
100
AcDbEntity
  8
0
100
AcDbLine
 10
40.2259
 20
27.7023
 30
0.0
 11
44.1736
 21
27.4038
 31
0.0
  0
LINE
  5
185
330
1E
100
AcDbEntity
  8
0
100
AcDbLine
 10
44.1736
 20
81.5962
 30
0.0
 11
48.6776
 21
81.8444
 31
0.0
  0
LINE
  5
189
330
1E
100
AcDbEntity
  8
0
100
AcDbLine
 10
48.5
 20
89.50000000000001
 30
0.0
 11
50.3
 21
88.1
 31
0.0
  0
LINE
  5
190
330
1E
100
AcDbEntity
  8
0
100
AcDbLine
 10
47.09999999999999
 20
91.3
 30
0.0
 11
48.5
 21
89.50000000000001
 31
0.0
  0
LINE
  5
191
330
1E
100
AcDbEntity
  8
0
100
AcDbLine
 10
46.29999999999999
 20
93.3
 30
0.0
 11
47.09999999999999
 21
91.3
 31
0.0
  0
LINE
  5
196
330
1E
100
AcDbEntity
  8
0
100
AcDbLine
 10
48.5
 20
101.5
 30
0.0
 11
50.3
 21
102.9
 31
0.0
  0
LINE
  5
197
330
1E
100
AcDbEntity
  8
0
100
AcDbLine
 10
47.09999999999999
 20
99.7
 30
0.0
 11
48.5
 21
101.5
 31
0.0
  0
LINE
  5
198
330
1E
100
AcDbEntity
  8
0
100
AcDbLine
 10
46.29999999999999
 20
97.70000000000001
 30
0.0
 11
47.09999999999999
 21
99.7
 31
0.0
  0
LINE
  5
199
330
1E
100
AcDbEntity
  8
0
100
AcDbLine
 10
46.0
 20
95.5
 30
0.0
 11
46.29999999999999
 21
97.70000000000001
 31
0.0
  0
LINE
  5
19A
330
1E
100
AcDbEntity
  8
0
100
AcDbLine
 10
46.0
 20
95.5
 30
0.0
 11
46.29999999999999
 21
93.3
 31
0.0
  0
LINE
  5
19C
330
1E
100
AcDbEntity
  8
0
100
AcDbLine
 10
42.9611
 20
108.692
 30
0.0
 11
49.8521
 21
108.928
 31
0.0
  0
LINE
  5
19D
330
1E
100
AcDbEntity
  8
0
100
AcDbLine
 10
48.6776
 20
81.8444
 30
0.0
 11
52.15469999999999
 21
81.9635
 31
0.0
  0
LINE
  5
1AF
330
1E
100
AcDbEntity
  8
0
100
AcDbLine
 10
50.3
 20
88.1
 30
0.0
 11
52.3
 21
87.3
 31
0.0
  0
LINE
  5
1B0
330
1E
100
AcDbEntity
  8
0
100
AcDbLine
 10
50.3
 20
102.9
 30
0.0
 11
52.3
 21
103.7
 31
0.0
  0
LINE
  5
1B2
330
1E
100
AcDbEntity
  8
0
100
AcDbLine
 10
49.8521
 20
108.928
 30
0.0
 11
54.5
 21
109.0
 31
0.0
  0
LINE
  5
1B3
330
1E
100
AcDbEntity
  8
0
100
AcDbLine
 10
52.3
 20
87.3
 30
0.0
 11
54.5
 21
87.0
 31
0.0
  0
LINE
  5
1BF
330
1E
100
AcDbEntity
  8
0
100
AcDbLine
 10
52.3
 20
103.7
 30
0.0
 11
54.5
 21
104.0
 31
0.0
  0
LINE
  5
1E4
330
1E
100
AcDbEntity
  8
0
100
AcDbLine
 10
52.15469999999999
 20
81.9635
 30
0.0
 11
54.5
 21
82.0
 31
0.0
  0
LINE
  5
2B1
330
1E
100
AcDbEntity
  8
0
100
AcDbLine
 10
16.3971
 20
2.562000000000011
 30
0.0
 11
20.81319999999999
 21
2.034999999999996
 31
0.0
  0
LINE
  5
2B2
330
1E
100
AcDbEntity
  8
0
100
AcDbLine
 10
12.0421
 20
3.486000000000004
 30
0.0
 11
14.0087
 21
3.002000000000009
 31
0.0
  0
LINE
  5
2B3
330
1E
100
AcDbEntity
  8
0
100
AcDbLine
 10
10.3464
 20
4.168999999999996
 30
0.0
 11
12.0421
 21
3.486000000000004
 31
0.0
  0
LINE
  5
2B4
330
1E
100
AcDbEntity
  8
0
100
AcDbLine
 10
9.13349
 20
4.86399999999999
 30
0.0
 11
10.3464
 21
4.168999999999996
 31
0.0
  0
LINE
  5
2B5
330
1E
100
AcDbEntity
  8
0
100
AcDbLine
 10
14.0087
 20
3.002000000000009
 30
0.0
 11
16.3971
 21
2.562000000000011
 31
0.0
  0
LINE
  5
2B6
330
1E
100
AcDbEntity
  8
0
100
AcDbLine
 10
34.03499999999999
 20
0.7999999999999972
 30
0.0
 11
42.9611
 21
0.3079999999999927
 31
0.0
  0
LINE
  5
2B7
330
1E
100
AcDbEntity
  8
0
100
AcDbLine
 10
26.2112
 20
1.39200000000001
 30
0.0
 11
34.03499999999999
 21
0.7999999999999972
 31
0.0
  0
LINE
  5
2B8
330
1E
100
AcDbEntity
  8
0
100
AcDbLine
 10
20.8132000000148
 20
2.034999999997992
 30
0.0
 11
26.2112
 21
1.39200000000001
 31
0.0
  0
LINE
  5
2B9
330
1E
100
AcDbEntity
  8
0
100
AcDbLine
 10
20.81319999999999
 20
2.034999999999996
 30
0.0
 11
26.2112
 21
1.39200000000001
 31
0.0
  0
LINE
  5
2BA
330
1E
100
AcDbEntity
  8
0
100
AcDbLine
 10
42.9611
 20
0.3079999999999927
 30
0.0
 11
49.8521
 21
0.0720000000000027
 31
0.0
  0
LINE
  5
2BB
330
1E
100
AcDbEntity
  8
0
100
AcDbLine
 10
49.8521
 20
0.0720000000000027
 30
0.0
 11
54.5
 21
0.0
 31
0.0
  0
LINE
  5
2BC
330
1E
100
AcDbEntity
  8
0
100
AcDbLine
 10
0.0
 20
54.5
 30
0.0
 11
0.072342
 21
49.8521
 31
0.0
  0
LINE
  5
2BD
330
1E
100
AcDbEntity
  8
0
100
AcDbLine
 10
0.0000000000000001
 20
54.5
 30
0.0
 11
0.072342
 21
49.8521
 31
0.0
  0
LINE
  5
2BE
330
1E
100
AcDbEntity
  8
0
100
AcDbLine
 10
0.0000000000000001
 20
54.5
 30
0.0
 11
0.072342
 21
49.8521
 31
0.0
  0
LINE
  5
2BF
330
1E
100
AcDbEntity
  8
0
100
AcDbLine
 10
2.03549
 20
20.81319999999999
 30
0.0
 11
2.561549999999999
 21
16.39709999999999
 31
0.0
  0
LINE
  5
2C0
330
1E
100
AcDbEntity
  8
0
100
AcDbLine
 10
0.308402
 20
42.9611
 30
0.0
 11
0.800197
 21
34.03499999999999
 31
0.0
  0
LINE
  5
2C1
330
1E
100
AcDbEntity
  8
0
100
AcDbLine
 10
0.308402
 20
42.9611
 30
0.0
 11
0.800197
 21
34.03499999999999
 31
0.0
  0
LINE
  5
2C2
330
1E
100
AcDbEntity
  8
0
100
AcDbLine
 10
0.072342
 20
49.8521
 30
0.0
 11
0.308402
 21
42.9611
 31
0.0
  0
LINE
  5
2C3
330
1E
100
AcDbEntity
  8
0
100
AcDbLine
 10
0.072342
 20
49.8521
 30
0.0
 11
0.308402
 21
42.9611
 31
0.0
  0
LINE
  5
2C4
330
1E
100
AcDbEntity
  8
0
100
AcDbLine
 10
0.800197
 20
34.03499999999999
 30
0.0
 11
1.39175
 21
26.21129999999999
 31
0.0
  0
LINE
  5
2C5
330
1E
100
AcDbEntity
  8
0
100
AcDbLine
 10
1.39175
 20
26.21129999999999
 30
0.0
 11
2.03549
 21
20.81319999999999
 31
0.0
  0
LINE
  5
2C6
330
1E
100
AcDbEntity
  8
0
100
AcDbLine
 10
3.24398
 20
13.0254
 30
0.0
 11
3.485519999999999
 21
12.0421
 31
0.0
  0
LINE
  5
2C7
330
1E
100
AcDbEntity
  8
0
100
AcDbLine
 10
3.002419999999999
 20
14.0087
 30
0.0
 11
3.48554
 21
12.0421
 31
0.0
  0
LINE
  5
2C8
330
1E
100
AcDbEntity
  8
0
100
AcDbLine
 10
3.243979999999869
 20
13.0254000000005
 30
0.0
 11
3.485519999999999
 21
12.0421
 31
0.0
  0
LINE
  5
2C9
330
1E
100
AcDbEntity
  8
0
100
AcDbLine
 10
2.561549999999999
 20
16.39709999999999
 30
0.0
 11
2.781995000002029
 21
15.202899999989
 31
0.0
  0
LINE
  5
2CA
330
1E
100
AcDbEntity
  8
0
100
AcDbLine
 10
2.561549999999999
 20
16.39709999999999
 30
0.0
 11
2.781995000001859
 21
15.20289999998991
 31
0.0
  0
LINE
  5
2CB
330
1E
100
AcDbEntity
  8
0
100
AcDbLine
 10
2.56157
 20
16.39709999999999
 30
0.0
 11
3.002419999999999
 21
14.0087
 31
0.0
  0
LINE
  5
2CC
330
1E
100
AcDbEntity
  8
0
100
AcDbLine
 10
3.485519999999999
 20
12.0421
 30
0.0
 11
3.758867999997939
 21
11.36382000000509
 31
0.0
  0
LINE
  5
2CD
330
1E
100
AcDbEntity
  8
0
100
AcDbLine
 10
3.485519999999999
 20
12.0421
 30
0.0
 11
3.75886799999844
 21
11.36382000000391
 31
0.0
  0
LINE
  5
2CE
330
1E
100
AcDbEntity
  8
0
100
AcDbLine
 10
3.48554
 20
12.0421
 30
0.0
 11
4.168859999999999
 21
10.3464
 31
0.0
  0
LINE
  5
2CF
330
1E
100
AcDbEntity
  8
0
100
AcDbLine
 10
6.71581
 20
6.716000000000008
 30
0.0
 11
7.838149999999999
 21
5.723999999999989
 31
0.0
  0
LINE
  5
2D0
330
1E
100
AcDbEntity
  8
0
100
AcDbLine
 10
5.724149999999999
 20
7.837999999999993
 30
0.0
 11
6.71581
 21
6.716000000000008
 31
0.0
  0
LINE
  5
2D1
330
1E
100
AcDbEntity
  8
0
100
AcDbLine
 10
4.864049999999999
 20
9.133499999999997
 30
0.0
 11
5.724149999999999
 21
7.837999999999993
 31
0.0
  0
LINE
  5
2D2
330
1E
100
AcDbEntity
  8
0
100
AcDbLine
 10
4.168859999999999
 20
10.3464
 30
0.0
 11
4.864069999999999
 21
9.133499999999997
 31
0.0
  0
LINE
  5
2D3
330
1E
100
AcDbEntity
  8
0
100
AcDbLine
 10
4.585985999995569
 20
9.618660000007707
 30
0.0
 11
4.864049999999999
 21
9.133499999999997
 31
0.0
  0
LINE
  5
2D4
330
1E
100
AcDbEntity
  8
0
100
AcDbLine
 10
4.585985999995499
 20
9.618660000007807
 30
0.0
 11
4.864049999999999
 21
9.133499999999997
 31
0.0
  0
LINE
  5
2D5
330
1E
100
AcDbEntity
  8
0
100
AcDbLine
 10
7.838149999999999
 20
5.723999999999989
 30
0.0
 11
9.133499999999999
 21
4.86399999999999
 31
0.0
  0
LINE
  5
2D6
330
1E
100
AcDbEntity
  8
0
100
AcDbLine
 10
8.485824999997589
 20
5.294000000002
 30
0.0
 11
9.13349
 21
4.86399999999999
 31
0.0
  0
LINE
  5
2D7
330
1E
100
AcDbEntity
  8
0
100
AcDbLine
 10
8.485824999993941
 20
5.294000000004004
 30
0.0
 11
9.13349
 21
4.86399999999999
 31
0.0
  0
LINE
  5
2D8
330
1E
100
AcDbEntity
  8
0
100
AcDbLine
 10
82.0
 20
54.5
 30
0.0
 11
81.9635
 21
56.8453
 31
0.0
  0
LINE
  5
2D9
330
1E
100
AcDbEntity
  8
0
100
AcDbLine
 10
109.0
 20
54.5
 30
0.0
 11
108.9276579999999
 21
59.14789999999999
 31
0.0
  0
LINE
  5
2DA
330
1E
100
AcDbEntity
  8
0
100
AcDbLine
 10
109.0
 20
54.5
 30
0.0
 11
108.9276579999999
 21
59.14789999999999
 31
0.0
  0
LINE
  5
2DB
330
1E
100
AcDbEntity
  8
0
100
AcDbLine
 10
109.0
 20
54.5
 30
0.0
 11
108.9276579999999
 21
59.14789999999999
 31
0.0
  0
LINE
  5
2DC
330
1E
100
AcDbEntity
  8
0
100
AcDbLine
 10
92.60290000000001
 20
2.562000000000011
 30
0.0
 11
88.1868
 21
2.034999999999996
 31
0.0
  0
LINE
  5
2DD
330
1E
100
AcDbEntity
  8
0
100
AcDbLine
 10
89.94429999999999
 20
25.49139999999999
 30
0.0
 11
87.81229999999998
 21
25.7986
 31
0.0
  0
LINE
  5
2DE
330
1E
100
AcDbEntity
  8
0
100
AcDbLine
 10
90.0697
 20
42.5086
 30
0.0
 11
87.8109
 21
42.19619999999999
 31
0.0
  0
LINE
  5
2DF
330
1E
100
AcDbEntity
  8
0
100
AcDbLine
 10
106.96451
 20
20.81319999999999
 30
0.0
 11
106.43845
 21
16.39709999999999
 31
0.0
  0
LINE
  5
2E0
330
1E
100
AcDbEntity
  8
0
100
AcDbLine
 10
105.7560200000001
 20
13.0254000000005
 30
0.0
 11
105.51448
 21
12.0421
 31
0.0
  0
LINE
  5
2E1
330
1E
100
AcDbEntity
  8
0
100
AcDbLine
 10
105.9975799999999
 20
14.0087
 30
0.0
 11
105.5144599999999
 21
12.0421
 31
0.0
  0
LINE
  5
2E2
330
1E
100
AcDbEntity
  8
0
100
AcDbLine
 10
105.75602
 20
13.0254
 30
0.0
 11
105.51448
 21
12.0421
 31
0.0
  0
LINE
  5
2E3
330
1E
100
AcDbEntity
  8
0
100
AcDbLine
 10
106.4384299999999
 20
16.39709999999999
 30
0.0
 11
105.9975799999999
 21
14.0087
 31
0.0
  0
LINE
  5
2E4
330
1E
100
AcDbEntity
  8
0
100
AcDbLine
 10
106.43845
 20
16.39709999999999
 30
0.0
 11
106.2180049999981
 21
15.20289999998991
 31
0.0
  0
LINE
  5
2E5
330
1E
100
AcDbEntity
  8
0
100
AcDbLine
 10
106.43845
 20
16.39709999999999
 30
0.0
 11
106.2180049999979
 21
15.202899999989
 31
0.0
  0
LINE
  5
2E6
330
1E
100
AcDbEntity
  8
0
100
AcDbLine
 10
96.9579
 20
3.486000000000004
 30
0.0
 11
94.99129999999999
 21
3.002000000000009
 31
0.0
  0
LINE
  5
2E7
330
1E
100
AcDbEntity
  8
0
100
AcDbLine
 10
94.99129999999999
 20
3.002000000000009
 30
0.0
 11
92.60290000000001
 21
2.562000000000011
 31
0.0
  0
LINE
  5
2E8
330
1E
100
AcDbEntity
  8
0
100
AcDbLine
 10
98.6536
 20
4.168999999999996
 30
0.0
 11
96.9579
 21
3.486000000000004
 31
0.0
  0
LINE
  5
2E9
330
1E
100
AcDbEntity
  8
0
100
AcDbLine
 10
105.5144599999999
 20
12.0421
 30
0.0
 11
104.83114
 21
10.3464
 31
0.0
  0
LINE
  5
2EA
330
1E
100
AcDbEntity
  8
0
100
AcDbLine
 10
105.51448
 20
12.0421
 30
0.0
 11
105.2411320000015
 21
11.36382000000391
 31
0.0
  0
LINE
  5
2EB
330
1E
100
AcDbEntity
  8
0
100
AcDbLine
 10
105.51448
 20
12.0421
 30
0.0
 11
105.241132000002
 21
11.36382000000509
 31
0.0
  0
LINE
  5
2EC
330
1E
100
AcDbEntity
  8
0
100
AcDbLine
 10
102.2841899999999
 20
6.716000000000008
 30
0.0
 11
101.1618499999999
 21
5.723999999999989
 31
0.0
  0
LINE
  5
2ED
330
1E
100
AcDbEntity
  8
0
100
AcDbLine
 10
103.27585
 20
7.837999999999993
 30
0.0
 11
102.2841899999999
 21
6.716000000000008
 31
0.0
  0
LINE
  5
2EE
330
1E
100
AcDbEntity
  8
0
100
AcDbLine
 10
104.1359499999999
 20
9.133499999999997
 30
0.0
 11
103.27585
 21
7.837999999999993
 31
0.0
  0
LINE
  5
2EF
330
1E
100
AcDbEntity
  8
0
100
AcDbLine
 10
104.83114
 20
10.3464
 30
0.0
 11
104.13593
 21
9.133499999999997
 31
0.0
  0
LINE
  5
2F0
330
1E
100
AcDbEntity
  8
0
100
AcDbLine
 10
104.4140140000044
 20
9.618660000007807
 30
0.0
 11
104.1359499999999
 21
9.133499999999997
 31
0.0
  0
LINE
  5
2F1
330
1E
100
AcDbEntity
  8
0
100
AcDbLine
 10
104.4140140000044
 20
9.618660000007707
 30
0.0
 11
104.1359499999999
 21
9.133499999999997
 31
0.0
  0
LINE
  5
2F2
330
1E
100
AcDbEntity
  8
0
100
AcDbLine
 10
99.86651000000001
 20
4.86399999999999
 30
0.0
 11
98.6536
 21
4.168999999999996
 31
0.0
  0
LINE
  5
2F3
330
1E
100
AcDbEntity
  8
0
100
AcDbLine
 10
101.1618499999999
 20
5.723999999999989
 30
0.0
 11
99.8665
 21
4.86399999999999
 31
0.0
  0
LINE
  5
2F4
330
1E
100
AcDbEntity
  8
0
100
AcDbLine
 10
100.514175000006
 20
5.294000000004004
 30
0.0
 11
99.86651000000001
 21
4.86399999999999
 31
0.0
  0
LINE
  5
2F5
330
1E
100
AcDbEntity
  8
0
100
AcDbLine
 10
100.5141750000024
 20
5.294000000002
 30
0.0
 11
99.86651000000001
 21
4.86399999999999
 31
0.0
  0
LINE
  5
2F6
330
1E
100
AcDbEntity
  8
0
100
AcDbLine
 10
108.691598
 20
42.9611
 30
0.0
 11
108.199803
 21
34.03499999999999
 31
0.0
  0
LINE
  5
2F7
330
1E
100
AcDbEntity
  8
0
100
AcDbLine
 10
108.691598
 20
42.9611
 30
0.0
 11
108.199803
 21
34.03499999999999
 31
0.0
  0
LINE
  5
2F8
330
1E
100
AcDbEntity
  8
0
100
AcDbLine
 10
108.199803
 20
34.03499999999999
 30
0.0
 11
107.60825
 21
26.21129999999999
 31
0.0
  0
LINE
  5
2F9
330
1E
100
AcDbEntity
  8
0
100
AcDbLine
 10
107.60825
 20
26.21129999999999
 30
0.0
 11
106.96451
 21
20.81319999999999
 31
0.0
  0
LINE
  5
2FA
330
1E
100
AcDbEntity
  8
0
100
AcDbLine
 10
108.9276579999999
 20
49.8521
 30
0.0
 11
108.691598
 21
42.9611
 31
0.0
  0
LINE
  5
2FB
330
1E
100
AcDbEntity
  8
0
100
AcDbLine
 10
108.9276579999999
 20
49.8521
 30
0.0
 11
108.691598
 21
42.9611
 31
0.0
  0
LINE
  5
2FC
330
1E
100
AcDbEntity
  8
0
100
AcDbLine
 10
109.0
 20
54.5
 30
0.0
 11
108.9276579999999
 21
49.8521
 31
0.0
  0
LINE
  5
2FD
330
1E
100
AcDbEntity
  8
0
100
AcDbLine
 10
109.0
 20
54.5
 30
0.0
 11
108.9276579999999
 21
49.8521
 31
0.0
  0
LINE
  5
2FE
330
1E
100
AcDbEntity
  8
0
100
AcDbLine
 10
109.0
 20
54.5
 30
0.0
 11
108.9276579999999
 21
49.8521
 31
0.0
  0
LINE
  5
2FF
330
1E
100
AcDbEntity
  8
0
100
AcDbLine
 10
98.2032
 20
36.19619999999999
 30
0.0
 11
97.34430000000001
 21
38.30859999999999
 31
0.0
  0
LINE
  5
300
330
1E
100
AcDbEntity
  8
0
100
AcDbLine
 10
97.36830000000001
 20
29.75
 30
0.0
 11
96.00839999999999
 21
27.9947
 31
0.0
  0
LINE
  5
301
330
1E
100
AcDbEntity
  8
0
100
AcDbLine
 10
98.5156
 20
33.9373
 30
0.0
 11
98.2085
 21
31.8053
 31
0.0
  0
LINE
  5
302
330
1E
100
AcDbEntity
  8
0
100
AcDbLine
 10
98.2085
 20
31.8053
 30
0.0
 11
97.36830000000001
 21
29.75
 31
0.0
  0
LINE
  5
303
330
1E
100
AcDbEntity
  8
0
100
AcDbLine
 10
98.5156
 20
33.9373
 30
0.0
 11
98.2032
 21
36.19619999999999
 31
0.0
  0
LINE
  5
304
330
1E
100
AcDbEntity
  8
0
100
AcDbLine
 10
94.31560000000001
 20
26.6627
 30
0.0
 11
92.20319999999999
 21
25.80379999999999
 31
0.0
  0
LINE
  5
305
330
1E
100
AcDbEntity
  8
0
100
AcDbLine
 10
96.00839999999999
 20
27.9947
 30
0.0
 11
94.31560000000001
 21
26.6627
 31
0.0
  0
LINE
  5
306
330
1E
100
AcDbEntity
  8
0
100
AcDbLine
 10
92.20319999999999
 20
25.80379999999999
 30
0.0
 11
89.94429999999999
 21
25.49139999999999
 31
0.0
  0
LINE
  5
307
330
1E
100
AcDbEntity
  8
0
100
AcDbLine
 10
97.34430000000001
 20
38.30859999999999
 30
0.0
 11
96.01230000000001
 21
40.0014
 31
0.0
  0
LINE
  5
308
330
1E
100
AcDbEntity
  8
0
100
AcDbLine
 10
94.257
 20
41.3612
 30
0.0
 11
92.20179999999999
 21
42.20139999999999
 31
0.0
  0
LINE
  5
309
330
1E
100
AcDbEntity
  8
0
100
AcDbLine
 10
96.01230000000001
 20
40.0014
 30
0.0
 11
94.257
 21
41.3612
 31
0.0
  0
LINE
  5
30A
330
1E
100
AcDbEntity
  8
0
100
AcDbLine
 10
92.20179999999999
 20
42.20139999999999
 30
0.0
 11
90.0697
 21
42.5086
 31
0.0
  0
LINE
  5
30B
330
1E
100
AcDbEntity
  8
0
100
AcDbLine
 10
74.96500000000001
 20
0.7999999999999972
 30
0.0
 11
66.03889999999999
 21
0.3079999999999927
 31
0.0
  0
LINE
  5
30C
330
1E
100
AcDbEntity
  8
0
100
AcDbLine
 10
82.78879999999999
 20
1.39200000000001
 30
0.0
 11
74.96500000000001
 21
0.7999999999999972
 31
0.0
  0
LINE
  5
30D
330
1E
100
AcDbEntity
  8
0
100
AcDbLine
 10
88.1868
 20
2.034999999999996
 30
0.0
 11
82.78879999999999
 21
1.39200000000001
 31
0.0
  0
LINE
  5
30E
330
1E
100
AcDbEntity
  8
0
100
AcDbLine
 10
88.1867999999852
 20
2.034999999997992
 30
0.0
 11
82.78879999999999
 21
1.39200000000001
 31
0.0
  0
LINE
  5
30F
330
1E
100
AcDbEntity
  8
0
100
AcDbLine
 10
66.03889999999999
 20
0.3079999999999927
 30
0.0
 11
59.14789999999999
 21
0.0720000000000027
 31
0.0
  0
LINE
  5
310
330
1E
100
AcDbEntity
  8
0
100
AcDbLine
 10
59.14789999999999
 20
0.0720000000000027
 30
0.0
 11
54.5
 21
0.0
 31
0.0
  0
LINE
  5
311
330
1E
100
AcDbEntity
  8
0
100
AcDbLine
 10
73.72620000000001
 20
28.2925
 30
0.0
 11
71.4979
 21
28.0271
 31
0.0
  0
LINE
  5
312
330
1E
100
AcDbEntity
  8
0
100
AcDbLine
 10
82.6458
 20
38.25
 30
0.0
 11
81.80559999999999
 21
36.19469999999999
 31
0.0
  0
LINE
  5
313
330
1E
100
AcDbEntity
  8
0
100
AcDbLine
 10
80.97289999999999
 20
37.5021
 30
0.0
 11
80.7075
 21
35.2738
 31
0.0
  0
LINE
  5
314
330
1E
100
AcDbEntity
  8
0
100
AcDbLine
 10
80.24119999999999
 20
33.0763
 30
0.0
 11
79.89650000000001
 21
32.2207
 31
0.0
  0
LINE
  5
315
330
1E
100
AcDbEntity
  8
0
100
AcDbLine
 10
84.0018
 20
27.9986
 30
0.0
 11
82.6697
 21
29.6914
 31
0.0
  0
LINE
  5
316
330
1E
100
AcDbEntity
  8
0
100
AcDbLine
 10
85.75700000000001
 20
26.6388
 30
0.0
 11
84.0018
 21
27.9986
 31
0.0
  0
LINE
  5
317
330
1E
100
AcDbEntity
  8
0
100
AcDbLine
 10
87.81229999999998
 20
25.7986
 30
0.0
 11
85.75700000000001
 21
26.6388
 31
0.0
  0
LINE
  5
318
330
1E
100
AcDbEntity
  8
0
100
AcDbLine
 10
81.81090000000001
 20
31.80379999999999
 30
0.0
 11
81.4985
 21
34.0627
 31
0.0
  0
LINE
  5
319
330
1E
100
AcDbEntity
  8
0
100
AcDbLine
 10
80.485
 20
34.0686
 30
0.0
 11
80.24119999999999
 21
33.0763
 31
0.0
  0
LINE
  5
31A
330
1E
100
AcDbEntity
  8
0
100
AcDbLine
 10
82.6697
 20
29.6914
 30
0.0
 11
81.81090000000001
 21
31.80379999999999
 31
0.0
  0
LINE
  5
31B
330
1E
100
AcDbEntity
  8
0
100
AcDbLine
 10
81.80559999999999
 20
36.19469999999999
 30
0.0
 11
81.4985
 21
34.0627
 31
0.0
  0
LINE
  5
31C
330
1E
100
AcDbEntity
  8
0
100
AcDbLine
 10
80.7075
 20
35.2738
 30
0.0
 11
80.485
 21
34.0686
 31
0.0
  0
LINE
  5
31D
330
1E
100
AcDbEntity
  8
0
100
AcDbLine
 10
76.7793
 20
29.1035
 30
0.0
 11
75.92369999999999
 21
28.7588
 31
0.0
  0
LINE
  5
31E
330
1E
100
AcDbEntity
  8
0
100
AcDbLine
 10
75.92369999999999
 20
28.7588
 30
0.0
 11
74.9314
 21
28.515
 31
0.0
  0
LINE
  5
31F
330
1E
100
AcDbEntity
  8
0
100
AcDbLine
 10
74.9314
 20
28.515
 30
0.0
 11
73.72620000000001
 21
28.2925
 31
0.0
  0
LINE
  5
320
330
1E
100
AcDbEntity
  8
0
100
AcDbLine
 10
78.045
 20
29.8883
 30
0.0
 11
77.3914
 21
29.45429999999999
 31
0.0
  0
LINE
  5
321
330
1E
100
AcDbEntity
  8
0
100
AcDbLine
 10
79.5457
 20
31.6086
 30
0.0
 11
79.1117
 21
30.95499999999999
 31
0.0
  0
LINE
  5
322
330
1E
100
AcDbEntity
  8
0
100
AcDbLine
 10
79.1117
 20
30.95499999999999
 30
0.0
 11
78.6113
 21
30.3887
 31
0.0
  0
LINE
  5
323
330
1E
100
AcDbEntity
  8
0
100
AcDbLine
 10
78.6113
 20
30.3887
 30
0.0
 11
78.045
 21
29.8883
 31
0.0
  0
LINE
  5
324
330
1E
100
AcDbEntity
  8
0
100
AcDbLine
 10
79.89650000000001
 20
32.2207
 30
0.0
 11
79.5457
 21
31.6086
 31
0.0
  0
LINE
  5
325
330
1E
100
AcDbEntity
  8
0
100
AcDbLine
 10
77.3914
 20
29.45429999999999
 30
0.0
 11
76.7793
 21
29.1035
 31
0.0
  0
LINE
  5
326
330
1E
100
AcDbEntity
  8
0
100
AcDbLine
 10
81.8444
 20
48.6776
 30
0.0
 11
81.5962
 21
44.1736
 31
0.0
  0
LINE
  5
327
330
1E
100
AcDbEntity
  8
0
100
AcDbLine
 10
85.6985
 20
41.33729999999999
 30
0.0
 11
84.0056
 21
40.0053
 31
0.0
  0
LINE
  5
328
330
1E
100
AcDbEntity
  8
0
100
AcDbLine
 10
87.8109
 20
42.19619999999999
 30
0.0
 11
85.6985
 21
41.33729999999999
 31
0.0
  0
LINE
  5
329
330
1E
100
AcDbEntity
  8
0
100
AcDbLine
 10
81.5962
 20
44.1736
 30
0.0
 11
81.29769999999998
 21
40.2259
 31
0.0
  0
LINE
  5
32A
330
1E
100
AcDbEntity
  8
0
100
AcDbLine
 10
84.0056
 20
40.0053
 30
0.0
 11
82.6458
 21
38.25
 31
0.0
  0
LINE
  5
32B
330
1E
100
AcDbEntity
  8
0
100
AcDbLine
 10
81.29769999999998
 20
40.2259
 30
0.0
 11
80.97289999999999
 21
37.5021
 31
0.0
  0
LINE
  5
32C
330
1E
100
AcDbEntity
  8
0
100
AcDbLine
 10
81.9635
 20
52.15469999999999
 30
0.0
 11
81.8444
 21
48.6776
 31
0.0
  0
LINE
  5
32D
330
1E
100
AcDbEntity
  8
0
100
AcDbLine
 10
82.0
 20
54.5
 30
0.0
 11
81.9635
 21
52.15469999999999
 31
0.0
  0
LINE
  5
32E
330
1E
100
AcDbEntity
  8
0
100
AcDbLine
 10
64.8264
 20
27.4038
 30
0.0
 11
60.3224
 21
27.15559999999999
 31
0.0
  0
LINE
  5
32F
330
1E
100
AcDbEntity
  8
0
100
AcDbLine
 10
64.8264
 20
27.4038
 30
0.0
 11
60.3224
 21
27.15559999999999
 31
0.0
  0
LINE
  5
330
330
1E
100
AcDbEntity
  8
0
100
AcDbLine
 10
68.77410000000001
 20
27.7023
 30
0.0
 11
64.8264
 21
27.4038
 31
0.0
  0
LINE
  5
331
330
1E
100
AcDbEntity
  8
0
100
AcDbLine
 10
71.4979
 20
28.0271
 30
0.0
 11
68.77410000000001
 21
27.7023
 31
0.0
  0
LINE
  5
332
330
1E
100
AcDbEntity
  8
0
100
AcDbLine
 10
60.3224
 20
27.15559999999999
 30
0.0
 11
56.8453
 21
27.0365
 31
0.0
  0
LINE
  5
333
330
1E
100
AcDbEntity
  8
0
100
AcDbLine
 10
60.3224
 20
27.15559999999999
 30
0.0
 11
56.8453
 21
27.0365
 31
0.0
  0
LINE
  5
334
330
1E
100
AcDbEntity
  8
0
100
AcDbLine
 10
56.8453
 20
27.0365
 30
0.0
 11
54.5
 21
27.0
 31
0.0
  0
LINE
  5
335
330
1E
100
AcDbEntity
  8
0
100
AcDbLine
 10
56.8453
 20
27.0365
 30
0.0
 11
54.5
 21
27.0
 31
0.0
  0
LINE
  5
336
330
1E
100
AcDbEntity
  8
0
100
AcDbLine
 10
92.60290000000001
 20
106.4379999999999
 30
0.0
 11
88.1868
 21
106.9649999999999
 31
0.0
  0
LINE
  5
337
330
1E
100
AcDbEntity
  8
0
100
AcDbLine
 10
106.96451
 20
88.1868
 30
0.0
 11
106.43845
 21
92.60290000000001
 31
0.0
  0
LINE
  5
338
330
1E
100
AcDbEntity
  8
0
100
AcDbLine
 10
108.691598
 20
66.03889999999999
 30
0.0
 11
108.199803
 21
74.96500000000001
 31
0.0
  0
LINE
  5
339
330
1E
100
AcDbEntity
  8
0
100
AcDbLine
 10
108.691598
 20
66.03889999999999
 30
0.0
 11
108.199803
 21
74.96500000000001
 31
0.0
  0
LINE
  5
33A
330
1E
100
AcDbEntity
  8
0
100
AcDbLine
 10
108.9276579999999
 20
59.14789999999999
 30
0.0
 11
108.691598
 21
66.03889999999999
 31
0.0
  0
LINE
  5
33B
330
1E
100
AcDbEntity
  8
0
100
AcDbLine
 10
108.9276579999999
 20
59.14789999999999
 30
0.0
 11
108.691598
 21
66.03889999999999
 31
0.0
  0
LINE
  5
33C
330
1E
100
AcDbEntity
  8
0
100
AcDbLine
 10
108.199803
 20
74.96500000000001
 30
0.0
 11
107.60825
 21
82.78870000000001
 31
0.0
  0
LINE
  5
33D
330
1E
100
AcDbEntity
  8
0
100
AcDbLine
 10
107.60825
 20
82.78870000000001
 30
0.0
 11
106.96451
 21
88.1868
 31
0.0
  0
LINE
  5
33E
330
1E
100
AcDbEntity
  8
0
100
AcDbLine
 10
105.75602
 20
95.97459999999999
 30
0.0
 11
105.51448
 21
96.9579
 31
0.0
  0
LINE
  5
33F
330
1E
100
AcDbEntity
  8
0
100
AcDbLine
 10
105.9975799999999
 20
94.99129999999999
 30
0.0
 11
105.5144599999999
 21
96.9579
 31
0.0
  0
LINE
  5
340
330
1E
100
AcDbEntity
  8
0
100
AcDbLine
 10
105.7560200000001
 20
95.9745999999995
 30
0.0
 11
105.51448
 21
96.9579
 31
0.0
  0
LINE
  5
341
330
1E
100
AcDbEntity
  8
0
100
AcDbLine
 10
106.43845
 20
92.60290000000001
 30
0.0
 11
106.2180049999979
 21
93.797100000011
 31
0.0
  0
LINE
  5
342
330
1E
100
AcDbEntity
  8
0
100
AcDbLine
 10
106.43845
 20
92.60290000000001
 30
0.0
 11
106.2180049999981
 21
93.7971000000101
 31
0.0
  0
LINE
  5
343
330
1E
100
AcDbEntity
  8
0
100
AcDbLine
 10
106.4384299999999
 20
92.60290000000001
 30
0.0
 11
105.9975799999999
 21
94.99129999999999
 31
0.0
  0
LINE
  5
344
330
1E
100
AcDbEntity
  8
0
100
AcDbLine
 10
96.9579
 20
105.5139999999999
 30
0.0
 11
94.99129999999999
 21
105.9979999999999
 31
0.0
  0
LINE
  5
345
330
1E
100
AcDbEntity
  8
0
100
AcDbLine
 10
98.6536
 20
104.831
 30
0.0
 11
96.9579
 21
105.5139999999999
 31
0.0
  0
LINE
  5
346
330
1E
100
AcDbEntity
  8
0
100
AcDbLine
 10
105.51448
 20
96.9579
 30
0.0
 11
105.241132000002
 21
97.63617999999491
 31
0.0
  0
LINE
  5
347
330
1E
100
AcDbEntity
  8
0
100
AcDbLine
 10
105.51448
 20
96.9579
 30
0.0
 11
105.2411320000015
 21
97.6361799999961
 31
0.0
  0
LINE
  5
348
330
1E
100
AcDbEntity
  8
0
100
AcDbLine
 10
105.5144599999999
 20
96.9579
 30
0.0
 11
104.83114
 21
98.6536
 31
0.0
  0
LINE
  5
349
330
1E
100
AcDbEntity
  8
0
100
AcDbLine
 10
102.2841899999999
 20
102.2839999999999
 30
0.0
 11
101.1618499999999
 21
103.276
 31
0.0
  0
LINE
  5
34A
330
1E
100
AcDbEntity
  8
0
100
AcDbLine
 10
103.27585
 20
101.162
 30
0.0
 11
102.2841899999999
 21
102.2839999999999
 31
0.0
  0
LINE
  5
34B
330
1E
100
AcDbEntity
  8
0
100
AcDbLine
 10
104.1359499999999
 20
99.8665
 30
0.0
 11
103.27585
 21
101.162
 31
0.0
  0
LINE
  5
34C
330
1E
100
AcDbEntity
  8
0
100
AcDbLine
 10
104.83114
 20
98.6536
 30
0.0
 11
104.13593
 21
99.8665
 31
0.0
  0
LINE
  5
34D
330
1E
100
AcDbEntity
  8
0
100
AcDbLine
 10
104.4140140000044
 20
99.3813399999923
 30
0.0
 11
104.1359499999999
 21
99.8665
 31
0.0
  0
LINE
  5
34E
330
1E
100
AcDbEntity
  8
0
100
AcDbLine
 10
104.4140140000044
 20
99.38133999999219
 30
0.0
 11
104.1359499999999
 21
99.8665
 31
0.0
  0
LINE
  5
34F
330
1E
100
AcDbEntity
  8
0
100
AcDbLine
 10
99.86651000000001
 20
104.136
 30
0.0
 11
98.6536
 21
104.831
 31
0.0
  0
LINE
  5
350
330
1E
100
AcDbEntity
  8
0
100
AcDbLine
 10
101.1618499999999
 20
103.276
 30
0.0
 11
99.8665
 21
104.136
 31
0.0
  0
LINE
  5
351
330
1E
100
AcDbEntity
  8
0
100
AcDbLine
 10
100.5141750000024
 20
103.705999999998
 30
0.0
 11
99.86651000000001
 21
104.136
 31
0.0
  0
LINE
  5
352
330
1E
100
AcDbEntity
  8
0
100
AcDbLine
 10
100.514175000006
 20
103.7059999999959
 30
0.0
 11
99.86651000000001
 21
104.136
 31
0.0
  0
LINE
  5
353
330
1E
100
AcDbEntity
  8
0
100
AcDbLine
 10
94.99129999999999
 20
105.9979999999999
 30
0.0
 11
92.60290000000001
 21
106.4379999999999
 31
0.0
  0
LINE
  5
354
330
1E
100
AcDbEntity
  8
0
100
AcDbLine
 10
60.5
 20
89.50000000000001
 30
0.0
 11
58.7
 21
88.1
 31
0.0
  0
LINE
  5
355
330
1E
100
AcDbEntity
  8
0
100
AcDbLine
 10
73.72620000000001
 20
80.7075
 30
0.0
 11
71.4979
 21
80.97289999999999
 31
0.0
  0
LINE
  5
356
330
1E
100
AcDbEntity
  8
0
100
AcDbLine
 10
80.97289999999999
 20
71.4979
 30
0.0
 11
80.7075
 21
73.72620000000001
 31
0.0
  0
LINE
  5
357
330
1E
100
AcDbEntity
  8
0
100
AcDbLine
 10
81.8444
 20
60.3224
 30
0.0
 11
81.5962
 21
64.8264
 31
0.0
  0
LINE
  5
358
330
1E
100
AcDbEntity
  8
0
100
AcDbLine
 10
81.9635
 20
56.8453
 30
0.0
 11
81.8444
 21
60.3224
 31
0.0
  0
LINE
  5
359
330
1E
100
AcDbEntity
  8
0
100
AcDbLine
 10
81.5962
 20
64.8264
 30
0.0
 11
81.29769999999998
 21
68.77410000000001
 31
0.0
  0
LINE
  5
35A
330
1E
100
AcDbEntity
  8
0
100
AcDbLine
 10
81.29769999999998
 20
68.77410000000001
 30
0.0
 11
80.97289999999999
 21
71.4979
 31
0.0
  0
LINE
  5
35B
330
1E
100
AcDbEntity
  8
0
100
AcDbLine
 10
80.24119999999999
 20
75.92369999999999
 30
0.0
 11
79.89650000000001
 21
76.7793
 31
0.0
  0
LINE
  5
35C
330
1E
100
AcDbEntity
  8
0
100
AcDbLine
 10
80.485
 20
74.9314
 30
0.0
 11
80.24119999999999
 21
75.92369999999999
 31
0.0
  0
LINE
  5
35D
330
1E
100
AcDbEntity
  8
0
100
AcDbLine
 10
80.7075
 20
73.72620000000001
 30
0.0
 11
80.485
 21
74.9314
 31
0.0
  0
LINE
  5
35E
330
1E
100
AcDbEntity
  8
0
100
AcDbLine
 10
76.7793
 20
79.8964
 30
0.0
 11
75.92369999999999
 21
80.24129999999999
 31
0.0
  0
LINE
  5
35F
330
1E
100
AcDbEntity
  8
0
100
AcDbLine
 10
76.7793
 20
79.8964
 30
0.0
 11
75.92369999999999
 21
80.24120000000001
 31
0.0
  0
LINE
  5
360
330
1E
100
AcDbEntity
  8
0
100
AcDbLine
 10
78.045
 20
79.11159999999999
 30
0.0
 11
77.3914
 21
79.5457
 31
0.0
  0
LINE
  5
361
330
1E
100
AcDbEntity
  8
0
100
AcDbLine
 10
78.045
 20
79.1117
 30
0.0
 11
77.3914
 21
79.5457
 31
0.0
  0
LINE
  5
362
330
1E
100
AcDbEntity
  8
0
100
AcDbLine
 10
79.5457
 20
77.3914
 30
0.0
 11
79.1117
 21
78.045
 31
0.0
  0
LINE
  5
363
330
1E
100
AcDbEntity
  8
0
100
AcDbLine
 10
79.89650000000001
 20
76.7793
 30
0.0
 11
79.5457
 21
77.3914
 31
0.0
  0
LINE
  5
364
330
1E
100
AcDbEntity
  8
0
100
AcDbLine
 10
79.1117
 20
78.045
 30
0.0
 11
78.6113
 21
78.6113
 31
0.0
  0
LINE
  5
365
330
1E
100
AcDbEntity
  8
0
100
AcDbLine
 10
78.6113
 20
78.6113
 30
0.0
 11
78.045
 21
79.1117
 31
0.0
  0
LINE
  5
366
330
1E
100
AcDbEntity
  8
0
100
AcDbLine
 10
78.6113
 20
78.6113
 30
0.0
 11
78.045
 21
79.11159999999999
 31
0.0
  0
LINE
  5
367
330
1E
100
AcDbEntity
  8
0
100
AcDbLine
 10
77.3914
 20
79.5457
 30
0.0
 11
76.7793
 21
79.8964
 31
0.0
  0
LINE
  5
368
330
1E
100
AcDbEntity
  8
0
100
AcDbLine
 10
75.92369999999999
 20
80.24120000000001
 30
0.0
 11
74.9314
 21
80.485
 31
0.0
  0
LINE
  5
369
330
1E
100
AcDbEntity
  8
0
100
AcDbLine
 10
75.92369999999999
 20
80.24129999999999
 30
0.0
 11
74.9314
 21
80.485
 31
0.0
  0
LINE
  5
36A
330
1E
100
AcDbEntity
  8
0
100
AcDbLine
 10
74.9314
 20
80.485
 30
0.0
 11
73.72620000000001
 21
80.7075
 31
0.0
  0
LINE
  5
36B
330
1E
100
AcDbEntity
  8
0
100
AcDbLine
 10
64.8264
 20
81.5962
 30
0.0
 11
60.3224
 21
81.8444
 31
0.0
  0
LINE
  5
36C
330
1E
100
AcDbEntity
  8
0
100
AcDbLine
 10
68.77410000000001
 20
81.2977
 30
0.0
 11
64.8264
 21
81.5962
 31
0.0
  0
LINE
  5
36D
330
1E
100
AcDbEntity
  8
0
100
AcDbLine
 10
71.4979
 20
80.97289999999999
 30
0.0
 11
68.77410000000001
 21
81.2977
 31
0.0
  0
LINE
  5
36E
330
1E
100
AcDbEntity
  8
0
100
AcDbLine
 10
60.3224
 20
81.8444
 30
0.0
 11
56.8453
 21
81.9635
 31
0.0
  0
LINE
  5
36F
330
1E
100
AcDbEntity
  8
0
100
AcDbLine
 10
56.8453
 20
81.9635
 30
0.0
 11
54.5
 21
82.0
 31
0.0
  0
LINE
  5
370
330
1E
100
AcDbEntity
  8
0
100
AcDbLine
 10
56.7
 20
87.3
 30
0.0
 11
54.5
 21
87.0
 31
0.0
  0
LINE
  5
371
330
1E
100
AcDbEntity
  8
0
100
AcDbLine
 10
58.7
 20
88.1
 30
0.0
 11
56.7
 21
87.3
 31
0.0
  0
LINE
  5
372
330
1E
100
AcDbEntity
  8
0
100
AcDbLine
 10
74.96500000000001
 20
108.2
 30
0.0
 11
66.03889999999999
 21
108.692
 31
0.0
  0
LINE
  5
373
330
1E
100
AcDbEntity
  8
0
100
AcDbLine
 10
82.78879999999999
 20
107.6079999999999
 30
0.0
 11
74.96500000000001
 21
108.2
 31
0.0
  0
LINE
  5
374
330
1E
100
AcDbEntity
  8
0
100
AcDbLine
 10
88.1867999999852
 20
106.965000000002
 30
0.0
 11
82.78879999999999
 21
107.6079999999999
 31
0.0
  0
LINE
  5
375
330
1E
100
AcDbEntity
  8
0
100
AcDbLine
 10
88.1868
 20
106.9649999999999
 30
0.0
 11
82.78879999999999
 21
107.6079999999999
 31
0.0
  0
LINE
  5
376
330
1E
100
AcDbEntity
  8
0
100
AcDbLine
 10
63.0
 20
95.5
 30
0.0
 11
62.7
 21
97.70000000000001
 31
0.0
  0
LINE
  5
377
330
1E
100
AcDbEntity
  8
0
100
AcDbLine
 10
62.7
 20
93.3
 30
0.0
 11
61.9
 21
91.3
 31
0.0
  0
LINE
  5
378
330
1E
100
AcDbEntity
  8
0
100
AcDbLine
 10
61.9
 20
91.3
 30
0.0
 11
60.5
 21
89.50000000000001
 31
0.0
  0
LINE
  5
379
330
1E
100
AcDbEntity
  8
0
100
AcDbLine
 10
63.0
 20
95.5
 30
0.0
 11
62.7
 21
93.3
 31
0.0
  0
LINE
  5
37A
330
1E
100
AcDbEntity
  8
0
100
AcDbLine
 10
60.5
 20
101.5
 30
0.0
 11
58.7
 21
102.9
 31
0.0
  0
LINE
  5
37B
330
1E
100
AcDbEntity
  8
0
100
AcDbLine
 10
61.9
 20
99.7
 30
0.0
 11
60.5
 21
101.5
 31
0.0
  0
LINE
  5
37C
330
1E
100
AcDbEntity
  8
0
100
AcDbLine
 10
62.7
 20
97.70000000000001
 30
0.0
 11
61.9
 21
99.7
 31
0.0
  0
LINE
  5
37D
330
1E
100
AcDbEntity
  8
0
100
AcDbLine
 10
56.7
 20
103.7
 30
0.0
 11
54.5
 21
104.0
 31
0.0
  0
LINE
  5
37E
330
1E
100
AcDbEntity
  8
0
100
AcDbLine
 10
58.7
 20
102.9
 30
0.0
 11
56.7
 21
103.7
 31
0.0
  0
LINE
  5
37F
330
1E
100
AcDbEntity
  8
0
100
AcDbLine
 10
66.03889999999999
 20
108.692
 30
0.0
 11
59.14789999999999
 21
108.928
 31
0.0
  0
LINE
  5
380
330
1E
100
AcDbEntity
  8
0
100
AcDbLine
 10
59.14789999999999
 20
108.928
 30
0.0
 11
54.5
 21
109.0
 31
0.0
  0
ENDSEC
  0
SECTION
  2
OBJECTS
  0
DICTIONARY
  5
C
330
0
100
AcDbDictionary
281
     1
  3
ACAD_GROUP
350
D
  3
ACAD_LAYOUT
350
19
  3
ACAD_MLINESTYLE
350
16
  3
ACAD_PLOTSETTINGS
350
18
  3
ACAD_PLOTSTYLENAME
350
E
  3
AcDbVariableDictionary
350
381
  0
DICTIONARY
  5
D
102
{ACAD_REACTORS
330
C
102
}
330
C
100
AcDbDictionary
281
     1
  0
DICTIONARY
  5
19
102
{ACAD_REACTORS
330
C
102
}
330
C
100
AcDbDictionary
281
     1
  3
Layout1
350
1D
  3
Model
350
21
  0
DICTIONARY
  5
16
102
{ACAD_REACTORS
330
C
102
}
330
C
100
AcDbDictionary
281
     1
  3
Standard
350
17
  0
DICTIONARY
  5
18
102
{ACAD_REACTORS
330
C
102
}
330
C
100
AcDbDictionary
281
     1
  0
ACDBDICTIONARYWDFLT
  5
E
102
{ACAD_REACTORS
330
C
102
}
330
C
100
AcDbDictionary
281
     1
  3
Normal
350
F
100
AcDbDictionaryWithDefault
340
F
  0
DICTIONARY
  5
381
102
{ACAD_REACTORS
330
C
102
}
330
C
100
AcDbDictionary
281
     1
  3
DIMASSOC
350
382
  0
LAYOUT
  5
1D
102
{ACAD_REACTORS
330
19
102
}
330
19
100
AcDbPlotSettings
  1

  2
hp deskjet 980c series
  4

  6

 40
0.0
 41
0.0
 42
0.0
 43
0.0
 44
0.0
 45
0.0
 46
0.0
 47
0.0
 48
0.0
 49
0.0
140
0.0
141
0.0
142
1.0
143
1.0
 70
   688
 72
     0
 73
     0
 74
     5
  7

 75
    16
147
1.0
148
0.0
149
0.0
100
AcDbLayout
  1
Layout1
 70
     1
 71
     1
 10
0.0
 20
0.0
 11
12.0
 21
9.0
 12
0.0
 22
0.0
 32
0.0
 14
1.000000000000000E+20
 24
1.000000000000000E+20
 34
1.000000000000000E+20
 15
-1.000000000000000E+20
 25
-1.000000000000000E+20
 35
-1.000000000000000E+20
146
0.0
 13
0.0
 23
0.0
 33
0.0
 16
1.0
 26
0.0
 36
0.0
 17
0.0
 27
1.0
 37
0.0
 76
     0
330
1A
  0
LAYOUT
  5
21
102
{ACAD_REACTORS
330
19
102
}
330
19
100
AcDbPlotSettings
  1

  2
hp deskjet 980c series
  4

  6

 40
0.0
 41
0.0
 42
0.0
 43
0.0
 44
0.0
 45
0.0
 46
0.0
 47
0.0
 48
0.0
 49
0.0
140
0.0
141
0.0
142
1.0
143
1.0
 70
  1712
 72
     0
 73
     0
 74
     0
  7

 75
     0
147
1.0
148
0.0
149
0.0
100
AcDbLayout
  1
Model
 70
     1
 71
     0
 10
0.0
 20
0.0
 11
12.0
 21
9.0
 12
0.0
 22
0.0
 32
0.0
 14
0.0
 24
0.0
 34
0.0
 15
0.0
 25
0.0
 35
0.0
146
0.0
 13
0.0
 23
0.0
 33
0.0
 16
1.0
 26
0.0
 36
0.0
 17
0.0
 27
1.0
 37
0.0
 76
     0
330
1E
  0
MLINESTYLE
  5
17
102
{ACAD_REACTORS
330
16
102
}
330
16
100
AcDbMlineStyle
  2
STANDARD
 70
     0
  3

 62
   256
 51
90.0
 52
90.0
 71
     2
 49
0.5
 62
   256
  6
BYLAYER
 49
-0.5
 62
   256
  6
BYLAYER
  0
ACDBPLACEHOLDER
  5
F
102
{ACAD_REACTORS
330
E
102
}
330
E
  0
DICTIONARYVAR
  5
382
102
{ACAD_REACTORS
330
381
102
}
330
381
100
DictionaryVariables
280
     0
  1
1
  0
ENDSEC
  0
EOF
