  0
SECTION
  2
HEADER
  9
$ACADVER
  1
AC1015
  9
$ACADMAINTVER
 70
    13
  9
$DWGCODEPAGE
  3
ANSI_1252
  9
$INSBASE
 10
0.0
 20
0.0
 30
0.0
  9
$EXTMIN
 10
0.0
 20
-0.0000000000000053
 30
0.0
  9
$EXTMAX
 10
155.0
 20
66.0
 30
0.0
  9
$LIMMIN
 10
0.0
 20
0.0
  9
$LIMMAX
 10
12.0
 20
9.0
  9
$ORTHOMODE
 70
     0
  9
$REGENMODE
 70
     1
  9
$FILLMODE
 70
     1
  9
$QTEXTMODE
 70
     0
  9
$MIRRTEXT
 70
     1
  9
$LTSCALE
 40
1.0
  9
$ATTMODE
 70
     1
  9
$TEXTSIZE
 40
0.2
  9
$TRACEWID
 40
0.05
  9
$TEXTSTYLE
  7
Standard
  9
$CLAYER
  8
0
  9
$CELTYPE
  6
Continuous
  9
$CECOLOR
 62
   256
  9
$CELTSCALE
 40
1.0
  9
$DISPSILH
 70
     0
  9
$DIMSCALE
 40
1.0
  9
$DIMASZ
 40
0.18
  9
$DIMEXO
 40
0.0625
  9
$DIMDLI
 40
0.38
  9
$DIMRND
 40
0.0
  9
$DIMDLE
 40
0.0
  9
$DIMEXE
 40
0.18
  9
$DIMTP
 40
0.0
  9
$DIMTM
 40
0.0
  9
$DIMTXT
 40
0.18
  9
$DIMCEN
 40
0.09
  9
$DIMTSZ
 40
0.0
  9
$DIMTOL
 70
     0
  9
$DIMLIM
 70
     0
  9
$DIMTIH
 70
     1
  9
$DIMTOH
 70
     1
  9
$DIMSE1
 70
     0
  9
$DIMSE2
 70
     0
  9
$DIMTAD
 70
     0
  9
$DIMZIN
 70
     0
  9
$DIMBLK
  1

  9
$DIMASO
 70
     1
  9
$DIMSHO
 70
     1
  9
$DIMPOST
  1

  9
$DIMAPOST
  1

  9
$DIMALT
 70
     0
  9
$DIMALTD
 70
     2
  9
$DIMALTF
 40
25.4
  9
$DIMLFAC
 40
1.0
  9
$DIMTOFL
 70
     0
  9
$DIMTVP
 40
0.0
  9
$DIMTIX
 70
     0
  9
$DIMSOXD
 70
     0
  9
$DIMSAH
 70
     0
  9
$DIMBLK1
  1

  9
$DIMBLK2
  1

  9
$DIMSTYLE
  2
Standard
  9
$DIMCLRD
 70
     0
  9
$DIMCLRE
 70
     0
  9
$DIMCLRT
 70
     0
  9
$DIMTFAC
 40
1.0
  9
$DIMGAP
 40
0.09
  9
$DIMJUST
 70
     0
  9
$DIMSD1
 70
     0
  9
$DIMSD2
 70
     0
  9
$DIMTOLJ
 70
     1
  9
$DIMTZIN
 70
     0
  9
$DIMALTZ
 70
     0
  9
$DIMALTTZ
 70
     0
  9
$DIMUPT
 70
     0
  9
$DIMDEC
 70
     4
  9
$DIMTDEC
 70
     4
  9
$DIMALTU
 70
     2
  9
$DIMALTTD
 70
     2
  9
$DIMTXSTY
  7
Standard
  9
$DIMAUNIT
 70
     0
  9
$DIMADEC
 70
     0
  9
$DIMALTRND
 40
0.0
  9
$DIMAZIN
 70
     0
  9
$DIMDSEP
 70
    46
  9
$DIMATFIT
 70
     3
  9
$DIMFRAC
 70
     0
  9
$DIMLDRBLK
  1

  9
$DIMLUNIT
 70
     2
  9
$DIMLWD
 70
    -2
  9
$DIMLWE
 70
    -2
  9
$DIMTMOVE
 70
     0
  9
$LUNITS
 70
     2
  9
$LUPREC
 70
     4
  9
$SKETCHINC
 40
0.1
  9
$FILLETRAD
 40
0.0
  9
$AUNITS
 70
     0
  9
$AUPREC
 70
     0
  9
$MENU
  1
.
  9
$ELEVATION
 40
0.0
  9
$PELEVATION
 40
0.0
  9
$THICKNESS
 40
0.0
  9
$LIMCHECK
 70
     0
  9
$CHAMFERA
 40
0.0
  9
$CHAMFERB
 40
0.0
  9
$CHAMFERC
 40
0.0
  9
$CHAMFERD
 40
0.0
  9
$SKPOLY
 70
     0
  9
$TDCREATE
 40
2454907.728742222
  9
$TDUCREATE
 40
2454907.687075555
  9
$TDUPDATE
 40
2454907.730848159
  9
$TDUUPDATE
 40
2454907.689181493
  9
$TDINDWG
 40
0.0021061111
  9
$TDUSRTIMER
 40
0.0021061111
  9
$USRTIMER
 70
     1
  9
$ANGBASE
 50
0.0
  9
$ANGDIR
 70
     0
  9
$PDMODE
 70
     0
  9
$PDSIZE
 40
0.0
  9
$PLINEWID
 40
0.0
  9
$SPLFRAME
 70
     0
  9
$SPLINETYPE
 70
     6
  9
$SPLINESEGS
 70
     8
  9
$HANDSEED
  5
206
  9
$SURFTAB1
 70
     6
  9
$SURFTAB2
 70
     6
  9
$SURFTYPE
 70
     6
  9
$SURFU
 70
     6
  9
$SURFV
 70
     6
  9
$UCSBASE
  2

  9
$UCSNAME
  2

  9
$UCSORG
 10
0.0
 20
0.0
 30
0.0
  9
$UCSXDIR
 10
1.0
 20
0.0
 30
0.0
  9
$UCSYDIR
 10
0.0
 20
1.0
 30
0.0
  9
$UCSORTHOREF
  2

  9
$UCSORTHOVIEW
 70
     1
  9
$UCSORGTOP
 10
0.0
 20
0.0
 30
0.0
  9
$UCSORGBOTTOM
 10
0.0
 20
0.0
 30
0.0
  9
$UCSORGLEFT
 10
0.0
 20
0.0
 30
0.0
  9
$UCSORGRIGHT
 10
0.0
 20
0.0
 30
0.0
  9
$UCSORGFRONT
 10
0.0
 20
0.0
 30
0.0
  9
$UCSORGBACK
 10
0.0
 20
0.0
 30
0.0
  9
$PUCSBASE
  2

  9
$PUCSNAME
  2

  9
$PUCSORG
 10
0.0
 20
0.0
 30
0.0
  9
$PUCSXDIR
 10
1.0
 20
0.0
 30
0.0
  9
$PUCSYDIR
 10
0.0
 20
1.0
 30
0.0
  9
$PUCSORTHOREF
  2

  9
$PUCSORTHOVIEW
 70
     0
  9
$PUCSORGTOP
 10
0.0
 20
0.0
 30
0.0
  9
$PUCSORGBOTTOM
 10
0.0
 20
0.0
 30
0.0
  9
$PUCSORGLEFT
 10
0.0
 20
0.0
 30
0.0
  9
$PUCSORGRIGHT
 10
0.0
 20
0.0
 30
0.0
  9
$PUCSORGFRONT
 10
0.0
 20
0.0
 30
0.0
  9
$PUCSORGBACK
 10
0.0
 20
0.0
 30
0.0
  9
$USERI1
 70
     0
  9
$USERI2
 70
     0
  9
$USERI3
 70
     0
  9
$USERI4
 70
     0
  9
$USERI5
 70
     0
  9
$USERR1
 40
0.0
  9
$USERR2
 40
0.0
  9
$USERR3
 40
0.0
  9
$USERR4
 40
0.0
  9
$USERR5
 40
0.0
  9
$WORLDVIEW
 70
     1
  9
$SHADEDGE
 70
     3
  9
$SHADEDIF
 70
    70
  9
$TILEMODE
 70
     1
  9
$MAXACTVP
 70
    64
  9
$PINSBASE
 10
0.0
 20
0.0
 30
0.0
  9
$PLIMCHECK
 70
     0
  9
$PEXTMIN
 10
1.000000000000000E+20
 20
1.000000000000000E+20
 30
1.000000000000000E+20
  9
$PEXTMAX
 10
-1.000000000000000E+20
 20
-1.000000000000000E+20
 30
-1.000000000000000E+20
  9
$PLIMMIN
 10
0.0
 20
0.0
  9
$PLIMMAX
 10
12.0
 20
9.0
  9
$UNITMODE
 70
     0
  9
$VISRETAIN
 70
     1
  9
$PLINEGEN
 70
     0
  9
$PSLTSCALE
 70
     1
  9
$TREEDEPTH
 70
  3020
  9
$CMLSTYLE
  2
Standard
  9
$CMLJUST
 70
     0
  9
$CMLSCALE
 40
1.0
  9
$PROXYGRAPHICS
 70
     1
  9
$MEASUREMENT
 70
     0
  9
$CELWEIGHT
370
    -1
  9
$ENDCAPS
280
     0
  9
$JOINSTYLE
280
     0
  9
$LWDISPLAY
290
     0
  9
$INSUNITS
 70
     0
  9
$HYPERLINKBASE
  1

  9
$STYLESHEET
  1

  9
$XEDIT
290
     1
  9
$CEPSNTYPE
380
     0
  9
$PSTYLEMODE
290
     1
  9
$FINGERPRINTGUID
  2
{2B5E5A57-5F21-4951-B3DD-11D84C35DF19}
  9
$VERSIONGUID
  2
{EE9FF797-53B5-4C8C-B933-8873F3D0F3FD}
  9
$EXTNAMES
290
     1
  9
$PSVPSCALE
 40
0.0
  9
$OLESTARTUP
290
     0
  0
ENDSEC
  0
SECTION
  2
CLASSES
  0
CLASS
  1
ACDBDICTIONARYWDFLT
  2
AcDbDictionaryWithDefault
  3
AutoCAD 2000
 90
        0
280
     0
281
     0
  0
CLASS
  1
ACDBPLACEHOLDER
  2
AcDbPlaceHolder
  3
AutoCAD 2000
 90
        0
280
     0
281
     0
  0
CLASS
  1
LAYOUT
  2
AcDbLayout
  3
AutoCAD 2000
 90
        0
280
     0
281
     0
  0
CLASS
  1
DICTIONARYVAR
  2
AcDbDictionaryVar
  3
AutoCAD 2000
 90
        0
280
     0
281
     0
  0
ENDSEC
  0
SECTION
  2
TABLES
  0
TABLE
  2
VPORT
  5
8
330
0
100
AcDbSymbolTable
 70
     2
  0
VPORT
  5
205
330
8
100
AcDbSymbolTableRecord
100
AcDbViewportTableRecord
  2
*Active
 70
     0
 10
0.0
 20
0.0
 11
1.0
 21
1.0
 12
77.5
 22
32.99999999999999
 13
0.0
 23
0.0
 14
1.0
 24
1.0
 15
0.0
 25
0.0
 16
0.0
 26
0.0
 36
1.0
 17
0.0
 27
0.0
 37
0.0
 40
78.99743848409127
 41
1.968387776606954
 42
50.0
 43
0.0
 44
0.0
 50
0.0
 51
0.0
 71
     0
 72
   100
 73
     1
 74
     3
 75
     0
 76
     0
 77
     0
 78
     0
281
     0
 65
     1
110
0.0
120
0.0
130
0.0
111
1.0
121
0.0
131
0.0
112
0.0
122
1.0
132
0.0
 79
     1
146
0.0
  0
ENDTAB
  0
TABLE
  2
LTYPE
  5
5
330
0
100
AcDbSymbolTable
 70
     1
  0
LTYPE
  5
13
330
5
100
AcDbSymbolTableRecord
100
AcDbLinetypeTableRecord
  2
ByBlock
 70
     0
  3

 72
    65
 73
     0
 40
0.0
  0
LTYPE
  5
14
330
5
100
AcDbSymbolTableRecord
100
AcDbLinetypeTableRecord
  2
ByLayer
 70
     0
  3

 72
    65
 73
     0
 40
0.0
  0
LTYPE
  5
15
330
5
100
AcDbSymbolTableRecord
100
AcDbLinetypeTableRecord
  2
Continuous
 70
     0
  3
Solid line
 72
    65
 73
     0
 40
0.0
  0
ENDTAB
  0
TABLE
  2
LAYER
  5
2
330
0
100
AcDbSymbolTable
 70
     1
  0
LAYER
  5
10
330
2
100
AcDbSymbolTableRecord
100
AcDbLayerTableRecord
  2
0
 70
     0
 62
     7
  6
Continuous
370
    -3
390
F
  0
ENDTAB
  0
TABLE
  2
STYLE
  5
3
330
0
100
AcDbSymbolTable
 70
     1
  0
STYLE
  5
11
330
3
100
AcDbSymbolTableRecord
100
AcDbTextStyleTableRecord
  2
Standard
 70
     0
 40
0.0
 41
1.0
 50
0.0
 71
     0
 42
0.2
  3
txt
  4

  0
ENDTAB
  0
TABLE
  2
VIEW
  5
6
330
0
100
AcDbSymbolTable
 70
     0
  0
ENDTAB
  0
TABLE
  2
UCS
  5
7
330
0
100
AcDbSymbolTable
 70
     0
  0
ENDTAB
  0
TABLE
  2
APPID
  5
9
330
0
100
AcDbSymbolTable
 70
     1
  0
APPID
  5
12
330
9
100
AcDbSymbolTableRecord
100
AcDbRegAppTableRecord
  2
ACAD
 70
     0
  0
ENDTAB
  0
TABLE
  2
DIMSTYLE
  5
A
330
0
100
AcDbSymbolTable
 70
     1
100
AcDbDimStyleTable
 71
     0
  0
DIMSTYLE
105
1FD
330
A
100
AcDbSymbolTableRecord
100
AcDbDimStyleTableRecord
  2
Standard
 70
     0
340
11
  0
ENDTAB
  0
TABLE
  2
BLOCK_RECORD
  5
1
330
0
100
AcDbSymbolTable
 70
     0
  0
BLOCK_RECORD
  5
1E
330
1
100
AcDbSymbolTableRecord
100
AcDbBlockTableRecord
  2
*Model_Space
340
21
  0
BLOCK_RECORD
  5
1A
330
1
100
AcDbSymbolTableRecord
100
AcDbBlockTableRecord
  2
*Paper_Space
340
1D
  0
ENDTAB
  0
ENDSEC
  0
SECTION
  2
BLOCKS
  0
BLOCK
  5
1F
330
1E
100
AcDbEntity
  8
0
100
AcDbBlockBegin
  2
*Model_Space
 70
     0
 10
0.0
 20
0.0
 30
0.0
  3
*Model_Space
  1

  0
ENDBLK
  5
20
330
1E
100
AcDbEntity
  8
0
100
AcDbBlockEnd
  0
BLOCK
  5
1B
330
1A
100
AcDbEntity
 67
     1
  8
0
100
AcDbBlockBegin
  2
*Paper_Space
 70
     0
 10
0.0
 20
0.0
 30
0.0
  3
*Paper_Space
  1

  0
ENDBLK
  5
1C
330
1A
100
AcDbEntity
 67
     1
  8
0
100
AcDbBlockEnd
  0
ENDSEC
  0
SECTION
  2
ENTITIES
  0
LINE
  5
22
330
1E
100
AcDbEntity
  8
0
100
AcDbLine
 10
0.0
 20
66.0
 30
0.0
 11
0.102871
 21
66.0
 31
0.0
  0
LINE
  5
23
330
1E
100
AcDbEntity
  8
0
100
AcDbLine
 10
0.0
 20
66.0
 30
0.0
 11
0.0
 21
55.0
 31
0.0
  0
LINE
  5
24
330
1E
100
AcDbEntity
  8
0
100
AcDbLine
 10
0.3
 20
54.29999999999999
 30
0.0
 11
1.0
 21
54.0
 31
0.0
  0
LINE
  5
26
330
1E
100
AcDbEntity
  8
0
100
AcDbLine
 10
0.102871
 20
66.0
 30
0.0
 11
0.438554
 21
66.0
 31
0.0
  0
LINE
  5
27
330
1E
100
AcDbEntity
  8
0
100
AcDbLine
 10
10.3
 20
54.0
 30
0.0
 11
11.8856
 21
54.0
 31
0.0
  0
LINE
  5
28
330
1E
100
AcDbEntity
  8
0
100
AcDbLine
 10
11.8856
 20
54.0
 30
0.0
 11
13.7481
 21
54.0
 31
0.0
  0
LINE
  5
29
330
1E
100
AcDbEntity
  8
0
100
AcDbLine
 10
13.7481
 20
54.0
 30
0.0
 11
15.4082
 21
54.0
 31
0.0
  0
LINE
  5
2A
330
1E
100
AcDbEntity
  8
0
100
AcDbLine
 10
15.4082
 20
54.0
 30
0.0
 11
17.7971
 21
54.0
 31
0.0
  0
LINE
  5
2B
330
1E
100
AcDbEntity
  8
0
100
AcDbLine
 10
17.7971
 20
54.0
 30
0.0
 11
20.51
 21
54.0
 31
0.0
  0
LINE
  5
2C
330
1E
100
AcDbEntity
  8
0
100
AcDbLine
 10
20.51
 20
54.0
 30
0.0
 11
23.9067
 21
54.0
 31
0.0
  0
LINE
  5
2D
330
1E
100
AcDbEntity
  8
0
100
AcDbLine
 10
23.9067
 20
54.0
 30
0.0
 11
30.0332
 21
54.0
 31
0.0
  0
LINE
  5
2E
330
1E
100
AcDbEntity
  8
0
100
AcDbLine
 10
30.0332
 20
54.0
 30
0.0
 11
37.6778
 21
54.0
 31
0.0
  0
LINE
  5
2F
330
1E
100
AcDbEntity
  8
0
100
AcDbLine
 10
53.0
 20
0.6731999999999961
 30
0.0
 11
53.9423
 21
3.599899999999999
 31
0.0
  0
LINE
  5
30
330
1E
100
AcDbEntity
  8
0
100
AcDbLine
 10
53.0
 20
0.673199999999995
 30
0.0
 11
53.4711
 21
0.224399999999995
 31
0.0
  0
LINE
  5
31
330
1E
100
AcDbEntity
  8
0
100
AcDbLine
 10
53.0
 20
0.673199999999995
 30
0.0
 11
53.4711
 21
0.224399999999995
 31
0.0
  0
LINE
  5
33
330
1E
100
AcDbEntity
  8
0
100
AcDbLine
 10
54.41349999999999
 20
-0.0000000000000053
 30
0.0
 11
77.5
 21
-0.0000000000000053
 31
0.0
  0
LINE
  5
34
330
1E
100
AcDbEntity
  8
0
100
AcDbLine
 10
53.4711
 20
0.224399999999995
 30
0.0
 11
54.41349999999999
 21
-0.0000000000000053
 31
0.0
  0
LINE
  5
35
330
1E
100
AcDbEntity
  8
0
100
AcDbLine
 10
53.4711
 20
0.224399999999995
 30
0.0
 11
54.41349999999999
 21
-0.0000000000000053
 31
0.0
  0
LINE
  5
36
330
1E
100
AcDbEntity
  8
0
100
AcDbLine
 10
58.096
 20
0.673199999999997
 30
0.0
 11
60.25199999999999
 21
0.673199999999997
 31
0.0
  0
LINE
  5
37
330
1E
100
AcDbEntity
  8
0
100
AcDbLine
 10
56.234
 20
0.673199999999997
 30
0.0
 11
58.096
 21
0.673199999999997
 31
0.0
  0
LINE
  5
38
330
1E
100
AcDbEntity
  8
0
100
AcDbLine
 10
54.96
 20
0.673199999999997
 30
0.0
 11
56.234
 21
0.673199999999997
 31
0.0
  0
LINE
  5
39
330
1E
100
AcDbEntity
  8
0
100
AcDbLine
 10
53.882
 20
0.6731999999999961
 30
0.0
 11
54.96
 21
0.673199999999997
 31
0.0
  0
LINE
  5
3A
330
1E
100
AcDbEntity
  8
0
100
AcDbLine
 10
53.29399999999999
 20
0.6731999999999961
 30
0.0
 11
53.882
 21
0.6731999999999961
 31
0.0
  0
LINE
  5
3B
330
1E
100
AcDbEntity
  8
0
100
AcDbLine
 10
53.0
 20
0.6731999999999961
 30
0.0
 11
53.29399999999999
 21
0.6731999999999961
 31
0.0
  0
LINE
  5
3C
330
1E
100
AcDbEntity
  8
0
100
AcDbLine
 10
53.0
 20
0.6731999999999961
 30
0.0
 11
53.9423
 21
3.599899999999999
 31
0.0
  0
LINE
  5
3D
330
1E
100
AcDbEntity
  8
0
100
AcDbLine
 10
60.25199999999999
 20
0.673199999999997
 30
0.0
 11
62.604
 21
0.673199999999997
 31
0.0
  0
LINE
  5
3E
330
1E
100
AcDbEntity
  8
0
100
AcDbLine
 10
62.604
 20
0.673199999999997
 30
0.0
 11
65.348
 21
0.673199999999997
 31
0.0
  0
LINE
  5
3F
330
1E
100
AcDbEntity
  8
0
100
AcDbLine
 10
65.348
 20
0.673199999999997
 30
0.0
 11
68.18999999999999
 21
0.673199999999997
 31
0.0
  0
LINE
  5
40
330
1E
100
AcDbEntity
  8
0
100
AcDbLine
 10
68.18999999999999
 20
0.673199999999997
 30
0.0
 11
71.22800000000001
 21
0.673199999999997
 31
0.0
  0
LINE
  5
45
330
1E
100
AcDbEntity
  8
0
100
AcDbLine
 10
71.22800000000001
 20
0.673199999999997
 30
0.0
 11
74.266
 21
0.673199999999997
 31
0.0
  0
LINE
  5
46
330
1E
100
AcDbEntity
  8
0
100
AcDbLine
 10
77.5
 20
-0.0000000000000053
 30
0.0
 11
100.587
 21
-0.0000000000000053
 31
0.0
  0
LINE
  5
47
330
1E
100
AcDbEntity
  8
0
100
AcDbLine
 10
94.748
 20
0.673199999999997
 30
0.0
 11
96.904
 21
0.673199999999997
 31
0.0
  0
LINE
  5
48
330
1E
100
AcDbEntity
  8
0
100
AcDbLine
 10
96.904
 20
0.673199999999997
 30
0.0
 11
98.76600000000001
 21
0.673199999999997
 31
0.0
  0
LINE
  5
49
330
1E
100
AcDbEntity
  8
0
100
AcDbLine
 10
92.39600000000001
 20
0.673199999999997
 30
0.0
 11
94.748
 21
0.673199999999997
 31
0.0
  0
LINE
  5
4A
330
1E
100
AcDbEntity
  8
0
100
AcDbLine
 10
89.65200000000001
 20
0.673199999999997
 30
0.0
 11
92.39600000000001
 21
0.673199999999997
 31
0.0
  0
LINE
  5
4B
330
1E
100
AcDbEntity
  8
0
100
AcDbLine
 10
86.81
 20
0.673199999999997
 30
0.0
 11
89.65200000000001
 21
0.673199999999997
 31
0.0
  0
LINE
  5
4C
330
1E
100
AcDbEntity
  8
0
100
AcDbLine
 10
83.772
 20
0.673199999999997
 30
0.0
 11
86.81
 21
0.673199999999997
 31
0.0
  0
LINE
  5
4D
330
1E
100
AcDbEntity
  8
0
100
AcDbLine
 10
80.73399999999999
 20
0.673199999999997
 30
0.0
 11
83.772
 21
0.673199999999997
 31
0.0
  0
LINE
  5
4E
330
1E
100
AcDbEntity
  8
0
100
AcDbLine
 10
77.5
 20
0.673199999999997
 30
0.0
 11
80.73399999999999
 21
0.673199999999997
 31
0.0
  0
LINE
  5
4F
330
1E
100
AcDbEntity
  8
0
100
AcDbLine
 10
74.266
 20
0.673199999999997
 30
0.0
 11
77.5
 21
0.673199999999997
 31
0.0
  0
LINE
  5
74
330
1E
100
AcDbEntity
  8
0
100
AcDbLine
 10
53.9423
 20
3.599899999999999
 30
0.0
 11
54.88459999999999
 21
5.9832
 31
0.0
  0
LINE
  5
7B
330
1E
100
AcDbEntity
  8
0
100
AcDbLine
 10
55.3558
 20
12.8657
 30
0.0
 11
55.5442
 21
20.5012
 31
0.0
  0
LINE
  5
7C
330
1E
100
AcDbEntity
  8
0
100
AcDbLine
 10
55.16729999999999
 20
8.372999999999999
 30
0.0
 11
55.3558
 21
12.8657
 31
0.0
  0
LINE
  5
7D
330
1E
100
AcDbEntity
  8
0
100
AcDbLine
 10
54.88459999999999
 20
5.9832
 30
0.0
 11
55.16729999999999
 21
8.372999999999999
 31
0.0
  0
LINE
  5
7E
330
1E
100
AcDbEntity
  8
0
100
AcDbLine
 10
55.5442
 20
20.5012
 30
0.0
 11
55.6385
 21
30.51709999999999
 31
0.0
  0
LINE
  5
81
330
1E
100
AcDbEntity
  8
0
100
AcDbLine
 10
65.6765
 20
24.0962
 30
0.0
 11
66.0294
 21
24.0
 31
0.0
  0
LINE
  5
82
330
1E
100
AcDbEntity
  8
0
100
AcDbLine
 10
66.4529
 20
24.0
 30
0.0
 11
67.5824
 21
24.0
 31
0.0
  0
LINE
  5
83
330
1E
100
AcDbEntity
  8
0
100
AcDbLine
 10
66.0294
 20
24.0
 30
0.0
 11
66.4529
 21
24.0
 31
0.0
  0
LINE
  5
84
330
1E
100
AcDbEntity
  8
0
100
AcDbLine
 10
67.5824
 20
24.0
 30
0.0
 11
69.3823
 21
24.0
 31
0.0
  0
LINE
  5
86
330
1E
100
AcDbEntity
  8
0
100
AcDbLine
 10
67.1235
 20
24.2885
 30
0.0
 11
69.0294
 21
24.2885
 31
0.0
  0
LINE
  5
87
330
1E
100
AcDbEntity
  8
0
100
AcDbLine
 10
65.9235
 20
24.2885
 30
0.0
 11
67.1235
 21
24.2885
 31
0.0
  0
LINE
  5
88
330
1E
100
AcDbEntity
  8
0
100
AcDbLine
 10
65.5
 20
24.2885
 30
0.0
 11
65.9235
 21
24.2885
 31
0.0
  0
LINE
  5
89
330
1E
100
AcDbEntity
  8
0
100
AcDbLine
 10
65.5
 20
24.2885
 30
0.0
 11
65.6765
 21
24.0962
 31
0.0
  0
LINE
  5
8A
330
1E
100
AcDbEntity
  8
0
100
AcDbLine
 10
65.5
 20
24.2885
 30
0.0
 11
65.5
 21
25.0
 31
0.0
  0
LINE
  5
8B
330
1E
100
AcDbEntity
  8
0
100
AcDbLine
 10
69.3823
 20
24.0
 30
0.0
 11
71.7823
 21
24.0
 31
0.0
  0
LINE
  5
8D
330
1E
100
AcDbEntity
  8
0
100
AcDbLine
 10
69.0294
 20
24.2885
 30
0.0
 11
71.5353
 21
24.2885
 31
0.0
  0
LINE
  5
8E
330
1E
100
AcDbEntity
  8
0
100
AcDbLine
 10
71.7823
 20
24.0
 30
0.0
 11
74.5353
 21
24.0
 31
0.0
  0
LINE
  5
8F
330
1E
100
AcDbEntity
  8
0
100
AcDbLine
 10
74.5353
 20
24.0
 30
0.0
 11
77.5
 21
24.0
 31
0.0
  0
LINE
  5
90
330
1E
100
AcDbEntity
  8
0
100
AcDbLine
 10
80.46469999999999
 20
24.0
 30
0.0
 11
83.21769999999999
 21
24.0
 31
0.0
  0
LINE
  5
91
330
1E
100
AcDbEntity
  8
0
100
AcDbLine
 10
77.5
 20
24.0
 30
0.0
 11
80.46469999999999
 21
24.0
 31
0.0
  0
LINE
  5
92
330
1E
100
AcDbEntity
  8
0
100
AcDbLine
 10
83.21769999999999
 20
24.0
 30
0.0
 11
85.6177
 21
24.0
 31
0.0
  0
LINE
  5
93
330
1E
100
AcDbEntity
  8
0
100
AcDbLine
 10
85.6177
 20
24.0
 30
0.0
 11
87.41759999999999
 21
24.0
 31
0.0
  0
LINE
  5
95
330
1E
100
AcDbEntity
  8
0
100
AcDbLine
 10
87.41759999999999
 20
24.0
 30
0.0
 11
88.5471
 21
24.0
 31
0.0
  0
LINE
  5
96
330
1E
100
AcDbEntity
  8
0
100
AcDbLine
 10
88.5471
 20
24.0
 30
0.0
 11
88.97060000000001
 21
24.0
 31
0.0
  0
LINE
  5
97
330
1E
100
AcDbEntity
  8
0
100
AcDbLine
 10
88.97060000000001
 20
24.0
 30
0.0
 11
89.32349999999999
 21
24.0962
 31
0.0
  0
LINE
  5
98
330
1E
100
AcDbEntity
  8
0
100
AcDbLine
 10
85.9706
 20
24.2885
 30
0.0
 11
87.87649999999999
 21
24.2885
 31
0.0
  0
LINE
  5
99
330
1E
100
AcDbEntity
  8
0
100
AcDbLine
 10
87.87649999999999
 20
24.2885
 30
0.0
 11
89.0765
 21
24.2885
 31
0.0
  0
LINE
  5
9A
330
1E
100
AcDbEntity
  8
0
100
AcDbLine
 10
89.32349999999999
 20
24.0962
 30
0.0
 11
89.50000000000001
 21
24.2885
 31
0.0
  0
LINE
  5
9B
330
1E
100
AcDbEntity
  8
0
100
AcDbLine
 10
89.0765
 20
24.2885
 30
0.0
 11
89.50000000000001
 21
24.2885
 31
0.0
  0
LINE
  5
9C
330
1E
100
AcDbEntity
  8
0
100
AcDbLine
 10
89.50000000000001
 20
24.2885
 30
0.0
 11
89.50000000000001
 21
25.0
 31
0.0
  0
LINE
  5
9E
330
1E
100
AcDbEntity
  8
0
100
AcDbLine
 10
83.4647
 20
24.2885
 30
0.0
 11
85.9706
 21
24.2885
 31
0.0
  0
LINE
  5
9F
330
1E
100
AcDbEntity
  8
0
100
AcDbLine
 10
80.57059999999999
 20
24.2885
 30
0.0
 11
83.4647
 21
24.2885
 31
0.0
  0
LINE
  5
A0
330
1E
100
AcDbEntity
  8
0
100
AcDbLine
 10
77.5
 20
24.2885
 30
0.0
 11
80.57059999999999
 21
24.2885
 31
0.0
  0
LINE
  5
A1
330
1E
100
AcDbEntity
  8
0
100
AcDbLine
 10
71.5353
 20
24.2885
 30
0.0
 11
74.4294
 21
24.2885
 31
0.0
  0
LINE
  5
A2
330
1E
100
AcDbEntity
  8
0
100
AcDbLine
 10
55.6385
 20
30.51709999999999
 30
0.0
 11
55.6385
 21
46.0
 31
0.0
  0
LINE
  5
A3
330
1E
100
AcDbEntity
  8
0
100
AcDbLine
 10
55.9099
 20
46.0
 30
0.0
 11
56.4526
 21
46.0
 31
0.0
  0
LINE
  5
A4
330
1E
100
AcDbEntity
  8
0
100
AcDbLine
 10
60.3425
 20
43.6913
 30
0.0
 11
62.3326
 21
43.2575
 31
0.0
  0
LINE
  5
A5
330
1E
100
AcDbEntity
  8
0
100
AcDbLine
 10
58.6237
 20
44.12519999999999
 30
0.0
 11
60.3425
 21
43.6913
 31
0.0
  0
LINE
  5
A6
330
1E
100
AcDbEntity
  8
0
100
AcDbLine
 10
57.44769999999999
 20
44.6168
 30
0.0
 11
58.6237
 21
44.12519999999999
 31
0.0
  0
LINE
  5
A7
330
1E
100
AcDbEntity
  8
0
100
AcDbLine
 10
56.4526
 20
46.0
 30
0.0
 11
56.63791374025279
 21
46.0
 31
0.0
  0
LINE
  5
A8
330
1E
100
AcDbEntity
  8
0
100
AcDbLine
 10
56.4526
 20
45.1374
 30
0.0
 11
57.44769999999999
 21
44.6168
 31
0.0
  0
LINE
  5
A9
330
1E
100
AcDbEntity
  8
0
100
AcDbLine
 10
55.9099
 20
45.57129999999999
 30
0.0
 11
56.4526
 21
45.1374
 31
0.0
  0
LINE
  5
AA
330
1E
100
AcDbEntity
  8
0
100
AcDbLine
 10
55.6385
 20
46.0
 30
0.0
 11
55.6385
 21
30.51709999999999
 31
0.0
  0
LINE
  5
AB
330
1E
100
AcDbEntity
  8
0
100
AcDbLine
 10
55.6385
 20
46.0
 30
0.0
 11
55.9099
 21
45.57129999999999
 31
0.0
  0
LINE
  5
AC
330
1E
100
AcDbEntity
  8
0
100
AcDbLine
 10
55.6385
 20
46.0
 30
0.0
 11
55.9099
 21
46.0
 31
0.0
  0
LINE
  5
AD
330
1E
100
AcDbEntity
  8
0
100
AcDbLine
 10
62.3326
 20
43.2575
 30
0.0
 11
64.50369999999999
 21
42.96829999999999
 31
0.0
  0
LINE
  5
AE
330
1E
100
AcDbEntity
  8
0
100
AcDbLine
 10
64.50369999999999
 20
42.96829999999999
 30
0.0
 11
67.03660000000001
 21
42.6212
 31
0.0
  0
LINE
  5
AF
330
1E
100
AcDbEntity
  8
0
100
AcDbLine
 10
65.9235
 20
25.0
 30
0.0
 11
67.1235
 21
25.0
 31
0.0
  0
LINE
  5
B0
330
1E
100
AcDbEntity
  8
0
100
AcDbLine
 10
67.1235
 20
25.0
 30
0.0
 11
69.0294
 21
25.0
 31
0.0
  0
LINE
  5
B1
330
1E
100
AcDbEntity
  8
0
100
AcDbLine
 10
66.88819999999999
 20
32.0
 30
0.0
 11
67.9882
 21
32.0
 31
0.0
  0
LINE
  5
B2
330
1E
100
AcDbEntity
  8
0
100
AcDbLine
 10
66.5
 20
32.0
 30
0.0
 11
66.88819999999999
 21
32.0
 31
0.0
  0
LINE
  5
B3
330
1E
100
AcDbEntity
  8
0
100
AcDbLine
 10
66.5
 20
32.0
 30
0.0
 11
67.5
 21
42.0
 31
0.0
  0
LINE
  5
B4
330
1E
100
AcDbEntity
  8
0
100
AcDbLine
 10
67.9882
 20
32.0
 30
0.0
 11
69.7353
 21
32.0
 31
0.0
  0
LINE
  5
B5
330
1E
100
AcDbEntity
  8
0
100
AcDbLine
 10
69.0294
 20
25.0
 30
0.0
 11
71.5353
 21
25.0
 31
0.0
  0
LINE
  5
B6
330
1E
100
AcDbEntity
  8
0
100
AcDbLine
 10
71.5353
 20
25.0
 30
0.0
 11
74.4294
 21
25.0
 31
0.0
  0
LINE
  5
B7
330
1E
100
AcDbEntity
  8
0
100
AcDbLine
 10
69.7353
 20
32.0
 30
0.0
 11
72.03230000000001
 21
32.0
 31
0.0
  0
LINE
  5
B8
330
1E
100
AcDbEntity
  8
0
100
AcDbLine
 10
72.03230000000001
 20
32.0
 30
0.0
 11
74.6853
 21
32.0
 31
0.0
  0
LINE
  5
B9
330
1E
100
AcDbEntity
  8
0
100
AcDbLine
 10
68.85290000000001
 20
42.0
 30
0.0
 11
70.44119999999999
 21
42.0
 31
0.0
  0
LINE
  5
BA
330
1E
100
AcDbEntity
  8
0
100
AcDbLine
 10
67.8529
 20
42.0
 30
0.0
 11
68.85290000000001
 21
42.0
 31
0.0
  0
LINE
  5
BB
330
1E
100
AcDbEntity
  8
0
100
AcDbLine
 10
67.5
 20
42.0
 30
0.0
 11
67.8529
 21
42.0
 31
0.0
  0
LINE
  5
BC
330
1E
100
AcDbEntity
  8
0
100
AcDbLine
 10
67.5
 20
42.0
 30
0.0
 11
67.5
 21
50.0
 31
0.0
  0
LINE
  5
BD
330
1E
100
AcDbEntity
  8
0
100
AcDbLine
 10
70.44119999999999
 20
42.0
 30
0.0
 11
72.52939999999999
 21
42.0
 31
0.0
  0
LINE
  5
BE
330
1E
100
AcDbEntity
  8
0
100
AcDbLine
 10
77.5
 20
25.0
 30
0.0
 11
80.57059999999999
 21
25.0
 31
0.0
  0
LINE
  5
BF
330
1E
100
AcDbEntity
  8
0
100
AcDbLine
 10
74.4294
 20
25.0
 30
0.0
 11
77.5
 21
25.0
 31
0.0
  0
LINE
  5
C0
330
1E
100
AcDbEntity
  8
0
100
AcDbLine
 10
80.57059999999999
 20
25.0
 30
0.0
 11
83.4647
 21
25.0
 31
0.0
  0
LINE
  5
C1
330
1E
100
AcDbEntity
  8
0
100
AcDbLine
 10
83.4647
 20
25.0
 30
0.0
 11
85.9706
 21
25.0
 31
0.0
  0
LINE
  5
C2
330
1E
100
AcDbEntity
  8
0
100
AcDbLine
 10
85.9706
 20
25.0
 30
0.0
 11
87.87649999999999
 21
25.0
 31
0.0
  0
LINE
  5
C3
330
1E
100
AcDbEntity
  8
0
100
AcDbLine
 10
87.87649999999999
 20
25.0
 30
0.0
 11
89.0765
 21
25.0
 31
0.0
  0
LINE
  5
C4
330
1E
100
AcDbEntity
  8
0
100
AcDbLine
 10
85.26470000000001
 20
32.0
 30
0.0
 11
87.01179999999999
 21
32.0
 31
0.0
  0
LINE
  5
C5
330
1E
100
AcDbEntity
  8
0
100
AcDbLine
 10
87.01179999999999
 20
32.0
 30
0.0
 11
88.1118
 21
32.0
 31
0.0
  0
LINE
  5
C6
330
1E
100
AcDbEntity
  8
0
100
AcDbLine
 10
89.0765
 20
25.0
 30
0.0
 11
89.50000000000001
 21
25.0
 31
0.0
  0
LINE
  5
C7
330
1E
100
AcDbEntity
  8
0
100
AcDbLine
 10
89.50000000000001
 20
25.0
 30
0.0
 11
89.50000000000001
 21
24.2885
 31
0.0
  0
LINE
  5
C8
330
1E
100
AcDbEntity
  8
0
100
AcDbLine
 10
88.1118
 20
32.0
 30
0.0
 11
88.49999999999999
 21
32.0
 31
0.0
  0
LINE
  5
C9
330
1E
100
AcDbEntity
  8
0
100
AcDbLine
 10
88.49999999999999
 20
32.0
 30
0.0
 11
89.50000000000001
 21
25.0
 31
0.0
  0
LINE
  5
CA
330
1E
100
AcDbEntity
  8
0
100
AcDbLine
 10
82.9677
 20
32.0
 30
0.0
 11
85.26470000000001
 21
32.0
 31
0.0
  0
LINE
  5
CB
330
1E
100
AcDbEntity
  8
0
100
AcDbLine
 10
80.3147
 20
32.0
 30
0.0
 11
82.9677
 21
32.0
 31
0.0
  0
LINE
  5
CC
330
1E
100
AcDbEntity
  8
0
100
AcDbLine
 10
77.5
 20
32.0
 30
0.0
 11
80.3147
 21
32.0
 31
0.0
  0
LINE
  5
CD
330
1E
100
AcDbEntity
  8
0
100
AcDbLine
 10
84.5588
 20
42.0
 30
0.0
 11
86.1471
 21
42.0
 31
0.0
  0
LINE
  5
CE
330
1E
100
AcDbEntity
  8
0
100
AcDbLine
 10
86.1471
 20
42.0
 30
0.0
 11
87.1471
 21
42.0
 31
0.0
  0
LINE
  5
CF
330
1E
100
AcDbEntity
  8
0
100
AcDbLine
 10
87.1471
 20
42.0
 30
0.0
 11
87.5
 21
42.0
 31
0.0
  0
LINE
  5
D0
330
1E
100
AcDbEntity
  8
0
100
AcDbLine
 10
87.5
 20
42.0
 30
0.0
 11
87.5
 21
50.0
 31
0.0
  0
LINE
  5
D1
330
1E
100
AcDbEntity
  8
0
100
AcDbLine
 10
87.5
 20
42.0
 30
0.0
 11
88.49999999999999
 21
32.0
 31
0.0
  0
LINE
  5
D2
330
1E
100
AcDbEntity
  8
0
100
AcDbLine
 10
82.47060000000001
 20
42.0
 30
0.0
 11
84.5588
 21
42.0
 31
0.0
  0
LINE
  5
D3
330
1E
100
AcDbEntity
  8
0
100
AcDbLine
 10
80.05880000000001
 20
42.0
 30
0.0
 11
82.47060000000001
 21
42.0
 31
0.0
  0
LINE
  5
D4
330
1E
100
AcDbEntity
  8
0
100
AcDbLine
 10
77.5
 20
42.0
 30
0.0
 11
80.05880000000001
 21
42.0
 31
0.0
  0
LINE
  5
D5
330
1E
100
AcDbEntity
  8
0
100
AcDbLine
 10
74.6853
 20
32.0
 30
0.0
 11
77.5
 21
32.0
 31
0.0
  0
LINE
  5
D6
330
1E
100
AcDbEntity
  8
0
100
AcDbLine
 10
72.52939999999999
 20
42.0
 30
0.0
 11
74.94119999999999
 21
42.0
 31
0.0
  0
LINE
  5
D7
330
1E
100
AcDbEntity
  8
0
100
AcDbLine
 10
92.6674
 20
43.2575
 30
0.0
 11
94.65749999999999
 21
43.6913
 31
0.0
  0
LINE
  5
D8
330
1E
100
AcDbEntity
  8
0
100
AcDbLine
 10
94.65749999999999
 20
43.6913
 30
0.0
 11
96.37630000000001
 21
44.12519999999999
 31
0.0
  0
LINE
  5
D9
330
1E
100
AcDbEntity
  8
0
100
AcDbLine
 10
96.37630000000001
 20
44.12519999999999
 30
0.0
 11
97.5523
 21
44.6168
 31
0.0
  0
LINE
  5
DA
330
1E
100
AcDbEntity
  8
0
100
AcDbLine
 10
97.5523
 20
44.6168
 30
0.0
 11
98.54739999999999
 21
45.1374
 31
0.0
  0
LINE
  5
DB
330
1E
100
AcDbEntity
  8
0
100
AcDbLine
 10
90.4963
 20
42.96829999999999
 30
0.0
 11
92.6674
 21
43.2575
 31
0.0
  0
LINE
  5
DC
330
1E
100
AcDbEntity
  8
0
100
AcDbLine
 10
87.96339999999998
 20
42.6212
 30
0.0
 11
90.4963
 21
42.96829999999999
 31
0.0
  0
LINE
  5
DD
330
1E
100
AcDbEntity
  8
0
100
AcDbLine
 10
87.5
 20
42.5803252725471
 30
0.0
 11
87.96339999999998
 21
42.6212
 31
0.0
  0
LINE
  5
DE
330
1E
100
AcDbEntity
  8
0
100
AcDbLine
 10
67.03660000000001
 20
42.6212
 30
0.0
 11
67.5
 21
42.5803252725471
 31
0.0
  0
LINE
  5
DF
330
1E
100
AcDbEntity
  8
0
100
AcDbLine
 10
74.94119999999999
 20
42.0
 30
0.0
 11
77.5
 21
42.0
 31
0.0
  0
LINE
  5
E0
330
1E
100
AcDbEntity
  8
0
100
AcDbLine
 10
65.5
 20
25.0
 30
0.0
 11
65.5
 21
24.2885
 31
0.0
  0
LINE
  5
E1
330
1E
100
AcDbEntity
  8
0
100
AcDbLine
 10
65.5
 20
25.0
 30
0.0
 11
66.5
 21
32.0
 31
0.0
  0
LINE
  5
E2
330
1E
100
AcDbEntity
  8
0
100
AcDbLine
 10
65.5
 20
25.0
 30
0.0
 11
65.9235
 21
25.0
 31
0.0
  0
LINE
  5
E3
330
1E
100
AcDbEntity
  8
0
100
AcDbLine
 10
74.4294
 20
24.2885
 30
0.0
 11
77.5
 21
24.2885
 31
0.0
  0
LINE
  5
E7
330
1E
100
AcDbEntity
  8
0
100
AcDbLine
 10
98.76600000000001
 20
0.673199999999997
 30
0.0
 11
100.04
 21
0.673199999999997
 31
0.0
  0
LINE
  5
E8
330
1E
100
AcDbEntity
  8
0
100
AcDbLine
 10
100.04
 20
0.673199999999997
 30
0.0
 11
101.1179999999999
 21
0.6731999999999961
 31
0.0
  0
LINE
  5
E9
330
1E
100
AcDbEntity
  8
0
100
AcDbLine
 10
101.1179999999999
 20
0.6731999999999961
 30
0.0
 11
101.706
 21
0.6731999999999961
 31
0.0
  0
LINE
  5
F3
330
1E
100
AcDbEntity
  8
0
100
AcDbLine
 10
101.706
 20
0.6731999999999961
 30
0.0
 11
102.0
 21
0.6731999999999961
 31
0.0
  0
LINE
  5
F4
330
1E
100
AcDbEntity
  8
0
100
AcDbLine
 10
101.058
 20
3.599899999999999
 30
0.0
 11
102.0
 21
0.6731999999999961
 31
0.0
  0
LINE
  5
F5
330
1E
100
AcDbEntity
  8
0
100
AcDbLine
 10
101.058
 20
3.599899999999999
 30
0.0
 11
102.0
 21
0.6731999999999961
 31
0.0
  0
LINE
  5
FD
330
1E
100
AcDbEntity
  8
0
100
AcDbLine
 10
99.45579999999999
 20
20.5012
 30
0.0
 11
99.6442
 21
12.8657
 31
0.0
  0
LINE
  5
FE
330
1E
100
AcDbEntity
  8
0
100
AcDbLine
 10
99.6442
 20
12.8657
 30
0.0
 11
99.8327
 21
8.372999999999999
 31
0.0
  0
LINE
  5
FF
330
1E
100
AcDbEntity
  8
0
100
AcDbLine
 10
99.8327
 20
8.372999999999999
 30
0.0
 11
100.1149999999999
 21
5.9832
 31
0.0
  0
LINE
  5
100
330
1E
100
AcDbEntity
  8
0
100
AcDbLine
 10
98.3620862597472
 20
46.0
 30
0.0
 11
98.54739999999999
 21
46.0
 31
0.0
  0
LINE
  5
101
330
1E
100
AcDbEntity
  8
0
100
AcDbLine
 10
98.54739999999999
 20
46.0
 30
0.0
 11
99.09010000000002
 21
46.0
 31
0.0
  0
LINE
  5
102
330
1E
100
AcDbEntity
  8
0
100
AcDbLine
 10
99.09010000000002
 20
46.0
 30
0.0
 11
99.36150000000001
 21
46.0
 31
0.0
  0
LINE
  5
103
330
1E
100
AcDbEntity
  8
0
100
AcDbLine
 10
98.54739999999999
 20
45.1374
 30
0.0
 11
99.09010000000002
 21
45.57129999999999
 31
0.0
  0
LINE
  5
104
330
1E
100
AcDbEntity
  8
0
100
AcDbLine
 10
99.36150000000001
 20
46.0
 30
0.0
 11
99.36150000000001
 21
30.51709999999999
 31
0.0
  0
LINE
  5
105
330
1E
100
AcDbEntity
  8
0
100
AcDbLine
 10
99.09010000000002
 20
45.57129999999999
 30
0.0
 11
99.36150000000001
 21
46.0
 31
0.0
  0
LINE
  5
106
330
1E
100
AcDbEntity
  8
0
100
AcDbLine
 10
99.36150000000001
 20
30.51709999999999
 30
0.0
 11
99.36150000000001
 21
46.0
 31
0.0
  0
LINE
  5
107
330
1E
100
AcDbEntity
  8
0
100
AcDbLine
 10
99.36150000000001
 20
30.51709999999999
 30
0.0
 11
99.45579999999999
 21
20.5012
 31
0.0
  0
LINE
  5
108
330
1E
100
AcDbEntity
  8
0
100
AcDbLine
 10
100.1149999999999
 20
5.9832
 30
0.0
 11
101.058
 21
3.599899999999999
 31
0.0
  0
LINE
  5
118
330
1E
100
AcDbEntity
  8
0
100
AcDbLine
 10
98.50000000000001
 20
47.1818
 30
0.0
 11
98.50000000000001
 21
54.0
 31
0.0
  0
LINE
  5
119
330
1E
100
AcDbEntity
  8
0
100
AcDbLine
 10
98.2428277405512
 20
44.9780589103919
 30
0.0
 11
98.50000000000001
 21
47.1818
 31
0.0
  0
LINE
  5
11A
330
1E
100
AcDbEntity
  8
0
100
AcDbLine
 10
62.7044
 20
54.0
 30
0.0
 11
64.709
 21
54.0
 31
0.0
  0
LINE
  5
11B
330
1E
100
AcDbEntity
  8
0
100
AcDbLine
 10
60.89100000000001
 20
54.0
 30
0.0
 11
62.7044
 21
54.0
 31
0.0
  0
LINE
  5
11C
330
1E
100
AcDbEntity
  8
0
100
AcDbLine
 10
59.2682
 20
54.0
 30
0.0
 11
60.89100000000001
 21
54.0
 31
0.0
  0
LINE
  5
11D
330
1E
100
AcDbEntity
  8
0
100
AcDbLine
 10
58.1226
 20
54.0
 30
0.0
 11
59.2682
 21
54.0
 31
0.0
  0
LINE
  5
11E
330
1E
100
AcDbEntity
  8
0
100
AcDbLine
 10
57.26359999999999
 20
54.0
 30
0.0
 11
58.1226
 21
54.0
 31
0.0
  0
LINE
  5
11F
330
1E
100
AcDbEntity
  8
0
100
AcDbLine
 10
56.69080000000001
 20
54.0
 30
0.0
 11
57.26359999999999
 21
54.0
 31
0.0
  0
LINE
  5
120
330
1E
100
AcDbEntity
  8
0
100
AcDbLine
 10
56.5
 20
54.0
 30
0.0
 11
56.5
 21
47.1818
 31
0.0
  0
LINE
  5
121
330
1E
100
AcDbEntity
  8
0
100
AcDbLine
 10
56.5
 20
54.0
 30
0.0
 11
56.69080000000001
 21
54.0
 31
0.0
  0
LINE
  5
122
330
1E
100
AcDbEntity
  8
0
100
AcDbLine
 10
68.85290000000001
 20
50.0
 30
0.0
 11
70.44119999999999
 21
50.0
 31
0.0
  0
LINE
  5
123
330
1E
100
AcDbEntity
  8
0
100
AcDbLine
 10
67.8529
 20
50.0
 30
0.0
 11
68.85290000000001
 21
50.0
 31
0.0
  0
LINE
  5
124
330
1E
100
AcDbEntity
  8
0
100
AcDbLine
 10
67.5
 20
50.0
 30
0.0
 11
67.5
 21
42.0
 31
0.0
  0
LINE
  5
125
330
1E
100
AcDbEntity
  8
0
100
AcDbLine
 10
67.5
 20
50.0
 30
0.0
 11
67.8529
 21
50.0
 31
0.0
  0
LINE
  5
126
330
1E
100
AcDbEntity
  8
0
100
AcDbLine
 10
71.5
 20
50.0
 30
0.0
 11
71.5
 21
52.0
 31
0.0
  0
LINE
  5
127
330
1E
100
AcDbEntity
  8
0
100
AcDbLine
 10
70.44119999999999
 20
50.0
 30
0.0
 11
72.52939999999999
 21
50.0
 31
0.0
  0
LINE
  5
128
330
1E
100
AcDbEntity
  8
0
100
AcDbLine
 10
65.6765
 20
52.09620000000001
 30
0.0
 11
66.0294
 21
52.0
 31
0.0
  0
LINE
  5
129
330
1E
100
AcDbEntity
  8
0
100
AcDbLine
 10
66.4529
 20
52.0
 30
0.0
 11
67.5824
 21
52.0
 31
0.0
  0
LINE
  5
12A
330
1E
100
AcDbEntity
  8
0
100
AcDbLine
 10
66.0294
 20
52.0
 30
0.0
 11
66.4529
 21
52.0
 31
0.0
  0
LINE
  5
12B
330
1E
100
AcDbEntity
  8
0
100
AcDbLine
 10
67.5824
 20
52.0
 30
0.0
 11
69.3823
 21
52.0
 31
0.0
  0
LINE
  5
12D
330
1E
100
AcDbEntity
  8
0
100
AcDbLine
 10
67.1235
 20
52.2885
 30
0.0
 11
69.0294
 21
52.2885
 31
0.0
  0
LINE
  5
12E
330
1E
100
AcDbEntity
  8
0
100
AcDbLine
 10
65.9235
 20
52.2885
 30
0.0
 11
67.1235
 21
52.2885
 31
0.0
  0
LINE
  5
12F
330
1E
100
AcDbEntity
  8
0
100
AcDbLine
 10
65.5
 20
52.2885
 30
0.0
 11
65.9235
 21
52.2885
 31
0.0
  0
LINE
  5
130
330
1E
100
AcDbEntity
  8
0
100
AcDbLine
 10
65.5
 20
52.2885
 30
0.0
 11
65.6765
 21
52.09620000000001
 31
0.0
  0
LINE
  5
131
330
1E
100
AcDbEntity
  8
0
100
AcDbLine
 10
65.5
 20
52.2885
 30
0.0
 11
65.5
 21
54.0
 31
0.0
  0
LINE
  5
132
330
1E
100
AcDbEntity
  8
0
100
AcDbLine
 10
69.3823
 20
52.0
 30
0.0
 11
71.5
 21
52.0
 31
0.0
  0
LINE
  5
133
330
1E
100
AcDbEntity
  8
0
100
AcDbLine
 10
72.31180000000001
 20
52.0
 30
0.0
 11
73.2647
 21
52.0
 31
0.0
  0
LINE
  5
134
330
1E
100
AcDbEntity
  8
0
100
AcDbLine
 10
71.71179999999999
 20
52.0
 30
0.0
 11
72.31180000000001
 21
52.0
 31
0.0
  0
LINE
  5
135
330
1E
100
AcDbEntity
  8
0
100
AcDbLine
 10
71.5
 20
52.0
 30
0.0
 11
71.5
 21
50.0
 31
0.0
  0
LINE
  5
136
330
1E
100
AcDbEntity
  8
0
100
AcDbLine
 10
71.5
 20
52.0
 30
0.0
 11
71.71179999999999
 21
52.0
 31
0.0
  0
LINE
  5
137
330
1E
100
AcDbEntity
  8
0
100
AcDbLine
 10
73.2647
 20
52.0
 30
0.0
 11
74.5176
 21
52.0
 31
0.0
  0
LINE
  5
139
330
1E
100
AcDbEntity
  8
0
100
AcDbLine
 10
69.0294
 20
52.2885
 30
0.0
 11
71.5353
 21
52.2885
 31
0.0
  0
LINE
  5
13A
330
1E
100
AcDbEntity
  8
0
100
AcDbLine
 10
71.5353
 20
52.2885
 30
0.0
 11
74.4294
 21
52.2885
 31
0.0
  0
LINE
  5
13B
330
1E
100
AcDbEntity
  8
0
100
AcDbLine
 10
74.5176
 20
52.0
 30
0.0
 11
75.9647
 21
52.0
 31
0.0
  0
LINE
  5
13C
330
1E
100
AcDbEntity
  8
0
100
AcDbLine
 10
74.4294
 20
52.2885
 30
0.0
 11
77.5
 21
52.2885
 31
0.0
  0
LINE
  5
13D
330
1E
100
AcDbEntity
  8
0
100
AcDbLine
 10
72.52939999999999
 20
50.0
 30
0.0
 11
74.94119999999999
 21
50.0
 31
0.0
  0
LINE
  5
13E
330
1E
100
AcDbEntity
  8
0
100
AcDbLine
 10
83.49999999999999
 20
50.0
 30
0.0
 11
83.49999999999999
 21
52.0
 31
0.0
  0
LINE
  5
13F
330
1E
100
AcDbEntity
  8
0
100
AcDbLine
 10
84.5588
 20
50.0
 30
0.0
 11
86.1471
 21
50.0
 31
0.0
  0
LINE
  5
140
330
1E
100
AcDbEntity
  8
0
100
AcDbLine
 10
86.1471
 20
50.0
 30
0.0
 11
87.1471
 21
50.0
 31
0.0
  0
LINE
  5
141
330
1E
100
AcDbEntity
  8
0
100
AcDbLine
 10
87.5
 20
50.0
 30
0.0
 11
87.5
 21
42.0
 31
0.0
  0
LINE
  5
142
330
1E
100
AcDbEntity
  8
0
100
AcDbLine
 10
87.1471
 20
50.0
 30
0.0
 11
87.5
 21
50.0
 31
0.0
  0
LINE
  5
143
330
1E
100
AcDbEntity
  8
0
100
AcDbLine
 10
82.47060000000001
 20
50.0
 30
0.0
 11
84.5588
 21
50.0
 31
0.0
  0
LINE
  5
144
330
1E
100
AcDbEntity
  8
0
100
AcDbLine
 10
80.05880000000001
 20
50.0
 30
0.0
 11
82.47060000000001
 21
50.0
 31
0.0
  0
LINE
  5
145
330
1E
100
AcDbEntity
  8
0
100
AcDbLine
 10
81.73529999999999
 20
52.0
 30
0.0
 11
82.68819999999999
 21
52.0
 31
0.0
  0
LINE
  5
146
330
1E
100
AcDbEntity
  8
0
100
AcDbLine
 10
85.6177
 20
52.0
 30
0.0
 11
87.41759999999999
 21
52.0
 31
0.0
  0
LINE
  5
147
330
1E
100
AcDbEntity
  8
0
100
AcDbLine
 10
87.41759999999999
 20
52.0
 30
0.0
 11
88.5471
 21
52.0
 31
0.0
  0
LINE
  5
148
330
1E
100
AcDbEntity
  8
0
100
AcDbLine
 10
88.5471
 20
52.0
 30
0.0
 11
88.97060000000001
 21
52.0
 31
0.0
  0
LINE
  5
149
330
1E
100
AcDbEntity
  8
0
100
AcDbLine
 10
83.49999999999999
 20
52.0
 30
0.0
 11
85.6177
 21
52.0
 31
0.0
  0
LINE
  5
14A
330
1E
100
AcDbEntity
  8
0
100
AcDbLine
 10
83.49999999999999
 20
52.0
 30
0.0
 11
83.49999999999999
 21
50.0
 31
0.0
  0
LINE
  5
14B
330
1E
100
AcDbEntity
  8
0
100
AcDbLine
 10
82.68819999999999
 20
52.0
 30
0.0
 11
83.2882
 21
52.0
 31
0.0
  0
LINE
  5
14C
330
1E
100
AcDbEntity
  8
0
100
AcDbLine
 10
83.2882
 20
52.0
 30
0.0
 11
83.49999999999999
 21
52.0
 31
0.0
  0
LINE
  5
14D
330
1E
100
AcDbEntity
  8
0
100
AcDbLine
 10
80.48239999999999
 20
52.0
 30
0.0
 11
81.73529999999999
 21
52.0
 31
0.0
  0
LINE
  5
14E
330
1E
100
AcDbEntity
  8
0
100
AcDbLine
 10
79.0353
 20
52.0
 30
0.0
 11
80.48239999999999
 21
52.0
 31
0.0
  0
LINE
  5
14F
330
1E
100
AcDbEntity
  8
0
100
AcDbLine
 10
77.5
 20
52.0
 30
0.0
 11
79.0353
 21
52.0
 31
0.0
  0
LINE
  5
150
330
1E
100
AcDbEntity
  8
0
100
AcDbLine
 10
77.5
 20
50.0
 30
0.0
 11
80.05880000000001
 21
50.0
 31
0.0
  0
LINE
  5
151
330
1E
100
AcDbEntity
  8
0
100
AcDbLine
 10
88.97060000000001
 20
52.0
 30
0.0
 11
89.32349999999999
 21
52.09620000000001
 31
0.0
  0
LINE
  5
154
330
1E
100
AcDbEntity
  8
0
100
AcDbLine
 10
85.9706
 20
52.2885
 30
0.0
 11
87.87649999999999
 21
52.2885
 31
0.0
  0
LINE
  5
155
330
1E
100
AcDbEntity
  8
0
100
AcDbLine
 10
87.87649999999999
 20
52.2885
 30
0.0
 11
89.0765
 21
52.2885
 31
0.0
  0
LINE
  5
156
330
1E
100
AcDbEntity
  8
0
100
AcDbLine
 10
89.32349999999999
 20
52.09620000000001
 30
0.0
 11
89.50000000000001
 21
52.2885
 31
0.0
  0
LINE
  5
157
330
1E
100
AcDbEntity
  8
0
100
AcDbLine
 10
89.0765
 20
52.2885
 30
0.0
 11
89.50000000000001
 21
52.2885
 31
0.0
  0
LINE
  5
158
330
1E
100
AcDbEntity
  8
0
100
AcDbLine
 10
89.50000000000001
 20
52.2885
 30
0.0
 11
89.50000000000001
 21
54.0
 31
0.0
  0
LINE
  5
159
330
1E
100
AcDbEntity
  8
0
100
AcDbLine
 10
83.4647
 20
52.2885
 30
0.0
 11
85.9706
 21
52.2885
 31
0.0
  0
LINE
  5
15A
330
1E
100
AcDbEntity
  8
0
100
AcDbLine
 10
80.57059999999999
 20
52.2885
 30
0.0
 11
83.4647
 21
52.2885
 31
0.0
  0
LINE
  5
15B
330
1E
100
AcDbEntity
  8
0
100
AcDbLine
 10
77.5
 20
52.2885
 30
0.0
 11
80.57059999999999
 21
52.2885
 31
0.0
  0
LINE
  5
15C
330
1E
100
AcDbEntity
  8
0
100
AcDbLine
 10
75.9647
 20
52.0
 30
0.0
 11
77.5
 21
52.0
 31
0.0
  0
LINE
  5
15D
330
1E
100
AcDbEntity
  8
0
100
AcDbLine
 10
74.94119999999999
 20
50.0
 30
0.0
 11
77.5
 21
50.0
 31
0.0
  0
LINE
  5
15E
330
1E
100
AcDbEntity
  8
0
100
AcDbLine
 10
92.29550000000001
 20
54.0
 30
0.0
 11
94.10909999999999
 21
54.0
 31
0.0
  0
LINE
  5
15F
330
1E
100
AcDbEntity
  8
0
100
AcDbLine
 10
94.10909999999999
 20
54.0
 30
0.0
 11
95.7318
 21
54.0
 31
0.0
  0
LINE
  5
160
330
1E
100
AcDbEntity
  8
0
100
AcDbLine
 10
95.7318
 20
54.0
 30
0.0
 11
96.87739999999999
 21
54.0
 31
0.0
  0
LINE
  5
161
330
1E
100
AcDbEntity
  8
0
100
AcDbLine
 10
96.87739999999999
 20
54.0
 30
0.0
 11
97.7364
 21
54.0
 31
0.0
  0
LINE
  5
162
330
1E
100
AcDbEntity
  8
0
100
AcDbLine
 10
97.7364
 20
54.0
 30
0.0
 11
98.3092
 21
54.0
 31
0.0
  0
LINE
  5
163
330
1E
100
AcDbEntity
  8
0
100
AcDbLine
 10
98.3092
 20
54.0
 30
0.0
 11
98.50000000000001
 21
54.0
 31
0.0
  0
LINE
  5
164
330
1E
100
AcDbEntity
  8
0
100
AcDbLine
 10
56.5
 20
47.1818
 30
0.0
 11
56.5
 21
54.0
 31
0.0
  0
LINE
  5
165
330
1E
100
AcDbEntity
  8
0
100
AcDbLine
 10
56.5
 20
47.1818
 30
0.0
 11
56.75717225944879
 21
44.9780589103919
 31
0.0
  0
LINE
  5
166
330
1E
100
AcDbEntity
  8
0
100
AcDbLine
 10
144.6999999999999
 20
54.0
 30
0.0
 11
146.1739999999999
 21
54.0
 31
0.0
  0
LINE
  5
167
330
1E
100
AcDbEntity
  8
0
100
AcDbLine
 10
146.1739999999999
 20
54.0
 30
0.0
 11
147.3489999999999
 21
54.0
 31
0.0
  0
LINE
  5
168
330
1E
100
AcDbEntity
  8
0
100
AcDbLine
 10
147.3489999999999
 20
54.0
 30
0.0
 11
148.3209999999999
 21
54.0
 31
0.0
  0
LINE
  5
169
330
1E
100
AcDbEntity
  8
0
100
AcDbLine
 10
148.3209999999999
 20
54.0
 30
0.0
 11
149.2129999999999
 21
54.0
 31
0.0
  0
LINE
  5
16A
330
1E
100
AcDbEntity
  8
0
100
AcDbLine
 10
149.2129999999999
 20
54.0
 30
0.0
 11
149.861
 21
54.0
 31
0.0
  0
LINE
  5
16B
330
1E
100
AcDbEntity
  8
0
100
AcDbLine
 10
149.861
 20
54.0
 30
0.0
 11
150.436
 21
54.0
 31
0.0
  0
LINE
  5
16C
330
1E
100
AcDbEntity
  8
0
100
AcDbLine
 10
150.436
 20
54.0
 30
0.0
 11
151.2649999999999
 21
54.0
 31
0.0
  0
LINE
  5
16D
330
1E
100
AcDbEntity
  8
0
100
AcDbLine
 10
151.2649999999999
 20
54.0
 30
0.0
 11
152.13
 21
54.0
 31
0.0
  0
LINE
  5
16E
330
1E
100
AcDbEntity
  8
0
100
AcDbLine
 10
152.13
 20
54.0
 30
0.0
 11
152.939
 21
54.0
 31
0.0
  0
LINE
  5
16F
330
1E
100
AcDbEntity
  8
0
100
AcDbLine
 10
152.939
 20
54.0
 30
0.0
 11
153.582
 21
54.0
 31
0.0
  0
LINE
  5
170
330
1E
100
AcDbEntity
  8
0
100
AcDbLine
 10
143.114
 20
54.0
 30
0.0
 11
144.6999999999999
 21
54.0
 31
0.0
  0
LINE
  5
171
330
1E
100
AcDbEntity
  8
0
100
AcDbLine
 10
141.252
 20
54.0
 30
0.0
 11
143.114
 21
54.0
 31
0.0
  0
LINE
  5
172
330
1E
100
AcDbEntity
  8
0
100
AcDbLine
 10
139.592
 20
54.0
 30
0.0
 11
141.252
 21
54.0
 31
0.0
  0
LINE
  5
173
330
1E
100
AcDbEntity
  8
0
100
AcDbLine
 10
137.203
 20
54.0
 30
0.0
 11
139.592
 21
54.0
 31
0.0
  0
LINE
  5
174
330
1E
100
AcDbEntity
  8
0
100
AcDbLine
 10
134.49
 20
54.0
 30
0.0
 11
137.203
 21
54.0
 31
0.0
  0
LINE
  5
175
330
1E
100
AcDbEntity
  8
0
100
AcDbLine
 10
131.0929999999999
 20
54.0
 30
0.0
 11
134.49
 21
54.0
 31
0.0
  0
LINE
  5
176
330
1E
100
AcDbEntity
  8
0
100
AcDbLine
 10
124.967
 20
54.0
 30
0.0
 11
131.0929999999999
 21
54.0
 31
0.0
  0
LINE
  5
177
330
1E
100
AcDbEntity
  8
0
100
AcDbLine
 10
117.322
 20
54.0
 30
0.0
 11
124.967
 21
54.0
 31
0.0
  0
LINE
  5
178
330
1E
100
AcDbEntity
  8
0
100
AcDbLine
 10
106.1539999999999
 20
54.0
 30
0.0
 11
117.322
 21
54.0
 31
0.0
  0
LINE
  5
179
330
1E
100
AcDbEntity
  8
0
100
AcDbLine
 10
98.50000000000001
 20
54.0
 30
0.0
 11
106.1539999999999
 21
54.0
 31
0.0
  0
LINE
  5
17A
330
1E
100
AcDbEntity
  8
0
100
AcDbLine
 10
98.50000000000001
 20
54.0
 30
0.0
 11
98.50000000000001
 21
47.1818
 31
0.0
  0
LINE
  5
17B
330
1E
100
AcDbEntity
  8
0
100
AcDbLine
 10
37.6778
 20
54.0
 30
0.0
 11
48.84579999999999
 21
54.0
 31
0.0
  0
LINE
  5
17C
330
1E
100
AcDbEntity
  8
0
100
AcDbLine
 10
48.84579999999999
 20
54.0
 30
0.0
 11
56.5
 21
54.0
 31
0.0
  0
LINE
  5
17D
330
1E
100
AcDbEntity
  8
0
100
AcDbLine
 10
8.82577
 20
54.0
 30
0.0
 11
10.3
 21
54.0
 31
0.0
  0
LINE
  5
17E
330
1E
100
AcDbEntity
  8
0
100
AcDbLine
 10
7.65091
 20
54.0
 30
0.0
 11
8.82577
 21
54.0
 31
0.0
  0
LINE
  5
17F
330
1E
100
AcDbEntity
  8
0
100
AcDbLine
 10
6.67861
 20
54.0
 30
0.0
 11
7.65091
 21
54.0
 31
0.0
  0
LINE
  5
180
330
1E
100
AcDbEntity
  8
0
100
AcDbLine
 10
5.787329999999999
 20
54.0
 30
0.0
 11
6.67861
 21
54.0
 31
0.0
  0
LINE
  5
181
330
1E
100
AcDbEntity
  8
0
100
AcDbLine
 10
5.13913
 20
54.0
 30
0.0
 11
5.787329999999999
 21
54.0
 31
0.0
  0
LINE
  5
182
330
1E
100
AcDbEntity
  8
0
100
AcDbLine
 10
4.564369999999999
 20
54.0
 30
0.0
 11
5.13913
 21
54.0
 31
0.0
  0
LINE
  5
183
330
1E
100
AcDbEntity
  8
0
100
AcDbLine
 10
3.73475
 20
54.0
 30
0.0
 11
4.564369999999999
 21
54.0
 31
0.0
  0
LINE
  5
184
330
1E
100
AcDbEntity
  8
0
100
AcDbLine
 10
67.1235
 20
54.0
 30
0.0
 11
69.0294
 21
54.0
 31
0.0
  0
LINE
  5
185
330
1E
100
AcDbEntity
  8
0
100
AcDbLine
 10
65.9235
 20
54.0
 30
0.0
 11
67.1235
 21
54.0
 31
0.0
  0
LINE
  5
186
330
1E
100
AcDbEntity
  8
0
100
AcDbLine
 10
65.5
 20
54.0
 30
0.0
 11
65.5
 21
52.2885
 31
0.0
  0
LINE
  5
187
330
1E
100
AcDbEntity
  8
0
100
AcDbLine
 10
65.5
 20
54.0
 30
0.0
 11
65.9235
 21
54.0
 31
0.0
  0
LINE
  5
188
330
1E
100
AcDbEntity
  8
0
100
AcDbLine
 10
69.0294
 20
54.0
 30
0.0
 11
71.5353
 21
54.0
 31
0.0
  0
LINE
  5
189
330
1E
100
AcDbEntity
  8
0
100
AcDbLine
 10
85.9706
 20
54.0
 30
0.0
 11
87.87649999999999
 21
54.0
 31
0.0
  0
LINE
  5
18A
330
1E
100
AcDbEntity
  8
0
100
AcDbLine
 10
87.87649999999999
 20
54.0
 30
0.0
 11
89.0765
 21
54.0
 31
0.0
  0
LINE
  5
18B
330
1E
100
AcDbEntity
  8
0
100
AcDbLine
 10
89.0765
 20
54.0
 30
0.0
 11
89.50000000000001
 21
54.0
 31
0.0
  0
LINE
  5
18C
330
1E
100
AcDbEntity
  8
0
100
AcDbLine
 10
83.4647
 20
54.0
 30
0.0
 11
85.9706
 21
54.0
 31
0.0
  0
LINE
  5
18D
330
1E
100
AcDbEntity
  8
0
100
AcDbLine
 10
80.57059999999999
 20
54.0
 30
0.0
 11
83.4647
 21
54.0
 31
0.0
  0
LINE
  5
18E
330
1E
100
AcDbEntity
  8
0
100
AcDbLine
 10
77.5
 20
54.0
 30
0.0
 11
80.57059999999999
 21
54.0
 31
0.0
  0
LINE
  5
18F
330
1E
100
AcDbEntity
  8
0
100
AcDbLine
 10
71.5353
 20
54.0
 30
0.0
 11
74.4294
 21
54.0
 31
0.0
  0
LINE
  5
190
330
1E
100
AcDbEntity
  8
0
100
AcDbLine
 10
74.4294
 20
54.0
 30
0.0
 11
77.5
 21
54.0
 31
0.0
  0
LINE
  5
191
330
1E
100
AcDbEntity
  8
0
100
AcDbLine
 10
90.2909
 20
54.0
 30
0.0
 11
92.29550000000001
 21
54.0
 31
0.0
  0
LINE
  5
192
330
1E
100
AcDbEntity
  8
0
100
AcDbLine
 10
89.50000000000001
 20
54.0
 30
0.0
 11
90.2909
 21
54.0
 31
0.0
  0
LINE
  5
193
330
1E
100
AcDbEntity
  8
0
100
AcDbLine
 10
89.50000000000001
 20
54.0
 30
0.0
 11
89.50000000000001
 21
52.2885
 31
0.0
  0
LINE
  5
194
330
1E
100
AcDbEntity
  8
0
100
AcDbLine
 10
64.709
 20
54.0
 30
0.0
 11
65.5
 21
54.0
 31
0.0
  0
LINE
  5
195
330
1E
100
AcDbEntity
  8
0
100
AcDbLine
 10
153.582
 20
54.0
 30
0.0
 11
153.9179999999999
 21
54.0
 31
0.0
  0
LINE
  5
196
330
1E
100
AcDbEntity
  8
0
100
AcDbLine
 10
154.0
 20
54.0
 30
0.0
 11
154.6999999999999
 21
54.29999999999999
 31
0.0
  0
LINE
  5
197
330
1E
100
AcDbEntity
  8
0
100
AcDbLine
 10
153.9179999999999
 20
54.0
 30
0.0
 11
154.0
 21
54.0
 31
0.0
  0
LINE
  5
198
330
1E
100
AcDbEntity
  8
0
100
AcDbLine
 10
2.87042
 20
54.0
 30
0.0
 11
3.73475
 21
54.0
 31
0.0
  0
LINE
  5
199
330
1E
100
AcDbEntity
  8
0
100
AcDbLine
 10
2.06102
 20
54.0
 30
0.0
 11
2.87042
 21
54.0
 31
0.0
  0
LINE
  5
19A
330
1E
100
AcDbEntity
  8
0
100
AcDbLine
 10
1.417629999999999
 20
54.0
 30
0.0
 11
2.06102
 21
54.0
 31
0.0
  0
LINE
  5
19B
330
1E
100
AcDbEntity
  8
0
100
AcDbLine
 10
1.081949999999999
 20
54.0
 30
0.0
 11
1.417629999999999
 21
54.0
 31
0.0
  0
LINE
  5
19D
330
1E
100
AcDbEntity
  8
0
100
AcDbLine
 10
0.438554
 20
66.0
 30
0.0
 11
1.13789
 21
66.0
 31
0.0
  0
LINE
  5
1A7
330
1E
100
AcDbEntity
  8
0
100
AcDbLine
 10
1.97914
 20
66.0
 30
0.0
 11
2.894499999999999
 21
66.0
 31
0.0
  0
LINE
  5
1A8
330
1E
100
AcDbEntity
  8
0
100
AcDbLine
 10
1.13789
 20
66.0
 30
0.0
 11
1.97914
 21
66.0
 31
0.0
  0
LINE
  5
1A9
330
1E
100
AcDbEntity
  8
0
100
AcDbLine
 10
0.438554
 20
66.0
 30
0.0
 11
1.13789
 21
66.0
 31
0.0
  0
LINE
  5
1CB
330
1E
100
AcDbEntity
  8
0
100
AcDbLine
 10
153.021
 20
66.0
 30
0.0
 11
153.8619999999999
 21
66.0
 31
0.0
  0
LINE
  5
1CC
330
1E
100
AcDbEntity
  8
0
100
AcDbLine
 10
153.8619999999999
 20
66.0
 30
0.0
 11
154.561
 21
66.0
 31
0.0
  0
LINE
  5
1CD
330
1E
100
AcDbEntity
  8
0
100
AcDbLine
 10
154.561
 20
66.0
 30
0.0
 11
154.897
 21
66.0
 31
0.0
  0
LINE
  5
1CE
330
1E
100
AcDbEntity
  8
0
100
AcDbLine
 10
154.897
 20
66.0
 30
0.0
 11
155.0
 21
66.0
 31
0.0
  0
LINE
  5
1CF
330
1E
100
AcDbEntity
  8
0
100
AcDbLine
 10
155.0
 20
55.0
 30
0.0
 11
155.0
 21
66.0
 31
0.0
  0
LINE
  5
1D0
330
1E
100
AcDbEntity
  8
0
100
AcDbLine
 10
155.0
 20
66.0
 30
0.0
 11
155.0
 21
55.0
 31
0.0
  0
LINE
  5
1D1
330
1E
100
AcDbEntity
  8
0
100
AcDbLine
 10
154.6999999999999
 20
54.29999999999999
 30
0.0
 11
155.0
 21
55.0
 31
0.0
  0
LINE
  5
1D2
330
1E
100
AcDbEntity
  8
0
100
AcDbLine
 10
1.0
 20
54.0
 30
0.0
 11
1.081949999999999
 21
54.0
 31
0.0
  0
LINE
  5
1D3
330
1E
100
AcDbEntity
  8
0
100
AcDbLine
 10
0.3
 20
54.29999999999999
 30
0.0
 11
1.0
 21
54.0
 31
0.0
  0
LINE
  5
1D4
330
1E
100
AcDbEntity
  8
0
100
AcDbLine
 10
8.139849999999999
 20
66.0
 30
0.0
 11
9.55
 21
66.0
 31
0.0
  0
LINE
  5
1D5
330
1E
100
AcDbEntity
  8
0
100
AcDbLine
 10
6.91676
 20
66.0
 30
0.0
 11
8.139849999999999
 21
66.0
 31
0.0
  0
LINE
  5
1D6
330
1E
100
AcDbEntity
  8
0
100
AcDbLine
 10
5.928239999999999
 20
66.0
 30
0.0
 11
6.91676
 21
66.0
 31
0.0
  0
LINE
  5
1D7
330
1E
100
AcDbEntity
  8
0
100
AcDbLine
 10
4.956469999999999
 20
66.0
 30
0.0
 11
5.928239999999999
 21
66.0
 31
0.0
  0
LINE
  5
1D8
330
1E
100
AcDbEntity
  8
0
100
AcDbLine
 10
4.26953
 20
66.0
 30
0.0
 11
4.956469999999999
 21
66.0
 31
0.0
  0
LINE
  5
1D9
330
1E
100
AcDbEntity
  8
0
100
AcDbLine
 10
3.642569999999999
 20
66.0
 30
0.0
 11
4.26953
 21
66.0
 31
0.0
  0
LINE
  5
1DA
330
1E
100
AcDbEntity
  8
0
100
AcDbLine
 10
2.894499999999999
 20
66.0
 30
0.0
 11
3.642569999999999
 21
66.0
 31
0.0
  0
LINE
  5
1DB
330
1E
100
AcDbEntity
  8
0
100
AcDbLine
 10
9.55
 20
66.0
 30
0.0
 11
11.146
 21
66.0
 31
0.0
  0
LINE
  5
1DC
330
1E
100
AcDbEntity
  8
0
100
AcDbLine
 10
11.146
 20
66.0
 30
0.0
 11
12.98799999999999
 21
66.0
 31
0.0
  0
LINE
  5
1DD
330
1E
100
AcDbEntity
  8
0
100
AcDbLine
 10
12.98799999999999
 20
66.0
 30
0.0
 11
14.7128
 21
66.0
 31
0.0
  0
LINE
  5
1DE
330
1E
100
AcDbEntity
  8
0
100
AcDbLine
 10
14.7128
 20
66.0
 30
0.0
 11
17.1241
 21
66.0
 31
0.0
  0
LINE
  5
1DF
330
1E
100
AcDbEntity
  8
0
100
AcDbLine
 10
17.1241
 20
66.0
 30
0.0
 11
19.9206
 21
66.0
 31
0.0
  0
LINE
  5
1E0
330
1E
100
AcDbEntity
  8
0
100
AcDbLine
 10
19.9206
 20
66.0
 30
0.0
 11
23.31699999999999
 21
66.0
 31
0.0
  0
LINE
  5
1E1
330
1E
100
AcDbEntity
  8
0
100
AcDbLine
 10
23.31699999999999
 20
66.0
 30
0.0
 11
29.5968
 21
66.0
 31
0.0
  0
LINE
  5
1E2
330
1E
100
AcDbEntity
  8
0
100
AcDbLine
 10
29.5968
 20
66.0
 30
0.0
 11
37.27289999999999
 21
66.0
 31
0.0
  0
LINE
  5
1E3
330
1E
100
AcDbEntity
  8
0
100
AcDbLine
 10
37.27289999999999
 20
66.0
 30
0.0
 11
48.3985
 21
66.0
 31
0.0
  0
LINE
  5
1E4
330
1E
100
AcDbEntity
  8
0
100
AcDbLine
 10
48.3985
 20
66.0
 30
0.0
 11
61.0914
 21
66.0
 31
0.0
  0
LINE
  5
1E5
330
1E
100
AcDbEntity
  8
0
100
AcDbLine
 10
61.0914
 20
66.0
 30
0.0
 11
70.89069999999999
 21
66.0
 31
0.0
  0
LINE
  5
1E6
330
1E
100
AcDbEntity
  8
0
100
AcDbLine
 10
143.8539999999999
 20
66.0
 30
0.0
 11
145.4499999999999
 21
66.0
 31
0.0
  0
LINE
  5
1E7
330
1E
100
AcDbEntity
  8
0
100
AcDbLine
 10
142.012
 20
66.0
 30
0.0
 11
143.8539999999999
 21
66.0
 31
0.0
  0
LINE
  5
1E8
330
1E
100
AcDbEntity
  8
0
100
AcDbLine
 10
140.287
 20
66.0
 30
0.0
 11
142.012
 21
66.0
 31
0.0
  0
LINE
  5
1E9
330
1E
100
AcDbEntity
  8
0
100
AcDbLine
 10
137.8759999999999
 20
66.0
 30
0.0
 11
140.287
 21
66.0
 31
0.0
  0
LINE
  5
1EA
330
1E
100
AcDbEntity
  8
0
100
AcDbLine
 10
135.079
 20
66.0
 30
0.0
 11
137.8759999999999
 21
66.0
 31
0.0
  0
LINE
  5
1EB
330
1E
100
AcDbEntity
  8
0
100
AcDbLine
 10
131.6829999999999
 20
66.0
 30
0.0
 11
135.079
 21
66.0
 31
0.0
  0
LINE
  5
1EC
330
1E
100
AcDbEntity
  8
0
100
AcDbLine
 10
125.4029999999999
 20
66.0
 30
0.0
 11
131.6829999999999
 21
66.0
 31
0.0
  0
LINE
  5
1ED
330
1E
100
AcDbEntity
  8
0
100
AcDbLine
 10
117.727
 20
66.0
 30
0.0
 11
125.4029999999999
 21
66.0
 31
0.0
  0
LINE
  5
1EE
330
1E
100
AcDbEntity
  8
0
100
AcDbLine
 10
106.6019999999999
 20
66.0
 30
0.0
 11
117.727
 21
66.0
 31
0.0
  0
LINE
  5
1EF
330
1E
100
AcDbEntity
  8
0
100
AcDbLine
 10
93.90860000000001
 20
66.0
 30
0.0
 11
106.6019999999999
 21
66.0
 31
0.0
  0
LINE
  5
1F0
330
1E
100
AcDbEntity
  8
0
100
AcDbLine
 10
84.1093
 20
66.0
 30
0.0
 11
93.90860000000001
 21
66.0
 31
0.0
  0
LINE
  5
1F1
330
1E
100
AcDbEntity
  8
0
100
AcDbLine
 10
77.5
 20
66.0
 30
0.0
 11
84.1093
 21
66.0
 31
0.0
  0
LINE
  5
1F2
330
1E
100
AcDbEntity
  8
0
100
AcDbLine
 10
145.4499999999999
 20
66.0
 30
0.0
 11
146.86
 21
66.0
 31
0.0
  0
LINE
  5
1F3
330
1E
100
AcDbEntity
  8
0
100
AcDbLine
 10
146.86
 20
66.0
 30
0.0
 11
148.083
 21
66.0
 31
0.0
  0
LINE
  5
1F4
330
1E
100
AcDbEntity
  8
0
100
AcDbLine
 10
148.083
 20
66.0
 30
0.0
 11
149.072
 21
66.0
 31
0.0
  0
LINE
  5
1F5
330
1E
100
AcDbEntity
  8
0
100
AcDbLine
 10
149.072
 20
66.0
 30
0.0
 11
150.0439999999999
 21
66.0
 31
0.0
  0
LINE
  5
1F6
330
1E
100
AcDbEntity
  8
0
100
AcDbLine
 10
150.0439999999999
 20
66.0
 30
0.0
 11
150.7299999999999
 21
66.0
 31
0.0
  0
LINE
  5
1F7
330
1E
100
AcDbEntity
  8
0
100
AcDbLine
 10
150.7299999999999
 20
66.0
 30
0.0
 11
151.357
 21
66.0
 31
0.0
  0
LINE
  5
1F8
330
1E
100
AcDbEntity
  8
0
100
AcDbLine
 10
151.357
 20
66.0
 30
0.0
 11
152.1049999999999
 21
66.0
 31
0.0
  0
LINE
  5
1F9
330
1E
100
AcDbEntity
  8
0
100
AcDbLine
 10
152.1049999999999
 20
66.0
 30
0.0
 11
153.021
 21
66.0
 31
0.0
  0
LINE
  5
1FA
330
1E
100
AcDbEntity
  8
0
100
AcDbLine
 10
70.89069999999999
 20
66.0
 30
0.0
 11
77.5
 21
66.0
 31
0.0
  0
LINE
  5
1FB
330
1E
100
AcDbEntity
  8
0
100
AcDbLine
 10
0.0
 20
55.0
 30
0.0
 11
0.0
 21
66.0
 31
0.0
  0
LINE
  5
1FC
330
1E
100
AcDbEntity
  8
0
100
AcDbLine
 10
0.0
 20
55.0
 30
0.0
 11
0.3
 21
54.29999999999999
 31
0.0
  0
LINE
  5
201
330
1E
100
AcDbEntity
  8
0
100
AcDbLine
 10
102.0
 20
0.6731999999999961
 30
0.0
 11
101.3288839480918
 21
0.2464932062039509
 31
0.0
  0
LINE
  5
202
330
1E
100
AcDbEntity
  8
0
100
AcDbLine
 10
101.3288839480918
 20
0.2464932062039509
 30
0.0
 11
100.587
 21
-0.0000000000000053
 31
0.0
  0
ENDSEC
  0
SECTION
  2
OBJECTS
  0
DICTIONARY
  5
C
330
0
100
AcDbDictionary
281
     1
  3
ACAD_GROUP
350
D
  3
ACAD_LAYOUT
350
19
  3
ACAD_MLINESTYLE
350
16
  3
ACAD_PLOTSETTINGS
350
18
  3
ACAD_PLOTSTYLENAME
350
E
  3
AcDbVariableDictionary
350
203
  0
DICTIONARY
  5
D
102
{ACAD_REACTORS
330
C
102
}
330
C
100
AcDbDictionary
281
     1
  0
DICTIONARY
  5
19
102
{ACAD_REACTORS
330
C
102
}
330
C
100
AcDbDictionary
281
     1
  3
Layout1
350
1D
  3
Model
350
21
  0
DICTIONARY
  5
16
102
{ACAD_REACTORS
330
C
102
}
330
C
100
AcDbDictionary
281
     1
  3
Standard
350
17
  0
DICTIONARY
  5
18
102
{ACAD_REACTORS
330
C
102
}
330
C
100
AcDbDictionary
281
     1
  0
ACDBDICTIONARYWDFLT
  5
E
102
{ACAD_REACTORS
330
C
102
}
330
C
100
AcDbDictionary
281
     1
  3
Normal
350
F
100
AcDbDictionaryWithDefault
340
F
  0
DICTIONARY
  5
203
102
{ACAD_REACTORS
330
C
102
}
330
C
100
AcDbDictionary
281
     1
  3
DIMASSOC
350
204
  0
LAYOUT
  5
1D
102
{ACAD_REACTORS
330
19
102
}
330
19
100
AcDbPlotSettings
  1

  2
hp deskjet 980c series
  4

  6

 40
0.0
 41
0.0
 42
0.0
 43
0.0
 44
0.0
 45
0.0
 46
0.0
 47
0.0
 48
0.0
 49
0.0
140
0.0
141
0.0
142
1.0
143
1.0
 70
   688
 72
     0
 73
     0
 74
     5
  7

 75
    16
147
1.0
148
0.0
149
0.0
100
AcDbLayout
  1
Layout1
 70
     1
 71
     1
 10
0.0
 20
0.0
 11
12.0
 21
9.0
 12
0.0
 22
0.0
 32
0.0
 14
1.000000000000000E+20
 24
1.000000000000000E+20
 34
1.000000000000000E+20
 15
-1.000000000000000E+20
 25
-1.000000000000000E+20
 35
-1.000000000000000E+20
146
0.0
 13
0.0
 23
0.0
 33
0.0
 16
1.0
 26
0.0
 36
0.0
 17
0.0
 27
1.0
 37
0.0
 76
     0
330
1A
  0
LAYOUT
  5
21
102
{ACAD_REACTORS
330
19
102
}
330
19
100
AcDbPlotSettings
  1

  2
hp deskjet 980c series
  4

  6

 40
0.0
 41
0.0
 42
0.0
 43
0.0
 44
0.0
 45
0.0
 46
0.0
 47
0.0
 48
0.0
 49
0.0
140
0.0
141
0.0
142
1.0
143
1.0
 70
  1712
 72
     0
 73
     0
 74
     0
  7

 75
     0
147
1.0
148
0.0
149
0.0
100
AcDbLayout
  1
Model
 70
     1
 71
     0
 10
0.0
 20
0.0
 11
12.0
 21
9.0
 12
0.0
 22
0.0
 32
0.0
 14
0.0
 24
0.0
 34
0.0
 15
0.0
 25
0.0
 35
0.0
146
0.0
 13
0.0
 23
0.0
 33
0.0
 16
1.0
 26
0.0
 36
0.0
 17
0.0
 27
1.0
 37
0.0
 76
     0
330
1E
  0
MLINESTYLE
  5
17
102
{ACAD_REACTORS
330
16
102
}
330
16
100
AcDbMlineStyle
  2
STANDARD
 70
     0
  3

 62
   256
 51
90.0
 52
90.0
 71
     2
 49
0.5
 62
   256
  6
BYLAYER
 49
-0.5
 62
   256
  6
BYLAYER
  0
ACDBPLACEHOLDER
  5
F
102
{ACAD_REACTORS
330
E
102
}
330
E
  0
DICTIONARYVAR
  5
204
102
{ACAD_REACTORS
330
203
102
}
330
203
100
DictionaryVariables
280
     0
  1
1
  0
ENDSEC
  0
EOF
