  0
SECTION
  2
HEADER
  9
$ACADVER
  1
AC1015
  9
$ACADMAINTVER
 70
    13
  9
$DWGCODEPAGE
  3
ANSI_1252
  9
$INSBASE
 10
0.0
 20
0.0
 30
0.0
  9
$EXTMIN
 10
0.0
 20
-0.150000000000011
 30
0.0
  9
$EXTMAX
 10
155.0
 20
195.15
 30
0.0
  9
$LIMMIN
 10
0.0
 20
0.0
  9
$LIMMAX
 10
12.0
 20
9.0
  9
$ORTHOMODE
 70
     0
  9
$REGENMODE
 70
     1
  9
$FILLMODE
 70
     1
  9
$QTEXTMODE
 70
     0
  9
$MIRRTEXT
 70
     1
  9
$LTSCALE
 40
1.0
  9
$ATTMODE
 70
     1
  9
$TEXTSIZE
 40
0.2
  9
$TRACEWID
 40
0.05
  9
$TEXTSTYLE
  7
Standard
  9
$CLAYER
  8
0
  9
$CELTYPE
  6
Continuous
  9
$CECOLOR
 62
   256
  9
$CELTSCALE
 40
1.0
  9
$DISPSILH
 70
     0
  9
$DIMSCALE
 40
1.0
  9
$DIMASZ
 40
0.18
  9
$DIMEXO
 40
0.0625
  9
$DIMDLI
 40
0.38
  9
$DIMRND
 40
0.0
  9
$DIMDLE
 40
0.0
  9
$DIMEXE
 40
0.18
  9
$DIMTP
 40
0.0
  9
$DIMTM
 40
0.0
  9
$DIMTXT
 40
0.18
  9
$DIMCEN
 40
0.09
  9
$DIMTSZ
 40
0.0
  9
$DIMTOL
 70
     0
  9
$DIMLIM
 70
     0
  9
$DIMTIH
 70
     1
  9
$DIMTOH
 70
     1
  9
$DIMSE1
 70
     0
  9
$DIMSE2
 70
     0
  9
$DIMTAD
 70
     0
  9
$DIMZIN
 70
     0
  9
$DIMBLK
  1

  9
$DIMASO
 70
     1
  9
$DIMSHO
 70
     1
  9
$DIMPOST
  1

  9
$DIMAPOST
  1

  9
$DIMALT
 70
     0
  9
$DIMALTD
 70
     2
  9
$DIMALTF
 40
25.4
  9
$DIMLFAC
 40
1.0
  9
$DIMTOFL
 70
     0
  9
$DIMTVP
 40
0.0
  9
$DIMTIX
 70
     0
  9
$DIMSOXD
 70
     0
  9
$DIMSAH
 70
     0
  9
$DIMBLK1
  1

  9
$DIMBLK2
  1

  9
$DIMSTYLE
  2
Standard
  9
$DIMCLRD
 70
     0
  9
$DIMCLRE
 70
     0
  9
$DIMCLRT
 70
     0
  9
$DIMTFAC
 40
1.0
  9
$DIMGAP
 40
0.09
  9
$DIMJUST
 70
     0
  9
$DIMSD1
 70
     0
  9
$DIMSD2
 70
     0
  9
$DIMTOLJ
 70
     1
  9
$DIMTZIN
 70
     0
  9
$DIMALTZ
 70
     0
  9
$DIMALTTZ
 70
     0
  9
$DIMUPT
 70
     0
  9
$DIMDEC
 70
     4
  9
$DIMTDEC
 70
     4
  9
$DIMALTU
 70
     2
  9
$DIMALTTD
 70
     2
  9
$DIMTXSTY
  7
Standard
  9
$DIMAUNIT
 70
     0
  9
$DIMADEC
 70
     0
  9
$DIMALTRND
 40
0.0
  9
$DIMAZIN
 70
     0
  9
$DIMDSEP
 70
    46
  9
$DIMATFIT
 70
     3
  9
$DIMFRAC
 70
     0
  9
$DIMLDRBLK
  1

  9
$DIMLUNIT
 70
     2
  9
$DIMLWD
 70
    -2
  9
$DIMLWE
 70
    -2
  9
$DIMTMOVE
 70
     0
  9
$LUNITS
 70
     2
  9
$LUPREC
 70
     4
  9
$SKETCHINC
 40
0.1
  9
$FILLETRAD
 40
0.0
  9
$AUNITS
 70
     0
  9
$AUPREC
 70
     0
  9
$MENU
  1
.
  9
$ELEVATION
 40
0.0
  9
$PELEVATION
 40
0.0
  9
$THICKNESS
 40
0.0
  9
$LIMCHECK
 70
     0
  9
$CHAMFERA
 40
0.0
  9
$CHAMFERB
 40
0.0
  9
$CHAMFERC
 40
0.0
  9
$CHAMFERD
 40
0.0
  9
$SKPOLY
 70
     0
  9
$TDCREATE
 40
2454907.728736250
  9
$TDUCREATE
 40
2454907.687069583
  9
$TDUPDATE
 40
2454907.734011678
  9
$TDUUPDATE
 40
2454907.692345011
  9
$TDINDWG
 40
0.0052754282
  9
$TDUSRTIMER
 40
0.0052754282
  9
$USRTIMER
 70
     1
  9
$ANGBASE
 50
0.0
  9
$ANGDIR
 70
     0
  9
$PDMODE
 70
     0
  9
$PDSIZE
 40
0.0
  9
$PLINEWID
 40
0.0
  9
$SPLFRAME
 70
     0
  9
$SPLINETYPE
 70
     6
  9
$SPLINESEGS
 70
     8
  9
$HANDSEED
  5
21A
  9
$SURFTAB1
 70
     6
  9
$SURFTAB2
 70
     6
  9
$SURFTYPE
 70
     6
  9
$SURFU
 70
     6
  9
$SURFV
 70
     6
  9
$UCSBASE
  2

  9
$UCSNAME
  2

  9
$UCSORG
 10
0.0
 20
0.0
 30
0.0
  9
$UCSXDIR
 10
1.0
 20
0.0
 30
0.0
  9
$UCSYDIR
 10
0.0
 20
1.0
 30
0.0
  9
$UCSORTHOREF
  2

  9
$UCSORTHOVIEW
 70
     1
  9
$UCSORGTOP
 10
0.0
 20
0.0
 30
0.0
  9
$UCSORGBOTTOM
 10
0.0
 20
0.0
 30
0.0
  9
$UCSORGLEFT
 10
0.0
 20
0.0
 30
0.0
  9
$UCSORGRIGHT
 10
0.0
 20
0.0
 30
0.0
  9
$UCSORGFRONT
 10
0.0
 20
0.0
 30
0.0
  9
$UCSORGBACK
 10
0.0
 20
0.0
 30
0.0
  9
$PUCSBASE
  2

  9
$PUCSNAME
  2

  9
$PUCSORG
 10
0.0
 20
0.0
 30
0.0
  9
$PUCSXDIR
 10
1.0
 20
0.0
 30
0.0
  9
$PUCSYDIR
 10
0.0
 20
1.0
 30
0.0
  9
$PUCSORTHOREF
  2

  9
$PUCSORTHOVIEW
 70
     0
  9
$PUCSORGTOP
 10
0.0
 20
0.0
 30
0.0
  9
$PUCSORGBOTTOM
 10
0.0
 20
0.0
 30
0.0
  9
$PUCSORGLEFT
 10
0.0
 20
0.0
 30
0.0
  9
$PUCSORGRIGHT
 10
0.0
 20
0.0
 30
0.0
  9
$PUCSORGFRONT
 10
0.0
 20
0.0
 30
0.0
  9
$PUCSORGBACK
 10
0.0
 20
0.0
 30
0.0
  9
$USERI1
 70
     0
  9
$USERI2
 70
     0
  9
$USERI3
 70
     0
  9
$USERI4
 70
     0
  9
$USERI5
 70
     0
  9
$USERR1
 40
0.0
  9
$USERR2
 40
0.0
  9
$USERR3
 40
0.0
  9
$USERR4
 40
0.0
  9
$USERR5
 40
0.0
  9
$WORLDVIEW
 70
     1
  9
$SHADEDGE
 70
     3
  9
$SHADEDIF
 70
    70
  9
$TILEMODE
 70
     1
  9
$MAXACTVP
 70
    64
  9
$PINSBASE
 10
0.0
 20
0.0
 30
0.0
  9
$PLIMCHECK
 70
     0
  9
$PEXTMIN
 10
1.000000000000000E+20
 20
1.000000000000000E+20
 30
1.000000000000000E+20
  9
$PEXTMAX
 10
-1.000000000000000E+20
 20
-1.000000000000000E+20
 30
-1.000000000000000E+20
  9
$PLIMMIN
 10
0.0
 20
0.0
  9
$PLIMMAX
 10
12.0
 20
9.0
  9
$UNITMODE
 70
     0
  9
$VISRETAIN
 70
     1
  9
$PLINEGEN
 70
     0
  9
$PSLTSCALE
 70
     1
  9
$TREEDEPTH
 70
  3020
  9
$CMLSTYLE
  2
Standard
  9
$CMLJUST
 70
     0
  9
$CMLSCALE
 40
1.0
  9
$PROXYGRAPHICS
 70
     1
  9
$MEASUREMENT
 70
     0
  9
$CELWEIGHT
370
    -1
  9
$ENDCAPS
280
     0
  9
$JOINSTYLE
280
     0
  9
$LWDISPLAY
290
     0
  9
$INSUNITS
 70
     0
  9
$HYPERLINKBASE
  1

  9
$STYLESHEET
  1

  9
$XEDIT
290
     1
  9
$CEPSNTYPE
380
     0
  9
$PSTYLEMODE
290
     1
  9
$FINGERPRINTGUID
  2
{E59BDDCE-045E-49F6-9D9E-1E48CEFA0241}
  9
$VERSIONGUID
  2
{CA9F8A6D-1967-4E32-BA18-1D9271B27EF9}
  9
$EXTNAMES
290
     1
  9
$PSVPSCALE
 40
0.0
  9
$OLESTARTUP
290
     0
  0
ENDSEC
  0
SECTION
  2
CLASSES
  0
CLASS
  1
ACDBDICTIONARYWDFLT
  2
AcDbDictionaryWithDefault
  3
AutoCAD 2000
 90
        0
280
     0
281
     0
  0
CLASS
  1
ACDBPLACEHOLDER
  2
AcDbPlaceHolder
  3
AutoCAD 2000
 90
        0
280
     0
281
     0
  0
CLASS
  1
LAYOUT
  2
AcDbLayout
  3
AutoCAD 2000
 90
        0
280
     0
281
     0
  0
CLASS
  1
DICTIONARYVAR
  2
AcDbDictionaryVar
  3
AutoCAD 2000
 90
        0
280
     0
281
     0
  0
ENDSEC
  0
SECTION
  2
TABLES
  0
TABLE
  2
VPORT
  5
8
330
0
100
AcDbSymbolTable
 70
     2
  0
VPORT
  5
219
330
8
100
AcDbSymbolTableRecord
100
AcDbViewportTableRecord
  2
*Active
 70
     0
 10
0.0
 20
0.0
 11
1.0
 21
1.0
 12
77.5
 22
97.5
 13
0.0
 23
0.0
 14
1.0
 24
1.0
 15
0.0
 25
0.0
 16
0.0
 26
0.0
 36
1.0
 17
0.0
 27
0.0
 37
0.0
 40
196.5334736842105
 41
1.968387776606954
 42
50.0
 43
0.0
 44
0.0
 50
0.0
 51
0.0
 71
     0
 72
   100
 73
     1
 74
     3
 75
     0
 76
     0
 77
     0
 78
     0
281
     0
 65
     1
110
0.0
120
0.0
130
0.0
111
1.0
121
0.0
131
0.0
112
0.0
122
1.0
132
0.0
 79
     1
146
0.0
  0
ENDTAB
  0
TABLE
  2
LTYPE
  5
5
330
0
100
AcDbSymbolTable
 70
     1
  0
LTYPE
  5
13
330
5
100
AcDbSymbolTableRecord
100
AcDbLinetypeTableRecord
  2
ByBlock
 70
     0
  3

 72
    65
 73
     0
 40
0.0
  0
LTYPE
  5
14
330
5
100
AcDbSymbolTableRecord
100
AcDbLinetypeTableRecord
  2
ByLayer
 70
     0
  3

 72
    65
 73
     0
 40
0.0
  0
LTYPE
  5
15
330
5
100
AcDbSymbolTableRecord
100
AcDbLinetypeTableRecord
  2
Continuous
 70
     0
  3
Solid line
 72
    65
 73
     0
 40
0.0
  0
ENDTAB
  0
TABLE
  2
LAYER
  5
2
330
0
100
AcDbSymbolTable
 70
     1
  0
LAYER
  5
10
330
2
100
AcDbSymbolTableRecord
100
AcDbLayerTableRecord
  2
0
 70
     0
 62
     7
  6
Continuous
370
    -3
390
F
  0
ENDTAB
  0
TABLE
  2
STYLE
  5
3
330
0
100
AcDbSymbolTable
 70
     1
  0
STYLE
  5
11
330
3
100
AcDbSymbolTableRecord
100
AcDbTextStyleTableRecord
  2
Standard
 70
     0
 40
0.0
 41
1.0
 50
0.0
 71
     0
 42
0.2
  3
txt
  4

  0
ENDTAB
  0
TABLE
  2
VIEW
  5
6
330
0
100
AcDbSymbolTable
 70
     0
  0
ENDTAB
  0
TABLE
  2
UCS
  5
7
330
0
100
AcDbSymbolTable
 70
     0
  0
ENDTAB
  0
TABLE
  2
APPID
  5
9
330
0
100
AcDbSymbolTable
 70
     1
  0
APPID
  5
12
330
9
100
AcDbSymbolTableRecord
100
AcDbRegAppTableRecord
  2
ACAD
 70
     0
  0
ENDTAB
  0
TABLE
  2
DIMSTYLE
  5
A
330
0
100
AcDbSymbolTable
 70
     1
100
AcDbDimStyleTable
 71
     0
  0
DIMSTYLE
105
188
330
A
100
AcDbSymbolTableRecord
100
AcDbDimStyleTableRecord
  2
Standard
 70
     0
340
11
  0
ENDTAB
  0
TABLE
  2
BLOCK_RECORD
  5
1
330
0
100
AcDbSymbolTable
 70
     0
  0
BLOCK_RECORD
  5
1E
330
1
100
AcDbSymbolTableRecord
100
AcDbBlockTableRecord
  2
*Model_Space
340
21
  0
BLOCK_RECORD
  5
1A
330
1
100
AcDbSymbolTableRecord
100
AcDbBlockTableRecord
  2
*Paper_Space
340
1D
  0
ENDTAB
  0
ENDSEC
  0
SECTION
  2
BLOCKS
  0
BLOCK
  5
1F
330
1E
100
AcDbEntity
  8
0
100
AcDbBlockBegin
  2
*Model_Space
 70
     0
 10
0.0
 20
0.0
 30
0.0
  3
*Model_Space
  1

  0
ENDBLK
  5
20
330
1E
100
AcDbEntity
  8
0
100
AcDbBlockEnd
  0
BLOCK
  5
1B
330
1A
100
AcDbEntity
 67
     1
  8
0
100
AcDbBlockBegin
  2
*Paper_Space
 70
     0
 10
0.0
 20
0.0
 30
0.0
  3
*Paper_Space
  1

  0
ENDBLK
  5
1C
330
1A
100
AcDbEntity
 67
     1
  8
0
100
AcDbBlockEnd
  0
ENDSEC
  0
SECTION
  2
ENTITIES
  0
LINE
  5
22
330
1E
100
AcDbEntity
  8
0
100
AcDbLine
 10
0.438554
 20
101.2413999999999
 30
0.0
 11
1.13789
 21
88.5485
 31
0.0
  0
LINE
  5
23
330
1E
100
AcDbEntity
  8
0
100
AcDbLine
 10
29.5968
 20
43.0445
 30
0.0
 11
37.27289999999999
 21
42.12909999999999
 31
0.0
  0
LINE
  5
24
330
1E
100
AcDbEntity
  8
0
100
AcDbLine
 10
37.27289999999999
 20
42.12909999999999
 30
0.0
 11
48.3985
 21
41.28789
 31
0.0
  0
LINE
  5
26
330
1E
100
AcDbEntity
  8
0
100
AcDbLine
 10
21.6188000000013
 20
44.10604999999971
 30
0.0
 11
23.31699999999999
 21
43.79256999999999
 31
0.0
  0
LINE
  5
28
330
1E
100
AcDbEntity
  8
0
100
AcDbLine
 10
14.7128
 20
46.0782
 30
0.0
 11
17.1241
 21
45.1065
 31
0.0
  0
LINE
  5
2B
330
1E
100
AcDbEntity
  8
0
100
AcDbLine
 10
9.55
 20
49.7
 30
0.0
 11
11.146
 21
48.28985
 31
0.0
  0
LINE
  5
2C
330
1E
100
AcDbEntity
  8
0
100
AcDbLine
 10
12.98799999999999
 20
47.0668
 30
0.0
 11
14.7128
 21
46.0782
 31
0.0
  0
LINE
  5
2F
330
1E
100
AcDbEntity
  8
0
100
AcDbLine
 10
11.146
 20
48.28985
 30
0.0
 11
12.98799999999999
 21
47.06675999999999
 31
0.0
  0
LINE
  5
30
330
1E
100
AcDbEntity
  8
0
100
AcDbLine
 10
12.98799999999999
 20
47.06675999999999
 30
0.0
 11
13.8503999999424
 21
46.57250000003299
 31
0.0
  0
LINE
  5
31
330
1E
100
AcDbEntity
  8
0
100
AcDbLine
 10
12.98799999999999
 20
47.06675999999999
 30
0.0
 11
13.8503999999412
 21
46.5725000000337
 31
0.0
  0
LINE
  5
32
330
1E
100
AcDbEntity
  8
0
100
AcDbLine
 10
16.09068571434069
 20
45.5229428571207
 30
0.0
 11
17.1241
 21
45.10647
 31
0.0
  0
LINE
  5
34
330
1E
100
AcDbEntity
  8
0
100
AcDbLine
 10
16.09068571433919
 20
45.52294285712129
 30
0.0
 11
17.1241
 21
45.10647
 31
0.0
  0
LINE
  5
35
330
1E
100
AcDbEntity
  8
0
100
AcDbLine
 10
17.1241
 20
45.10647
 30
0.0
 11
21.6188000000013
 21
44.10604999999971
 31
0.0
  0
LINE
  5
36
330
1E
100
AcDbEntity
  8
0
100
AcDbLine
 10
17.1241
 20
45.10647
 30
0.0
 11
21.6188000000013
 21
44.10604999999971
 31
0.0
  0
LINE
  5
38
330
1E
100
AcDbEntity
  8
0
100
AcDbLine
 10
21.6188000000034
 20
44.10604999999939
 30
0.0
 11
23.31699999999999
 21
43.79256999999999
 31
0.0
  0
LINE
  5
39
330
1E
100
AcDbEntity
  8
0
100
AcDbLine
 10
23.31699999999999
 20
43.79256999999999
 30
0.0
 11
29.5968
 21
43.0445
 31
0.0
  0
LINE
  5
3A
330
1E
100
AcDbEntity
  8
0
100
AcDbLine
 10
23.31699999999999
 20
43.79256999999999
 30
0.0
 11
29.5967999999825
 21
43.04450000000209
 31
0.0
  0
LINE
  5
3B
330
1E
100
AcDbEntity
  8
0
100
AcDbLine
 10
53.0
 20
4.802999999999999
 30
0.0
 11
53.0
 21
12.998
 31
0.0
  0
LINE
  5
3C
330
1E
100
AcDbEntity
  8
0
100
AcDbLine
 10
53.0
 20
4.802999999999999
 30
0.0
 11
53.21909999999999
 21
3.73899999999999
 31
0.0
  0
LINE
  5
3D
330
1E
100
AcDbEntity
  8
0
100
AcDbLine
 10
53.0
 20
12.998
 30
0.0
 11
53.0
 21
18.619
 31
0.0
  0
LINE
  5
3E
330
1E
100
AcDbEntity
  8
0
100
AcDbLine
 10
53.0
 20
4.8028
 30
0.0
 11
53.21909999999999
 21
3.73919999999999
 31
0.0
  0
LINE
  5
40
330
1E
100
AcDbEntity
  8
0
100
AcDbLine
 10
53.0
 20
24.575
 30
0.0
 11
53.0
 21
29.359
 31
0.0
  0
LINE
  5
41
330
1E
100
AcDbEntity
  8
0
100
AcDbLine
 10
53.0
 20
29.359
 30
0.0
 11
53.0
 21
35.349
 31
0.0
  0
LINE
  5
42
330
1E
100
AcDbEntity
  8
0
100
AcDbLine
 10
53.0
 20
29.3594
 30
0.0
 11
53.0
 21
24.5748
 31
0.0
  0
LINE
  5
43
330
1E
100
AcDbEntity
  8
0
100
AcDbLine
 10
53.0
 20
35.349
 30
0.0
 11
53.0
 21
41.137
 31
0.0
  0
LINE
  5
44
330
1E
100
AcDbEntity
  8
0
100
AcDbLine
 10
53.0
 20
41.137
 30
0.0
 11
53.0
 21
46.457
 31
0.0
  0
LINE
  5
45
330
1E
100
AcDbEntity
  8
0
100
AcDbLine
 10
53.0
 20
35.3486
 30
0.0
 11
53.0
 21
29.3594
 31
0.0
  0
LINE
  5
46
330
1E
100
AcDbEntity
  8
0
100
AcDbLine
 10
53.0
 20
41.1371
 30
0.0
 11
53.0
 21
35.3486
 31
0.0
  0
LINE
  5
47
330
1E
100
AcDbEntity
  8
0
100
AcDbLine
 10
53.0
 20
18.619
 30
0.0
 11
53.0
 21
12.99789999999999
 31
0.0
  0
LINE
  5
48
330
1E
100
AcDbEntity
  8
0
100
AcDbLine
 10
53.0
 20
18.619
 30
0.0
 11
53.0
 21
24.575
 31
0.0
  0
LINE
  5
49
330
1E
100
AcDbEntity
  8
0
100
AcDbLine
 10
74.27299999999999
 20
-0.10400000000001
 30
0.0
 11
77.5
 21
-0.150000000000011
 31
0.0
  0
LINE
  5
4A
330
1E
100
AcDbEntity
  8
0
100
AcDbLine
 10
71.2354
 20
-0.0550000000000206
 30
0.0
 11
74.27299999999999
 21
-0.10400000000001
 31
0.0
  0
LINE
  5
4B
330
1E
100
AcDbEntity
  8
0
100
AcDbLine
 10
66.43869999999999
 20
0.0389999999999903
 30
0.0
 11
71.2354
 21
-0.055400000000019
 31
0.0
  0
LINE
  5
4C
330
1E
100
AcDbEntity
  8
0
100
AcDbLine
 10
66.43869999999999
 20
0.0389999999999903
 30
0.0
 11
71.2354
 21
-0.0550000000000206
 31
0.0
  0
LINE
  5
4D
330
1E
100
AcDbEntity
  8
0
100
AcDbLine
 10
71.2354
 20
-0.055400000000019
 30
0.0
 11
74.27299999999999
 21
-0.103700000000014
 31
0.0
  0
LINE
  5
58
330
1E
100
AcDbEntity
  8
0
100
AcDbLine
 10
74.27299999999999
 20
-0.103700000000014
 30
0.0
 11
77.5
 21
-0.150000000000011
 31
0.0
  0
LINE
  5
59
330
1E
100
AcDbEntity
  8
0
100
AcDbLine
 10
62.7568
 20
0.100999999999989
 30
0.0
 11
66.43869999999999
 21
0.0389999999999903
 31
0.0
  0
LINE
  5
5A
330
1E
100
AcDbEntity
  8
0
100
AcDbLine
 10
62.7568
 20
0.10079999999999
 30
0.0
 11
66.43869999999999
 21
0.0389999999999903
 31
0.0
  0
LINE
  5
5B
330
1E
100
AcDbEntity
  8
0
100
AcDbLine
 10
59.8815
 20
0.223999999999986
 30
0.0
 11
62.7568
 21
0.100999999999989
 31
0.0
  0
LINE
  5
5C
330
1E
100
AcDbEntity
  8
0
100
AcDbLine
 10
59.8815
 20
0.224099999999983
 30
0.0
 11
62.7568
 21
0.10079999999999
 31
0.0
  0
LINE
  5
5D
330
1E
100
AcDbEntity
  8
0
100
AcDbLine
 10
53.78009999999999
 20
2.83399999999999
 30
0.0
 11
54.534
 21
2.112999999999989
 31
0.0
  0
LINE
  5
5E
330
1E
100
AcDbEntity
  8
0
100
AcDbLine
 10
53.21909999999999
 20
3.73899999999999
 30
0.0
 11
53.78009999999999
 21
2.83399999999999
 31
0.0
  0
LINE
  5
5F
330
1E
100
AcDbEntity
  8
0
100
AcDbLine
 10
55.4632
 20
1.463999999999989
 30
0.0
 11
56.8834
 21
0.8129999999999927
 31
0.0
  0
LINE
  5
60
330
1E
100
AcDbEntity
  8
0
100
AcDbLine
 10
54.534
 20
2.112999999999989
 30
0.0
 11
55.4632
 21
1.463999999999989
 31
0.0
  0
LINE
  5
61
330
1E
100
AcDbEntity
  8
0
100
AcDbLine
 10
58.3386
 20
0.4509999999999821
 30
0.0
 11
59.8815
 21
0.223999999999986
 31
0.0
  0
LINE
  5
62
330
1E
100
AcDbEntity
  8
0
100
AcDbLine
 10
56.8834
 20
0.8129999999999927
 30
0.0
 11
58.3386
 21
0.4509999999999821
 31
0.0
  0
LINE
  5
63
330
1E
100
AcDbEntity
  8
0
100
AcDbLine
 10
56.8834
 20
0.812599999999994
 30
0.0
 11
58.3386
 21
0.45139999999998
 31
0.0
  0
LINE
  5
64
330
1E
100
AcDbEntity
  8
0
100
AcDbLine
 10
55.4632
 20
1.463799999999989
 30
0.0
 11
56.8834
 21
0.812599999999994
 31
0.0
  0
LINE
  5
65
330
1E
100
AcDbEntity
  8
0
100
AcDbLine
 10
54.534
 20
2.113399999999989
 30
0.0
 11
55.4632
 21
1.463799999999989
 31
0.0
  0
LINE
  5
66
330
1E
100
AcDbEntity
  8
0
100
AcDbLine
 10
53.78009999999999
 20
2.83359999999999
 30
0.0
 11
54.534
 21
2.113399999999989
 31
0.0
  0
LINE
  5
67
330
1E
100
AcDbEntity
  8
0
100
AcDbLine
 10
53.21909999999999
 20
3.73919999999999
 30
0.0
 11
53.78009999999999
 21
2.83359999999999
 31
0.0
  0
LINE
  5
68
330
1E
100
AcDbEntity
  8
0
100
AcDbLine
 10
58.3386
 20
0.45139999999998
 30
0.0
 11
59.8815
 21
0.224099999999983
 31
0.0
  0
LINE
  5
8E
330
1E
100
AcDbEntity
  8
0
100
AcDbLine
 10
53.0
 20
24.5748
 30
0.0
 11
53.0
 21
18.619
 31
0.0
  0
LINE
  5
93
330
1E
100
AcDbEntity
  8
0
100
AcDbLine
 10
53.0
 20
46.457
 30
0.0
 11
53.0
 21
52.072
 31
0.0
  0
LINE
  5
95
330
1E
100
AcDbEntity
  8
0
100
AcDbLine
 10
53.0
 20
46.4571
 30
0.0
 11
53.0
 21
41.1371
 31
0.0
  0
LINE
  5
AD
330
1E
100
AcDbEntity
  8
0
100
AcDbLine
 10
48.3985
 20
41.28789
 30
0.0
 11
53.0
 21
41.0343628624664
 31
0.0
  0
LINE
  5
B1
330
1E
100
AcDbEntity
  8
0
100
AcDbLine
 10
53.0
 20
52.072
 30
0.0
 11
53.0
 21
56.62399999999999
 31
0.0
  0
LINE
  5
B2
330
1E
100
AcDbEntity
  8
0
100
AcDbLine
 10
53.0
 20
52.0715
 30
0.0
 11
53.0
 21
46.4571
 31
0.0
  0
LINE
  5
B6
330
1E
100
AcDbEntity
  8
0
100
AcDbLine
 10
8.139849999999999
 20
51.296
 30
0.0
 11
9.55
 21
49.7
 31
0.0
  0
LINE
  5
B7
330
1E
100
AcDbEntity
  8
0
100
AcDbLine
 10
6.91676
 20
53.138
 30
0.0
 11
8.139849999999999
 21
51.296
 31
0.0
  0
LINE
  5
B9
330
1E
100
AcDbEntity
  8
0
100
AcDbLine
 10
53.0
 20
56.62399999999999
 30
0.0
 11
53.0
 21
57.818
 31
0.0
  0
LINE
  5
BB
330
1E
100
AcDbEntity
  8
0
100
AcDbLine
 10
53.0
 20
56.6242
 30
0.0
 11
53.0
 21
52.0715
 31
0.0
  0
LINE
  5
BD
330
1E
100
AcDbEntity
  8
0
100
AcDbLine
 10
5.9282
 20
54.8628
 30
0.0
 11
6.91676
 21
53.138
 31
0.0
  0
LINE
  5
BF
330
1E
100
AcDbEntity
  8
0
100
AcDbLine
 10
5.9282
 20
54.8628
 30
0.0
 11
6.91676
 21
53.138
 31
0.0
  0
LINE
  5
C0
330
1E
100
AcDbEntity
  8
0
100
AcDbLine
 10
4.9565
 20
57.27409999999999
 30
0.0
 11
5.9282
 21
54.8628
 31
0.0
  0
LINE
  5
C1
330
1E
100
AcDbEntity
  8
0
100
AcDbLine
 10
3.956049999999999
 20
61.7688
 30
0.0
 11
4.956469999999999
 21
57.27409999999999
 31
0.0
  0
LINE
  5
C7
330
1E
100
AcDbEntity
  8
0
100
AcDbLine
 10
53.0
 20
57.818
 30
0.0
 11
53.0
 21
56.6242
 31
0.0
  0
LINE
  5
C8
330
1E
100
AcDbEntity
  8
0
100
AcDbLine
 10
53.0
 20
57.818
 30
0.0
 11
53.0
 21
62.53499999999999
 31
0.0
  0
LINE
  5
C9
330
1E
100
AcDbEntity
  8
0
100
AcDbLine
 10
53.0
 20
62.53499999999999
 30
0.0
 11
53.0
 21
57.818
 31
0.0
  0
LINE
  5
CA
330
1E
100
AcDbEntity
  8
0
100
AcDbLine
 10
53.0
 20
62.53499999999999
 30
0.0
 11
53.0
 21
73.759
 31
0.0
  0
LINE
  5
D0
330
1E
100
AcDbEntity
  8
0
100
AcDbLine
 10
3.956049999999999
 20
61.7688
 30
0.0
 11
4.956469999999999
 21
57.27409999999999
 31
0.0
  0
LINE
  5
D1
330
1E
100
AcDbEntity
  8
0
100
AcDbLine
 10
4.956469999999999
 20
57.27409999999999
 30
0.0
 11
5.372942857139009
 21
56.2406857142953
 31
0.0
  0
LINE
  5
D2
330
1E
100
AcDbEntity
  8
0
100
AcDbLine
 10
4.956469999999999
 20
57.27409999999999
 30
0.0
 11
5.37294285713882
 21
56.2406857142957
 31
0.0
  0
LINE
  5
D3
330
1E
100
AcDbEntity
  8
0
100
AcDbLine
 10
3.642569999999999
 20
63.467
 30
0.0
 11
3.956049999999799
 21
61.7688000000011
 31
0.0
  0
LINE
  5
D4
330
1E
100
AcDbEntity
  8
0
100
AcDbLine
 10
3.642569999999999
 20
63.467
 30
0.0
 11
3.956049999999999
 21
61.7688
 31
0.0
  0
LINE
  5
D7
330
1E
100
AcDbEntity
  8
0
100
AcDbLine
 10
53.0
 20
73.759
 30
0.0
 11
53.0
 21
62.53499999999999
 31
0.0
  0
LINE
  5
D8
330
1E
100
AcDbEntity
  8
0
100
AcDbLine
 10
53.0
 20
73.759
 30
0.0
 11
53.0
 21
96.553
 31
0.0
  0
LINE
  5
DC
330
1E
100
AcDbEntity
  8
0
100
AcDbLine
 10
2.894499999999999
 20
69.74679999999999
 30
0.0
 11
3.642569999999999
 21
63.467
 31
0.0
  0
LINE
  5
DD
330
1E
100
AcDbEntity
  8
0
100
AcDbLine
 10
1.9791
 20
77.4229
 30
0.0
 11
2.894499999999999
 21
69.74679999999999
 31
0.0
  0
LINE
  5
DF
330
1E
100
AcDbEntity
  8
0
100
AcDbLine
 10
53.882
 20
99.95700000000001
 30
0.0
 11
54.96
 21
101.606
 31
0.0
  0
LINE
  5
E0
330
1E
100
AcDbEntity
  8
0
100
AcDbLine
 10
53.29399999999999
 20
98.30799999999999
 30
0.0
 11
53.882
 21
99.95700000000001
 31
0.0
  0
LINE
  5
E1
330
1E
100
AcDbEntity
  8
0
100
AcDbLine
 10
53.0
 20
96.553
 30
0.0
 11
53.29399999999999
 21
98.30799999999999
 31
0.0
  0
LINE
  5
E2
330
1E
100
AcDbEntity
  8
0
100
AcDbLine
 10
53.0
 20
96.553
 30
0.0
 11
53.0
 21
73.759
 31
0.0
  0
LINE
  5
E3
330
1E
100
AcDbEntity
  8
0
100
AcDbLine
 10
58.096
 20
104.6379999999999
 30
0.0
 11
60.25199999999999
 21
105.9139999999999
 31
0.0
  0
LINE
  5
E4
330
1E
100
AcDbEntity
  8
0
100
AcDbLine
 10
56.234
 20
103.1479999999999
 30
0.0
 11
58.096
 21
104.6379999999999
 31
0.0
  0
LINE
  5
E5
330
1E
100
AcDbEntity
  8
0
100
AcDbLine
 10
54.96
 20
101.606
 30
0.0
 11
56.234
 21
103.1479999999999
 31
0.0
  0
LINE
  5
E6
330
1E
100
AcDbEntity
  8
0
100
AcDbLine
 10
60.25199999999999
 20
105.9139999999999
 30
0.0
 11
62.604
 21
107.084
 31
0.0
  0
LINE
  5
E7
330
1E
100
AcDbEntity
  8
0
100
AcDbLine
 10
62.604
 20
107.084
 30
0.0
 11
65.348
 21
108.095
 31
0.0
  0
LINE
  5
E8
330
1E
100
AcDbEntity
  8
0
100
AcDbLine
 10
65.348
 20
108.095
 30
0.0
 11
68.18999999999999
 21
108.786
 31
0.0
  0
LINE
  5
E9
330
1E
100
AcDbEntity
  8
0
100
AcDbLine
 10
68.18999999999999
 20
108.786
 30
0.0
 11
71.22800000000001
 21
109.371
 31
0.0
  0
LINE
  5
F6
330
1E
100
AcDbEntity
  8
0
100
AcDbLine
 10
71.22800000000001
 20
109.371
 30
0.0
 11
74.266
 21
109.6899999999999
 31
0.0
  0
LINE
  5
F8
330
1E
100
AcDbEntity
  8
0
100
AcDbLine
 10
74.266
 20
109.6899999999999
 30
0.0
 11
77.5
 21
109.85
 31
0.0
  0
LINE
  5
FE
330
1E
100
AcDbEntity
  8
0
100
AcDbLine
 10
1.13789
 20
88.5485
 30
0.0
 11
1.9791
 21
77.4229
 31
0.0
  0
LINE
  5
FF
330
1E
100
AcDbEntity
  8
0
100
AcDbLine
 10
0.438554
 20
101.2413999999999
 30
0.0
 11
1.13789
 21
88.5485
 31
0.0
  0
LINE
  5
100
330
1E
100
AcDbEntity
  8
0
100
AcDbLine
 10
0.102871
 20
124.2593
 30
0.0
 11
0.438554
 21
134.0586
 31
0.0
  0
LINE
  5
101
330
1E
100
AcDbEntity
  8
0
100
AcDbLine
 10
0.102871
 20
124.2593
 30
0.0
 11
0.438554
 21
134.0586
 31
0.0
  0
LINE
  5
103
330
1E
100
AcDbEntity
  8
0
100
AcDbLine
 10
0.438554
 20
134.0586
 30
0.0
 11
1.13789
 21
146.752
 31
0.0
  0
LINE
  5
106
330
1E
100
AcDbEntity
  8
0
100
AcDbLine
 10
1.9791
 20
157.877
 30
0.0
 11
2.894499999999999
 21
165.5529999999999
 31
0.0
  0
LINE
  5
107
330
1E
100
AcDbEntity
  8
0
100
AcDbLine
 10
1.13789
 20
146.752
 30
0.0
 11
1.9791
 21
157.877
 31
0.0
  0
LINE
  5
10C
330
1E
100
AcDbEntity
  8
0
100
AcDbLine
 10
4.612999999999789
 20
176.627499999999
 30
0.0
 11
4.956469999999999
 21
178.0259999999999
 31
0.0
  0
LINE
  5
10D
330
1E
100
AcDbEntity
  8
0
100
AcDbLine
 10
4.9565
 20
178.0259999999999
 30
0.0
 11
5.9282
 21
180.437
 31
0.0
  0
LINE
  5
110
330
1E
100
AcDbEntity
  8
0
100
AcDbLine
 10
5.9282
 20
180.437
 30
0.0
 11
6.91676
 21
182.162
 31
0.0
  0
LINE
  5
113
330
1E
100
AcDbEntity
  8
0
100
AcDbLine
 10
8.139849999999999
 20
184.004
 30
0.0
 11
9.55
 21
185.5999999999999
 31
0.0
  0
LINE
  5
114
330
1E
100
AcDbEntity
  8
0
100
AcDbLine
 10
6.91676
 20
182.162
 30
0.0
 11
8.139849999999999
 21
184.004
 31
0.0
  0
LINE
  5
115
330
1E
100
AcDbEntity
  8
0
100
AcDbLine
 10
5.9282
 20
180.437
 30
0.0
 11
6.91676
 21
182.162
 31
0.0
  0
LINE
  5
116
330
1E
100
AcDbEntity
  8
0
100
AcDbLine
 10
4.956469999999999
 20
178.0259999999999
 30
0.0
 11
5.37294285713848
 21
179.059285714275
 31
0.0
  0
LINE
  5
117
330
1E
100
AcDbEntity
  8
0
100
AcDbLine
 10
4.956469999999999
 20
178.0259999999999
 30
0.0
 11
5.372942857138729
 21
179.059285714275
 31
0.0
  0
LINE
  5
118
330
1E
100
AcDbEntity
  8
0
100
AcDbLine
 10
4.61299999999916
 20
176.6274999999969
 30
0.0
 11
4.956469999999999
 21
178.0259999999999
 31
0.0
  0
LINE
  5
119
330
1E
100
AcDbEntity
  8
0
100
AcDbLine
 10
3.642569999999999
 20
171.8329999999999
 30
0.0
 11
4.61299999999916
 21
176.6274999999969
 31
0.0
  0
LINE
  5
11A
330
1E
100
AcDbEntity
  8
0
100
AcDbLine
 10
3.642569999999999
 20
171.8329999999999
 30
0.0
 11
4.61299999999916
 21
176.6274999999969
 31
0.0
  0
LINE
  5
11B
330
1E
100
AcDbEntity
  8
0
100
AcDbLine
 10
2.894499999999999
 20
165.5529999999999
 30
0.0
 11
3.642569999999999
 21
171.8329999999999
 31
0.0
  0
LINE
  5
11C
330
1E
100
AcDbEntity
  8
0
100
AcDbLine
 10
0.438554
 20
134.0586
 30
0.0
 11
1.13789
 21
146.752
 31
0.0
  0
LINE
  5
11E
330
1E
100
AcDbEntity
  8
0
100
AcDbLine
 10
9.55
 20
185.5999999999999
 30
0.0
 11
11.146
 21
187.0099999999999
 31
0.0
  0
LINE
  5
121
330
1E
100
AcDbEntity
  8
0
100
AcDbLine
 10
11.146
 20
187.0099999999999
 30
0.0
 11
12.98799999999999
 21
188.2329999999999
 31
0.0
  0
LINE
  5
122
330
1E
100
AcDbEntity
  8
0
100
AcDbLine
 10
12.98799999999999
 20
188.2329999999999
 30
0.0
 11
14.7128
 21
189.222
 31
0.0
  0
LINE
  5
125
330
1E
100
AcDbEntity
  8
0
100
AcDbLine
 10
14.7128
 20
189.222
 30
0.0
 11
17.1241
 21
190.194
 31
0.0
  0
LINE
  5
126
330
1E
100
AcDbEntity
  8
0
100
AcDbLine
 10
17.1241
 20
190.194
 30
0.0
 11
19.9206
 21
190.88
 31
0.0
  0
LINE
  5
129
330
1E
100
AcDbEntity
  8
0
100
AcDbLine
 10
19.9206
 20
190.88
 30
0.0
 11
23.31699999999999
 21
191.507
 31
0.0
  0
LINE
  5
12A
330
1E
100
AcDbEntity
  8
0
100
AcDbLine
 10
23.31699999999999
 20
191.507
 30
0.0
 11
29.5968
 21
192.255
 31
0.0
  0
LINE
  5
12C
330
1E
100
AcDbEntity
  8
0
100
AcDbLine
 10
29.5968
 20
192.255
 30
0.0
 11
37.27289999999999
 21
193.1709999999999
 31
0.0
  0
LINE
  5
12D
330
1E
100
AcDbEntity
  8
0
100
AcDbLine
 10
37.27289999999999
 20
193.1709999999999
 30
0.0
 11
48.3985
 21
194.012
 31
0.0
  0
LINE
  5
12F
330
1E
100
AcDbEntity
  8
0
100
AcDbLine
 10
67.1235
 20
153.185
 30
0.0
 11
69.0294
 21
150.679
 31
0.0
  0
LINE
  5
130
330
1E
100
AcDbEntity
  8
0
100
AcDbLine
 10
65.9235
 20
156.079
 30
0.0
 11
67.1235
 21
153.185
 31
0.0
  0
LINE
  5
132
330
1E
100
AcDbEntity
  8
0
100
AcDbLine
 10
69.0294
 20
150.679
 30
0.0
 11
71.5353
 21
148.7729999999999
 31
0.0
  0
LINE
  5
134
330
1E
100
AcDbEntity
  8
0
100
AcDbLine
 10
67.1235
 20
165.115
 30
0.0
 11
69.0294
 21
167.6209999999999
 31
0.0
  0
LINE
  5
135
330
1E
100
AcDbEntity
  8
0
100
AcDbLine
 10
65.9235
 20
162.221
 30
0.0
 11
67.1235
 21
165.115
 31
0.0
  0
LINE
  5
136
330
1E
100
AcDbEntity
  8
0
100
AcDbLine
 10
65.5
 20
159.15
 30
0.0
 11
65.9235
 21
162.221
 31
0.0
  0
LINE
  5
137
330
1E
100
AcDbEntity
  8
0
100
AcDbLine
 10
65.5
 20
159.15
 30
0.0
 11
65.9235
 21
156.079
 31
0.0
  0
LINE
  5
139
330
1E
100
AcDbEntity
  8
0
100
AcDbLine
 10
69.0294
 20
167.6209999999999
 30
0.0
 11
71.5353
 21
169.5259999999999
 31
0.0
  0
LINE
  5
13C
330
1E
100
AcDbEntity
  8
0
100
AcDbLine
 10
48.3985
 20
194.012
 30
0.0
 11
61.0914
 21
194.7109999999999
 31
0.0
  0
LINE
  5
13D
330
1E
100
AcDbEntity
  8
0
100
AcDbLine
 10
61.0914
 20
194.7109999999999
 30
0.0
 11
70.89069999999999
 21
195.0469999999999
 31
0.0
  0
LINE
  5
140
330
1E
100
AcDbEntity
  8
0
100
AcDbLine
 10
71.5353
 20
148.7729999999999
 30
0.0
 11
74.4294
 21
147.5739999999999
 31
0.0
  0
LINE
  5
141
330
1E
100
AcDbEntity
  8
0
100
AcDbLine
 10
74.4294
 20
147.5739999999999
 30
0.0
 11
77.5
 21
147.1499999999999
 31
0.0
  0
LINE
  5
153
330
1E
100
AcDbEntity
  8
0
100
AcDbLine
 10
71.5353
 20
169.5259999999999
 30
0.0
 11
74.4294
 21
170.727
 31
0.0
  0
LINE
  5
155
330
1E
100
AcDbEntity
  8
0
100
AcDbLine
 10
74.4294
 20
170.727
 30
0.0
 11
77.5
 21
171.15
 31
0.0
  0
LINE
  5
181
330
1E
100
AcDbEntity
  8
0
100
AcDbLine
 10
70.89069999999999
 20
195.0469999999999
 30
0.0
 11
77.5
 21
195.15
 31
0.0
  0
LINE
  5
185
330
1E
100
AcDbEntity
  8
0
100
AcDbLine
 10
0.102871
 20
111.0407
 30
0.0
 11
0.438554
 21
101.2413999999999
 31
0.0
  0
LINE
  5
186
330
1E
100
AcDbEntity
  8
0
100
AcDbLine
 10
0.0
 20
117.65
 30
0.0
 11
0.102871
 21
111.0407
 31
0.0
  0
LINE
  5
187
330
1E
100
AcDbEntity
  8
0
100
AcDbLine
 10
0.0
 20
117.65
 30
0.0
 11
0.102871
 21
124.2593
 31
0.0
  0
LINE
  5
18C
330
1E
100
AcDbEntity
  8
0
100
AcDbLine
 10
154.5614459999999
 20
101.2413999999999
 30
0.0
 11
153.86211
 21
88.5485
 31
0.0
  0
LINE
  5
18D
330
1E
100
AcDbEntity
  8
0
100
AcDbLine
 10
102.0
 20
96.553
 30
0.0
 11
101.706
 21
98.30799999999999
 31
0.0
  0
LINE
  5
18E
330
1E
100
AcDbEntity
  8
0
100
AcDbLine
 10
154.5614459999999
 20
101.2413999999999
 30
0.0
 11
153.86211
 21
88.5485
 31
0.0
  0
LINE
  5
18F
330
1E
100
AcDbEntity
  8
0
100
AcDbLine
 10
131.6829999999999
 20
43.79256999999999
 30
0.0
 11
125.4032000000175
 21
43.04450000000209
 31
0.0
  0
LINE
  5
190
330
1E
100
AcDbEntity
  8
0
100
AcDbLine
 10
131.6829999999999
 20
43.79256999999999
 30
0.0
 11
125.4032
 21
43.0445
 31
0.0
  0
LINE
  5
191
330
1E
100
AcDbEntity
  8
0
100
AcDbLine
 10
151.0439499999999
 20
61.7688
 30
0.0
 11
150.04353
 21
57.27409999999999
 31
0.0
  0
LINE
  5
192
330
1E
100
AcDbEntity
  8
0
100
AcDbLine
 10
151.0439499999999
 20
61.7688
 30
0.0
 11
150.04353
 21
57.27409999999999
 31
0.0
  0
LINE
  5
193
330
1E
100
AcDbEntity
  8
0
100
AcDbLine
 10
152.1055
 20
69.74679999999999
 30
0.0
 11
151.3574299999999
 21
63.467
 31
0.0
  0
LINE
  5
194
330
1E
100
AcDbEntity
  8
0
100
AcDbLine
 10
151.3574299999999
 20
63.467
 30
0.0
 11
151.0439499999999
 21
61.7688
 31
0.0
  0
LINE
  5
195
330
1E
100
AcDbEntity
  8
0
100
AcDbLine
 10
151.3574299999999
 20
63.467
 30
0.0
 11
151.0439500000001
 21
61.7688000000011
 31
0.0
  0
LINE
  5
196
330
1E
100
AcDbEntity
  8
0
100
AcDbLine
 10
153.86211
 20
88.5485
 30
0.0
 11
153.0209
 21
77.4229
 31
0.0
  0
LINE
  5
197
330
1E
100
AcDbEntity
  8
0
100
AcDbLine
 10
153.0209
 20
77.4229
 30
0.0
 11
152.1055
 21
69.74679999999999
 31
0.0
  0
LINE
  5
198
330
1E
100
AcDbEntity
  8
0
100
AcDbLine
 10
138.9093142856608
 20
45.52294285712129
 30
0.0
 11
137.8759
 21
45.10647
 31
0.0
  0
LINE
  5
199
330
1E
100
AcDbEntity
  8
0
100
AcDbLine
 10
138.9093142856592
 20
45.5229428571207
 30
0.0
 11
137.8759
 21
45.10647
 31
0.0
  0
LINE
  5
19A
330
1E
100
AcDbEntity
  8
0
100
AcDbLine
 10
140.2872
 20
46.0782
 30
0.0
 11
137.8759
 21
45.1065
 31
0.0
  0
LINE
  5
19B
330
1E
100
AcDbEntity
  8
0
100
AcDbLine
 10
148.0832399999999
 20
53.138
 30
0.0
 11
146.86015
 21
51.296
 31
0.0
  0
LINE
  5
19C
330
1E
100
AcDbEntity
  8
0
100
AcDbLine
 10
145.4499999999999
 20
49.7
 30
0.0
 11
143.854
 21
48.28985
 31
0.0
  0
LINE
  5
19D
330
1E
100
AcDbEntity
  8
0
100
AcDbLine
 10
146.86015
 20
51.296
 30
0.0
 11
145.4499999999999
 21
49.7
 31
0.0
  0
LINE
  5
19E
330
1E
100
AcDbEntity
  8
0
100
AcDbLine
 10
142.012
 20
47.0668
 30
0.0
 11
140.2872
 21
46.0782
 31
0.0
  0
LINE
  5
19F
330
1E
100
AcDbEntity
  8
0
100
AcDbLine
 10
143.854
 20
48.28985
 30
0.0
 11
142.012
 21
47.06675999999999
 31
0.0
  0
LINE
  5
1A0
330
1E
100
AcDbEntity
  8
0
100
AcDbLine
 10
142.012
 20
47.06675999999999
 30
0.0
 11
141.1496000000588
 21
46.5725000000337
 31
0.0
  0
LINE
  5
1A1
330
1E
100
AcDbEntity
  8
0
100
AcDbLine
 10
142.012
 20
47.06675999999999
 30
0.0
 11
141.1496000000576
 21
46.57250000003299
 31
0.0
  0
LINE
  5
1A2
330
1E
100
AcDbEntity
  8
0
100
AcDbLine
 10
150.0434999999999
 20
57.27409999999999
 30
0.0
 11
149.0718
 21
54.8628
 31
0.0
  0
LINE
  5
1A3
330
1E
100
AcDbEntity
  8
0
100
AcDbLine
 10
149.0718
 20
54.8628
 30
0.0
 11
148.0832399999999
 21
53.138
 31
0.0
  0
LINE
  5
1A4
330
1E
100
AcDbEntity
  8
0
100
AcDbLine
 10
149.0718
 20
54.8628
 30
0.0
 11
148.0832399999999
 21
53.138
 31
0.0
  0
LINE
  5
1A5
330
1E
100
AcDbEntity
  8
0
100
AcDbLine
 10
150.04353
 20
57.27409999999999
 30
0.0
 11
149.6270571428611
 21
56.2406857142957
 31
0.0
  0
LINE
  5
1A6
330
1E
100
AcDbEntity
  8
0
100
AcDbLine
 10
150.04353
 20
57.27409999999999
 30
0.0
 11
149.627057142861
 21
56.2406857142953
 31
0.0
  0
LINE
  5
1A7
330
1E
100
AcDbEntity
  8
0
100
AcDbLine
 10
133.3811999999966
 20
44.10604999999939
 30
0.0
 11
131.6829999999999
 21
43.79256999999999
 31
0.0
  0
LINE
  5
1A8
330
1E
100
AcDbEntity
  8
0
100
AcDbLine
 10
133.3811999999987
 20
44.10604999999971
 30
0.0
 11
131.6829999999999
 21
43.79256999999999
 31
0.0
  0
LINE
  5
1A9
330
1E
100
AcDbEntity
  8
0
100
AcDbLine
 10
137.8759
 20
45.10647
 30
0.0
 11
133.3811999999987
 21
44.10604999999971
 31
0.0
  0
LINE
  5
1AA
330
1E
100
AcDbEntity
  8
0
100
AcDbLine
 10
137.8759
 20
45.10647
 30
0.0
 11
133.3811999999987
 21
44.10604999999971
 31
0.0
  0
LINE
  5
1AB
330
1E
100
AcDbEntity
  8
0
100
AcDbLine
 10
102.0
 20
41.1371
 30
0.0
 11
102.0
 21
35.3486
 31
0.0
  0
LINE
  5
1AC
330
1E
100
AcDbEntity
  8
0
100
AcDbLine
 10
102.0
 20
35.349
 30
0.0
 11
102.0
 21
41.137
 31
0.0
  0
LINE
  5
1AD
330
1E
100
AcDbEntity
  8
0
100
AcDbLine
 10
101.7808999999999
 20
3.73919999999999
 30
0.0
 11
101.2199
 21
2.83359999999999
 31
0.0
  0
LINE
  5
1AE
330
1E
100
AcDbEntity
  8
0
100
AcDbLine
 10
101.7808999999999
 20
3.73899999999999
 30
0.0
 11
101.2199
 21
2.83399999999999
 31
0.0
  0
LINE
  5
1AF
330
1E
100
AcDbEntity
  8
0
100
AcDbLine
 10
102.0
 20
4.802999999999999
 30
0.0
 11
102.0
 21
12.998
 31
0.0
  0
LINE
  5
1B0
330
1E
100
AcDbEntity
  8
0
100
AcDbLine
 10
102.0
 20
4.8028
 30
0.0
 11
101.7808999999999
 21
3.73919999999999
 31
0.0
  0
LINE
  5
1B1
330
1E
100
AcDbEntity
  8
0
100
AcDbLine
 10
102.0
 20
4.802999999999999
 30
0.0
 11
101.7808999999999
 21
3.73899999999999
 31
0.0
  0
LINE
  5
1B2
330
1E
100
AcDbEntity
  8
0
100
AcDbLine
 10
102.0
 20
24.5748
 30
0.0
 11
102.0
 21
18.619
 31
0.0
  0
LINE
  5
1B3
330
1E
100
AcDbEntity
  8
0
100
AcDbLine
 10
102.0
 20
18.619
 30
0.0
 11
102.0
 21
24.575
 31
0.0
  0
LINE
  5
1B4
330
1E
100
AcDbEntity
  8
0
100
AcDbLine
 10
102.0
 20
18.619
 30
0.0
 11
102.0
 21
12.99789999999999
 31
0.0
  0
LINE
  5
1B5
330
1E
100
AcDbEntity
  8
0
100
AcDbLine
 10
102.0
 20
12.998
 30
0.0
 11
102.0
 21
18.619
 31
0.0
  0
LINE
  5
1B6
330
1E
100
AcDbEntity
  8
0
100
AcDbLine
 10
102.0
 20
29.3594
 30
0.0
 11
102.0
 21
24.5748
 31
0.0
  0
LINE
  5
1B7
330
1E
100
AcDbEntity
  8
0
100
AcDbLine
 10
102.0
 20
24.575
 30
0.0
 11
102.0
 21
29.359
 31
0.0
  0
LINE
  5
1B8
330
1E
100
AcDbEntity
  8
0
100
AcDbLine
 10
102.0
 20
35.3486
 30
0.0
 11
102.0
 21
29.3594
 31
0.0
  0
LINE
  5
1B9
330
1E
100
AcDbEntity
  8
0
100
AcDbLine
 10
102.0
 20
29.359
 30
0.0
 11
102.0
 21
35.349
 31
0.0
  0
LINE
  5
1BA
330
1E
100
AcDbEntity
  8
0
100
AcDbLine
 10
92.2432
 20
0.10079999999999
 30
0.0
 11
88.5613
 21
0.0389999999999903
 31
0.0
  0
LINE
  5
1BB
330
1E
100
AcDbEntity
  8
0
100
AcDbLine
 10
92.2432
 20
0.100999999999989
 30
0.0
 11
88.5613
 21
0.0389999999999903
 31
0.0
  0
LINE
  5
1BC
330
1E
100
AcDbEntity
  8
0
100
AcDbLine
 10
96.6614
 20
0.45139999999998
 30
0.0
 11
95.1185
 21
0.224099999999983
 31
0.0
  0
LINE
  5
1BD
330
1E
100
AcDbEntity
  8
0
100
AcDbLine
 10
96.6614
 20
0.4509999999999821
 30
0.0
 11
95.1185
 21
0.223999999999986
 31
0.0
  0
LINE
  5
1BE
330
1E
100
AcDbEntity
  8
0
100
AcDbLine
 10
99.5368
 20
1.463799999999989
 30
0.0
 11
98.11660000000001
 21
0.812599999999994
 31
0.0
  0
LINE
  5
1BF
330
1E
100
AcDbEntity
  8
0
100
AcDbLine
 10
99.5368
 20
1.463999999999989
 30
0.0
 11
98.11660000000001
 21
0.8129999999999927
 31
0.0
  0
LINE
  5
1C0
330
1E
100
AcDbEntity
  8
0
100
AcDbLine
 10
101.2199
 20
2.83359999999999
 30
0.0
 11
100.466
 21
2.113399999999989
 31
0.0
  0
LINE
  5
1C1
330
1E
100
AcDbEntity
  8
0
100
AcDbLine
 10
101.2199
 20
2.83399999999999
 30
0.0
 11
100.466
 21
2.112999999999989
 31
0.0
  0
LINE
  5
1C2
330
1E
100
AcDbEntity
  8
0
100
AcDbLine
 10
100.466
 20
2.113399999999989
 30
0.0
 11
99.5368
 21
1.463799999999989
 31
0.0
  0
LINE
  5
1C3
330
1E
100
AcDbEntity
  8
0
100
AcDbLine
 10
100.466
 20
2.112999999999989
 30
0.0
 11
99.5368
 21
1.463999999999989
 31
0.0
  0
LINE
  5
1C4
330
1E
100
AcDbEntity
  8
0
100
AcDbLine
 10
98.11660000000001
 20
0.812599999999994
 30
0.0
 11
96.6614
 21
0.45139999999998
 31
0.0
  0
LINE
  5
1C5
330
1E
100
AcDbEntity
  8
0
100
AcDbLine
 10
98.11660000000001
 20
0.8129999999999927
 30
0.0
 11
96.6614
 21
0.4509999999999821
 31
0.0
  0
LINE
  5
1C6
330
1E
100
AcDbEntity
  8
0
100
AcDbLine
 10
95.1185
 20
0.224099999999983
 30
0.0
 11
92.2432
 21
0.10079999999999
 31
0.0
  0
LINE
  5
1C7
330
1E
100
AcDbEntity
  8
0
100
AcDbLine
 10
95.1185
 20
0.223999999999986
 30
0.0
 11
92.2432
 21
0.100999999999989
 31
0.0
  0
LINE
  5
1C8
330
1E
100
AcDbEntity
  8
0
100
AcDbLine
 10
83.76459999999999
 20
-0.055400000000019
 30
0.0
 11
80.72700000000001
 21
-0.103700000000014
 31
0.0
  0
LINE
  5
1C9
330
1E
100
AcDbEntity
  8
0
100
AcDbLine
 10
83.76459999999999
 20
-0.0550000000000206
 30
0.0
 11
80.72700000000001
 21
-0.10400000000001
 31
0.0
  0
LINE
  5
1CA
330
1E
100
AcDbEntity
  8
0
100
AcDbLine
 10
88.5613
 20
0.0389999999999903
 30
0.0
 11
83.76459999999999
 21
-0.0550000000000206
 31
0.0
  0
LINE
  5
1CB
330
1E
100
AcDbEntity
  8
0
100
AcDbLine
 10
88.5613
 20
0.0389999999999903
 30
0.0
 11
83.76459999999999
 21
-0.055400000000019
 31
0.0
  0
LINE
  5
1CC
330
1E
100
AcDbEntity
  8
0
100
AcDbLine
 10
80.72700000000001
 20
-0.103700000000014
 30
0.0
 11
77.5
 21
-0.150000000000011
 31
0.0
  0
LINE
  5
1CD
330
1E
100
AcDbEntity
  8
0
100
AcDbLine
 10
80.72700000000001
 20
-0.10400000000001
 30
0.0
 11
77.5
 21
-0.150000000000011
 31
0.0
  0
LINE
  5
1CE
330
1E
100
AcDbEntity
  8
0
100
AcDbLine
 10
102.0
 20
73.759
 30
0.0
 11
102.0
 21
62.53499999999999
 31
0.0
  0
LINE
  5
1CF
330
1E
100
AcDbEntity
  8
0
100
AcDbLine
 10
102.0
 20
62.53499999999999
 30
0.0
 11
102.0
 21
73.759
 31
0.0
  0
LINE
  5
1D0
330
1E
100
AcDbEntity
  8
0
100
AcDbLine
 10
117.7271
 20
42.12909999999999
 30
0.0
 11
106.6014999999999
 21
41.28789
 31
0.0
  0
LINE
  5
1D1
330
1E
100
AcDbEntity
  8
0
100
AcDbLine
 10
125.4032
 20
43.0445
 30
0.0
 11
117.7271
 21
42.12909999999999
 31
0.0
  0
LINE
  5
1D2
330
1E
100
AcDbEntity
  8
0
100
AcDbLine
 10
102.0
 20
52.0715
 30
0.0
 11
102.0
 21
46.4571
 31
0.0
  0
LINE
  5
1D3
330
1E
100
AcDbEntity
  8
0
100
AcDbLine
 10
102.0
 20
46.457
 30
0.0
 11
102.0
 21
52.072
 31
0.0
  0
LINE
  5
1D4
330
1E
100
AcDbEntity
  8
0
100
AcDbLine
 10
102.0
 20
46.4571
 30
0.0
 11
102.0
 21
41.1371
 31
0.0
  0
LINE
  5
1D5
330
1E
100
AcDbEntity
  8
0
100
AcDbLine
 10
102.0
 20
41.137
 30
0.0
 11
102.0
 21
46.457
 31
0.0
  0
LINE
  5
1D6
330
1E
100
AcDbEntity
  8
0
100
AcDbLine
 10
106.6014999999999
 20
41.28789
 30
0.0
 11
102.0
 21
41.0343628624664
 31
0.0
  0
LINE
  5
1D7
330
1E
100
AcDbEntity
  8
0
100
AcDbLine
 10
102.0
 20
62.53499999999999
 30
0.0
 11
102.0
 21
57.818
 31
0.0
  0
LINE
  5
1D8
330
1E
100
AcDbEntity
  8
0
100
AcDbLine
 10
102.0
 20
57.818
 30
0.0
 11
102.0
 21
62.53499999999999
 31
0.0
  0
LINE
  5
1D9
330
1E
100
AcDbEntity
  8
0
100
AcDbLine
 10
102.0
 20
56.6242
 30
0.0
 11
102.0
 21
52.0715
 31
0.0
  0
LINE
  5
1DA
330
1E
100
AcDbEntity
  8
0
100
AcDbLine
 10
102.0
 20
52.072
 30
0.0
 11
102.0
 21
56.62399999999999
 31
0.0
  0
LINE
  5
1DB
330
1E
100
AcDbEntity
  8
0
100
AcDbLine
 10
102.0
 20
57.818
 30
0.0
 11
102.0
 21
56.6242
 31
0.0
  0
LINE
  5
1DC
330
1E
100
AcDbEntity
  8
0
100
AcDbLine
 10
102.0
 20
56.62399999999999
 30
0.0
 11
102.0
 21
57.818
 31
0.0
  0
LINE
  5
1DD
330
1E
100
AcDbEntity
  8
0
100
AcDbLine
 10
102.0
 20
96.553
 30
0.0
 11
102.0
 21
73.759
 31
0.0
  0
LINE
  5
1DE
330
1E
100
AcDbEntity
  8
0
100
AcDbLine
 10
102.0
 20
73.759
 30
0.0
 11
102.0
 21
96.553
 31
0.0
  0
LINE
  5
1DF
330
1E
100
AcDbEntity
  8
0
100
AcDbLine
 10
131.6829999999999
 20
191.507
 30
0.0
 11
125.4032
 21
192.255
 31
0.0
  0
LINE
  5
1E0
330
1E
100
AcDbEntity
  8
0
100
AcDbLine
 10
153.0209
 20
157.877
 30
0.0
 11
152.1055
 21
165.5529999999999
 31
0.0
  0
LINE
  5
1E1
330
1E
100
AcDbEntity
  8
0
100
AcDbLine
 10
154.897129
 20
124.2593
 30
0.0
 11
154.5614459999999
 21
134.0586
 31
0.0
  0
LINE
  5
1E2
330
1E
100
AcDbEntity
  8
0
100
AcDbLine
 10
154.897129
 20
124.2593
 30
0.0
 11
154.5614459999999
 21
134.0586
 31
0.0
  0
LINE
  5
1E3
330
1E
100
AcDbEntity
  8
0
100
AcDbLine
 10
155.0
 20
117.65
 30
0.0
 11
154.897129
 21
111.0407
 31
0.0
  0
LINE
  5
1E4
330
1E
100
AcDbEntity
  8
0
100
AcDbLine
 10
154.897129
 20
111.0407
 30
0.0
 11
154.5614459999999
 21
101.2413999999999
 31
0.0
  0
LINE
  5
1E5
330
1E
100
AcDbEntity
  8
0
100
AcDbLine
 10
155.0
 20
117.65
 30
0.0
 11
154.897129
 21
124.2593
 31
0.0
  0
LINE
  5
1E6
330
1E
100
AcDbEntity
  8
0
100
AcDbLine
 10
154.5614459999999
 20
134.0586
 30
0.0
 11
153.86211
 21
146.752
 31
0.0
  0
LINE
  5
1E7
330
1E
100
AcDbEntity
  8
0
100
AcDbLine
 10
154.5614459999999
 20
134.0586
 30
0.0
 11
153.86211
 21
146.752
 31
0.0
  0
LINE
  5
1E8
330
1E
100
AcDbEntity
  8
0
100
AcDbLine
 10
153.86211
 20
146.752
 30
0.0
 11
153.0209
 21
157.877
 31
0.0
  0
LINE
  5
1E9
330
1E
100
AcDbEntity
  8
0
100
AcDbLine
 10
150.3870000000008
 20
176.6274999999969
 30
0.0
 11
150.04353
 21
178.0259999999999
 31
0.0
  0
LINE
  5
1EA
330
1E
100
AcDbEntity
  8
0
100
AcDbLine
 10
150.3870000000001
 20
176.627499999999
 30
0.0
 11
150.04353
 21
178.0259999999999
 31
0.0
  0
LINE
  5
1EB
330
1E
100
AcDbEntity
  8
0
100
AcDbLine
 10
151.3574299999999
 20
171.8329999999999
 30
0.0
 11
150.3870000000008
 21
176.6274999999969
 31
0.0
  0
LINE
  5
1EC
330
1E
100
AcDbEntity
  8
0
100
AcDbLine
 10
151.3574299999999
 20
171.8329999999999
 30
0.0
 11
150.3870000000008
 21
176.6274999999969
 31
0.0
  0
LINE
  5
1ED
330
1E
100
AcDbEntity
  8
0
100
AcDbLine
 10
152.1055
 20
165.5529999999999
 30
0.0
 11
151.3574299999999
 21
171.8329999999999
 31
0.0
  0
LINE
  5
1EE
330
1E
100
AcDbEntity
  8
0
100
AcDbLine
 10
142.012
 20
188.2329999999999
 30
0.0
 11
140.2872
 21
189.222
 31
0.0
  0
LINE
  5
1EF
330
1E
100
AcDbEntity
  8
0
100
AcDbLine
 10
145.4499999999999
 20
185.5999999999999
 30
0.0
 11
143.854
 21
187.0099999999999
 31
0.0
  0
LINE
  5
1F0
330
1E
100
AcDbEntity
  8
0
100
AcDbLine
 10
149.0718
 20
180.437
 30
0.0
 11
148.0832399999999
 21
182.162
 31
0.0
  0
LINE
  5
1F1
330
1E
100
AcDbEntity
  8
0
100
AcDbLine
 10
149.0718
 20
180.437
 30
0.0
 11
148.0832399999999
 21
182.162
 31
0.0
  0
LINE
  5
1F2
330
1E
100
AcDbEntity
  8
0
100
AcDbLine
 10
150.04353
 20
178.0259999999999
 30
0.0
 11
149.6270571428612
 21
179.059285714275
 31
0.0
  0
LINE
  5
1F3
330
1E
100
AcDbEntity
  8
0
100
AcDbLine
 10
150.04353
 20
178.0259999999999
 30
0.0
 11
149.6270571428615
 21
179.059285714275
 31
0.0
  0
LINE
  5
1F4
330
1E
100
AcDbEntity
  8
0
100
AcDbLine
 10
150.0434999999999
 20
178.0259999999999
 30
0.0
 11
149.0718
 21
180.437
 31
0.0
  0
LINE
  5
1F5
330
1E
100
AcDbEntity
  8
0
100
AcDbLine
 10
148.0832399999999
 20
182.162
 30
0.0
 11
146.86015
 21
184.004
 31
0.0
  0
LINE
  5
1F6
330
1E
100
AcDbEntity
  8
0
100
AcDbLine
 10
146.86015
 20
184.004
 30
0.0
 11
145.4499999999999
 21
185.5999999999999
 31
0.0
  0
LINE
  5
1F7
330
1E
100
AcDbEntity
  8
0
100
AcDbLine
 10
143.854
 20
187.0099999999999
 30
0.0
 11
142.012
 21
188.2329999999999
 31
0.0
  0
LINE
  5
1F8
330
1E
100
AcDbEntity
  8
0
100
AcDbLine
 10
140.2872
 20
189.222
 30
0.0
 11
137.8759
 21
190.194
 31
0.0
  0
LINE
  5
1F9
330
1E
100
AcDbEntity
  8
0
100
AcDbLine
 10
135.0794
 20
190.88
 30
0.0
 11
131.6829999999999
 21
191.507
 31
0.0
  0
LINE
  5
1FA
330
1E
100
AcDbEntity
  8
0
100
AcDbLine
 10
137.8759
 20
190.194
 30
0.0
 11
135.0794
 21
190.88
 31
0.0
  0
LINE
  5
1FB
330
1E
100
AcDbEntity
  8
0
100
AcDbLine
 10
89.50000000000001
 20
159.15
 30
0.0
 11
89.0765
 21
156.079
 31
0.0
  0
LINE
  5
1FC
330
1E
100
AcDbEntity
  8
0
100
AcDbLine
 10
89.65200000000001
 20
108.095
 30
0.0
 11
86.81
 21
108.786
 31
0.0
  0
LINE
  5
1FD
330
1E
100
AcDbEntity
  8
0
100
AcDbLine
 10
96.904
 20
104.6379999999999
 30
0.0
 11
94.748
 21
105.9139999999999
 31
0.0
  0
LINE
  5
1FE
330
1E
100
AcDbEntity
  8
0
100
AcDbLine
 10
98.76600000000001
 20
103.1479999999999
 30
0.0
 11
96.904
 21
104.6379999999999
 31
0.0
  0
LINE
  5
1FF
330
1E
100
AcDbEntity
  8
0
100
AcDbLine
 10
101.1179999999999
 20
99.95700000000001
 30
0.0
 11
100.0399999999999
 21
101.606
 31
0.0
  0
LINE
  5
200
330
1E
100
AcDbEntity
  8
0
100
AcDbLine
 10
101.706
 20
98.30799999999999
 30
0.0
 11
101.1179999999999
 21
99.95700000000001
 31
0.0
  0
LINE
  5
201
330
1E
100
AcDbEntity
  8
0
100
AcDbLine
 10
100.0399999999999
 20
101.606
 30
0.0
 11
98.76600000000001
 21
103.1479999999999
 31
0.0
  0
LINE
  5
202
330
1E
100
AcDbEntity
  8
0
100
AcDbLine
 10
94.748
 20
105.9139999999999
 30
0.0
 11
92.39600000000001
 21
107.084
 31
0.0
  0
LINE
  5
203
330
1E
100
AcDbEntity
  8
0
100
AcDbLine
 10
92.39600000000001
 20
107.084
 30
0.0
 11
89.65200000000001
 21
108.095
 31
0.0
  0
LINE
  5
204
330
1E
100
AcDbEntity
  8
0
100
AcDbLine
 10
83.772
 20
109.371
 30
0.0
 11
80.73399999999999
 21
109.6899999999999
 31
0.0
  0
LINE
  5
205
330
1E
100
AcDbEntity
  8
0
100
AcDbLine
 10
86.81
 20
108.786
 30
0.0
 11
83.772
 21
109.371
 31
0.0
  0
LINE
  5
206
330
1E
100
AcDbEntity
  8
0
100
AcDbLine
 10
80.73399999999999
 20
109.6899999999999
 30
0.0
 11
77.5
 21
109.85
 31
0.0
  0
LINE
  5
207
330
1E
100
AcDbEntity
  8
0
100
AcDbLine
 10
85.9706
 20
150.679
 30
0.0
 11
83.4647
 21
148.7729999999999
 31
0.0
  0
LINE
  5
208
330
1E
100
AcDbEntity
  8
0
100
AcDbLine
 10
87.87649999999999
 20
153.185
 30
0.0
 11
85.9706
 21
150.679
 31
0.0
  0
LINE
  5
209
330
1E
100
AcDbEntity
  8
0
100
AcDbLine
 10
89.0765
 20
156.079
 30
0.0
 11
87.87649999999999
 21
153.185
 31
0.0
  0
LINE
  5
20A
330
1E
100
AcDbEntity
  8
0
100
AcDbLine
 10
80.57059999999999
 20
147.5739999999999
 30
0.0
 11
77.5
 21
147.1499999999999
 31
0.0
  0
LINE
  5
20B
330
1E
100
AcDbEntity
  8
0
100
AcDbLine
 10
83.4647
 20
148.7729999999999
 30
0.0
 11
80.57059999999999
 21
147.5739999999999
 31
0.0
  0
LINE
  5
20C
330
1E
100
AcDbEntity
  8
0
100
AcDbLine
 10
106.6014999999999
 20
194.012
 30
0.0
 11
93.90860000000001
 21
194.7109999999999
 31
0.0
  0
LINE
  5
20D
330
1E
100
AcDbEntity
  8
0
100
AcDbLine
 10
117.7271
 20
193.1709999999999
 30
0.0
 11
106.6014999999999
 21
194.012
 31
0.0
  0
LINE
  5
20E
330
1E
100
AcDbEntity
  8
0
100
AcDbLine
 10
125.4032
 20
192.255
 30
0.0
 11
117.7271
 21
193.1709999999999
 31
0.0
  0
LINE
  5
20F
330
1E
100
AcDbEntity
  8
0
100
AcDbLine
 10
85.9706
 20
167.6209999999999
 30
0.0
 11
83.4647
 21
169.5259999999999
 31
0.0
  0
LINE
  5
210
330
1E
100
AcDbEntity
  8
0
100
AcDbLine
 10
87.87649999999999
 20
165.115
 30
0.0
 11
85.9706
 21
167.6209999999999
 31
0.0
  0
LINE
  5
211
330
1E
100
AcDbEntity
  8
0
100
AcDbLine
 10
89.0765
 20
162.221
 30
0.0
 11
87.87649999999999
 21
165.115
 31
0.0
  0
LINE
  5
212
330
1E
100
AcDbEntity
  8
0
100
AcDbLine
 10
89.50000000000001
 20
159.15
 30
0.0
 11
89.0765
 21
162.221
 31
0.0
  0
LINE
  5
213
330
1E
100
AcDbEntity
  8
0
100
AcDbLine
 10
80.57059999999999
 20
170.727
 30
0.0
 11
77.5
 21
171.15
 31
0.0
  0
LINE
  5
214
330
1E
100
AcDbEntity
  8
0
100
AcDbLine
 10
83.4647
 20
169.5259999999999
 30
0.0
 11
80.57059999999999
 21
170.727
 31
0.0
  0
LINE
  5
215
330
1E
100
AcDbEntity
  8
0
100
AcDbLine
 10
93.90860000000001
 20
194.7109999999999
 30
0.0
 11
84.1093
 21
195.0469999999999
 31
0.0
  0
LINE
  5
216
330
1E
100
AcDbEntity
  8
0
100
AcDbLine
 10
84.1093
 20
195.0469999999999
 30
0.0
 11
77.5
 21
195.15
 31
0.0
  0
ENDSEC
  0
SECTION
  2
OBJECTS
  0
DICTIONARY
  5
C
330
0
100
AcDbDictionary
281
     1
  3
ACAD_GROUP
350
D
  3
ACAD_LAYOUT
350
19
  3
ACAD_MLINESTYLE
350
16
  3
ACAD_PLOTSETTINGS
350
18
  3
ACAD_PLOTSTYLENAME
350
E
  3
AcDbVariableDictionary
350
217
  0
DICTIONARY
  5
D
102
{ACAD_REACTORS
330
C
102
}
330
C
100
AcDbDictionary
281
     1
  0
DICTIONARY
  5
19
102
{ACAD_REACTORS
330
C
102
}
330
C
100
AcDbDictionary
281
     1
  3
Layout1
350
1D
  3
Model
350
21
  0
DICTIONARY
  5
16
102
{ACAD_REACTORS
330
C
102
}
330
C
100
AcDbDictionary
281
     1
  3
Standard
350
17
  0
DICTIONARY
  5
18
102
{ACAD_REACTORS
330
C
102
}
330
C
100
AcDbDictionary
281
     1
  0
ACDBDICTIONARYWDFLT
  5
E
102
{ACAD_REACTORS
330
C
102
}
330
C
100
AcDbDictionary
281
     1
  3
Normal
350
F
100
AcDbDictionaryWithDefault
340
F
  0
DICTIONARY
  5
217
102
{ACAD_REACTORS
330
C
102
}
330
C
100
AcDbDictionary
281
     1
  3
DIMASSOC
350
218
  0
LAYOUT
  5
1D
102
{ACAD_REACTORS
330
19
102
}
330
19
100
AcDbPlotSettings
  1

  2
hp deskjet 980c series
  4

  6

 40
0.0
 41
0.0
 42
0.0
 43
0.0
 44
0.0
 45
0.0
 46
0.0
 47
0.0
 48
0.0
 49
0.0
140
0.0
141
0.0
142
1.0
143
1.0
 70
   688
 72
     0
 73
     0
 74
     5
  7

 75
    16
147
1.0
148
0.0
149
0.0
100
AcDbLayout
  1
Layout1
 70
     1
 71
     1
 10
0.0
 20
0.0
 11
12.0
 21
9.0
 12
0.0
 22
0.0
 32
0.0
 14
1.000000000000000E+20
 24
1.000000000000000E+20
 34
1.000000000000000E+20
 15
-1.000000000000000E+20
 25
-1.000000000000000E+20
 35
-1.000000000000000E+20
146
0.0
 13
0.0
 23
0.0
 33
0.0
 16
1.0
 26
0.0
 36
0.0
 17
0.0
 27
1.0
 37
0.0
 76
     0
330
1A
  0
LAYOUT
  5
21
102
{ACAD_REACTORS
330
19
102
}
330
19
100
AcDbPlotSettings
  1

  2
hp deskjet 980c series
  4

  6

 40
0.0
 41
0.0
 42
0.0
 43
0.0
 44
0.0
 45
0.0
 46
0.0
 47
0.0
 48
0.0
 49
0.0
140
0.0
141
0.0
142
1.0
143
1.0
 70
  1712
 72
     0
 73
     0
 74
     0
  7

 75
     0
147
1.0
148
0.0
149
0.0
100
AcDbLayout
  1
Model
 70
     1
 71
     0
 10
0.0
 20
0.0
 11
12.0
 21
9.0
 12
0.0
 22
0.0
 32
0.0
 14
0.0
 24
0.0
 34
0.0
 15
0.0
 25
0.0
 35
0.0
146
0.0
 13
0.0
 23
0.0
 33
0.0
 16
1.0
 26
0.0
 36
0.0
 17
0.0
 27
1.0
 37
0.0
 76
     0
330
1E
  0
MLINESTYLE
  5
17
102
{ACAD_REACTORS
330
16
102
}
330
16
100
AcDbMlineStyle
  2
STANDARD
 70
     0
  3

 62
   256
 51
90.0
 52
90.0
 71
     2
 49
0.5
 62
   256
  6
BYLAYER
 49
-0.5
 62
   256
  6
BYLAYER
  0
ACDBPLACEHOLDER
  5
F
102
{ACAD_REACTORS
330
E
102
}
330
E
  0
DICTIONARYVAR
  5
218
102
{ACAD_REACTORS
330
217
102
}
330
217
100
DictionaryVariables
280
     0
  1
1
  0
ENDSEC
  0
EOF
