  0
SECTION
  2
HEADER
  9
$ACADVER
  1
AC1015
  9
$ACADMAINTVER
 70
    13
  9
$DWGCODEPAGE
  3
ANSI_1252
  9
$INSBASE
 10
0.0
 20
0.0
 30
0.0
  9
$EXTMIN
 10
0.0030110000000069
 20
-0.15500000000002
 30
0.0
  9
$EXTMAX
 10
132.9969889999999
 20
202.1549999999999
 30
0.0
  9
$LIMMIN
 10
0.0
 20
0.0
  9
$LIMMAX
 10
12.0
 20
9.0
  9
$ORTHOMODE
 70
     0
  9
$REGENMODE
 70
     1
  9
$FILLMODE
 70
     1
  9
$QTEXTMODE
 70
     0
  9
$MIRRTEXT
 70
     1
  9
$LTSCALE
 40
1.0
  9
$ATTMODE
 70
     1
  9
$TEXTSIZE
 40
0.2
  9
$TRACEWID
 40
0.05
  9
$TEXTSTYLE
  7
Standard
  9
$CLAYER
  8
0
  9
$CELTYPE
  6
Continuous
  9
$CECOLOR
 62
   256
  9
$CELTSCALE
 40
1.0
  9
$DISPSILH
 70
     0
  9
$DIMSCALE
 40
1.0
  9
$DIMASZ
 40
0.18
  9
$DIMEXO
 40
0.0625
  9
$DIMDLI
 40
0.38
  9
$DIMRND
 40
0.0
  9
$DIMDLE
 40
0.0
  9
$DIMEXE
 40
0.18
  9
$DIMTP
 40
0.0
  9
$DIMTM
 40
0.0
  9
$DIMTXT
 40
0.18
  9
$DIMCEN
 40
0.09
  9
$DIMTSZ
 40
0.0
  9
$DIMTOL
 70
     0
  9
$DIMLIM
 70
     0
  9
$DIMTIH
 70
     1
  9
$DIMTOH
 70
     1
  9
$DIMSE1
 70
     0
  9
$DIMSE2
 70
     0
  9
$DIMTAD
 70
     0
  9
$DIMZIN
 70
     0
  9
$DIMBLK
  1

  9
$DIMASO
 70
     1
  9
$DIMSHO
 70
     1
  9
$DIMPOST
  1

  9
$DIMAPOST
  1

  9
$DIMALT
 70
     0
  9
$DIMALTD
 70
     2
  9
$DIMALTF
 40
25.4
  9
$DIMLFAC
 40
1.0
  9
$DIMTOFL
 70
     0
  9
$DIMTVP
 40
0.0
  9
$DIMTIX
 70
     0
  9
$DIMSOXD
 70
     0
  9
$DIMSAH
 70
     0
  9
$DIMBLK1
  1

  9
$DIMBLK2
  1

  9
$DIMSTYLE
  2
Standard
  9
$DIMCLRD
 70
     0
  9
$DIMCLRE
 70
     0
  9
$DIMCLRT
 70
     0
  9
$DIMTFAC
 40
1.0
  9
$DIMGAP
 40
0.09
  9
$DIMJUST
 70
     0
  9
$DIMSD1
 70
     0
  9
$DIMSD2
 70
     0
  9
$DIMTOLJ
 70
     1
  9
$DIMTZIN
 70
     0
  9
$DIMALTZ
 70
     0
  9
$DIMALTTZ
 70
     0
  9
$DIMUPT
 70
     0
  9
$DIMDEC
 70
     4
  9
$DIMTDEC
 70
     4
  9
$DIMALTU
 70
     2
  9
$DIMALTTD
 70
     2
  9
$DIMTXSTY
  7
Standard
  9
$DIMAUNIT
 70
     0
  9
$DIMADEC
 70
     0
  9
$DIMALTRND
 40
0.0
  9
$DIMAZIN
 70
     0
  9
$DIMDSEP
 70
    46
  9
$DIMATFIT
 70
     3
  9
$DIMFRAC
 70
     0
  9
$DIMLDRBLK
  1

  9
$DIMLUNIT
 70
     2
  9
$DIMLWD
 70
    -2
  9
$DIMLWE
 70
    -2
  9
$DIMTMOVE
 70
     0
  9
$LUNITS
 70
     2
  9
$LUPREC
 70
     4
  9
$SKETCHINC
 40
0.1
  9
$FILLETRAD
 40
0.0
  9
$AUNITS
 70
     0
  9
$AUPREC
 70
     0
  9
$MENU
  1
.
  9
$ELEVATION
 40
0.0
  9
$PELEVATION
 40
0.0
  9
$THICKNESS
 40
0.0
  9
$LIMCHECK
 70
     0
  9
$CHAMFERA
 40
0.0
  9
$CHAMFERB
 40
0.0
  9
$CHAMFERC
 40
0.0
  9
$CHAMFERD
 40
0.0
  9
$SKPOLY
 70
     0
  9
$TDCREATE
 40
2454907.648180879
  9
$TDUCREATE
 40
2454907.606514213
  9
$TDUPDATE
 40
2454907.649430880
  9
$TDUUPDATE
 40
2454907.607764213
  9
$TDINDWG
 40
0.0012500000
  9
$TDUSRTIMER
 40
0.0012500000
  9
$USRTIMER
 70
     1
  9
$ANGBASE
 50
0.0
  9
$ANGDIR
 70
     0
  9
$PDMODE
 70
     0
  9
$PDSIZE
 40
0.0
  9
$PLINEWID
 40
0.0
  9
$SPLFRAME
 70
     0
  9
$SPLINETYPE
 70
     6
  9
$SPLINESEGS
 70
     8
  9
$HANDSEED
  5
16A
  9
$SURFTAB1
 70
     6
  9
$SURFTAB2
 70
     6
  9
$SURFTYPE
 70
     6
  9
$SURFU
 70
     6
  9
$SURFV
 70
     6
  9
$UCSBASE
  2

  9
$UCSNAME
  2

  9
$UCSORG
 10
0.0
 20
0.0
 30
0.0
  9
$UCSXDIR
 10
1.0
 20
0.0
 30
0.0
  9
$UCSYDIR
 10
0.0
 20
1.0
 30
0.0
  9
$UCSORTHOREF
  2

  9
$UCSORTHOVIEW
 70
     1
  9
$UCSORGTOP
 10
0.0
 20
0.0
 30
0.0
  9
$UCSORGBOTTOM
 10
0.0
 20
0.0
 30
0.0
  9
$UCSORGLEFT
 10
0.0
 20
0.0
 30
0.0
  9
$UCSORGRIGHT
 10
0.0
 20
0.0
 30
0.0
  9
$UCSORGFRONT
 10
0.0
 20
0.0
 30
0.0
  9
$UCSORGBACK
 10
0.0
 20
0.0
 30
0.0
  9
$PUCSBASE
  2

  9
$PUCSNAME
  2

  9
$PUCSORG
 10
0.0
 20
0.0
 30
0.0
  9
$PUCSXDIR
 10
1.0
 20
0.0
 30
0.0
  9
$PUCSYDIR
 10
0.0
 20
1.0
 30
0.0
  9
$PUCSORTHOREF
  2

  9
$PUCSORTHOVIEW
 70
     0
  9
$PUCSORGTOP
 10
0.0
 20
0.0
 30
0.0
  9
$PUCSORGBOTTOM
 10
0.0
 20
0.0
 30
0.0
  9
$PUCSORGLEFT
 10
0.0
 20
0.0
 30
0.0
  9
$PUCSORGRIGHT
 10
0.0
 20
0.0
 30
0.0
  9
$PUCSORGFRONT
 10
0.0
 20
0.0
 30
0.0
  9
$PUCSORGBACK
 10
0.0
 20
0.0
 30
0.0
  9
$USERI1
 70
     0
  9
$USERI2
 70
     0
  9
$USERI3
 70
     0
  9
$USERI4
 70
     0
  9
$USERI5
 70
     0
  9
$USERR1
 40
0.0
  9
$USERR2
 40
0.0
  9
$USERR3
 40
0.0
  9
$USERR4
 40
0.0
  9
$USERR5
 40
0.0
  9
$WORLDVIEW
 70
     1
  9
$SHADEDGE
 70
     3
  9
$SHADEDIF
 70
    70
  9
$TILEMODE
 70
     1
  9
$MAXACTVP
 70
    64
  9
$PINSBASE
 10
0.0
 20
0.0
 30
0.0
  9
$PLIMCHECK
 70
     0
  9
$PEXTMIN
 10
1.000000000000000E+20
 20
1.000000000000000E+20
 30
1.000000000000000E+20
  9
$PEXTMAX
 10
-1.000000000000000E+20
 20
-1.000000000000000E+20
 30
-1.000000000000000E+20
  9
$PLIMMIN
 10
0.0
 20
0.0
  9
$PLIMMAX
 10
12.0
 20
9.0
  9
$UNITMODE
 70
     0
  9
$VISRETAIN
 70
     1
  9
$PLINEGEN
 70
     0
  9
$PSLTSCALE
 70
     1
  9
$TREEDEPTH
 70
  3020
  9
$CMLSTYLE
  2
Standard
  9
$CMLJUST
 70
     0
  9
$CMLSCALE
 40
1.0
  9
$PROXYGRAPHICS
 70
     1
  9
$MEASUREMENT
 70
     0
  9
$CELWEIGHT
370
    -1
  9
$ENDCAPS
280
     0
  9
$JOINSTYLE
280
     0
  9
$LWDISPLAY
290
     0
  9
$INSUNITS
 70
     0
  9
$HYPERLINKBASE
  1

  9
$STYLESHEET
  1

  9
$XEDIT
290
     1
  9
$CEPSNTYPE
380
     0
  9
$PSTYLEMODE
290
     1
  9
$FINGERPRINTGUID
  2
{0A24F69D-9C14-464E-9719-84DACCFD20C7}
  9
$VERSIONGUID
  2
{FA895DB7-A245-441D-8869-756ECB9F5E9F}
  9
$EXTNAMES
290
     1
  9
$PSVPSCALE
 40
0.0
  9
$OLESTARTUP
290
     0
  0
ENDSEC
  0
SECTION
  2
CLASSES
  0
CLASS
  1
ACDBDICTIONARYWDFLT
  2
AcDbDictionaryWithDefault
  3
AutoCAD 2000
 90
        0
280
     0
281
     0
  0
CLASS
  1
ACDBPLACEHOLDER
  2
AcDbPlaceHolder
  3
AutoCAD 2000
 90
        0
280
     0
281
     0
  0
CLASS
  1
LAYOUT
  2
AcDbLayout
  3
AutoCAD 2000
 90
        0
280
     0
281
     0
  0
CLASS
  1
DICTIONARYVAR
  2
AcDbDictionaryVar
  3
AutoCAD 2000
 90
        0
280
     0
281
     0
  0
ENDSEC
  0
SECTION
  2
TABLES
  0
TABLE
  2
VPORT
  5
8
330
0
100
AcDbSymbolTable
 70
     2
  0
VPORT
  5
169
330
8
100
AcDbSymbolTableRecord
100
AcDbViewportTableRecord
  2
*Active
 70
     0
 10
0.0
 20
0.0
 11
1.0
 21
1.0
 12
66.49999999999998
 22
101.0
 13
0.0
 23
0.0
 14
1.0
 24
1.0
 15
0.0
 25
0.0
 16
0.0
 26
0.0
 36
1.0
 17
0.0
 27
0.0
 37
0.0
 40
203.587747368421
 41
1.968387776606954
 42
50.0
 43
0.0
 44
0.0
 50
0.0
 51
0.0
 71
     0
 72
   100
 73
     1
 74
     3
 75
     0
 76
     0
 77
     0
 78
     0
281
     0
 65
     1
110
0.0
120
0.0
130
0.0
111
1.0
121
0.0
131
0.0
112
0.0
122
1.0
132
0.0
 79
     1
146
0.0
  0
ENDTAB
  0
TABLE
  2
LTYPE
  5
5
330
0
100
AcDbSymbolTable
 70
     1
  0
LTYPE
  5
13
330
5
100
AcDbSymbolTableRecord
100
AcDbLinetypeTableRecord
  2
ByBlock
 70
     0
  3

 72
    65
 73
     0
 40
0.0
  0
LTYPE
  5
14
330
5
100
AcDbSymbolTableRecord
100
AcDbLinetypeTableRecord
  2
ByLayer
 70
     0
  3

 72
    65
 73
     0
 40
0.0
  0
LTYPE
  5
15
330
5
100
AcDbSymbolTableRecord
100
AcDbLinetypeTableRecord
  2
Continuous
 70
     0
  3
Solid line
 72
    65
 73
     0
 40
0.0
  0
ENDTAB
  0
TABLE
  2
LAYER
  5
2
330
0
100
AcDbSymbolTable
 70
     1
  0
LAYER
  5
10
330
2
100
AcDbSymbolTableRecord
100
AcDbLayerTableRecord
  2
0
 70
     0
 62
     7
  6
Continuous
370
    -3
390
F
  0
ENDTAB
  0
TABLE
  2
STYLE
  5
3
330
0
100
AcDbSymbolTable
 70
     1
  0
STYLE
  5
11
330
3
100
AcDbSymbolTableRecord
100
AcDbTextStyleTableRecord
  2
Standard
 70
     0
 40
0.0
 41
1.0
 50
0.0
 71
     0
 42
0.2
  3
txt
  4

  0
ENDTAB
  0
TABLE
  2
VIEW
  5
6
330
0
100
AcDbSymbolTable
 70
     0
  0
ENDTAB
  0
TABLE
  2
UCS
  5
7
330
0
100
AcDbSymbolTable
 70
     0
  0
ENDTAB
  0
TABLE
  2
APPID
  5
9
330
0
100
AcDbSymbolTable
 70
     1
  0
APPID
  5
12
330
9
100
AcDbSymbolTableRecord
100
AcDbRegAppTableRecord
  2
ACAD
 70
     0
  0
ENDTAB
  0
TABLE
  2
DIMSTYLE
  5
A
330
0
100
AcDbSymbolTable
 70
     1
100
AcDbDimStyleTable
 71
     0
  0
DIMSTYLE
105
15D
330
A
100
AcDbSymbolTableRecord
100
AcDbDimStyleTableRecord
  2
Standard
 70
     0
340
11
  0
ENDTAB
  0
TABLE
  2
BLOCK_RECORD
  5
1
330
0
100
AcDbSymbolTable
 70
     0
  0
BLOCK_RECORD
  5
1E
330
1
100
AcDbSymbolTableRecord
100
AcDbBlockTableRecord
  2
*Model_Space
340
21
  0
BLOCK_RECORD
  5
1A
330
1
100
AcDbSymbolTableRecord
100
AcDbBlockTableRecord
  2
*Paper_Space
340
1D
  0
ENDTAB
  0
ENDSEC
  0
SECTION
  2
BLOCKS
  0
BLOCK
  5
1F
330
1E
100
AcDbEntity
  8
0
100
AcDbBlockBegin
  2
*Model_Space
 70
     0
 10
0.0
 20
0.0
 30
0.0
  3
*Model_Space
  1

  0
ENDBLK
  5
20
330
1E
100
AcDbEntity
  8
0
100
AcDbBlockEnd
  0
BLOCK
  5
1B
330
1A
100
AcDbEntity
 67
     1
  8
0
100
AcDbBlockBegin
  2
*Paper_Space
 70
     0
 10
0.0
 20
0.0
 30
0.0
  3
*Paper_Space
  1

  0
ENDBLK
  5
1C
330
1A
100
AcDbEntity
 67
     1
  8
0
100
AcDbBlockEnd
  0
ENDSEC
  0
SECTION
  2
ENTITIES
  0
LINE
  5
22
330
1E
100
AcDbEntity
  8
0
100
AcDbLine
 10
4.377429000000009
 20
91.84739999999999
 30
0.0
 11
4.802039000000009
 21
91.65420000000001
 31
0.0
  0
LINE
  5
23
330
1E
100
AcDbEntity
  8
0
100
AcDbLine
 10
4.802039000000009
 20
91.65420000000001
 30
0.0
 11
21.77108899999999
 21
94.64629999999999
 31
0.0
  0
LINE
  5
24
330
1E
100
AcDbEntity
  8
0
100
AcDbLine
 10
2.847369000000009
 20
94.76600000000001
 30
0.0
 11
2.997399000000009
 21
93.91519999999999
 31
0.0
  0
LINE
  5
25
330
1E
100
AcDbEntity
  8
0
100
AcDbLine
 10
3.053659000000009
 20
93.59610000000001
 30
0.0
 11
3.469939000000009
 21
93.4501
 31
0.0
  0
LINE
  5
26
330
1E
100
AcDbEntity
  8
0
100
AcDbLine
 10
2.997399000000009
 20
93.91519999999999
 30
0.0
 11
3.053659000000009
 21
93.59610000000001
 31
0.0
  0
LINE
  5
27
330
1E
100
AcDbEntity
  8
0
100
AcDbLine
 10
3.469939000000009
 20
93.4501
 30
0.0
 11
4.075972626621929
 21
93.5569988757935
 31
0.0
  0
LINE
  5
28
330
1E
100
AcDbEntity
  8
0
100
AcDbLine
 10
4.075972626621929
 20
93.5569988757935
 30
0.0
 11
4.125289000000009
 21
93.2773
 31
0.0
  0
LINE
  5
29
330
1E
100
AcDbEntity
  8
0
100
AcDbLine
 10
4.125289000000009
 20
93.2773
 30
0.0
 11
4.308669000000009
 21
92.23739999999999
 31
0.0
  0
LINE
  5
2A
330
1E
100
AcDbEntity
  8
0
100
AcDbLine
 10
4.308669000000009
 20
92.23739999999999
 30
0.0
 11
4.377429000000009
 21
91.84739999999999
 31
0.0
  0
LINE
  5
2B
330
1E
100
AcDbEntity
  8
0
100
AcDbLine
 10
3.827309000000009
 20
94.96729999999999
 30
0.0
 11
4.125289000000009
 21
93.2773
 31
0.0
  0
LINE
  5
2C
330
1E
100
AcDbEntity
  8
0
100
AcDbLine
 10
3.827309000000009
 20
94.96729999999999
 30
0.0
 11
3.86041788885016
 21
94.77952222244189
 31
0.0
  0
LINE
  5
2D
330
1E
100
AcDbEntity
  8
0
100
AcDbLine
 10
3.827309000000009
 20
94.96729999999999
 30
0.0
 11
3.86041788884945
 21
94.7795222224459
 31
0.0
  0
LINE
  5
2E
330
1E
100
AcDbEntity
  8
0
100
AcDbLine
 10
4.244279000000009
 20
94.8174
 30
0.0
 11
4.549909000000009
 21
93.0841
 31
0.0
  0
LINE
  5
2F
330
1E
100
AcDbEntity
  8
0
100
AcDbLine
 10
4.549909000000009
 20
93.0841
 30
0.0
 11
4.733279000000009
 21
92.0442
 31
0.0
  0
LINE
  5
30
330
1E
100
AcDbEntity
  8
0
100
AcDbLine
 10
4.733279000000009
 20
92.0442
 30
0.0
 11
4.802039000000009
 21
91.65420000000001
 31
0.0
  0
LINE
  5
31
330
1E
100
AcDbEntity
  8
0
100
AcDbLine
 10
21.77108899999999
 20
94.64629999999999
 30
0.0
 11
22.103989
 21
94.9731
 31
0.0
  0
LINE
  5
32
330
1E
100
AcDbEntity
  8
0
100
AcDbLine
 10
21.702289
 20
95.03629999999999
 30
0.0
 11
21.77108899999999
 21
94.64629999999999
 31
0.0
  0
LINE
  5
33
330
1E
100
AcDbEntity
  8
0
100
AcDbLine
 10
2.60356900000001
 20
96.14870000000001
 30
0.0
 11
2.847369000000009
 21
94.76600000000001
 31
0.0
  0
LINE
  5
34
330
1E
100
AcDbEntity
  8
0
100
AcDbLine
 10
3.619629000000009
 20
96.1451
 30
0.0
 11
3.86041788884958
 21
94.77952222244521
 31
0.0
  0
LINE
  5
35
330
1E
100
AcDbEntity
  8
0
100
AcDbLine
 10
3.619629000000009
 20
96.1451
 30
0.0
 11
3.860417888850029
 21
94.7795222224426
 31
0.0
  0
LINE
  5
36
330
1E
100
AcDbEntity
  8
0
100
AcDbLine
 10
21.518889
 20
96.0762
 30
0.0
 11
21.702289
 21
95.03629999999999
 31
0.0
  0
LINE
  5
37
330
1E
100
AcDbEntity
  8
0
100
AcDbLine
 10
22.035189
 20
95.363
 30
0.0
 11
22.103989
 21
94.9731
 31
0.0
  0
LINE
  5
38
330
1E
100
AcDbEntity
  8
0
100
AcDbLine
 10
22.103989
 20
94.9731
 30
0.0
 11
22.516889
 21
94.7778
 31
0.0
  0
LINE
  5
39
330
1E
100
AcDbEntity
  8
0
100
AcDbLine
 10
3.437649000000009
 20
97.17719999999999
 30
0.0
 11
3.827309000000009
 21
94.96729999999999
 31
0.0
  0
LINE
  5
3A
330
1E
100
AcDbEntity
  8
0
100
AcDbLine
 10
3.839339000000009
 20
97.11399999999999
 30
0.0
 11
4.244279000000009
 21
94.8174
 31
0.0
  0
LINE
  5
3B
330
1E
100
AcDbEntity
  8
0
100
AcDbLine
 10
21.85178899999999
 20
96.40299999999999
 30
0.0
 11
22.035189
 21
95.363
 31
0.0
  0
LINE
  5
3C
330
1E
100
AcDbEntity
  8
0
100
AcDbLine
 10
22.26468899999999
 20
96.2077
 30
0.0
 11
22.448089
 21
95.1678
 31
0.0
  0
LINE
  5
3D
330
1E
100
AcDbEntity
  8
0
100
AcDbLine
 10
22.516889
 20
94.7778
 30
0.0
 11
28.676389
 21
95.86389999999999
 31
0.0
  0
LINE
  5
3E
330
1E
100
AcDbEntity
  8
0
100
AcDbLine
 10
22.448089
 20
95.1678
 30
0.0
 11
22.516889
 21
94.7778
 31
0.0
  0
LINE
  5
3F
330
1E
100
AcDbEntity
  8
0
100
AcDbLine
 10
2.284749000000009
 20
97.9568
 30
0.0
 11
2.60356900000001
 21
96.14870000000001
 31
0.0
  0
LINE
  5
40
330
1E
100
AcDbEntity
  8
0
100
AcDbLine
 10
3.288309000000009
 20
98.02410000000001
 30
0.0
 11
3.619629000000009
 21
96.1451
 31
0.0
  0
LINE
  5
41
330
1E
100
AcDbEntity
  8
0
100
AcDbLine
 10
2.994499000000009
 20
99.69039999999999
 30
0.0
 11
3.437649000000009
 21
97.17719999999999
 31
0.0
  0
LINE
  5
42
330
1E
100
AcDbEntity
  8
0
100
AcDbLine
 10
1.92217000000001
 20
100.0129999999999
 30
0.0
 11
2.284749000000009
 21
97.9568
 31
0.0
  0
LINE
  5
43
330
1E
100
AcDbEntity
  8
0
100
AcDbLine
 10
2.913229000000009
 20
100.151
 30
0.0
 11
3.288309000000009
 21
98.02410000000001
 31
0.0
  0
LINE
  5
44
330
1E
100
AcDbEntity
  8
0
100
AcDbLine
 10
3.380899000000009
 20
99.71389999999999
 30
0.0
 11
3.839339000000009
 21
97.11399999999999
 31
0.0
  0
LINE
  5
45
330
1E
100
AcDbEntity
  8
0
100
AcDbLine
 10
20.808389
 20
100.106
 30
0.0
 11
21.213289
 21
97.8095
 31
0.0
  0
LINE
  5
46
330
1E
100
AcDbEntity
  8
0
100
AcDbLine
 10
21.213289
 20
97.8095
 30
0.0
 11
21.518889
 21
96.0762
 31
0.0
  0
LINE
  5
47
330
1E
100
AcDbEntity
  8
0
100
AcDbLine
 10
21.553889
 20
98.0929
 30
0.0
 11
21.85178899999999
 21
96.40299999999999
 31
0.0
  0
LINE
  5
48
330
1E
100
AcDbEntity
  8
0
100
AcDbLine
 10
21.164189
 20
100.303
 30
0.0
 11
21.553889
 21
98.0929
 31
0.0
  0
LINE
  5
49
330
1E
100
AcDbEntity
  8
0
100
AcDbLine
 10
21.554189
 20
100.238
 30
0.0
 11
21.959089
 21
97.941
 31
0.0
  0
LINE
  5
4A
330
1E
100
AcDbEntity
  8
0
100
AcDbLine
 10
21.959089
 20
97.941
 30
0.0
 11
22.26468899999999
 21
96.2077
 31
0.0
  0
LINE
  5
4B
330
1E
100
AcDbEntity
  8
0
100
AcDbLine
 10
1.52833600000001
 20
102.247
 30
0.0
 11
1.92217000000001
 21
100.0129999999999
 31
0.0
  0
LINE
  5
4C
330
1E
100
AcDbEntity
  8
0
100
AcDbLine
 10
2.513149000000009
 20
102.4199999999999
 30
0.0
 11
2.994499000000009
 21
99.69039999999999
 31
0.0
  0
LINE
  5
4D
330
1E
100
AcDbEntity
  8
0
100
AcDbLine
 10
2.513149000000009
 20
102.4199999999999
 30
0.0
 11
2.913229000000009
 21
100.151
 31
0.0
  0
LINE
  5
4E
330
1E
100
AcDbEntity
  8
0
100
AcDbLine
 10
2.891909000000009
 20
102.487
 30
0.0
 11
3.380899000000009
 21
99.71389999999999
 31
0.0
  0
LINE
  5
4F
330
1E
100
AcDbEntity
  8
0
100
AcDbLine
 10
20.349889
 20
102.706
 30
0.0
 11
20.808389
 21
100.106
 31
0.0
  0
LINE
  5
50
330
1E
100
AcDbEntity
  8
0
100
AcDbLine
 10
20.720989
 20
102.8159999999999
 30
0.0
 11
21.164189
 21
100.303
 31
0.0
  0
LINE
  5
51
330
1E
100
AcDbEntity
  8
0
100
AcDbLine
 10
28.0165859205783
 20
101.752286871991
 30
0.0
 11
28.188389
 21
100.7779999999999
 31
0.0
  0
LINE
  5
52
330
1E
100
AcDbEntity
  8
0
100
AcDbLine
 10
28.01658592057819
 20
101.752286871991
 30
0.0
 11
28.188389
 21
100.7779999999999
 31
0.0
  0
LINE
  5
53
330
1E
100
AcDbEntity
  8
0
100
AcDbLine
 10
21.095689
 20
102.837
 30
0.0
 11
21.554189
 21
100.238
 31
0.0
  0
LINE
  5
54
330
1E
100
AcDbEntity
  8
0
100
AcDbLine
 10
1.134502000000009
 20
104.4799999999999
 30
0.0
 11
1.52833600000001
 21
102.247
 31
0.0
  0
LINE
  5
55
330
1E
100
AcDbEntity
  8
0
100
AcDbLine
 10
2.11305900000001
 20
104.6889999999999
 30
0.0
 11
2.513148999999549
 21
102.4200000000029
 31
0.0
  0
LINE
  5
56
330
1E
100
AcDbEntity
  8
0
100
AcDbLine
 10
2.03178900000001
 20
105.15
 30
0.0
 11
2.513149000000009
 21
102.4199999999999
 31
0.0
  0
LINE
  5
57
330
1E
100
AcDbEntity
  8
0
100
AcDbLine
 10
2.40291900000001
 20
105.2599999999999
 30
0.0
 11
2.891909000000009
 21
102.487
 31
0.0
  0
LINE
  5
58
330
1E
100
AcDbEntity
  8
0
100
AcDbLine
 10
19.860889
 20
105.479
 30
0.0
 11
20.349889
 21
102.706
 31
0.0
  0
LINE
  5
59
330
1E
100
AcDbEntity
  8
0
100
AcDbLine
 10
0.7719250000000072
 20
106.536
 30
0.0
 11
1.134502000000009
 21
104.4799999999999
 31
0.0
  0
LINE
  5
5A
330
1E
100
AcDbEntity
  8
0
100
AcDbLine
 10
20.239689
 20
105.546
 30
0.0
 11
20.720989
 21
102.8159999999999
 31
0.0
  0
LINE
  5
5B
330
1E
100
AcDbEntity
  8
0
100
AcDbLine
 10
27.444489
 20
104.997
 30
0.0
 11
27.5000699523716
 21
104.6817619048149
 31
0.0
  0
LINE
  5
5C
330
1E
100
AcDbEntity
  8
0
100
AcDbLine
 10
20.606689
 20
105.611
 30
0.0
 11
21.095689
 21
102.837
 31
0.0
  0
LINE
  5
5D
330
1E
100
AcDbEntity
  8
0
100
AcDbLine
 10
0.453107000000007
 20
108.345
 30
0.0
 11
0.7719250000000072
 21
106.536
 31
0.0
  0
LINE
  5
5E
330
1E
100
AcDbEntity
  8
0
100
AcDbLine
 10
0.209305000000007
 20
109.7269999999999
 30
0.0
 11
0.453107000000007
 21
108.345
 31
0.0
  0
LINE
  5
5F
330
1E
100
AcDbEntity
  8
0
100
AcDbLine
 10
0.059273000000007
 20
110.5779999999999
 30
0.0
 11
0.209305000000007
 21
109.7269999999999
 31
0.0
  0
LINE
  5
60
330
1E
100
AcDbEntity
  8
0
100
AcDbLine
 10
0.0030110000000069
 20
110.897
 30
0.0
 11
0.344274000000007
 21
111.177
 31
0.0
  0
LINE
  5
61
330
1E
100
AcDbEntity
  8
0
100
AcDbLine
 10
0.0030110000000069
 20
110.897
 30
0.0
 11
0.059273000000007
 21
110.5779999999999
 31
0.0
  0
LINE
  5
62
330
1E
100
AcDbEntity
  8
0
100
AcDbLine
 10
0.344274000000007
 20
111.177
 30
0.0
 11
0.9501910170268198
 21
111.2839789927029
 31
0.0
  0
LINE
  5
63
330
1E
100
AcDbEntity
  8
0
100
AcDbLine
 10
0.344274000000007
 20
111.177
 30
0.0
 11
0.9501910170268198
 21
111.2839789927029
 31
0.0
  0
LINE
  5
64
330
1E
100
AcDbEntity
  8
0
100
AcDbLine
 10
0.9009940000000071
 20
111.5629999999999
 30
0.0
 11
1.198975000000009
 21
109.8729999999999
 31
0.0
  0
LINE
  5
65
330
1E
100
AcDbEntity
  8
0
100
AcDbLine
 10
0.9009940000000071
 20
111.5629999999999
 30
0.0
 11
0.9501910170268198
 21
111.2839789927029
 31
0.0
  0
LINE
  5
66
330
1E
100
AcDbEntity
  8
0
100
AcDbLine
 10
0.7176220000000072
 20
112.6029999999999
 30
0.0
 11
0.9009940000000071
 21
111.5629999999999
 31
0.0
  0
LINE
  5
67
330
1E
100
AcDbEntity
  8
0
100
AcDbLine
 10
0.6488570000000072
 20
112.9929999999999
 30
0.0
 11
0.7176220000000072
 21
112.6029999999999
 31
0.0
  0
LINE
  5
68
330
1E
100
AcDbEntity
  8
0
100
AcDbLine
 10
0.6488570000000072
 20
112.9929999999999
 30
0.0
 11
0.981781000000007
 21
113.3199999999999
 31
0.0
  0
LINE
  5
69
330
1E
100
AcDbEntity
  8
0
100
AcDbLine
 10
0.9933336016151478
 20
111.039295714393
 30
0.0
 11
1.00657200000001
 21
110.9639999999999
 31
0.0
  0
LINE
  5
6A
330
1E
100
AcDbEntity
  8
0
100
AcDbLine
 10
1.00657200000001
 20
110.9639999999999
 30
0.0
 11
1.041993276571909
 21
110.7633222440139
 31
0.0
  0
LINE
  5
6B
330
1E
100
AcDbEntity
  8
0
100
AcDbLine
 10
0.99333360161515
 20
111.039295714393
 30
0.0
 11
1.041993276571919
 21
110.7633222440139
 31
0.0
  0
LINE
  5
6C
330
1E
100
AcDbEntity
  8
0
100
AcDbLine
 10
0.99333360161515
 20
111.039295714393
 30
0.0
 11
1.041993276571909
 21
110.7633222440139
 31
0.0
  0
LINE
  5
6D
330
1E
100
AcDbEntity
  8
0
100
AcDbLine
 10
1.198975000000009
 20
109.8729999999999
 30
0.0
 11
1.58864100000001
 21
107.6629999999999
 31
0.0
  0
LINE
  5
6E
330
1E
100
AcDbEntity
  8
0
100
AcDbLine
 10
1.73797800000001
 20
106.8159999999999
 30
0.0
 11
2.11305900000001
 21
104.6889999999999
 31
0.0
  0
LINE
  5
6F
330
1E
100
AcDbEntity
  8
0
100
AcDbLine
 10
1.40665800000001
 20
108.6949999999999
 30
0.0
 11
1.73797800000001
 21
106.8159999999999
 31
0.0
  0
LINE
  5
70
330
1E
100
AcDbEntity
  8
0
100
AcDbLine
 10
1.36945710464093
 20
108.9061066830149
 30
0.0
 11
1.40665800000001
 21
108.6949999999999
 31
0.0
  0
LINE
  5
71
330
1E
100
AcDbEntity
  8
0
100
AcDbLine
 10
1.369457104640919
 20
108.9061066830149
 30
0.0
 11
1.58864100000001
 21
107.6629999999999
 31
0.0
  0
LINE
  5
72
330
1E
100
AcDbEntity
  8
0
100
AcDbLine
 10
1.369457104640839
 20
108.9061066830149
 30
0.0
 11
1.58864100000001
 21
107.6629999999999
 31
0.0
  0
LINE
  5
73
330
1E
100
AcDbEntity
  8
0
100
AcDbLine
 10
1.58864100000001
 20
107.6629999999999
 30
0.0
 11
2.03178900000001
 21
105.15
 31
0.0
  0
LINE
  5
74
330
1E
100
AcDbEntity
  8
0
100
AcDbLine
 10
1.94448600000001
 20
107.86
 30
0.0
 11
2.40291900000001
 21
105.2599999999999
 31
0.0
  0
LINE
  5
75
330
1E
100
AcDbEntity
  8
0
100
AcDbLine
 10
1.53953900000001
 20
110.157
 30
0.0
 11
1.94448600000001
 21
107.86
 31
0.0
  0
LINE
  5
76
330
1E
100
AcDbEntity
  8
0
100
AcDbLine
 10
1.23391800000001
 20
111.89
 30
0.0
 11
1.53953900000001
 21
110.157
 31
0.0
  0
LINE
  5
77
330
1E
100
AcDbEntity
  8
0
100
AcDbLine
 10
1.050546000000009
 20
112.93
 30
0.0
 11
1.23391800000001
 21
111.89
 31
0.0
  0
LINE
  5
78
330
1E
100
AcDbEntity
  8
0
100
AcDbLine
 10
0.981781000000006
 20
113.3199999999999
 30
0.0
 11
17.950789
 21
116.312
 31
0.0
  0
LINE
  5
79
330
1E
100
AcDbEntity
  8
0
100
AcDbLine
 10
18.202889
 20
114.882
 30
0.0
 11
18.508589
 21
113.149
 31
0.0
  0
LINE
  5
7A
330
1E
100
AcDbEntity
  8
0
100
AcDbLine
 10
18.01958899999999
 20
115.922
 30
0.0
 11
18.202889
 21
114.882
 31
0.0
  0
LINE
  5
7B
330
1E
100
AcDbEntity
  8
0
100
AcDbLine
 10
0.981781000000007
 20
113.3199999999999
 30
0.0
 11
1.050546000000009
 21
112.93
 31
0.0
  0
LINE
  5
7C
330
1E
100
AcDbEntity
  8
0
100
AcDbLine
 10
0.981781000000007
 20
113.3199999999999
 30
0.0
 11
17.950789
 21
116.312
 31
0.0
  0
LINE
  5
7D
330
1E
100
AcDbEntity
  8
0
100
AcDbLine
 10
18.508589
 20
113.149
 30
0.0
 11
18.913489
 21
110.852
 31
0.0
  0
LINE
  5
7E
330
1E
100
AcDbEntity
  8
0
100
AcDbLine
 10
18.627489
 20
114.6889999999999
 30
0.0
 11
18.925489
 21
112.999
 31
0.0
  0
LINE
  5
7F
330
1E
100
AcDbEntity
  8
0
100
AcDbLine
 10
18.444189
 20
115.7289999999999
 30
0.0
 11
18.627489
 21
114.6889999999999
 31
0.0
  0
LINE
  5
80
330
1E
100
AcDbEntity
  8
0
100
AcDbLine
 10
17.950789
 20
116.312
 30
0.0
 11
18.01958899999999
 21
115.922
 31
0.0
  0
LINE
  5
81
330
1E
100
AcDbEntity
  8
0
100
AcDbLine
 10
17.950789
 20
116.312
 30
0.0
 11
18.375389
 21
116.1189999999999
 31
0.0
  0
LINE
  5
82
330
1E
100
AcDbEntity
  8
0
100
AcDbLine
 10
18.375389
 20
116.1189999999999
 30
0.0
 11
18.444189
 21
115.7289999999999
 31
0.0
  0
LINE
  5
83
330
1E
100
AcDbEntity
  8
0
100
AcDbLine
 10
18.375389
 20
116.1189999999999
 30
0.0
 11
18.696589
 21
116.444
 31
0.0
  0
LINE
  5
84
330
1E
100
AcDbEntity
  8
0
100
AcDbLine
 10
18.913489
 20
110.852
 30
0.0
 11
19.371889
 21
108.252
 31
0.0
  0
LINE
  5
85
330
1E
100
AcDbEntity
  8
0
100
AcDbLine
 10
18.925489
 20
112.999
 30
0.0
 11
19.315189
 21
110.789
 31
0.0
  0
LINE
  5
86
330
1E
100
AcDbEntity
  8
0
100
AcDbLine
 10
19.371889
 20
108.252
 30
0.0
 11
19.860889
 21
105.479
 31
0.0
  0
LINE
  5
87
330
1E
100
AcDbEntity
  8
0
100
AcDbLine
 10
19.315189
 20
110.789
 30
0.0
 11
19.758289
 21
108.276
 31
0.0
  0
LINE
  5
88
330
1E
100
AcDbEntity
  8
0
100
AcDbLine
 10
19.758289
 20
108.276
 30
0.0
 11
20.239689
 21
105.546
 31
0.0
  0
LINE
  5
89
330
1E
100
AcDbEntity
  8
0
100
AcDbLine
 10
26.208789
 20
112.0049999999999
 30
0.0
 11
26.651989
 21
109.491
 31
0.0
  0
LINE
  5
8A
330
1E
100
AcDbEntity
  8
0
100
AcDbLine
 10
26.822189
 20
108.526
 30
0.0
 11
27.133289
 21
106.761
 31
0.0
  0
LINE
  5
8B
330
1E
100
AcDbEntity
  8
0
100
AcDbLine
 10
26.4509578266223
 20
110.631325744295
 30
0.0
 11
26.530389
 21
110.1809999999999
 31
0.0
  0
LINE
  5
8C
330
1E
100
AcDbEntity
  8
0
100
AcDbLine
 10
26.530389
 20
110.1809999999999
 30
0.0
 11
26.822189
 21
108.526
 31
0.0
  0
LINE
  5
8D
330
1E
100
AcDbEntity
  8
0
100
AcDbLine
 10
26.4509578266223
 20
110.631325744295
 30
0.0
 11
26.530389
 21
110.1809999999999
 31
0.0
  0
LINE
  5
8E
330
1E
100
AcDbEntity
  8
0
100
AcDbLine
 10
26.651989
 20
109.491
 30
0.0
 11
27.133289
 21
106.761
 31
0.0
  0
LINE
  5
8F
330
1E
100
AcDbEntity
  8
0
100
AcDbLine
 10
26.277289
 20
109.47
 30
0.0
 11
26.766289
 21
106.6969999999999
 31
0.0
  0
LINE
  5
90
330
1E
100
AcDbEntity
  8
0
100
AcDbLine
 10
20.117689
 20
108.384
 30
0.0
 11
20.606689
 21
105.611
 31
0.0
  0
LINE
  5
91
330
1E
100
AcDbEntity
  8
0
100
AcDbLine
 10
19.659289
 20
110.9839999999999
 30
0.0
 11
20.117689
 21
108.384
 31
0.0
  0
LINE
  5
92
330
1E
100
AcDbEntity
  8
0
100
AcDbLine
 10
25.9179074892624
 20
113.6550208899649
 30
0.0
 11
28.24295371389519
 21
114.064932574424
 31
0.0
  0
LINE
  5
93
330
1E
100
AcDbEntity
  8
0
100
AcDbLine
 10
25.819189
 20
114.2149999999999
 30
0.0
 11
26.208789
 21
112.0049999999999
 31
0.0
  0
LINE
  5
94
330
1E
100
AcDbEntity
  8
0
100
AcDbLine
 10
25.818889
 20
112.07
 30
0.0
 11
26.277289
 21
109.47
 31
0.0
  0
LINE
  5
95
330
1E
100
AcDbEntity
  8
0
100
AcDbLine
 10
19.25438899999999
 20
113.28
 30
0.0
 11
19.659289
 21
110.9839999999999
 31
0.0
  0
LINE
  5
96
330
1E
100
AcDbEntity
  8
0
100
AcDbLine
 10
25.52118899999999
 20
115.904
 30
0.0
 11
25.819189
 21
114.2149999999999
 31
0.0
  0
LINE
  5
97
330
1E
100
AcDbEntity
  8
0
100
AcDbLine
 10
25.413889
 20
114.366
 30
0.0
 11
25.818889
 21
112.07
 31
0.0
  0
LINE
  5
98
330
1E
100
AcDbEntity
  8
0
100
AcDbLine
 10
18.948689
 20
115.0139999999999
 30
0.0
 11
19.25438899999999
 21
113.28
 31
0.0
  0
LINE
  5
99
330
1E
100
AcDbEntity
  8
0
100
AcDbLine
 10
25.337789
 20
116.944
 30
0.0
 11
25.52118899999999
 21
115.904
 31
0.0
  0
LINE
  5
9A
330
1E
100
AcDbEntity
  8
0
100
AcDbLine
 10
25.108289
 20
116.1
 30
0.0
 11
25.413889
 21
114.366
 31
0.0
  0
LINE
  5
9B
330
1E
100
AcDbEntity
  8
0
100
AcDbLine
 10
18.765389
 20
116.054
 30
0.0
 11
18.948689
 21
115.0139999999999
 31
0.0
  0
LINE
  5
9C
330
1E
100
AcDbEntity
  8
0
100
AcDbLine
 10
25.269089
 20
117.334
 30
0.0
 11
25.337789
 21
116.944
 31
0.0
  0
LINE
  5
9D
330
1E
100
AcDbEntity
  8
0
100
AcDbLine
 10
24.924889
 20
117.1399999999999
 30
0.0
 11
25.108289
 21
116.1
 31
0.0
  0
LINE
  5
9E
330
1E
100
AcDbEntity
  8
0
100
AcDbLine
 10
18.696589
 20
116.444
 30
0.0
 11
18.765389
 21
116.054
 31
0.0
  0
LINE
  5
9F
330
1E
100
AcDbEntity
  8
0
100
AcDbLine
 10
18.696589
 20
116.444
 30
0.0
 11
24.856189
 21
117.53
 31
0.0
  0
LINE
  5
A0
330
1E
100
AcDbEntity
  8
0
100
AcDbLine
 10
24.856189
 20
117.53
 30
0.0
 11
24.924889
 21
117.1399999999999
 31
0.0
  0
LINE
  5
A1
330
1E
100
AcDbEntity
  8
0
100
AcDbLine
 10
24.856189
 20
117.53
 30
0.0
 11
25.269089
 21
117.334
 31
0.0
  0
LINE
  5
A2
330
1E
100
AcDbEntity
  8
0
100
AcDbLine
 10
27.133289
 20
106.761
 30
0.0
 11
27.614689
 21
104.032
 31
0.0
  0
LINE
  5
A3
330
1E
100
AcDbEntity
  8
0
100
AcDbLine
 10
27.133289
 20
106.761
 30
0.0
 11
27.5000699523716
 21
104.6817619048149
 31
0.0
  0
LINE
  5
A4
330
1E
100
AcDbEntity
  8
0
100
AcDbLine
 10
27.133289
 20
106.761
 30
0.0
 11
27.444489
 21
104.997
 31
0.0
  0
LINE
  5
A5
330
1E
100
AcDbEntity
  8
0
100
AcDbLine
 10
26.766289
 20
106.6969999999999
 30
0.0
 11
27.255289
 21
103.9239999999999
 31
0.0
  0
LINE
  5
A6
330
1E
100
AcDbEntity
  8
0
100
AcDbLine
 10
27.614689
 20
104.032
 30
0.0
 11
28.057889
 21
101.5179999999999
 31
0.0
  0
LINE
  5
A7
330
1E
100
AcDbEntity
  8
0
100
AcDbLine
 10
27.255289
 20
103.9239999999999
 30
0.0
 11
27.713689
 21
101.3239999999999
 31
0.0
  0
LINE
  5
A8
330
1E
100
AcDbEntity
  8
0
100
AcDbLine
 10
28.061189
 20
117.8639999999999
 30
0.0
 11
28.432189
 21
118.9189999999999
 31
0.0
  0
LINE
  5
AA
330
1E
100
AcDbEntity
  8
0
100
AcDbLine
 10
28.061189
 20
117.8639999999999
 30
0.0
 11
28.24010275730429
 21
114.0644299433769
 31
0.0
  0
LINE
  5
AB
330
1E
100
AcDbEntity
  8
0
100
AcDbLine
 10
28.057889
 20
101.5179999999999
 30
0.0
 11
28.447489
 21
99.30849999999999
 31
0.0
  0
LINE
  5
AC
330
1E
100
AcDbEntity
  8
0
100
AcDbLine
 10
27.713689
 20
101.3239999999999
 30
0.0
 11
28.118689
 21
99.0271
 31
0.0
  0
LINE
  5
AD
330
1E
100
AcDbEntity
  8
0
100
AcDbLine
 10
28.3137756709603
 20
100.066815196389
 30
0.0
 11
28.348889
 21
99.868
 31
0.0
  0
LINE
  5
B0
330
1E
100
AcDbEntity
  8
0
100
AcDbLine
 10
28.188389
 20
100.7779999999999
 30
0.0
 11
28.2510790826455
 21
100.4223801652849
 31
0.0
  0
LINE
  5
B1
330
1E
100
AcDbEntity
  8
0
100
AcDbLine
 10
28.188389
 20
100.7779999999999
 30
0.0
 11
28.2510790826455
 21
100.422380165284
 31
0.0
  0
LINE
  5
B5
330
1E
100
AcDbEntity
  8
0
100
AcDbLine
 10
28.348889
 20
99.868
 30
0.0
 11
30.7477849899474
 21
100.2909369580159
 31
0.0
  0
LINE
  5
B6
330
1E
100
AcDbEntity
  8
0
100
AcDbLine
 10
28.3137756709603
 20
100.066815196389
 30
0.0
 11
28.348889
 21
99.868
 31
0.0
  0
LINE
  5
B7
330
1E
100
AcDbEntity
  8
0
100
AcDbLine
 10
28.447489
 20
99.30849999999999
 30
0.0
 11
28.745489
 21
97.6185
 31
0.0
  0
LINE
  5
B8
330
1E
100
AcDbEntity
  8
0
100
AcDbLine
 10
28.118689
 20
99.0271
 30
0.0
 11
28.424289
 21
97.2938
 31
0.0
  0
LINE
  5
B9
330
1E
100
AcDbEntity
  8
0
100
AcDbLine
 10
28.424289
 20
97.2938
 30
0.0
 11
28.607689
 21
96.25390000000001
 31
0.0
  0
LINE
  5
BA
330
1E
100
AcDbEntity
  8
0
100
AcDbLine
 10
28.676389
 20
95.86389999999999
 30
0.0
 11
28.997589
 21
96.18859999999999
 31
0.0
  0
LINE
  5
BD
330
1E
100
AcDbEntity
  8
0
100
AcDbLine
 10
30.7254573983045
 20
100.28700049569
 30
0.0
 11
30.913089
 21
100.051
 31
0.0
  0
LINE
  5
BE
330
1E
100
AcDbEntity
  8
0
100
AcDbLine
 10
30.913089
 20
100.051
 30
0.0
 11
32.086089
 21
99.04009999999999
 31
0.0
  0
LINE
  5
C1
330
1E
100
AcDbEntity
  8
0
100
AcDbLine
 10
32.086089
 20
99.04009999999999
 30
0.0
 11
33.390789
 21
98.2553
 31
0.0
  0
LINE
  5
C2
330
1E
100
AcDbEntity
  8
0
100
AcDbLine
 10
33.390789
 20
98.2553
 30
0.0
 11
35.030889
 21
97.62500000000001
 31
0.0
  0
LINE
  5
C5
330
1E
100
AcDbEntity
  8
0
100
AcDbLine
 10
35.030889
 20
97.62500000000001
 30
0.0
 11
36.956489
 21
97.4145
 31
0.0
  0
LINE
  5
C6
330
1E
100
AcDbEntity
  8
0
100
AcDbLine
 10
36.956489
 20
97.4145
 30
0.0
 11
51.928089
 21
95.7145
 31
0.0
  0
LINE
  5
CA
330
1E
100
AcDbEntity
  8
0
100
AcDbLine
 10
28.745489
 20
97.6185
 30
0.0
 11
28.928889
 21
96.57859999999999
 31
0.0
  0
LINE
  5
CB
330
1E
100
AcDbEntity
  8
0
100
AcDbLine
 10
28.928889
 20
96.57859999999999
 30
0.0
 11
28.997589
 21
96.18859999999999
 31
0.0
  0
LINE
  5
CC
330
1E
100
AcDbEntity
  8
0
100
AcDbLine
 10
28.607689
 20
96.25390000000001
 30
0.0
 11
28.676389
 21
95.86389999999999
 31
0.0
  0
LINE
  5
D1
330
1E
100
AcDbEntity
  8
0
100
AcDbLine
 10
29.361789
 20
119.54
 30
0.0
 11
29.413789
 21
119.546
 31
0.0
  0
LINE
  5
E2
330
1E
100
AcDbEntity
  8
0
100
AcDbLine
 10
28.432189
 20
118.9189999999999
 30
0.0
 11
29.361789
 21
119.54
 31
0.0
  0
LINE
  5
E4
330
1E
100
AcDbEntity
  8
0
100
AcDbLine
 10
51.928089
 20
95.7145
 30
0.0
 11
60.551589
 21
93.4111
 31
0.0
  0
LINE
  5
E6
330
1E
100
AcDbEntity
  8
0
100
AcDbLine
 10
37.049789
 20
119.879
 30
0.0
 11
48.693189
 21
120.6479999999999
 31
0.0
  0
LINE
  5
E7
330
1E
100
AcDbEntity
  8
0
100
AcDbLine
 10
48.693189
 20
120.6479999999999
 30
0.0
 11
58.360989
 21
121.0679999999999
 31
0.0
  0
LINE
  5
E8
330
1E
100
AcDbEntity
  8
0
100
AcDbLine
 10
76.984589
 20
83.3946
 30
0.0
 11
81.033789
 21
77.88800000000001
 31
0.0
  0
LINE
  5
E9
330
1E
100
AcDbEntity
  8
0
100
AcDbLine
 10
60.551589
 20
93.4111
 30
0.0
 11
66.445389
 21
90.6888
 31
0.0
  0
LINE
  5
EA
330
1E
100
AcDbEntity
  8
0
100
AcDbLine
 10
66.445389
 20
90.6888
 30
0.0
 11
71.939689
 21
87.44150000000001
 31
0.0
  0
LINE
  5
EB
330
1E
100
AcDbEntity
  8
0
100
AcDbLine
 10
71.939689
 20
87.44150000000001
 30
0.0
 11
76.984589
 21
83.3946
 31
0.0
  0
LINE
  5
EE
330
1E
100
AcDbEntity
  8
0
100
AcDbLine
 10
58.360989
 20
121.0679999999999
 30
0.0
 11
68.44928900000001
 21
121.3679999999999
 31
0.0
  0
LINE
  5
EF
330
1E
100
AcDbEntity
  8
0
100
AcDbLine
 10
68.44928900000001
 20
121.3679999999999
 30
0.0
 11
77.816889
 21
121.5479999999999
 31
0.0
  0
LINE
  5
F0
330
1E
100
AcDbEntity
  8
0
100
AcDbLine
 10
129.5649889999999
 20
-0.155000000000019
 30
0.0
 11
132.0609889999999
 21
-0.155000000000019
 31
0.0
  0
LINE
  5
F1
330
1E
100
AcDbEntity
  8
0
100
AcDbLine
 10
88.58898899999999
 20
-0.155000000000017
 30
0.0
 11
94.10098899999999
 21
-0.155000000000017
 31
0.0
  0
LINE
  5
F2
330
1E
100
AcDbEntity
  8
0
100
AcDbLine
 10
100.340989
 20
-0.155000000000017
 30
0.0
 11
106.9969889999999
 21
-0.155000000000018
 31
0.0
  0
LINE
  5
F3
330
1E
100
AcDbEntity
  8
0
100
AcDbLine
 10
94.10098899999999
 20
-0.155000000000017
 30
0.0
 11
100.340989
 21
-0.155000000000017
 31
0.0
  0
LINE
  5
F4
330
1E
100
AcDbEntity
  8
0
100
AcDbLine
 10
84.42898900000001
 20
-0.155000000000016
 30
0.0
 11
88.58898899999999
 21
-0.155000000000017
 31
0.0
  0
LINE
  5
F5
330
1E
100
AcDbEntity
  8
0
100
AcDbLine
 10
81.932989
 20
-0.155000000000016
 30
0.0
 11
84.42898900000001
 21
-0.155000000000016
 31
0.0
  0
LINE
  5
F6
330
1E
100
AcDbEntity
  8
0
100
AcDbLine
 10
106.9969889999999
 20
4.54499999999998
 30
0.0
 11
113.652989
 21
4.54499999999998
 31
0.0
  0
LINE
  5
F7
330
1E
100
AcDbEntity
  8
0
100
AcDbLine
 10
100.340989
 20
4.54499999999998
 30
0.0
 11
106.9969889999999
 21
4.54499999999998
 31
0.0
  0
LINE
  5
F8
330
1E
100
AcDbEntity
  8
0
100
AcDbLine
 10
94.10098899999999
 20
4.54499999999998
 30
0.0
 11
100.340989
 21
4.54499999999998
 31
0.0
  0
LINE
  5
F9
330
1E
100
AcDbEntity
  8
0
100
AcDbLine
 10
88.58898899999999
 20
4.54499999999998
 30
0.0
 11
94.10098899999999
 21
4.54499999999998
 31
0.0
  0
LINE
  5
FA
330
1E
100
AcDbEntity
  8
0
100
AcDbLine
 10
84.42898900000001
 20
4.54499999999998
 30
0.0
 11
88.58898899999999
 21
4.54499999999998
 31
0.0
  0
LINE
  5
FB
330
1E
100
AcDbEntity
  8
0
100
AcDbLine
 10
81.033789
 20
77.88800000000001
 30
0.0
 11
83.09158899999999
 21
68.9316
 31
0.0
  0
LINE
  5
FC
330
1E
100
AcDbEntity
  8
0
100
AcDbLine
 10
83.296989
 20
4.84499999999998
 30
0.0
 11
83.49698899999999
 21
8.844999999999981
 31
0.0
  0
LINE
  5
FD
330
1E
100
AcDbEntity
  8
0
100
AcDbLine
 10
106.9969889999999
 20
4.84499999999998
 30
0.0
 11
113.5489889999999
 21
4.84499999999998
 31
0.0
  0
LINE
  5
FE
330
1E
100
AcDbEntity
  8
0
100
AcDbLine
 10
98.17698900000001
 20
4.84499999999998
 30
0.0
 11
101.152989
 21
4.84499999999998
 31
0.0
  0
LINE
  5
FF
330
1E
100
AcDbEntity
  8
0
100
AcDbLine
 10
95.392989
 20
4.84499999999998
 30
0.0
 11
98.17698900000001
 21
4.84499999999998
 31
0.0
  0
LINE
  5
100
330
1E
100
AcDbEntity
  8
0
100
AcDbLine
 10
100.444989
 20
4.84499999999998
 30
0.0
 11
106.9969889999999
 21
4.84499999999998
 31
0.0
  0
LINE
  5
101
330
1E
100
AcDbEntity
  8
0
100
AcDbLine
 10
94.41298899999999
 20
4.84499999999998
 30
0.0
 11
100.444989
 21
4.84499999999998
 31
0.0
  0
LINE
  5
102
330
1E
100
AcDbEntity
  8
0
100
AcDbLine
 10
94.41298899999999
 20
4.84499999999998
 30
0.0
 11
95.392989
 21
4.84499999999998
 31
0.0
  0
LINE
  5
103
330
1E
100
AcDbEntity
  8
0
100
AcDbLine
 10
85.216989
 20
4.84499999999998
 30
0.0
 11
86.464989
 21
4.84499999999998
 31
0.0
  0
LINE
  5
104
330
1E
100
AcDbEntity
  8
0
100
AcDbLine
 10
89.10898900000001
 20
4.84499999999998
 30
0.0
 11
94.41298899999999
 21
4.84499999999998
 31
0.0
  0
LINE
  5
105
330
1E
100
AcDbEntity
  8
0
100
AcDbLine
 10
85.05298899999999
 20
4.84499999999998
 30
0.0
 11
89.10898900000001
 21
4.84499999999998
 31
0.0
  0
LINE
  5
106
330
1E
100
AcDbEntity
  8
0
100
AcDbLine
 10
85.05298899999999
 20
4.84499999999998
 30
0.0
 11
85.216989
 21
4.84499999999998
 31
0.0
  0
LINE
  5
107
330
1E
100
AcDbEntity
  8
0
100
AcDbLine
 10
83.49698899999999
 20
8.844999999999981
 30
0.0
 11
83.69698900000001
 21
23.845
 31
0.0
  0
LINE
  5
108
330
1E
100
AcDbEntity
  8
0
100
AcDbLine
 10
83.79698899999999
 20
53.845
 30
0.0
 11
83.79698899999999
 21
38.845
 31
0.0
  0
LINE
  5
109
330
1E
100
AcDbEntity
  8
0
100
AcDbLine
 10
83.79698899999999
 20
38.845
 30
0.0
 11
83.79698899999999
 21
53.845
 31
0.0
  0
LINE
  5
10A
330
1E
100
AcDbEntity
  8
0
100
AcDbLine
 10
83.69698900000001
 20
23.845
 30
0.0
 11
83.79698899999999
 21
38.845
 31
0.0
  0
LINE
  5
10B
330
1E
100
AcDbEntity
  8
0
100
AcDbLine
 10
83.09158899999999
 20
68.9316
 30
0.0
 11
83.79698899999999
 21
53.845
 31
0.0
  0
LINE
  5
10C
330
1E
100
AcDbEntity
  8
0
100
AcDbLine
 10
82.556989
 20
4.84499999999998
 30
0.0
 11
85.05298899999999
 21
4.84499999999998
 31
0.0
  0
LINE
  5
10D
330
1E
100
AcDbEntity
  8
0
100
AcDbLine
 10
81.620989
 20
4.84499999999998
 30
0.0
 11
82.556989
 21
4.84499999999998
 31
0.0
  0
LINE
  5
10E
330
1E
100
AcDbEntity
  8
0
100
AcDbLine
 10
81.932989
 20
4.54499999999998
 30
0.0
 11
84.42898900000001
 21
4.54499999999998
 31
0.0
  0
LINE
  5
10F
330
1E
100
AcDbEntity
  8
0
100
AcDbLine
 10
80.99698899999999
 20
4.54499999999998
 30
0.0
 11
81.620989
 21
4.84499999999998
 31
0.0
  0
LINE
  5
110
330
1E
100
AcDbEntity
  8
0
100
AcDbLine
 10
80.99698899999999
 20
4.54499999999998
 30
0.0
 11
80.99698899999999
 21
-0.155000000000016
 31
0.0
  0
LINE
  5
111
330
1E
100
AcDbEntity
  8
0
100
AcDbLine
 10
80.99698899999999
 20
4.54499999999998
 30
0.0
 11
81.932989
 21
4.54499999999998
 31
0.0
  0
LINE
  5
112
330
1E
100
AcDbEntity
  8
0
100
AcDbLine
 10
80.99698899999999
 20
-0.155000000000016
 30
0.0
 11
81.932989
 21
-0.155000000000016
 31
0.0
  0
LINE
  5
113
330
1E
100
AcDbEntity
  8
0
100
AcDbLine
 10
80.99698899999999
 20
-0.155000000000016
 30
0.0
 11
80.99698899999999
 21
4.54499999999998
 31
0.0
  0
LINE
  5
114
330
1E
100
AcDbEntity
  8
0
100
AcDbLine
 10
113.652989
 20
4.54499999999998
 30
0.0
 11
119.8929889999999
 21
4.54499999999998
 31
0.0
  0
LINE
  5
115
330
1E
100
AcDbEntity
  8
0
100
AcDbLine
 10
113.5489889999999
 20
4.84499999999998
 30
0.0
 11
119.5809889999999
 21
4.84499999999998
 31
0.0
  0
LINE
  5
116
330
1E
100
AcDbEntity
  8
0
100
AcDbLine
 10
119.5809889999999
 20
4.84499999999998
 30
0.0
 11
124.884989
 21
4.84499999999998
 31
0.0
  0
LINE
  5
117
330
1E
100
AcDbEntity
  8
0
100
AcDbLine
 10
119.8929889999999
 20
4.54499999999998
 30
0.0
 11
125.4049889999999
 21
4.54499999999998
 31
0.0
  0
LINE
  5
118
330
1E
100
AcDbEntity
  8
0
100
AcDbLine
 10
106.9969889999999
 20
-0.155000000000018
 30
0.0
 11
113.652989
 21
-0.155000000000018
 31
0.0
  0
LINE
  5
119
330
1E
100
AcDbEntity
  8
0
100
AcDbLine
 10
113.652989
 20
-0.155000000000018
 30
0.0
 11
119.8929889999999
 21
-0.155000000000019
 31
0.0
  0
LINE
  5
11A
330
1E
100
AcDbEntity
  8
0
100
AcDbLine
 10
125.4049889999999
 20
4.54499999999998
 30
0.0
 11
129.5649889999999
 21
4.54499999999998
 31
0.0
  0
LINE
  5
11B
330
1E
100
AcDbEntity
  8
0
100
AcDbLine
 10
129.5649889999999
 20
4.54499999999998
 30
0.0
 11
132.0609889999999
 21
4.54499999999998
 31
0.0
  0
LINE
  5
11C
330
1E
100
AcDbEntity
  8
0
100
AcDbLine
 10
124.884989
 20
4.84499999999998
 30
0.0
 11
128.9409889999999
 21
4.84499999999998
 31
0.0
  0
LINE
  5
11D
330
1E
100
AcDbEntity
  8
0
100
AcDbLine
 10
130.196989
 20
53.845
 30
0.0
 11
130.196989
 21
38.845
 31
0.0
  0
LINE
  5
11E
330
1E
100
AcDbEntity
  8
0
100
AcDbLine
 10
130.196989
 20
53.845
 30
0.0
 11
130.2969889999999
 21
68.845
 31
0.0
  0
LINE
  5
11F
330
1E
100
AcDbEntity
  8
0
100
AcDbLine
 10
130.2969889999999
 20
68.845
 30
0.0
 11
130.4969889999999
 21
83.845
 31
0.0
  0
LINE
  5
120
330
1E
100
AcDbEntity
  8
0
100
AcDbLine
 10
130.4969889999999
 20
83.845
 30
0.0
 11
130.6969889999999
 21
98.845
 31
0.0
  0
LINE
  5
121
330
1E
100
AcDbEntity
  8
0
100
AcDbLine
 10
130.196989
 20
38.845
 30
0.0
 11
130.2969889999999
 21
23.845
 31
0.0
  0
LINE
  5
122
330
1E
100
AcDbEntity
  8
0
100
AcDbLine
 10
130.196989
 20
38.845
 30
0.0
 11
130.196989
 21
53.845
 31
0.0
  0
LINE
  5
123
330
1E
100
AcDbEntity
  8
0
100
AcDbLine
 10
130.2969889999999
 20
23.845
 30
0.0
 11
130.4969889999999
 21
8.844999999999981
 31
0.0
  0
LINE
  5
124
330
1E
100
AcDbEntity
  8
0
100
AcDbLine
 10
130.6969889999999
 20
98.845
 30
0.0
 11
130.9969889999999
 21
104.845
 31
0.0
  0
LINE
  5
125
330
1E
100
AcDbEntity
  8
0
100
AcDbLine
 10
130.9969889999999
 20
104.845
 30
0.0
 11
131.9969889999999
 21
113.8449999999999
 31
0.0
  0
LINE
  5
126
330
1E
100
AcDbEntity
  8
0
100
AcDbLine
 10
130.4969889999999
 20
8.844999999999981
 30
0.0
 11
130.6969889999999
 21
4.84499999999998
 31
0.0
  0
LINE
  5
127
330
1E
100
AcDbEntity
  8
0
100
AcDbLine
 10
128.9409889999999
 20
4.84499999999998
 30
0.0
 11
131.4369889999999
 21
4.84499999999998
 31
0.0
  0
LINE
  5
128
330
1E
100
AcDbEntity
  8
0
100
AcDbLine
 10
131.9969889999999
 20
113.8449999999999
 30
0.0
 11
132.9969889999999
 21
120.3449999999999
 31
0.0
  0
LINE
  5
129
330
1E
100
AcDbEntity
  8
0
100
AcDbLine
 10
131.4369889999999
 20
4.84499999999998
 30
0.0
 11
132.3729889999999
 21
4.84499999999998
 31
0.0
  0
LINE
  5
12A
330
1E
100
AcDbEntity
  8
0
100
AcDbLine
 10
132.0609889999999
 20
4.54499999999998
 30
0.0
 11
132.9969889999999
 21
4.54499999999998
 31
0.0
  0
LINE
  5
12B
330
1E
100
AcDbEntity
  8
0
100
AcDbLine
 10
119.8929889999999
 20
-0.155000000000019
 30
0.0
 11
125.4049889999999
 21
-0.155000000000019
 31
0.0
  0
LINE
  5
12C
330
1E
100
AcDbEntity
  8
0
100
AcDbLine
 10
125.4049889999999
 20
-0.155000000000019
 30
0.0
 11
129.5649889999999
 21
-0.155000000000019
 31
0.0
  0
LINE
  5
12D
330
1E
100
AcDbEntity
  8
0
100
AcDbLine
 10
132.3729889999999
 20
4.84499999999998
 30
0.0
 11
132.9969889999999
 21
4.54499999999998
 31
0.0
  0
LINE
  5
12E
330
1E
100
AcDbEntity
  8
0
100
AcDbLine
 10
132.0609889999999
 20
-0.155000000000019
 30
0.0
 11
132.9969889999999
 21
-0.155000000000019
 31
0.0
  0
LINE
  5
140
330
1E
100
AcDbEntity
  8
0
100
AcDbLine
 10
77.816889
 20
121.5479999999999
 30
0.0
 11
83.11698900000001
 21
121.845
 31
0.0
  0
LINE
  5
141
330
1E
100
AcDbEntity
  8
0
100
AcDbLine
 10
94.758189
 20
201.245
 30
0.0
 11
95.07218899999999
 21
201.264
 31
0.0
  0
LINE
  5
142
330
1E
100
AcDbEntity
  8
0
100
AcDbLine
 10
94.65128900000001
 20
201.2389999999999
 30
0.0
 11
101.8769081442709
 21
123.2261581668049
 31
0.0
  0
LINE
  5
143
330
1E
100
AcDbEntity
  8
0
100
AcDbLine
 10
94.65128900000001
 20
201.2389999999999
 30
0.0
 11
94.758189
 21
201.245
 31
0.0
  0
LINE
  5
144
330
1E
100
AcDbEntity
  8
0
100
AcDbLine
 10
95.408489
 20
201.2849999999999
 30
0.0
 11
95.96898900000001
 21
201.319
 31
0.0
  0
LINE
  5
145
330
1E
100
AcDbEntity
  8
0
100
AcDbLine
 10
95.07218899999999
 20
201.264
 30
0.0
 11
95.408489
 21
201.2849999999999
 31
0.0
  0
LINE
  5
146
330
1E
100
AcDbEntity
  8
0
100
AcDbLine
 10
113.6459889999999
 20
122.795
 30
0.0
 11
114.7449889999999
 21
122.37
 31
0.0
  0
LINE
  5
147
330
1E
100
AcDbEntity
  8
0
100
AcDbLine
 10
114.7449889999999
 20
122.37
 30
0.0
 11
115.6789889999999
 21
121.87
 31
0.0
  0
LINE
  5
148
330
1E
100
AcDbEntity
  8
0
100
AcDbLine
 10
111.97908017868
 20
123.2699207647369
 30
0.0
 11
112.4379889999999
 21
123.17
 31
0.0
  0
LINE
  5
149
330
1E
100
AcDbEntity
  8
0
100
AcDbLine
 10
112.4379889999999
 20
123.17
 30
0.0
 11
113.6459889999999
 21
122.795
 31
0.0
  0
LINE
  5
14A
330
1E
100
AcDbEntity
  8
0
100
AcDbLine
 10
101.563989
 20
123.17
 30
0.0
 11
101.875825770278
 21
123.23784423404
 31
0.0
  0
LINE
  5
14B
330
1E
100
AcDbEntity
  8
0
100
AcDbLine
 10
100.356189
 20
122.795
 30
0.0
 11
101.563989
 21
123.17
 31
0.0
  0
LINE
  5
14C
330
1E
100
AcDbEntity
  8
0
100
AcDbLine
 10
99.257789
 20
122.37
 30
0.0
 11
100.356189
 21
122.795
 31
0.0
  0
LINE
  5
14D
330
1E
100
AcDbEntity
  8
0
100
AcDbLine
 10
98.324189
 20
121.87
 30
0.0
 11
99.257789
 21
122.37
 31
0.0
  0
LINE
  5
14E
330
1E
100
AcDbEntity
  8
0
100
AcDbLine
 10
97.919789
 20
201.439
 30
0.0
 11
102.136989
 21
201.697
 31
0.0
  0
LINE
  5
14F
330
1E
100
AcDbEntity
  8
0
100
AcDbLine
 10
108.3059889999999
 20
202.0739999999999
 30
0.0
 11
108.8659889999999
 21
202.109
 31
0.0
  0
LINE
  5
150
330
1E
100
AcDbEntity
  8
0
100
AcDbLine
 10
108.8659889999999
 20
202.109
 30
0.0
 11
109.2019889999999
 21
202.129
 31
0.0
  0
LINE
  5
151
330
1E
100
AcDbEntity
  8
0
100
AcDbLine
 10
109.5159889999999
 20
202.1479999999999
 30
0.0
 11
109.6229889999999
 21
202.1549999999999
 31
0.0
  0
LINE
  5
152
330
1E
100
AcDbEntity
  8
0
100
AcDbLine
 10
109.6229889999999
 20
202.1549999999999
 30
0.0
 11
111.9809484565349
 21
123.2575385189649
 31
0.0
  0
LINE
  5
153
330
1E
100
AcDbEntity
  8
0
100
AcDbLine
 10
109.6229889999999
 20
202.1549999999999
 30
0.0
 11
111.9809484565349
 21
123.2575385189649
 31
0.0
  0
LINE
  5
154
330
1E
100
AcDbEntity
  8
0
100
AcDbLine
 10
109.2019889999999
 20
202.129
 30
0.0
 11
109.5159889999999
 21
202.1479999999999
 31
0.0
  0
LINE
  5
155
330
1E
100
AcDbEntity
  8
0
100
AcDbLine
 10
106.3549889999999
 20
201.955
 30
0.0
 11
108.3059889999999
 21
202.0739999999999
 31
0.0
  0
LINE
  5
156
330
1E
100
AcDbEntity
  8
0
100
AcDbLine
 10
102.136989
 20
201.697
 30
0.0
 11
106.3549889999999
 21
201.955
 31
0.0
  0
LINE
  5
157
330
1E
100
AcDbEntity
  8
0
100
AcDbLine
 10
95.96898900000001
 20
201.319
 30
0.0
 11
97.919789
 21
201.439
 31
0.0
  0
LINE
  5
158
330
1E
100
AcDbEntity
  8
0
100
AcDbLine
 10
131.4969889999999
 20
121.845
 30
0.0
 11
132.4969889999999
 21
121.3449999999999
 31
0.0
  0
LINE
  5
159
330
1E
100
AcDbEntity
  8
0
100
AcDbLine
 10
132.9969889999999
 20
-0.155000000000019
 30
0.0
 11
132.9969889999999
 21
4.54499999999998
 31
0.0
  0
LINE
  5
15A
330
1E
100
AcDbEntity
  8
0
100
AcDbLine
 10
132.9969889999999
 20
4.54499999999998
 30
0.0
 11
132.9969889999999
 21
-0.15500000000002
 31
0.0
  0
LINE
  5
15C
330
1E
100
AcDbEntity
  8
0
100
AcDbLine
 10
132.4969889999999
 20
121.3449999999999
 30
0.0
 11
132.9969889999999
 21
120.3449999999999
 31
0.0
  0
LINE
  5
161
330
1E
100
AcDbEntity
  8
0
100
AcDbLine
 10
83.11698900000001
 20
121.845
 30
0.0
 11
98.324189
 21
121.87
 31
0.0
  0
LINE
  5
162
330
1E
100
AcDbEntity
  8
0
100
AcDbLine
 10
98.324189
 20
121.87
 30
0.0
 11
115.6789889999999
 21
121.87
 31
0.0
  0
LINE
  5
163
330
1E
100
AcDbEntity
  8
0
100
AcDbLine
 10
115.6789889999999
 20
121.87
 30
0.0
 11
131.4969889999999
 21
121.845
 31
0.0
  0
LINE
  5
164
330
1E
100
AcDbEntity
  8
0
100
AcDbLine
 10
101.875825770278
 20
123.23784423404
 30
0.0
 11
112.4379889999999
 21
123.17
 31
0.0
  0
LINE
  5
165
330
1E
100
AcDbEntity
  8
0
100
AcDbLine
 10
29.413789
 20
119.546
 30
0.0
 11
37.049789
 21
119.879
 31
0.0
  0
LINE
  5
166
330
1E
100
AcDbEntity
  8
0
100
AcDbLine
 10
28.24295371389519
 20
114.064932574424
 30
0.0
 11
30.7477849899474
 21
100.2909369580159
 31
0.0
  0
ENDSEC
  0
SECTION
  2
OBJECTS
  0
DICTIONARY
  5
C
330
0
100
AcDbDictionary
281
     1
  3
ACAD_GROUP
350
D
  3
ACAD_LAYOUT
350
19
  3
ACAD_MLINESTYLE
350
16
  3
ACAD_PLOTSETTINGS
350
18
  3
ACAD_PLOTSTYLENAME
350
E
  3
AcDbVariableDictionary
350
167
  0
DICTIONARY
  5
D
102
{ACAD_REACTORS
330
C
102
}
330
C
100
AcDbDictionary
281
     1
  0
DICTIONARY
  5
19
102
{ACAD_REACTORS
330
C
102
}
330
C
100
AcDbDictionary
281
     1
  3
Layout1
350
1D
  3
Model
350
21
  0
DICTIONARY
  5
16
102
{ACAD_REACTORS
330
C
102
}
330
C
100
AcDbDictionary
281
     1
  3
Standard
350
17
  0
DICTIONARY
  5
18
102
{ACAD_REACTORS
330
C
102
}
330
C
100
AcDbDictionary
281
     1
  0
ACDBDICTIONARYWDFLT
  5
E
102
{ACAD_REACTORS
330
C
102
}
330
C
100
AcDbDictionary
281
     1
  3
Normal
350
F
100
AcDbDictionaryWithDefault
340
F
  0
DICTIONARY
  5
167
102
{ACAD_REACTORS
330
C
102
}
330
C
100
AcDbDictionary
281
     1
  3
DIMASSOC
350
168
  0
LAYOUT
  5
1D
102
{ACAD_REACTORS
330
19
102
}
330
19
100
AcDbPlotSettings
  1

  2
hp deskjet 980c series
  4

  6

 40
0.0
 41
0.0
 42
0.0
 43
0.0
 44
0.0
 45
0.0
 46
0.0
 47
0.0
 48
0.0
 49
0.0
140
0.0
141
0.0
142
1.0
143
1.0
 70
   688
 72
     0
 73
     0
 74
     5
  7

 75
    16
147
1.0
148
0.0
149
0.0
100
AcDbLayout
  1
Layout1
 70
     1
 71
     1
 10
0.0
 20
0.0
 11
12.0
 21
9.0
 12
0.0
 22
0.0
 32
0.0
 14
1.000000000000000E+20
 24
1.000000000000000E+20
 34
1.000000000000000E+20
 15
-1.000000000000000E+20
 25
-1.000000000000000E+20
 35
-1.000000000000000E+20
146
0.0
 13
0.0
 23
0.0
 33
0.0
 16
1.0
 26
0.0
 36
0.0
 17
0.0
 27
1.0
 37
0.0
 76
     0
330
1A
  0
LAYOUT
  5
21
102
{ACAD_REACTORS
330
19
102
}
330
19
100
AcDbPlotSettings
  1

  2
hp deskjet 980c series
  4

  6

 40
0.0
 41
0.0
 42
0.0
 43
0.0
 44
0.0
 45
0.0
 46
0.0
 47
0.0
 48
0.0
 49
0.0
140
0.0
141
0.0
142
1.0
143
1.0
 70
  1712
 72
     0
 73
     0
 74
     0
  7

 75
     0
147
1.0
148
0.0
149
0.0
100
AcDbLayout
  1
Model
 70
     1
 71
     0
 10
0.0
 20
0.0
 11
12.0
 21
9.0
 12
0.0
 22
0.0
 32
0.0
 14
0.0
 24
0.0
 34
0.0
 15
0.0
 25
0.0
 35
0.0
146
0.0
 13
0.0
 23
0.0
 33
0.0
 16
1.0
 26
0.0
 36
0.0
 17
0.0
 27
1.0
 37
0.0
 76
     0
330
1E
  0
MLINESTYLE
  5
17
102
{ACAD_REACTORS
330
16
102
}
330
16
100
AcDbMlineStyle
  2
STANDARD
 70
     0
  3

 62
   256
 51
90.0
 52
90.0
 71
     2
 49
0.5
 62
   256
  6
BYLAYER
 49
-0.5
 62
   256
  6
BYLAYER
  0
ACDBPLACEHOLDER
  5
F
102
{ACAD_REACTORS
330
E
102
}
330
E
  0
DICTIONARYVAR
  5
168
102
{ACAD_REACTORS
330
167
102
}
330
167
100
DictionaryVariables
280
     0
  1
1
  0
ENDSEC
  0
EOF
