  0
SECTION
  2
HEADER
  9
$ACADVER
  1
AC1015
  9
$ACADMAINTVER
 70
    13
  9
$DWGCODEPAGE
  3
ANSI_1252
  9
$INSBASE
 10
0.0
 20
0.0
 30
0.0
  9
$EXTMIN
 10
-0.0890000000000168
 20
0.0000000000000069
 30
0.0
  9
$EXTMAX
 10
300.089
 20
115.0
 30
0.0
  9
$LIMMIN
 10
0.0
 20
0.0
  9
$LIMMAX
 10
12.0
 20
9.0
  9
$ORTHOMODE
 70
     0
  9
$REGENMODE
 70
     1
  9
$FILLMODE
 70
     1
  9
$QTEXTMODE
 70
     0
  9
$MIRRTEXT
 70
     1
  9
$LTSCALE
 40
1.0
  9
$ATTMODE
 70
     1
  9
$TEXTSIZE
 40
0.2
  9
$TRACEWID
 40
0.05
  9
$TEXTSTYLE
  7
Standard
  9
$CLAYER
  8
0
  9
$CELTYPE
  6
Continuous
  9
$CECOLOR
 62
   256
  9
$CELTSCALE
 40
1.0
  9
$DISPSILH
 70
     0
  9
$DIMSCALE
 40
1.0
  9
$DIMASZ
 40
0.18
  9
$DIMEXO
 40
0.0625
  9
$DIMDLI
 40
0.38
  9
$DIMRND
 40
0.0
  9
$DIMDLE
 40
0.0
  9
$DIMEXE
 40
0.18
  9
$DIMTP
 40
0.0
  9
$DIMTM
 40
0.0
  9
$DIMTXT
 40
0.18
  9
$DIMCEN
 40
0.09
  9
$DIMTSZ
 40
0.0
  9
$DIMTOL
 70
     0
  9
$DIMLIM
 70
     0
  9
$DIMTIH
 70
     1
  9
$DIMTOH
 70
     1
  9
$DIMSE1
 70
     0
  9
$DIMSE2
 70
     0
  9
$DIMTAD
 70
     0
  9
$DIMZIN
 70
     0
  9
$DIMBLK
  1

  9
$DIMASO
 70
     1
  9
$DIMSHO
 70
     1
  9
$DIMPOST
  1

  9
$DIMAPOST
  1

  9
$DIMALT
 70
     0
  9
$DIMALTD
 70
     2
  9
$DIMALTF
 40
25.4
  9
$DIMLFAC
 40
1.0
  9
$DIMTOFL
 70
     0
  9
$DIMTVP
 40
0.0
  9
$DIMTIX
 70
     0
  9
$DIMSOXD
 70
     0
  9
$DIMSAH
 70
     0
  9
$DIMBLK1
  1

  9
$DIMBLK2
  1

  9
$DIMSTYLE
  2
Standard
  9
$DIMCLRD
 70
     0
  9
$DIMCLRE
 70
     0
  9
$DIMCLRT
 70
     0
  9
$DIMTFAC
 40
1.0
  9
$DIMGAP
 40
0.09
  9
$DIMJUST
 70
     0
  9
$DIMSD1
 70
     0
  9
$DIMSD2
 70
     0
  9
$DIMTOLJ
 70
     1
  9
$DIMTZIN
 70
     0
  9
$DIMALTZ
 70
     0
  9
$DIMALTTZ
 70
     0
  9
$DIMUPT
 70
     0
  9
$DIMDEC
 70
     4
  9
$DIMTDEC
 70
     4
  9
$DIMALTU
 70
     2
  9
$DIMALTTD
 70
     2
  9
$DIMTXSTY
  7
Standard
  9
$DIMAUNIT
 70
     0
  9
$DIMADEC
 70
     0
  9
$DIMALTRND
 40
0.0
  9
$DIMAZIN
 70
     0
  9
$DIMDSEP
 70
    46
  9
$DIMATFIT
 70
     3
  9
$DIMFRAC
 70
     0
  9
$DIMLDRBLK
  1

  9
$DIMLUNIT
 70
     2
  9
$DIMLWD
 70
    -2
  9
$DIMLWE
 70
    -2
  9
$DIMTMOVE
 70
     0
  9
$LUNITS
 70
     2
  9
$LUPREC
 70
     4
  9
$SKETCHINC
 40
0.1
  9
$FILLETRAD
 40
0.0
  9
$AUNITS
 70
     0
  9
$AUPREC
 70
     0
  9
$MENU
  1
.
  9
$ELEVATION
 40
0.0
  9
$PELEVATION
 40
0.0
  9
$THICKNESS
 40
0.0
  9
$LIMCHECK
 70
     0
  9
$CHAMFERA
 40
0.0
  9
$CHAMFERB
 40
0.0
  9
$CHAMFERC
 40
0.0
  9
$CHAMFERD
 40
0.0
  9
$SKPOLY
 70
     0
  9
$TDCREATE
 40
2454906.855149548
  9
$TDUCREATE
 40
2454906.813482882
  9
$TDUPDATE
 40
2454906.855622639
  9
$TDUUPDATE
 40
2454906.813955972
  9
$TDINDWG
 40
0.0004736343
  9
$TDUSRTIMER
 40
0.0004736343
  9
$USRTIMER
 70
     1
  9
$ANGBASE
 50
0.0
  9
$ANGDIR
 70
     0
  9
$PDMODE
 70
     0
  9
$PDSIZE
 40
0.0
  9
$PLINEWID
 40
0.0
  9
$SPLFRAME
 70
     0
  9
$SPLINETYPE
 70
     6
  9
$SPLINESEGS
 70
     8
  9
$HANDSEED
  5
148
  9
$SURFTAB1
 70
     6
  9
$SURFTAB2
 70
     6
  9
$SURFTYPE
 70
     6
  9
$SURFU
 70
     6
  9
$SURFV
 70
     6
  9
$UCSBASE
  2

  9
$UCSNAME
  2

  9
$UCSORG
 10
0.0
 20
0.0
 30
0.0
  9
$UCSXDIR
 10
1.0
 20
0.0
 30
0.0
  9
$UCSYDIR
 10
0.0
 20
1.0
 30
0.0
  9
$UCSORTHOREF
  2

  9
$UCSORTHOVIEW
 70
     1
  9
$UCSORGTOP
 10
0.0
 20
0.0
 30
0.0
  9
$UCSORGBOTTOM
 10
0.0
 20
0.0
 30
0.0
  9
$UCSORGLEFT
 10
0.0
 20
0.0
 30
0.0
  9
$UCSORGRIGHT
 10
0.0
 20
0.0
 30
0.0
  9
$UCSORGFRONT
 10
0.0
 20
0.0
 30
0.0
  9
$UCSORGBACK
 10
0.0
 20
0.0
 30
0.0
  9
$PUCSBASE
  2

  9
$PUCSNAME
  2

  9
$PUCSORG
 10
0.0
 20
0.0
 30
0.0
  9
$PUCSXDIR
 10
1.0
 20
0.0
 30
0.0
  9
$PUCSYDIR
 10
0.0
 20
1.0
 30
0.0
  9
$PUCSORTHOREF
  2

  9
$PUCSORTHOVIEW
 70
     0
  9
$PUCSORGTOP
 10
0.0
 20
0.0
 30
0.0
  9
$PUCSORGBOTTOM
 10
0.0
 20
0.0
 30
0.0
  9
$PUCSORGLEFT
 10
0.0
 20
0.0
 30
0.0
  9
$PUCSORGRIGHT
 10
0.0
 20
0.0
 30
0.0
  9
$PUCSORGFRONT
 10
0.0
 20
0.0
 30
0.0
  9
$PUCSORGBACK
 10
0.0
 20
0.0
 30
0.0
  9
$USERI1
 70
     0
  9
$USERI2
 70
     0
  9
$USERI3
 70
     0
  9
$USERI4
 70
     0
  9
$USERI5
 70
     0
  9
$USERR1
 40
0.0
  9
$USERR2
 40
0.0
  9
$USERR3
 40
0.0
  9
$USERR4
 40
0.0
  9
$USERR5
 40
0.0
  9
$WORLDVIEW
 70
     1
  9
$SHADEDGE
 70
     3
  9
$SHADEDIF
 70
    70
  9
$TILEMODE
 70
     1
  9
$MAXACTVP
 70
    64
  9
$PINSBASE
 10
0.0
 20
0.0
 30
0.0
  9
$PLIMCHECK
 70
     0
  9
$PEXTMIN
 10
1.000000000000000E+20
 20
1.000000000000000E+20
 30
1.000000000000000E+20
  9
$PEXTMAX
 10
-1.000000000000000E+20
 20
-1.000000000000000E+20
 30
-1.000000000000000E+20
  9
$PLIMMIN
 10
0.0
 20
0.0
  9
$PLIMMAX
 10
12.0
 20
9.0
  9
$UNITMODE
 70
     0
  9
$VISRETAIN
 70
     1
  9
$PLINEGEN
 70
     0
  9
$PSLTSCALE
 70
     1
  9
$TREEDEPTH
 70
  3020
  9
$CMLSTYLE
  2
Standard
  9
$CMLJUST
 70
     0
  9
$CMLSCALE
 40
1.0
  9
$PROXYGRAPHICS
 70
     1
  9
$MEASUREMENT
 70
     0
  9
$CELWEIGHT
370
    -1
  9
$ENDCAPS
280
     0
  9
$JOINSTYLE
280
     0
  9
$LWDISPLAY
290
     0
  9
$INSUNITS
 70
     0
  9
$HYPERLINKBASE
  1

  9
$STYLESHEET
  1

  9
$XEDIT
290
     1
  9
$CEPSNTYPE
380
     0
  9
$PSTYLEMODE
290
     1
  9
$FINGERPRINTGUID
  2
{D8910A9A-1DF6-45D5-85C6-2E97E6960532}
  9
$VERSIONGUID
  2
{3FF9ABF3-3AC5-47CE-9FBE-7A4932DCEEEC}
  9
$EXTNAMES
290
     1
  9
$PSVPSCALE
 40
0.0
  9
$OLESTARTUP
290
     0
  0
ENDSEC
  0
SECTION
  2
CLASSES
  0
CLASS
  1
ACDBDICTIONARYWDFLT
  2
AcDbDictionaryWithDefault
  3
AutoCAD 2000
 90
        0
280
     0
281
     0
  0
CLASS
  1
ACDBPLACEHOLDER
  2
AcDbPlaceHolder
  3
AutoCAD 2000
 90
        0
280
     0
281
     0
  0
CLASS
  1
LAYOUT
  2
AcDbLayout
  3
AutoCAD 2000
 90
        0
280
     0
281
     0
  0
CLASS
  1
DICTIONARYVAR
  2
AcDbDictionaryVar
  3
AutoCAD 2000
 90
        0
280
     0
281
     0
  0
ENDSEC
  0
SECTION
  2
TABLES
  0
TABLE
  2
VPORT
  5
8
330
0
100
AcDbSymbolTable
 70
     2
  0
VPORT
  5
147
330
8
100
AcDbSymbolTableRecord
100
AcDbViewportTableRecord
  2
*Active
 70
     0
 10
0.0
 20
0.0
 11
1.0
 21
1.0
 12
149.9999999999999
 22
57.5
 13
0.0
 23
0.0
 14
1.0
 24
1.0
 15
0.0
 25
0.0
 16
0.0
 26
0.0
 36
1.0
 17
0.0
 27
0.0
 37
0.0
 40
152.9889876727583
 41
1.968387776606954
 42
50.0
 43
0.0
 44
0.0
 50
0.0
 51
0.0
 71
     0
 72
   100
 73
     1
 74
     3
 75
     0
 76
     0
 77
     0
 78
     0
281
     0
 65
     1
110
0.0
120
0.0
130
0.0
111
1.0
121
0.0
131
0.0
112
0.0
122
1.0
132
0.0
 79
     1
146
0.0
  0
ENDTAB
  0
TABLE
  2
LTYPE
  5
5
330
0
100
AcDbSymbolTable
 70
     1
  0
LTYPE
  5
13
330
5
100
AcDbSymbolTableRecord
100
AcDbLinetypeTableRecord
  2
ByBlock
 70
     0
  3

 72
    65
 73
     0
 40
0.0
  0
LTYPE
  5
14
330
5
100
AcDbSymbolTableRecord
100
AcDbLinetypeTableRecord
  2
ByLayer
 70
     0
  3

 72
    65
 73
     0
 40
0.0
  0
LTYPE
  5
15
330
5
100
AcDbSymbolTableRecord
100
AcDbLinetypeTableRecord
  2
Continuous
 70
     0
  3
Solid line
 72
    65
 73
     0
 40
0.0
  0
ENDTAB
  0
TABLE
  2
LAYER
  5
2
330
0
100
AcDbSymbolTable
 70
     1
  0
LAYER
  5
10
330
2
100
AcDbSymbolTableRecord
100
AcDbLayerTableRecord
  2
0
 70
     0
 62
     7
  6
Continuous
370
    -3
390
F
  0
ENDTAB
  0
TABLE
  2
STYLE
  5
3
330
0
100
AcDbSymbolTable
 70
     1
  0
STYLE
  5
11
330
3
100
AcDbSymbolTableRecord
100
AcDbTextStyleTableRecord
  2
Standard
 70
     0
 40
0.0
 41
1.0
 50
0.0
 71
     0
 42
0.2
  3
txt
  4

  0
ENDTAB
  0
TABLE
  2
VIEW
  5
6
330
0
100
AcDbSymbolTable
 70
     0
  0
ENDTAB
  0
TABLE
  2
UCS
  5
7
330
0
100
AcDbSymbolTable
 70
     0
  0
ENDTAB
  0
TABLE
  2
APPID
  5
9
330
0
100
AcDbSymbolTable
 70
     1
  0
APPID
  5
12
330
9
100
AcDbSymbolTableRecord
100
AcDbRegAppTableRecord
  2
ACAD
 70
     0
  0
ENDTAB
  0
TABLE
  2
DIMSTYLE
  5
A
330
0
100
AcDbSymbolTable
 70
     1
100
AcDbDimStyleTable
 71
     0
  0
DIMSTYLE
105
141
330
A
100
AcDbSymbolTableRecord
100
AcDbDimStyleTableRecord
  2
Standard
 70
     0
340
11
  0
ENDTAB
  0
TABLE
  2
BLOCK_RECORD
  5
1
330
0
100
AcDbSymbolTable
 70
     0
  0
BLOCK_RECORD
  5
1E
330
1
100
AcDbSymbolTableRecord
100
AcDbBlockTableRecord
  2
*Model_Space
340
21
  0
BLOCK_RECORD
  5
1A
330
1
100
AcDbSymbolTableRecord
100
AcDbBlockTableRecord
  2
*Paper_Space
340
1D
  0
ENDTAB
  0
ENDSEC
  0
SECTION
  2
BLOCKS
  0
BLOCK
  5
1F
330
1E
100
AcDbEntity
  8
0
100
AcDbBlockBegin
  2
*Model_Space
 70
     0
 10
0.0
 20
0.0
 30
0.0
  3
*Model_Space
  1

  0
ENDBLK
  5
20
330
1E
100
AcDbEntity
  8
0
100
AcDbBlockEnd
  0
BLOCK
  5
1B
330
1A
100
AcDbEntity
 67
     1
  8
0
100
AcDbBlockBegin
  2
*Paper_Space
 70
     0
 10
0.0
 20
0.0
 30
0.0
  3
*Paper_Space
  1

  0
ENDBLK
  5
1C
330
1A
100
AcDbEntity
 67
     1
  8
0
100
AcDbBlockEnd
  0
ENDSEC
  0
SECTION
  2
ENTITIES
  0
LINE
  5
22
330
1E
100
AcDbEntity
  8
0
100
AcDbLine
 10
0.339038999999983
 20
50.0807
 30
0.0
 11
1.908519999999979
 21
42.80389999999999
 31
0.0
  0
LINE
  5
23
330
1E
100
AcDbEntity
  8
0
100
AcDbLine
 10
49.9917
 20
0.428039000000007
 30
0.0
 11
57.411
 21
0.0000000000000069
 31
0.0
  0
LINE
  5
24
330
1E
100
AcDbEntity
  8
0
100
AcDbLine
 10
49.9917
 20
0.428039000000007
 30
0.0
 11
57.411
 21
0.0000000000000069
 31
0.0
  0
LINE
  5
25
330
1E
100
AcDbEntity
  8
0
100
AcDbLine
 10
16.6045
 20
16.6935
 30
0.0
 11
22.3117
 21
11.84239999999999
 31
0.0
  0
LINE
  5
26
330
1E
100
AcDbEntity
  8
0
100
AcDbLine
 10
16.6045
 20
16.6935
 30
0.0
 11
22.3117
 21
11.84239999999999
 31
0.0
  0
LINE
  5
27
330
1E
100
AcDbEntity
  8
0
100
AcDbLine
 10
22.3117
 20
11.84239999999999
 30
0.0
 11
28.8749
 21
7.704710000000009
 31
0.0
  0
LINE
  5
28
330
1E
100
AcDbEntity
  8
0
100
AcDbLine
 10
28.8749
 20
7.704710000000009
 30
0.0
 11
35.6073
 21
4.050640000000009
 31
0.0
  0
LINE
  5
29
330
1E
100
AcDbEntity
  8
0
100
AcDbLine
 10
35.6073
 20
4.050640000000009
 30
0.0
 11
42.7149
 21
1.99752000000001
 31
0.0
  0
LINE
  5
2A
330
1E
100
AcDbEntity
  8
0
100
AcDbLine
 10
42.7149
 20
1.99752000000001
 30
0.0
 11
49.9917
 21
0.428039000000007
 31
0.0
  0
LINE
  5
2B
330
1E
100
AcDbEntity
  8
0
100
AcDbLine
 10
42.7149
 20
1.99752000000001
 30
0.0
 11
49.9917
 21
0.428039000000007
 31
0.0
  0
LINE
  5
2C
330
1E
100
AcDbEntity
  8
0
100
AcDbLine
 10
42.7149
 20
1.99752000000001
 30
0.0
 11
49.9917
 21
0.428039000000007
 31
0.0
  0
LINE
  5
2D
330
1E
100
AcDbEntity
  8
0
100
AcDbLine
 10
57.411
 20
0.0000000000000069
 30
0.0
 11
64.83029999999999
 21
0.428039000000007
 31
0.0
  0
LINE
  5
2E
330
1E
100
AcDbEntity
  8
0
100
AcDbLine
 10
64.83029999999999
 20
0.428039000000007
 30
0.0
 11
72.1071
 21
1.99752000000001
 31
0.0
  0
LINE
  5
2F
330
1E
100
AcDbEntity
  8
0
100
AcDbLine
 10
79.21469999999999
 20
4.050640000000009
 30
0.0
 11
85.9471
 21
7.704710000000009
 31
0.0
  0
LINE
  5
30
330
1E
100
AcDbEntity
  8
0
100
AcDbLine
 10
97.41100000000001
 20
2.5
 30
0.0
 11
106.371
 21
4.48
 31
0.0
  0
LINE
  5
31
330
1E
100
AcDbEntity
  8
0
100
AcDbLine
 10
88.451
 20
4.48
 30
0.0
 11
97.41100000000001
 21
2.5
 31
0.0
  0
LINE
  5
32
330
1E
100
AcDbEntity
  8
0
100
AcDbLine
 10
84.5377366773096
 20
6.939765517119699
 30
0.0
 11
88.451
 21
4.48
 31
0.0
  0
LINE
  5
33
330
1E
100
AcDbEntity
  8
0
100
AcDbLine
 10
92.5103
 20
11.84239999999999
 30
0.0
 11
98.21750000000001
 21
16.6935
 31
0.0
  0
LINE
  5
34
330
1E
100
AcDbEntity
  8
0
100
AcDbLine
 10
85.9471
 20
7.704710000000009
 30
0.0
 11
92.5103
 21
11.84239999999999
 31
0.0
  0
LINE
  5
35
330
1E
100
AcDbEntity
  8
0
100
AcDbLine
 10
79.21469999999999
 20
4.050640000000009
 30
0.0
 11
85.9471
 21
7.704710000000009
 31
0.0
  0
LINE
  5
36
330
1E
100
AcDbEntity
  8
0
100
AcDbLine
 10
72.1071
 20
1.99752000000001
 30
0.0
 11
79.21469999999999
 21
4.050640000000009
 31
0.0
  0
LINE
  5
37
330
1E
100
AcDbEntity
  8
0
100
AcDbLine
 10
64.83029999999999
 20
0.428039000000007
 30
0.0
 11
72.1071
 21
1.99752000000001
 31
0.0
  0
LINE
  5
38
330
1E
100
AcDbEntity
  8
0
100
AcDbLine
 10
57.411
 20
0.0000000000000069
 30
0.0
 11
64.83029999999999
 21
0.428039000000007
 31
0.0
  0
LINE
  5
39
330
1E
100
AcDbEntity
  8
0
100
AcDbLine
 10
106.371
 20
4.48
 30
0.0
 11
114.771
 21
9.760000000000008
 31
0.0
  0
LINE
  5
3A
330
1E
100
AcDbEntity
  8
0
100
AcDbLine
 10
114.771
 20
9.760000000000008
 30
0.0
 11
122.191
 21
18.55999999999999
 31
0.0
  0
LINE
  5
3B
330
1E
100
AcDbEntity
  8
0
100
AcDbLine
 10
122.191
 20
18.55999999999999
 30
0.0
 11
127.791
 21
30.22
 31
0.0
  0
LINE
  5
3C
330
1E
100
AcDbEntity
  8
0
100
AcDbLine
 10
98.21750000000001
 20
16.6935
 30
0.0
 11
103.069
 21
22.4007
 31
0.0
  0
LINE
  5
3D
330
1E
100
AcDbEntity
  8
0
100
AcDbLine
 10
103.069
 20
22.4007
 30
0.0
 11
107.206
 21
28.9639
 31
0.0
  0
LINE
  5
3E
330
1E
100
AcDbEntity
  8
0
100
AcDbLine
 10
49.9917
 20
0.428039000000007
 30
0.0
 11
57.411
 21
0.0000000000000069
 31
0.0
  0
LINE
  5
3F
330
1E
100
AcDbEntity
  8
0
100
AcDbLine
 10
49.9917
 20
0.428039000000007
 30
0.0
 11
57.411
 21
0.0000000000000069
 31
0.0
  0
LINE
  5
40
330
1E
100
AcDbEntity
  8
0
100
AcDbLine
 10
107.206
 20
28.9639
 30
0.0
 11
110.86
 21
35.6963
 31
0.0
  0
LINE
  5
41
330
1E
100
AcDbEntity
  8
0
100
AcDbLine
 10
127.791
 20
30.22
 30
0.0
 11
131.151
 21
43.42
 31
0.0
  0
LINE
  5
42
330
1E
100
AcDbEntity
  8
0
100
AcDbLine
 10
139.4109999999999
 20
32.0
 30
0.0
 11
153.411
 21
32.0
 31
0.0
  0
LINE
  5
43
330
1E
100
AcDbEntity
  8
0
100
AcDbLine
 10
153.411
 20
32.0
 30
0.0
 11
153.411
 21
34.5
 31
0.0
  0
LINE
  5
44
330
1E
100
AcDbEntity
  8
0
100
AcDbLine
 10
139.4109999999999
 20
32.436
 30
0.0
 11
139.4109999999999
 21
34.93199999999999
 31
0.0
  0
LINE
  5
45
330
1E
100
AcDbEntity
  8
0
100
AcDbLine
 10
139.4109999999999
 20
32.436
 30
0.0
 11
139.4109999999999
 21
31.5
 31
0.0
  0
LINE
  5
46
330
1E
100
AcDbEntity
  8
0
100
AcDbLine
 10
139.4109999999999
 20
31.5
 30
0.0
 11
139.4109999999999
 21
32.436
 31
0.0
  0
LINE
  5
47
330
1E
100
AcDbEntity
  8
0
100
AcDbLine
 10
137.4109999999999
 20
31.5
 30
0.0
 11
137.4109999999999
 21
32.436
 31
0.0
  0
LINE
  5
48
330
1E
100
AcDbEntity
  8
0
100
AcDbLine
 10
137.4109999999999
 20
31.5
 30
0.0
 11
139.4109999999999
 21
31.5
 31
0.0
  0
LINE
  5
49
330
1E
100
AcDbEntity
  8
0
100
AcDbLine
 10
153.411
 20
34.5
 30
0.0
 11
153.411
 21
35.328
 31
0.0
  0
LINE
  5
4A
330
1E
100
AcDbEntity
  8
0
100
AcDbLine
 10
153.411
 20
34.5
 30
0.0
 11
153.411
 21
32.0
 31
0.0
  0
LINE
  5
4B
330
1E
100
AcDbEntity
  8
0
100
AcDbLine
 10
137.4109999999999
 20
34.93199999999999
 30
0.0
 11
137.4109999999999
 21
32.436
 31
0.0
  0
LINE
  5
4C
330
1E
100
AcDbEntity
  8
0
100
AcDbLine
 10
137.4109999999999
 20
34.93199999999999
 30
0.0
 11
137.4109999999999
 21
37.5
 31
0.0
  0
LINE
  5
4D
330
1E
100
AcDbEntity
  8
0
100
AcDbLine
 10
137.4109999999999
 20
32.436
 30
0.0
 11
137.4109999999999
 21
31.5
 31
0.0
  0
LINE
  5
4E
330
1E
100
AcDbEntity
  8
0
100
AcDbLine
 10
137.4109999999999
 20
32.436
 30
0.0
 11
137.4109999999999
 21
34.93199999999999
 31
0.0
  0
LINE
  5
4F
330
1E
100
AcDbEntity
  8
0
100
AcDbLine
 10
137.4109999999999
 20
32.436
 30
0.0
 11
137.4109999999999
 21
34.93199999999999
 31
0.0
  0
LINE
  5
50
330
1E
100
AcDbEntity
  8
0
100
AcDbLine
 10
247.7629999999999
 20
31.5
 30
0.0
 11
252.469
 21
32.436
 31
0.0
  0
LINE
  5
51
330
1E
100
AcDbEntity
  8
0
100
AcDbLine
 10
251.7619999999999
 20
32.436
 30
0.0
 11
256.1749999999999
 21
34.93199999999999
 31
0.0
  0
LINE
  5
52
330
1E
100
AcDbEntity
  8
0
100
AcDbLine
 10
252.5821538461539
 20
32.5
 30
0.0
 11
282.411
 21
32.5
 31
0.0
  0
LINE
  5
53
330
1E
100
AcDbEntity
  8
0
100
AcDbLine
 10
256.1749999999999
 20
34.93199999999999
 30
0.0
 11
260.0719999999999
 21
39.092
 31
0.0
  0
LINE
  5
54
330
1E
100
AcDbEntity
  8
0
100
AcDbLine
 10
252.469
 20
32.436
 30
0.0
 11
256.882
 21
34.93199999999999
 31
0.0
  0
LINE
  5
55
330
1E
100
AcDbEntity
  8
0
100
AcDbLine
 10
282.411
 20
32.5
 30
0.0
 11
286.9359999999999
 21
33.39999999999999
 31
0.0
  0
LINE
  5
56
330
1E
100
AcDbEntity
  8
0
100
AcDbLine
 10
286.9359999999999
 20
33.39999999999999
 30
0.0
 11
291.179
 21
35.8
 31
0.0
  0
LINE
  5
57
330
1E
100
AcDbEntity
  8
0
100
AcDbLine
 10
256.882
 20
34.93199999999999
 30
0.0
 11
260.779
 21
39.092
 31
0.0
  0
LINE
  5
58
330
1E
100
AcDbEntity
  8
0
100
AcDbLine
 10
247.0559999999999
 20
31.5
 30
0.0
 11
247.7629999999999
 21
31.5
 31
0.0
  0
LINE
  5
59
330
1E
100
AcDbEntity
  8
0
100
AcDbLine
 10
247.0559999999999
 20
31.5
 30
0.0
 11
251.7619999999999
 21
32.436
 31
0.0
  0
LINE
  5
5A
330
1E
100
AcDbEntity
  8
0
100
AcDbLine
 10
242.349
 20
32.436
 30
0.0
 11
247.0559999999999
 21
31.5
 31
0.0
  0
LINE
  5
5B
330
1E
100
AcDbEntity
  8
0
100
AcDbLine
 10
153.411
 20
35.328
 30
0.0
 11
153.411
 21
37.536
 31
0.0
  0
LINE
  5
5C
330
1E
100
AcDbEntity
  8
0
100
AcDbLine
 10
153.411
 20
35.328
 30
0.0
 11
153.411
 21
34.5
 31
0.0
  0
LINE
  5
5D
330
1E
100
AcDbEntity
  8
0
100
AcDbLine
 10
139.4109999999999
 20
34.93199999999999
 30
0.0
 11
139.4109999999999
 21
39.092
 31
0.0
  0
LINE
  5
5E
330
1E
100
AcDbEntity
  8
0
100
AcDbLine
 10
139.4109999999999
 20
34.93199999999999
 30
0.0
 11
139.4109999999999
 21
32.436
 31
0.0
  0
LINE
  5
5F
330
1E
100
AcDbEntity
  8
0
100
AcDbLine
 10
137.4109999999999
 20
34.93199999999999
 30
0.0
 11
137.4109999999999
 21
39.092
 31
0.0
  0
LINE
  5
60
330
1E
100
AcDbEntity
  8
0
100
AcDbLine
 10
137.4109999999999
 20
34.93199999999999
 30
0.0
 11
137.4109999999999
 21
32.436
 31
0.0
  0
LINE
  5
61
330
1E
100
AcDbEntity
  8
0
100
AcDbLine
 10
237.937
 20
34.93199999999999
 30
0.0
 11
242.349
 21
32.436
 31
0.0
  0
LINE
  5
62
330
1E
100
AcDbEntity
  8
0
100
AcDbLine
 10
110.86
 20
35.6963
 30
0.0
 11
112.9129999999999
 21
42.80389999999999
 31
0.0
  0
LINE
  5
63
330
1E
100
AcDbEntity
  8
0
100
AcDbLine
 10
11.7534
 20
22.4007
 30
0.0
 11
16.6045
 21
16.6935
 31
0.0
  0
LINE
  5
64
330
1E
100
AcDbEntity
  8
0
100
AcDbLine
 10
7.615709999999981
 20
28.9639
 30
0.0
 11
11.7534
 21
22.4007
 31
0.0
  0
LINE
  5
65
330
1E
100
AcDbEntity
  8
0
100
AcDbLine
 10
112.9129999999999
 20
42.80389999999999
 30
0.0
 11
114.483
 21
50.0807
 31
0.0
  0
LINE
  5
66
330
1E
100
AcDbEntity
  8
0
100
AcDbLine
 10
129.644090909091
 20
37.5
 30
0.0
 11
137.4109999999999
 21
37.5
 31
0.0
  0
LINE
  5
67
330
1E
100
AcDbEntity
  8
0
100
AcDbLine
 10
129.644090909091
 20
37.5
 30
0.0
 11
137.4109999999999
 21
37.5
 31
0.0
  0
LINE
  5
68
330
1E
100
AcDbEntity
  8
0
100
AcDbLine
 10
197.3309999999999
 20
37.5
 30
0.0
 11
243.4909999999999
 21
37.5
 31
0.0
  0
LINE
  5
69
330
1E
100
AcDbEntity
  8
0
100
AcDbLine
 10
183.434
 20
37.5
 30
0.0
 11
190.9109999999999
 21
37.5
 31
0.0
  0
LINE
  5
6A
330
1E
100
AcDbEntity
  8
0
100
AcDbLine
 10
175.4109999999999
 20
37.5
 30
0.0
 11
183.434
 21
37.5
 31
0.0
  0
LINE
  5
6B
330
1E
100
AcDbEntity
  8
0
100
AcDbLine
 10
153.411
 20
37.5
 30
0.0
 11
175.4109999999999
 21
37.5
 31
0.0
  0
LINE
  5
6C
330
1E
100
AcDbEntity
  8
0
100
AcDbLine
 10
190.9109999999999
 20
37.5
 30
0.0
 11
197.3309999999999
 21
37.5
 31
0.0
  0
LINE
  5
6D
330
1E
100
AcDbEntity
  8
0
100
AcDbLine
 10
137.4109999999999
 20
37.5
 30
0.0
 11
137.4109999999999
 21
34.93199999999999
 31
0.0
  0
LINE
  5
6E
330
1E
100
AcDbEntity
  8
0
100
AcDbLine
 10
137.4109999999999
 20
37.5
 30
0.0
 11
137.4109999999999
 21
38.22
 31
0.0
  0
LINE
  5
6F
330
1E
100
AcDbEntity
  8
0
100
AcDbLine
 10
243.4909999999999
 20
37.5
 30
0.0
 11
247.027
 21
37.5
 31
0.0
  0
LINE
  5
70
330
1E
100
AcDbEntity
  8
0
100
AcDbLine
 10
291.179
 20
35.8
 30
0.0
 11
294.927
 21
39.8
 31
0.0
  0
LINE
  5
71
330
1E
100
AcDbEntity
  8
0
100
AcDbLine
 10
137.4109999999999
 20
38.22
 30
0.0
 11
137.4109999999999
 21
40.14
 31
0.0
  0
LINE
  5
72
330
1E
100
AcDbEntity
  8
0
100
AcDbLine
 10
153.411
 20
37.536
 30
0.0
 11
153.411
 21
41.21599999999999
 31
0.0
  0
LINE
  5
73
330
1E
100
AcDbEntity
  8
0
100
AcDbLine
 10
153.411
 20
37.536
 30
0.0
 11
153.411
 21
35.328
 31
0.0
  0
LINE
  5
74
330
1E
100
AcDbEntity
  8
0
100
AcDbLine
 10
260.0719999999999
 20
39.092
 30
0.0
 11
263.014
 21
44.60399999999999
 31
0.0
  0
LINE
  5
75
330
1E
100
AcDbEntity
  8
0
100
AcDbLine
 10
139.4109999999999
 20
39.092
 30
0.0
 11
139.4109999999999
 21
44.60399999999999
 31
0.0
  0
LINE
  5
76
330
1E
100
AcDbEntity
  8
0
100
AcDbLine
 10
139.4109999999999
 20
39.092
 30
0.0
 11
139.4109999999999
 21
34.93199999999999
 31
0.0
  0
LINE
  5
77
330
1E
100
AcDbEntity
  8
0
100
AcDbLine
 10
131.151
 20
43.42
 30
0.0
 11
132.411
 21
57.5
 31
0.0
  0
LINE
  5
78
330
1E
100
AcDbEntity
  8
0
100
AcDbLine
 10
137.4109999999999
 20
47.58
 30
0.0
 11
137.4109999999999
 21
52.38
 31
0.0
  0
LINE
  5
79
330
1E
100
AcDbEntity
  8
0
100
AcDbLine
 10
137.4109999999999
 20
43.34
 30
0.0
 11
137.4109999999999
 21
47.58
 31
0.0
  0
LINE
  5
7A
330
1E
100
AcDbEntity
  8
0
100
AcDbLine
 10
137.4109999999999
 20
40.14
 30
0.0
 11
137.4109999999999
 21
43.34
 31
0.0
  0
LINE
  5
7B
330
1E
100
AcDbEntity
  8
0
100
AcDbLine
 10
139.4109999999999
 20
43.88399999999999
 30
0.0
 11
153.411
 21
43.88399999999999
 31
0.0
  0
LINE
  5
7C
330
1E
100
AcDbEntity
  8
0
100
AcDbLine
 10
153.411
 20
43.88399999999999
 30
0.0
 11
153.411
 21
41.21599999999999
 31
0.0
  0
LINE
  5
7D
330
1E
100
AcDbEntity
  8
0
100
AcDbLine
 10
153.411
 20
43.88399999999999
 30
0.0
 11
153.411
 21
45.61600000000001
 31
0.0
  0
LINE
  5
7E
330
1E
100
AcDbEntity
  8
0
100
AcDbLine
 10
153.411
 20
41.21599999999999
 30
0.0
 11
153.411
 21
43.88399999999999
 31
0.0
  0
LINE
  5
7F
330
1E
100
AcDbEntity
  8
0
100
AcDbLine
 10
153.411
 20
41.21599999999999
 30
0.0
 11
153.411
 21
37.536
 31
0.0
  0
LINE
  5
80
330
1E
100
AcDbEntity
  8
0
100
AcDbLine
 10
153.411
 20
45.61600000000001
 30
0.0
 11
153.411
 21
43.88399999999999
 31
0.0
  0
LINE
  5
81
330
1E
100
AcDbEntity
  8
0
100
AcDbLine
 10
153.411
 20
45.61600000000001
 30
0.0
 11
153.411
 21
47.116
 31
0.0
  0
LINE
  5
82
330
1E
100
AcDbEntity
  8
0
100
AcDbLine
 10
139.4109999999999
 20
45.61600000000001
 30
0.0
 11
153.411
 21
45.61600000000001
 31
0.0
  0
LINE
  5
83
330
1E
100
AcDbEntity
  8
0
100
AcDbLine
 10
153.411
 20
47.116
 30
0.0
 11
153.411
 21
51.612
 31
0.0
  0
LINE
  5
84
330
1E
100
AcDbEntity
  8
0
100
AcDbLine
 10
153.411
 20
47.116
 30
0.0
 11
153.411
 21
45.61600000000001
 31
0.0
  0
LINE
  5
85
330
1E
100
AcDbEntity
  8
0
100
AcDbLine
 10
139.4109999999999
 20
44.60399999999999
 30
0.0
 11
139.4109999999999
 21
50.84399999999999
 31
0.0
  0
LINE
  5
86
330
1E
100
AcDbEntity
  8
0
100
AcDbLine
 10
139.4109999999999
 20
44.60399999999999
 30
0.0
 11
139.4109999999999
 21
39.092
 31
0.0
  0
LINE
  5
87
330
1E
100
AcDbEntity
  8
0
100
AcDbLine
 10
137.4109999999999
 20
44.60399999999999
 30
0.0
 11
137.4109999999999
 21
50.84399999999999
 31
0.0
  0
LINE
  5
88
330
1E
100
AcDbEntity
  8
0
100
AcDbLine
 10
137.4109999999999
 20
44.60399999999999
 30
0.0
 11
137.4109999999999
 21
39.092
 31
0.0
  0
LINE
  5
89
330
1E
100
AcDbEntity
  8
0
100
AcDbLine
 10
137.4109999999999
 20
39.092
 30
0.0
 11
137.4109999999999
 21
44.60399999999999
 31
0.0
  0
LINE
  5
8A
330
1E
100
AcDbEntity
  8
0
100
AcDbLine
 10
137.4109999999999
 20
39.092
 30
0.0
 11
137.4109999999999
 21
34.93199999999999
 31
0.0
  0
LINE
  5
8B
330
1E
100
AcDbEntity
  8
0
100
AcDbLine
 10
263.014
 20
44.60399999999999
 30
0.0
 11
264.779
 21
50.84399999999999
 31
0.0
  0
LINE
  5
8C
330
1E
100
AcDbEntity
  8
0
100
AcDbLine
 10
260.779
 20
39.092
 30
0.0
 11
263.721
 21
44.60399999999999
 31
0.0
  0
LINE
  5
8D
330
1E
100
AcDbEntity
  8
0
100
AcDbLine
 10
294.927
 20
39.8
 30
0.0
 11
297.7549999999999
 21
45.1
 31
0.0
  0
LINE
  5
8E
330
1E
100
AcDbEntity
  8
0
100
AcDbLine
 10
297.7549999999999
 20
45.1
 30
0.0
 11
299.4519999999999
 21
51.1
 31
0.0
  0
LINE
  5
8F
330
1E
100
AcDbEntity
  8
0
100
AcDbLine
 10
263.721
 20
44.60399999999999
 30
0.0
 11
265.4859999999999
 21
50.84399999999999
 31
0.0
  0
LINE
  5
90
330
1E
100
AcDbEntity
  8
0
100
AcDbLine
 10
235.530734615385
 20
37.5
 30
0.0
 11
237.937
 21
34.93199999999999
 31
0.0
  0
LINE
  5
91
330
1E
100
AcDbEntity
  8
0
100
AcDbLine
 10
114.483
 20
50.0807
 30
0.0
 11
114.911
 21
57.5
 31
0.0
  0
LINE
  5
92
330
1E
100
AcDbEntity
  8
0
100
AcDbLine
 10
3.961639999999979
 20
35.6963
 30
0.0
 11
7.615709999999981
 21
28.9639
 31
0.0
  0
LINE
  5
93
330
1E
100
AcDbEntity
  8
0
100
AcDbLine
 10
1.908519999999979
 20
42.80389999999999
 30
0.0
 11
3.961639999999979
 21
35.6963
 31
0.0
  0
LINE
  5
94
330
1E
100
AcDbEntity
  8
0
100
AcDbLine
 10
0.339038999999983
 20
64.9193
 30
0.0
 11
1.908519999999979
 21
72.1961
 31
0.0
  0
LINE
  5
95
330
1E
100
AcDbEntity
  8
0
100
AcDbLine
 10
0.339038999999983
 20
64.9193
 30
0.0
 11
1.908519999999979
 21
72.1961
 31
0.0
  0
LINE
  5
96
330
1E
100
AcDbEntity
  8
0
100
AcDbLine
 10
16.6045
 20
98.3065
 30
0.0
 11
22.3117
 21
103.1579999999999
 31
0.0
  0
LINE
  5
97
330
1E
100
AcDbEntity
  8
0
100
AcDbLine
 10
22.3117
 20
103.1579999999999
 30
0.0
 11
28.8749
 21
107.295
 31
0.0
  0
LINE
  5
98
330
1E
100
AcDbEntity
  8
0
100
AcDbLine
 10
28.8749
 20
107.295
 30
0.0
 11
35.6073
 21
110.949
 31
0.0
  0
LINE
  5
99
330
1E
100
AcDbEntity
  8
0
100
AcDbLine
 10
35.6073
 20
110.949
 30
0.0
 11
42.7149
 21
113.002
 31
0.0
  0
LINE
  5
9A
330
1E
100
AcDbEntity
  8
0
100
AcDbLine
 10
42.7149
 20
113.002
 30
0.0
 11
49.9917
 21
114.572
 31
0.0
  0
LINE
  5
9B
330
1E
100
AcDbEntity
  8
0
100
AcDbLine
 10
49.9917
 20
114.572
 30
0.0
 11
57.411
 21
115.0
 31
0.0
  0
LINE
  5
9C
330
1E
100
AcDbEntity
  8
0
100
AcDbLine
 10
11.7534
 20
92.5993
 30
0.0
 11
16.6045
 21
98.3065
 31
0.0
  0
LINE
  5
9D
330
1E
100
AcDbEntity
  8
0
100
AcDbLine
 10
7.615709999999981
 20
86.03610000000001
 30
0.0
 11
11.7534
 21
92.5993
 31
0.0
  0
LINE
  5
9E
330
1E
100
AcDbEntity
  8
0
100
AcDbLine
 10
3.961639999999979
 20
79.3037
 30
0.0
 11
7.615709999999981
 21
86.03610000000001
 31
0.0
  0
LINE
  5
9F
330
1E
100
AcDbEntity
  8
0
100
AcDbLine
 10
1.908519999999979
 20
72.1961
 30
0.0
 11
3.961639999999979
 21
79.3037
 31
0.0
  0
LINE
  5
A0
330
1E
100
AcDbEntity
  8
0
100
AcDbLine
 10
0.339038999999983
 20
64.9193
 30
0.0
 11
1.908519999999979
 21
72.1961
 31
0.0
  0
LINE
  5
A5
330
1E
100
AcDbEntity
  8
0
100
AcDbLine
 10
137.4109999999999
 20
52.38
 30
0.0
 11
137.4109999999999
 21
57.5
 31
0.0
  0
LINE
  5
A6
330
1E
100
AcDbEntity
  8
0
100
AcDbLine
 10
153.411
 20
51.612
 30
0.0
 11
153.411
 21
57.5
 31
0.0
  0
LINE
  5
A7
330
1E
100
AcDbEntity
  8
0
100
AcDbLine
 10
153.411
 20
51.612
 30
0.0
 11
153.411
 21
47.116
 31
0.0
  0
LINE
  5
A8
330
1E
100
AcDbEntity
  8
0
100
AcDbLine
 10
139.4109999999999
 20
50.84399999999999
 30
0.0
 11
139.4109999999999
 21
57.5
 31
0.0
  0
LINE
  5
A9
330
1E
100
AcDbEntity
  8
0
100
AcDbLine
 10
139.4109999999999
 20
50.84399999999999
 30
0.0
 11
139.4109999999999
 21
44.60399999999999
 31
0.0
  0
LINE
  5
AA
330
1E
100
AcDbEntity
  8
0
100
AcDbLine
 10
137.4109999999999
 20
50.84399999999999
 30
0.0
 11
137.4109999999999
 21
57.5
 31
0.0
  0
LINE
  5
AB
330
1E
100
AcDbEntity
  8
0
100
AcDbLine
 10
137.4109999999999
 20
50.84399999999999
 30
0.0
 11
137.4109999999999
 21
44.60399999999999
 31
0.0
  0
LINE
  5
AC
330
1E
100
AcDbEntity
  8
0
100
AcDbLine
 10
264.779
 20
50.84399999999999
 30
0.0
 11
265.4399999999999
 21
57.5
 31
0.0
  0
LINE
  5
AD
330
1E
100
AcDbEntity
  8
0
100
AcDbLine
 10
299.4519999999999
 20
51.1
 30
0.0
 11
300.089
 21
57.5
 31
0.0
  0
LINE
  5
AE
330
1E
100
AcDbEntity
  8
0
100
AcDbLine
 10
265.4859999999999
 20
50.84399999999999
 30
0.0
 11
266.1479999999999
 21
57.5
 31
0.0
  0
LINE
  5
AF
330
1E
100
AcDbEntity
  8
0
100
AcDbLine
 10
58.2139
 20
54.4765
 30
0.0
 11
58.9666
 21
54.77759999999999
 31
0.0
  0
LINE
  5
B0
330
1E
100
AcDbEntity
  8
0
100
AcDbLine
 10
57.411
 20
54.3636
 30
0.0
 11
58.2139
 21
54.4765
 31
0.0
  0
LINE
  5
B1
330
1E
100
AcDbEntity
  8
0
100
AcDbLine
 10
55.1905
 20
55.2795
 30
0.0
 11
55.8554
 21
54.77759999999999
 31
0.0
  0
LINE
  5
B6
330
1E
100
AcDbEntity
  8
0
100
AcDbLine
 10
58.9666
 20
54.77759999999999
 30
0.0
 11
59.6315
 21
55.2795
 31
0.0
  0
LINE
  5
B7
330
1E
100
AcDbEntity
  8
0
100
AcDbLine
 10
59.6315
 20
55.2795
 30
0.0
 11
60.1334
 21
55.9444
 31
0.0
  0
LINE
  5
B8
330
1E
100
AcDbEntity
  8
0
100
AcDbLine
 10
60.1334
 20
55.9444
 30
0.0
 11
60.43449999999999
 21
56.6971
 31
0.0
  0
LINE
  5
B9
330
1E
100
AcDbEntity
  8
0
100
AcDbLine
 10
60.43449999999999
 20
56.6971
 30
0.0
 11
60.5474
 21
57.5
 31
0.0
  0
LINE
  5
BA
330
1E
100
AcDbEntity
  8
0
100
AcDbLine
 10
55.8554
 20
54.77759999999999
 30
0.0
 11
56.6081
 21
54.4765
 31
0.0
  0
LINE
  5
BB
330
1E
100
AcDbEntity
  8
0
100
AcDbLine
 10
56.6081
 20
54.4765
 30
0.0
 11
57.411
 21
54.3636
 31
0.0
  0
LINE
  5
BC
330
1E
100
AcDbEntity
  8
0
100
AcDbLine
 10
54.6886
 20
55.9444
 30
0.0
 11
55.1905
 21
55.2795
 31
0.0
  0
LINE
  5
BD
330
1E
100
AcDbEntity
  8
0
100
AcDbLine
 10
60.43449999999999
 20
58.3029
 30
0.0
 11
60.5474
 21
57.5
 31
0.0
  0
LINE
  5
C2
330
1E
100
AcDbEntity
  8
0
100
AcDbLine
 10
55.1905
 20
59.7205
 30
0.0
 11
55.8554
 21
60.2224
 31
0.0
  0
LINE
  5
C7
330
1E
100
AcDbEntity
  8
0
100
AcDbLine
 10
58.9666
 20
60.2224
 30
0.0
 11
59.6315
 21
59.7205
 31
0.0
  0
LINE
  5
C8
330
1E
100
AcDbEntity
  8
0
100
AcDbLine
 10
58.2139
 20
60.5235
 30
0.0
 11
58.9666
 21
60.2224
 31
0.0
  0
LINE
  5
C9
330
1E
100
AcDbEntity
  8
0
100
AcDbLine
 10
59.6315
 20
59.7205
 30
0.0
 11
60.1334
 21
59.0556
 31
0.0
  0
LINE
  5
CA
330
1E
100
AcDbEntity
  8
0
100
AcDbLine
 10
60.1334
 20
59.0556
 30
0.0
 11
60.43449999999999
 21
58.3029
 31
0.0
  0
LINE
  5
CB
330
1E
100
AcDbEntity
  8
0
100
AcDbLine
 10
55.8554
 20
60.2224
 30
0.0
 11
56.6081
 21
60.5235
 31
0.0
  0
LINE
  5
CC
330
1E
100
AcDbEntity
  8
0
100
AcDbLine
 10
57.411
 20
60.6364
 30
0.0
 11
58.2139
 21
60.5235
 31
0.0
  0
LINE
  5
CD
330
1E
100
AcDbEntity
  8
0
100
AcDbLine
 10
57.411
 20
115.0
 30
0.0
 11
64.83029999999999
 21
114.572
 31
0.0
  0
LINE
  5
CE
330
1E
100
AcDbEntity
  8
0
100
AcDbLine
 10
56.6081
 20
60.5235
 30
0.0
 11
57.411
 21
60.6364
 31
0.0
  0
LINE
  5
CF
330
1E
100
AcDbEntity
  8
0
100
AcDbLine
 10
54.6886
 20
59.0556
 30
0.0
 11
55.1905
 21
59.7205
 31
0.0
  0
LINE
  5
D0
330
1E
100
AcDbEntity
  8
0
100
AcDbLine
 10
54.3875
 20
58.3029
 30
0.0
 11
54.6886
 21
59.0556
 31
0.0
  0
LINE
  5
D1
330
1E
100
AcDbEntity
  8
0
100
AcDbLine
 10
137.4109999999999
 20
62.62
 30
0.0
 11
137.4109999999999
 21
67.42
 31
0.0
  0
LINE
  5
D2
330
1E
100
AcDbEntity
  8
0
100
AcDbLine
 10
137.4109999999999
 20
57.5
 30
0.0
 11
137.4109999999999
 21
64.15600000000001
 31
0.0
  0
LINE
  5
D3
330
1E
100
AcDbEntity
  8
0
100
AcDbLine
 10
137.4109999999999
 20
57.5
 30
0.0
 11
137.4109999999999
 21
50.84399999999999
 31
0.0
  0
LINE
  5
D4
330
1E
100
AcDbEntity
  8
0
100
AcDbLine
 10
137.4109999999999
 20
57.5
 30
0.0
 11
137.4109999999999
 21
62.62
 31
0.0
  0
LINE
  5
D5
330
1E
100
AcDbEntity
  8
0
100
AcDbLine
 10
153.411
 20
57.5
 30
0.0
 11
153.411
 21
63.388
 31
0.0
  0
LINE
  5
D6
330
1E
100
AcDbEntity
  8
0
100
AcDbLine
 10
153.411
 20
57.5
 30
0.0
 11
153.411
 21
51.612
 31
0.0
  0
LINE
  5
D7
330
1E
100
AcDbEntity
  8
0
100
AcDbLine
 10
153.411
 20
63.388
 30
0.0
 11
153.411
 21
67.884
 31
0.0
  0
LINE
  5
D8
330
1E
100
AcDbEntity
  8
0
100
AcDbLine
 10
153.411
 20
63.388
 30
0.0
 11
153.411
 21
57.5
 31
0.0
  0
LINE
  5
D9
330
1E
100
AcDbEntity
  8
0
100
AcDbLine
 10
139.4109999999999
 20
57.5
 30
0.0
 11
139.4109999999999
 21
64.15600000000001
 31
0.0
  0
LINE
  5
DA
330
1E
100
AcDbEntity
  8
0
100
AcDbLine
 10
139.4109999999999
 20
57.5
 30
0.0
 11
139.4109999999999
 21
50.84399999999999
 31
0.0
  0
LINE
  5
DB
330
1E
100
AcDbEntity
  8
0
100
AcDbLine
 10
139.4109999999999
 20
64.15600000000001
 30
0.0
 11
139.4109999999999
 21
70.396
 31
0.0
  0
LINE
  5
DC
330
1E
100
AcDbEntity
  8
0
100
AcDbLine
 10
139.4109999999999
 20
64.15600000000001
 30
0.0
 11
139.4109999999999
 21
57.5
 31
0.0
  0
LINE
  5
DD
330
1E
100
AcDbEntity
  8
0
100
AcDbLine
 10
137.4109999999999
 20
64.15600000000001
 30
0.0
 11
137.4109999999999
 21
70.396
 31
0.0
  0
LINE
  5
DE
330
1E
100
AcDbEntity
  8
0
100
AcDbLine
 10
137.4109999999999
 20
64.15600000000001
 30
0.0
 11
137.4109999999999
 21
57.5
 31
0.0
  0
LINE
  5
DF
330
1E
100
AcDbEntity
  8
0
100
AcDbLine
 10
264.779
 20
64.15600000000001
 30
0.0
 11
265.4399999999999
 21
57.5
 31
0.0
  0
LINE
  5
E0
330
1E
100
AcDbEntity
  8
0
100
AcDbLine
 10
299.4519999999999
 20
63.9
 30
0.0
 11
300.089
 21
57.5
 31
0.0
  0
LINE
  5
E1
330
1E
100
AcDbEntity
  8
0
100
AcDbLine
 10
265.4859999999999
 20
64.15600000000001
 30
0.0
 11
266.1479999999999
 21
57.5
 31
0.0
  0
LINE
  5
E2
330
1E
100
AcDbEntity
  8
0
100
AcDbLine
 10
84.5374765828463
 20
108.060070994932
 30
0.0
 11
88.451
 21
110.5199999999999
 31
0.0
  0
LINE
  5
E3
330
1E
100
AcDbEntity
  8
0
100
AcDbLine
 10
88.451
 20
110.5199999999999
 30
0.0
 11
97.41100000000001
 21
112.5
 31
0.0
  0
LINE
  5
E4
330
1E
100
AcDbEntity
  8
0
100
AcDbLine
 10
92.5103
 20
103.1579999999999
 30
0.0
 11
98.21750000000001
 21
98.3065
 31
0.0
  0
LINE
  5
E5
330
1E
100
AcDbEntity
  8
0
100
AcDbLine
 10
85.9471
 20
107.295
 30
0.0
 11
92.5103
 21
103.1579999999999
 31
0.0
  0
LINE
  5
E6
330
1E
100
AcDbEntity
  8
0
100
AcDbLine
 10
97.41100000000001
 20
112.5
 30
0.0
 11
106.371
 21
110.5199999999999
 31
0.0
  0
LINE
  5
E7
330
1E
100
AcDbEntity
  8
0
100
AcDbLine
 10
79.21469999999999
 20
110.949
 30
0.0
 11
85.9471
 21
107.295
 31
0.0
  0
LINE
  5
E8
330
1E
100
AcDbEntity
  8
0
100
AcDbLine
 10
72.1071
 20
113.002
 30
0.0
 11
79.21469999999999
 21
110.949
 31
0.0
  0
LINE
  5
E9
330
1E
100
AcDbEntity
  8
0
100
AcDbLine
 10
64.83029999999999
 20
114.572
 30
0.0
 11
72.1071
 21
113.002
 31
0.0
  0
LINE
  5
EA
330
1E
100
AcDbEntity
  8
0
100
AcDbLine
 10
106.371
 20
110.5199999999999
 30
0.0
 11
114.771
 21
105.24
 31
0.0
  0
LINE
  5
EB
330
1E
100
AcDbEntity
  8
0
100
AcDbLine
 10
98.21750000000001
 20
98.3065
 30
0.0
 11
103.069
 21
92.5993
 31
0.0
  0
LINE
  5
EC
330
1E
100
AcDbEntity
  8
0
100
AcDbLine
 10
103.069
 20
92.5993
 30
0.0
 11
107.206
 21
86.03610000000001
 31
0.0
  0
LINE
  5
ED
330
1E
100
AcDbEntity
  8
0
100
AcDbLine
 10
107.206
 20
86.03610000000001
 30
0.0
 11
110.86
 21
79.3037
 31
0.0
  0
LINE
  5
EE
330
1E
100
AcDbEntity
  8
0
100
AcDbLine
 10
110.86
 20
79.3037
 30
0.0
 11
112.9129999999999
 21
72.1961
 31
0.0
  0
LINE
  5
EF
330
1E
100
AcDbEntity
  8
0
100
AcDbLine
 10
137.4109999999999
 20
67.42
 30
0.0
 11
137.4109999999999
 21
71.66
 31
0.0
  0
LINE
  5
F0
330
1E
100
AcDbEntity
  8
0
100
AcDbLine
 10
139.4109999999999
 20
69.384
 30
0.0
 11
153.411
 21
69.384
 31
0.0
  0
LINE
  5
F1
330
1E
100
AcDbEntity
  8
0
100
AcDbLine
 10
153.411
 20
69.384
 30
0.0
 11
153.411
 21
67.884
 31
0.0
  0
LINE
  5
F2
330
1E
100
AcDbEntity
  8
0
100
AcDbLine
 10
153.411
 20
69.384
 30
0.0
 11
153.411
 21
71.116
 31
0.0
  0
LINE
  5
F3
330
1E
100
AcDbEntity
  8
0
100
AcDbLine
 10
153.411
 20
67.884
 30
0.0
 11
153.411
 21
63.388
 31
0.0
  0
LINE
  5
F4
330
1E
100
AcDbEntity
  8
0
100
AcDbLine
 10
153.411
 20
67.884
 30
0.0
 11
153.411
 21
69.384
 31
0.0
  0
LINE
  5
F5
330
1E
100
AcDbEntity
  8
0
100
AcDbLine
 10
139.4109999999999
 20
70.396
 30
0.0
 11
139.4109999999999
 21
75.908
 31
0.0
  0
LINE
  5
F6
330
1E
100
AcDbEntity
  8
0
100
AcDbLine
 10
139.4109999999999
 20
70.396
 30
0.0
 11
139.4109999999999
 21
64.15600000000001
 31
0.0
  0
LINE
  5
F7
330
1E
100
AcDbEntity
  8
0
100
AcDbLine
 10
137.4109999999999
 20
70.396
 30
0.0
 11
137.4109999999999
 21
75.908
 31
0.0
  0
LINE
  5
F8
330
1E
100
AcDbEntity
  8
0
100
AcDbLine
 10
137.4109999999999
 20
70.396
 30
0.0
 11
137.4109999999999
 21
64.15600000000001
 31
0.0
  0
LINE
  5
F9
330
1E
100
AcDbEntity
  8
0
100
AcDbLine
 10
297.7549999999999
 20
69.90000000000001
 30
0.0
 11
299.4519999999999
 21
63.9
 31
0.0
  0
LINE
  5
FA
330
1E
100
AcDbEntity
  8
0
100
AcDbLine
 10
263.014
 20
70.396
 30
0.0
 11
264.779
 21
64.15600000000001
 31
0.0
  0
LINE
  5
FB
330
1E
100
AcDbEntity
  8
0
100
AcDbLine
 10
137.4109999999999
 20
71.66
 30
0.0
 11
137.4109999999999
 21
74.86
 31
0.0
  0
LINE
  5
FC
330
1E
100
AcDbEntity
  8
0
100
AcDbLine
 10
137.4109999999999
 20
74.86
 30
0.0
 11
137.4109999999999
 21
76.78
 31
0.0
  0
LINE
  5
FD
330
1E
100
AcDbEntity
  8
0
100
AcDbLine
 10
131.151
 20
71.58
 30
0.0
 11
132.411
 21
57.5
 31
0.0
  0
LINE
  5
FE
330
1E
100
AcDbEntity
  8
0
100
AcDbLine
 10
129.644090909091
 20
77.5
 30
0.0
 11
137.4109999999999
 21
77.5
 31
0.0
  0
LINE
  5
FF
330
1E
100
AcDbEntity
  8
0
100
AcDbLine
 10
137.4109999999999
 20
76.78
 30
0.0
 11
137.4109999999999
 21
77.5
 31
0.0
  0
LINE
  5
100
330
1E
100
AcDbEntity
  8
0
100
AcDbLine
 10
137.4109999999999
 20
75.908
 30
0.0
 11
137.4109999999999
 21
80.068
 31
0.0
  0
LINE
  5
101
330
1E
100
AcDbEntity
  8
0
100
AcDbLine
 10
137.4109999999999
 20
75.908
 30
0.0
 11
137.4109999999999
 21
70.396
 31
0.0
  0
LINE
  5
102
330
1E
100
AcDbEntity
  8
0
100
AcDbLine
 10
139.4109999999999
 20
71.116
 30
0.0
 11
153.411
 21
71.116
 31
0.0
  0
LINE
  5
103
330
1E
100
AcDbEntity
  8
0
100
AcDbLine
 10
153.411
 20
71.116
 30
0.0
 11
153.411
 21
73.78399999999999
 31
0.0
  0
LINE
  5
104
330
1E
100
AcDbEntity
  8
0
100
AcDbLine
 10
153.411
 20
71.116
 30
0.0
 11
153.411
 21
69.384
 31
0.0
  0
LINE
  5
105
330
1E
100
AcDbEntity
  8
0
100
AcDbLine
 10
153.411
 20
77.5
 30
0.0
 11
175.4109999999999
 21
77.5
 31
0.0
  0
LINE
  5
106
330
1E
100
AcDbEntity
  8
0
100
AcDbLine
 10
153.411
 20
73.78399999999999
 30
0.0
 11
153.411
 21
77.464
 31
0.0
  0
LINE
  5
107
330
1E
100
AcDbEntity
  8
0
100
AcDbLine
 10
153.411
 20
73.78399999999999
 30
0.0
 11
153.411
 21
71.116
 31
0.0
  0
LINE
  5
108
330
1E
100
AcDbEntity
  8
0
100
AcDbLine
 10
183.434
 20
77.5
 30
0.0
 11
190.9109999999999
 21
77.5
 31
0.0
  0
LINE
  5
109
330
1E
100
AcDbEntity
  8
0
100
AcDbLine
 10
175.4109999999999
 20
77.5
 30
0.0
 11
183.434
 21
77.5
 31
0.0
  0
LINE
  5
10A
330
1E
100
AcDbEntity
  8
0
100
AcDbLine
 10
190.9109999999999
 20
77.5
 30
0.0
 11
197.3309999999999
 21
77.5
 31
0.0
  0
LINE
  5
10B
330
1E
100
AcDbEntity
  8
0
100
AcDbLine
 10
197.3309999999999
 20
77.5
 30
0.0
 11
243.4909999999999
 21
77.5
 31
0.0
  0
LINE
  5
10C
330
1E
100
AcDbEntity
  8
0
100
AcDbLine
 10
153.411
 20
77.464
 30
0.0
 11
153.411
 21
79.672
 31
0.0
  0
LINE
  5
10D
330
1E
100
AcDbEntity
  8
0
100
AcDbLine
 10
153.411
 20
77.464
 30
0.0
 11
153.411
 21
73.78399999999999
 31
0.0
  0
LINE
  5
10E
330
1E
100
AcDbEntity
  8
0
100
AcDbLine
 10
153.411
 20
79.672
 30
0.0
 11
153.411
 21
80.5
 31
0.0
  0
LINE
  5
10F
330
1E
100
AcDbEntity
  8
0
100
AcDbLine
 10
153.411
 20
79.672
 30
0.0
 11
153.411
 21
77.464
 31
0.0
  0
LINE
  5
110
330
1E
100
AcDbEntity
  8
0
100
AcDbLine
 10
139.4109999999999
 20
75.908
 30
0.0
 11
139.4109999999999
 21
80.068
 31
0.0
  0
LINE
  5
111
330
1E
100
AcDbEntity
  8
0
100
AcDbLine
 10
139.4109999999999
 20
75.908
 30
0.0
 11
139.4109999999999
 21
70.396
 31
0.0
  0
LINE
  5
112
330
1E
100
AcDbEntity
  8
0
100
AcDbLine
 10
139.4109999999999
 20
80.068
 30
0.0
 11
139.4109999999999
 21
82.56399999999999
 31
0.0
  0
LINE
  5
113
330
1E
100
AcDbEntity
  8
0
100
AcDbLine
 10
139.4109999999999
 20
80.068
 30
0.0
 11
139.4109999999999
 21
75.908
 31
0.0
  0
LINE
  5
114
330
1E
100
AcDbEntity
  8
0
100
AcDbLine
 10
137.4109999999999
 20
77.5
 30
0.0
 11
137.4109999999999
 21
80.068
 31
0.0
  0
LINE
  5
115
330
1E
100
AcDbEntity
  8
0
100
AcDbLine
 10
137.4109999999999
 20
80.068
 30
0.0
 11
137.4109999999999
 21
77.5
 31
0.0
  0
LINE
  5
116
330
1E
100
AcDbEntity
  8
0
100
AcDbLine
 10
137.4109999999999
 20
80.068
 30
0.0
 11
137.4109999999999
 21
82.56399999999999
 31
0.0
  0
LINE
  5
117
330
1E
100
AcDbEntity
  8
0
100
AcDbLine
 10
137.4109999999999
 20
80.068
 30
0.0
 11
137.4109999999999
 21
75.908
 31
0.0
  0
LINE
  5
118
330
1E
100
AcDbEntity
  8
0
100
AcDbLine
 10
243.4909999999999
 20
77.5
 30
0.0
 11
247.027
 21
77.5
 31
0.0
  0
LINE
  5
119
330
1E
100
AcDbEntity
  8
0
100
AcDbLine
 10
237.937
 20
80.068
 30
0.0
 11
242.349
 21
82.56399999999999
 31
0.0
  0
LINE
  5
11A
330
1E
100
AcDbEntity
  8
0
100
AcDbLine
 10
235.530734615385
 20
77.5
 30
0.0
 11
237.937
 21
80.068
 31
0.0
  0
LINE
  5
11B
330
1E
100
AcDbEntity
  8
0
100
AcDbLine
 10
256.1749999999999
 20
80.068
 30
0.0
 11
260.0719999999999
 21
75.908
 31
0.0
  0
LINE
  5
11C
330
1E
100
AcDbEntity
  8
0
100
AcDbLine
 10
260.0719999999999
 20
75.908
 30
0.0
 11
263.014
 21
70.396
 31
0.0
  0
LINE
  5
11D
330
1E
100
AcDbEntity
  8
0
100
AcDbLine
 10
153.411
 20
80.5
 30
0.0
 11
153.411
 21
79.672
 31
0.0
  0
LINE
  5
11E
330
1E
100
AcDbEntity
  8
0
100
AcDbLine
 10
153.411
 20
80.5
 30
0.0
 11
153.411
 21
83.0
 31
0.0
  0
LINE
  5
11F
330
1E
100
AcDbEntity
  8
0
100
AcDbLine
 10
139.4109999999999
 20
83.0
 30
0.0
 11
153.411
 21
83.0
 31
0.0
  0
LINE
  5
120
330
1E
100
AcDbEntity
  8
0
100
AcDbLine
 10
153.411
 20
83.0
 30
0.0
 11
153.411
 21
80.5
 31
0.0
  0
LINE
  5
121
330
1E
100
AcDbEntity
  8
0
100
AcDbLine
 10
139.4109999999999
 20
83.49999999999999
 30
0.0
 11
139.4109999999999
 21
82.56399999999999
 31
0.0
  0
LINE
  5
122
330
1E
100
AcDbEntity
  8
0
100
AcDbLine
 10
139.4109999999999
 20
82.56399999999999
 30
0.0
 11
139.4109999999999
 21
83.49999999999999
 31
0.0
  0
LINE
  5
123
330
1E
100
AcDbEntity
  8
0
100
AcDbLine
 10
139.4109999999999
 20
82.56399999999999
 30
0.0
 11
139.4109999999999
 21
80.068
 31
0.0
  0
LINE
  5
124
330
1E
100
AcDbEntity
  8
0
100
AcDbLine
 10
137.4109999999999
 20
82.56399999999999
 30
0.0
 11
137.4109999999999
 21
80.068
 31
0.0
  0
LINE
  5
125
330
1E
100
AcDbEntity
  8
0
100
AcDbLine
 10
137.4109999999999
 20
82.56399999999999
 30
0.0
 11
137.4109999999999
 21
83.49999999999999
 31
0.0
  0
LINE
  5
126
330
1E
100
AcDbEntity
  8
0
100
AcDbLine
 10
137.4109999999999
 20
83.49999999999999
 30
0.0
 11
137.4109999999999
 21
82.56399999999999
 31
0.0
  0
LINE
  5
127
330
1E
100
AcDbEntity
  8
0
100
AcDbLine
 10
137.4109999999999
 20
83.49999999999999
 30
0.0
 11
139.4109999999999
 21
83.49999999999999
 31
0.0
  0
LINE
  5
128
330
1E
100
AcDbEntity
  8
0
100
AcDbLine
 10
242.349
 20
82.56399999999999
 30
0.0
 11
247.0559999999999
 21
83.49999999999999
 31
0.0
  0
LINE
  5
129
330
1E
100
AcDbEntity
  8
0
100
AcDbLine
 10
247.0559999999999
 20
83.49999999999999
 30
0.0
 11
251.7619999999999
 21
82.56399999999999
 31
0.0
  0
LINE
  5
12A
330
1E
100
AcDbEntity
  8
0
100
AcDbLine
 10
247.0559999999999
 20
83.49999999999999
 30
0.0
 11
247.7629999999999
 21
83.49999999999999
 31
0.0
  0
LINE
  5
12B
330
1E
100
AcDbEntity
  8
0
100
AcDbLine
 10
251.7619999999999
 20
82.56399999999999
 30
0.0
 11
256.1749999999999
 21
80.068
 31
0.0
  0
LINE
  5
12C
330
1E
100
AcDbEntity
  8
0
100
AcDbLine
 10
114.771
 20
105.24
 30
0.0
 11
122.191
 21
96.44
 31
0.0
  0
LINE
  5
12D
330
1E
100
AcDbEntity
  8
0
100
AcDbLine
 10
122.191
 20
96.44
 30
0.0
 11
127.791
 21
84.77999999999999
 31
0.0
  0
LINE
  5
12E
330
1E
100
AcDbEntity
  8
0
100
AcDbLine
 10
127.791
 20
84.77999999999999
 30
0.0
 11
131.151
 21
71.58
 31
0.0
  0
LINE
  5
12F
330
1E
100
AcDbEntity
  8
0
100
AcDbLine
 10
247.7629999999999
 20
83.49999999999999
 30
0.0
 11
252.469
 21
82.56399999999999
 31
0.0
  0
LINE
  5
130
330
1E
100
AcDbEntity
  8
0
100
AcDbLine
 10
252.5821538461539
 20
82.5
 30
0.0
 11
282.411
 21
82.5
 31
0.0
  0
LINE
  5
131
330
1E
100
AcDbEntity
  8
0
100
AcDbLine
 10
252.469
 20
82.56399999999999
 30
0.0
 11
256.882
 21
80.068
 31
0.0
  0
LINE
  5
132
330
1E
100
AcDbEntity
  8
0
100
AcDbLine
 10
256.882
 20
80.068
 30
0.0
 11
260.779
 21
75.908
 31
0.0
  0
LINE
  5
133
330
1E
100
AcDbEntity
  8
0
100
AcDbLine
 10
282.411
 20
82.5
 30
0.0
 11
286.9359999999999
 21
81.6
 31
0.0
  0
LINE
  5
134
330
1E
100
AcDbEntity
  8
0
100
AcDbLine
 10
286.9359999999999
 20
81.6
 30
0.0
 11
291.179
 21
79.2
 31
0.0
  0
LINE
  5
135
330
1E
100
AcDbEntity
  8
0
100
AcDbLine
 10
291.179
 20
79.2
 30
0.0
 11
294.927
 21
75.2
 31
0.0
  0
LINE
  5
136
330
1E
100
AcDbEntity
  8
0
100
AcDbLine
 10
294.927
 20
75.2
 30
0.0
 11
297.7549999999999
 21
69.90000000000001
 31
0.0
  0
LINE
  5
137
330
1E
100
AcDbEntity
  8
0
100
AcDbLine
 10
260.779
 20
75.908
 30
0.0
 11
263.721
 21
70.396
 31
0.0
  0
LINE
  5
138
330
1E
100
AcDbEntity
  8
0
100
AcDbLine
 10
263.721
 20
70.396
 30
0.0
 11
265.4859999999999
 21
64.15600000000001
 31
0.0
  0
LINE
  5
139
330
1E
100
AcDbEntity
  8
0
100
AcDbLine
 10
112.9129999999999
 20
72.1961
 30
0.0
 11
114.483
 21
64.9193
 31
0.0
  0
LINE
  5
13A
330
1E
100
AcDbEntity
  8
0
100
AcDbLine
 10
114.483
 20
64.9193
 30
0.0
 11
114.911
 21
57.5
 31
0.0
  0
LINE
  5
13B
330
1E
100
AcDbEntity
  8
0
100
AcDbLine
 10
54.3875
 20
56.6971
 30
0.0
 11
54.6886
 21
55.9444
 31
0.0
  0
LINE
  5
13C
330
1E
100
AcDbEntity
  8
0
100
AcDbLine
 10
54.27459999999999
 20
57.5
 30
0.0
 11
54.3875
 21
56.6971
 31
0.0
  0
LINE
  5
13D
330
1E
100
AcDbEntity
  8
0
100
AcDbLine
 10
54.27459999999999
 20
57.5
 30
0.0
 11
54.3875
 21
58.3029
 31
0.0
  0
LINE
  5
13E
330
1E
100
AcDbEntity
  8
0
100
AcDbLine
 10
0.339038999999983
 20
50.0807
 30
0.0
 11
1.908519999999979
 21
42.80389999999999
 31
0.0
  0
LINE
  5
13F
330
1E
100
AcDbEntity
  8
0
100
AcDbLine
 10
-0.0890000000000168
 20
57.5
 30
0.0
 11
0.339038999999983
 21
50.0807
 31
0.0
  0
LINE
  5
140
330
1E
100
AcDbEntity
  8
0
100
AcDbLine
 10
-0.0890000000000168
 20
57.5
 30
0.0
 11
0.339038999999983
 21
64.9193
 31
0.0
  0
ENDSEC
  0
SECTION
  2
OBJECTS
  0
DICTIONARY
  5
C
330
0
100
AcDbDictionary
281
     1
  3
ACAD_GROUP
350
D
  3
ACAD_LAYOUT
350
19
  3
ACAD_MLINESTYLE
350
16
  3
ACAD_PLOTSETTINGS
350
18
  3
ACAD_PLOTSTYLENAME
350
E
  3
AcDbVariableDictionary
350
145
  0
DICTIONARY
  5
D
102
{ACAD_REACTORS
330
C
102
}
330
C
100
AcDbDictionary
281
     1
  0
DICTIONARY
  5
19
102
{ACAD_REACTORS
330
C
102
}
330
C
100
AcDbDictionary
281
     1
  3
Layout1
350
1D
  3
Model
350
21
  0
DICTIONARY
  5
16
102
{ACAD_REACTORS
330
C
102
}
330
C
100
AcDbDictionary
281
     1
  3
Standard
350
17
  0
DICTIONARY
  5
18
102
{ACAD_REACTORS
330
C
102
}
330
C
100
AcDbDictionary
281
     1
  0
ACDBDICTIONARYWDFLT
  5
E
102
{ACAD_REACTORS
330
C
102
}
330
C
100
AcDbDictionary
281
     1
  3
Normal
350
F
100
AcDbDictionaryWithDefault
340
F
  0
DICTIONARY
  5
145
102
{ACAD_REACTORS
330
C
102
}
330
C
100
AcDbDictionary
281
     1
  3
DIMASSOC
350
146
  0
LAYOUT
  5
1D
102
{ACAD_REACTORS
330
19
102
}
330
19
100
AcDbPlotSettings
  1

  2
hp deskjet 980c series
  4

  6

 40
0.0
 41
0.0
 42
0.0
 43
0.0
 44
0.0
 45
0.0
 46
0.0
 47
0.0
 48
0.0
 49
0.0
140
0.0
141
0.0
142
1.0
143
1.0
 70
   688
 72
     0
 73
     0
 74
     5
  7

 75
    16
147
1.0
148
0.0
149
0.0
100
AcDbLayout
  1
Layout1
 70
     1
 71
     1
 10
0.0
 20
0.0
 11
12.0
 21
9.0
 12
0.0
 22
0.0
 32
0.0
 14
1.000000000000000E+20
 24
1.000000000000000E+20
 34
1.000000000000000E+20
 15
-1.000000000000000E+20
 25
-1.000000000000000E+20
 35
-1.000000000000000E+20
146
0.0
 13
0.0
 23
0.0
 33
0.0
 16
1.0
 26
0.0
 36
0.0
 17
0.0
 27
1.0
 37
0.0
 76
     0
330
1A
  0
LAYOUT
  5
21
102
{ACAD_REACTORS
330
19
102
}
330
19
100
AcDbPlotSettings
  1

  2
hp deskjet 980c series
  4

  6

 40
0.0
 41
0.0
 42
0.0
 43
0.0
 44
0.0
 45
0.0
 46
0.0
 47
0.0
 48
0.0
 49
0.0
140
0.0
141
0.0
142
1.0
143
1.0
 70
  1712
 72
     0
 73
     0
 74
     0
  7

 75
     0
147
1.0
148
0.0
149
0.0
100
AcDbLayout
  1
Model
 70
     1
 71
     0
 10
0.0
 20
0.0
 11
12.0
 21
9.0
 12
0.0
 22
0.0
 32
0.0
 14
0.0
 24
0.0
 34
0.0
 15
0.0
 25
0.0
 35
0.0
146
0.0
 13
0.0
 23
0.0
 33
0.0
 16
1.0
 26
0.0
 36
0.0
 17
0.0
 27
1.0
 37
0.0
 76
     0
330
1E
  0
MLINESTYLE
  5
17
102
{ACAD_REACTORS
330
16
102
}
330
16
100
AcDbMlineStyle
  2
STANDARD
 70
     0
  3

 62
   256
 51
90.0
 52
90.0
 71
     2
 49
0.5
 62
   256
  6
BYLAYER
 49
-0.5
 62
   256
  6
BYLAYER
  0
ACDBPLACEHOLDER
  5
F
102
{ACAD_REACTORS
330
E
102
}
330
E
  0
DICTIONARYVAR
  5
146
102
{ACAD_REACTORS
330
145
102
}
330
145
100
DictionaryVariables
280
     0
  1
1
  0
ENDSEC
  0
EOF
