  0
SECTION
  2
HEADER
  9
$ACADVER
  1
AC1015
  9
$ACADMAINTVER
 70
    13
  9
$DWGCODEPAGE
  3
ANSI_1252
  9
$INSBASE
 10
0.0
 20
0.0
 30
0.0
  9
$EXTMIN
 10
0.0000000000000012
 20
-0.000000000000003
 30
0.0
  9
$EXTMAX
 10
86.0
 20
114.0
 30
0.0
  9
$LIMMIN
 10
0.0
 20
0.0
  9
$LIMMAX
 10
12.0
 20
9.0
  9
$ORTHOMODE
 70
     0
  9
$REGENMODE
 70
     1
  9
$FILLMODE
 70
     1
  9
$QTEXTMODE
 70
     0
  9
$MIRRTEXT
 70
     1
  9
$LTSCALE
 40
1.0
  9
$ATTMODE
 70
     1
  9
$TEXTSIZE
 40
0.2
  9
$TRACEWID
 40
0.05
  9
$TEXTSTYLE
  7
Standard
  9
$CLAYER
  8
0
  9
$CELTYPE
  6
Continuous
  9
$CECOLOR
 62
   256
  9
$CELTSCALE
 40
1.0
  9
$DISPSILH
 70
     0
  9
$DIMSCALE
 40
1.0
  9
$DIMASZ
 40
0.18
  9
$DIMEXO
 40
0.0625
  9
$DIMDLI
 40
0.38
  9
$DIMRND
 40
0.0
  9
$DIMDLE
 40
0.0
  9
$DIMEXE
 40
0.18
  9
$DIMTP
 40
0.0
  9
$DIMTM
 40
0.0
  9
$DIMTXT
 40
0.18
  9
$DIMCEN
 40
0.09
  9
$DIMTSZ
 40
0.0
  9
$DIMTOL
 70
     0
  9
$DIMLIM
 70
     0
  9
$DIMTIH
 70
     1
  9
$DIMTOH
 70
     1
  9
$DIMSE1
 70
     0
  9
$DIMSE2
 70
     0
  9
$DIMTAD
 70
     0
  9
$DIMZIN
 70
     0
  9
$DIMBLK
  1

  9
$DIMASO
 70
     1
  9
$DIMSHO
 70
     1
  9
$DIMPOST
  1

  9
$DIMAPOST
  1

  9
$DIMALT
 70
     0
  9
$DIMALTD
 70
     2
  9
$DIMALTF
 40
25.4
  9
$DIMLFAC
 40
1.0
  9
$DIMTOFL
 70
     0
  9
$DIMTVP
 40
0.0
  9
$DIMTIX
 70
     0
  9
$DIMSOXD
 70
     0
  9
$DIMSAH
 70
     0
  9
$DIMBLK1
  1

  9
$DIMBLK2
  1

  9
$DIMSTYLE
  2
Standard
  9
$DIMCLRD
 70
     0
  9
$DIMCLRE
 70
     0
  9
$DIMCLRT
 70
     0
  9
$DIMTFAC
 40
1.0
  9
$DIMGAP
 40
0.09
  9
$DIMJUST
 70
     0
  9
$DIMSD1
 70
     0
  9
$DIMSD2
 70
     0
  9
$DIMTOLJ
 70
     1
  9
$DIMTZIN
 70
     0
  9
$DIMALTZ
 70
     0
  9
$DIMALTTZ
 70
     0
  9
$DIMUPT
 70
     0
  9
$DIMDEC
 70
     4
  9
$DIMTDEC
 70
     4
  9
$DIMALTU
 70
     2
  9
$DIMALTTD
 70
     2
  9
$DIMTXSTY
  7
Standard
  9
$DIMAUNIT
 70
     0
  9
$DIMADEC
 70
     0
  9
$DIMALTRND
 40
0.0
  9
$DIMAZIN
 70
     0
  9
$DIMDSEP
 70
    46
  9
$DIMATFIT
 70
     3
  9
$DIMFRAC
 70
     0
  9
$DIMLDRBLK
  1

  9
$DIMLUNIT
 70
     2
  9
$DIMLWD
 70
    -2
  9
$DIMLWE
 70
    -2
  9
$DIMTMOVE
 70
     0
  9
$LUNITS
 70
     2
  9
$LUPREC
 70
     4
  9
$SKETCHINC
 40
0.1
  9
$FILLETRAD
 40
0.0
  9
$AUNITS
 70
     0
  9
$AUPREC
 70
     0
  9
$MENU
  1
.
  9
$ELEVATION
 40
0.0
  9
$PELEVATION
 40
0.0
  9
$THICKNESS
 40
0.0
  9
$LIMCHECK
 70
     0
  9
$CHAMFERA
 40
0.0
  9
$CHAMFERB
 40
0.0
  9
$CHAMFERC
 40
0.0
  9
$CHAMFERD
 40
0.0
  9
$SKPOLY
 70
     0
  9
$TDCREATE
 40
2454833.632959525
  9
$TDUCREATE
 40
2454833.591292858
  9
$TDUPDATE
 40
2454833.635264386
  9
$TDUUPDATE
 40
2454833.593597720
  9
$TDINDWG
 40
0.0023050463
  9
$TDUSRTIMER
 40
0.0023050463
  9
$USRTIMER
 70
     1
  9
$ANGBASE
 50
0.0
  9
$ANGDIR
 70
     0
  9
$PDMODE
 70
     0
  9
$PDSIZE
 40
0.0
  9
$PLINEWID
 40
0.0
  9
$SPLFRAME
 70
     0
  9
$SPLINETYPE
 70
     6
  9
$SPLINESEGS
 70
     8
  9
$HANDSEED
  5
332
  9
$SURFTAB1
 70
     6
  9
$SURFTAB2
 70
     6
  9
$SURFTYPE
 70
     6
  9
$SURFU
 70
     6
  9
$SURFV
 70
     6
  9
$UCSBASE
  2

  9
$UCSNAME
  2

  9
$UCSORG
 10
0.0
 20
0.0
 30
0.0
  9
$UCSXDIR
 10
1.0
 20
0.0
 30
0.0
  9
$UCSYDIR
 10
0.0
 20
1.0
 30
0.0
  9
$UCSORTHOREF
  2

  9
$UCSORTHOVIEW
 70
     1
  9
$UCSORGTOP
 10
0.0
 20
0.0
 30
0.0
  9
$UCSORGBOTTOM
 10
0.0
 20
0.0
 30
0.0
  9
$UCSORGLEFT
 10
0.0
 20
0.0
 30
0.0
  9
$UCSORGRIGHT
 10
0.0
 20
0.0
 30
0.0
  9
$UCSORGFRONT
 10
0.0
 20
0.0
 30
0.0
  9
$UCSORGBACK
 10
0.0
 20
0.0
 30
0.0
  9
$PUCSBASE
  2

  9
$PUCSNAME
  2

  9
$PUCSORG
 10
0.0
 20
0.0
 30
0.0
  9
$PUCSXDIR
 10
1.0
 20
0.0
 30
0.0
  9
$PUCSYDIR
 10
0.0
 20
1.0
 30
0.0
  9
$PUCSORTHOREF
  2

  9
$PUCSORTHOVIEW
 70
     0
  9
$PUCSORGTOP
 10
0.0
 20
0.0
 30
0.0
  9
$PUCSORGBOTTOM
 10
0.0
 20
0.0
 30
0.0
  9
$PUCSORGLEFT
 10
0.0
 20
0.0
 30
0.0
  9
$PUCSORGRIGHT
 10
0.0
 20
0.0
 30
0.0
  9
$PUCSORGFRONT
 10
0.0
 20
0.0
 30
0.0
  9
$PUCSORGBACK
 10
0.0
 20
0.0
 30
0.0
  9
$USERI1
 70
     0
  9
$USERI2
 70
     0
  9
$USERI3
 70
     0
  9
$USERI4
 70
     0
  9
$USERI5
 70
     0
  9
$USERR1
 40
0.0
  9
$USERR2
 40
0.0
  9
$USERR3
 40
0.0
  9
$USERR4
 40
0.0
  9
$USERR5
 40
0.0
  9
$WORLDVIEW
 70
     1
  9
$SHADEDGE
 70
     3
  9
$SHADEDIF
 70
    70
  9
$TILEMODE
 70
     1
  9
$MAXACTVP
 70
    64
  9
$PINSBASE
 10
0.0
 20
0.0
 30
0.0
  9
$PLIMCHECK
 70
     0
  9
$PEXTMIN
 10
1.000000000000000E+20
 20
1.000000000000000E+20
 30
1.000000000000000E+20
  9
$PEXTMAX
 10
-1.000000000000000E+20
 20
-1.000000000000000E+20
 30
-1.000000000000000E+20
  9
$PLIMMIN
 10
0.0
 20
0.0
  9
$PLIMMAX
 10
12.0
 20
9.0
  9
$UNITMODE
 70
     0
  9
$VISRETAIN
 70
     1
  9
$PLINEGEN
 70
     0
  9
$PSLTSCALE
 70
     1
  9
$TREEDEPTH
 70
  3020
  9
$CMLSTYLE
  2
Standard
  9
$CMLJUST
 70
     0
  9
$CMLSCALE
 40
1.0
  9
$PROXYGRAPHICS
 70
     1
  9
$MEASUREMENT
 70
     0
  9
$CELWEIGHT
370
    -1
  9
$ENDCAPS
280
     0
  9
$JOINSTYLE
280
     0
  9
$LWDISPLAY
290
     0
  9
$INSUNITS
 70
     0
  9
$HYPERLINKBASE
  1

  9
$STYLESHEET
  1

  9
$XEDIT
290
     1
  9
$CEPSNTYPE
380
     0
  9
$PSTYLEMODE
290
     1
  9
$FINGERPRINTGUID
  2
{CFDAF1BA-80D7-40CC-B9AF-F4A293D2E0A2}
  9
$VERSIONGUID
  2
{C9F3B956-0537-4C91-8243-5E1A5D906FC6}
  9
$EXTNAMES
290
     1
  9
$PSVPSCALE
 40
0.0
  9
$OLESTARTUP
290
     0
  0
ENDSEC
  0
SECTION
  2
CLASSES
  0
CLASS
  1
ACDBDICTIONARYWDFLT
  2
AcDbDictionaryWithDefault
  3
AutoCAD 2000
 90
        0
280
     0
281
     0
  0
CLASS
  1
ACDBPLACEHOLDER
  2
AcDbPlaceHolder
  3
AutoCAD 2000
 90
        0
280
     0
281
     0
  0
CLASS
  1
LAYOUT
  2
AcDbLayout
  3
AutoCAD 2000
 90
        0
280
     0
281
     0
  0
CLASS
  1
DICTIONARYVAR
  2
AcDbDictionaryVar
  3
AutoCAD 2000
 90
        0
280
     0
281
     0
  0
ENDSEC
  0
SECTION
  2
TABLES
  0
TABLE
  2
VPORT
  5
8
330
0
100
AcDbSymbolTable
 70
     2
  0
VPORT
  5
331
330
8
100
AcDbSymbolTableRecord
100
AcDbViewportTableRecord
  2
*Active
 70
     0
 10
0.0
 20
0.0
 11
1.0
 21
1.0
 12
43.0
 22
57.0
 13
0.0
 23
0.0
 14
1.0
 24
1.0
 15
0.0
 25
0.0
 16
0.0
 26
0.0
 36
1.0
 17
0.0
 27
0.0
 37
0.0
 40
114.8746803069053
 41
2.078104993597951
 42
50.0
 43
0.0
 44
0.0
 50
0.0
 51
0.0
 71
     0
 72
   100
 73
     1
 74
     3
 75
     0
 76
     0
 77
     0
 78
     0
281
     0
 65
     1
110
0.0
120
0.0
130
0.0
111
1.0
121
0.0
131
0.0
112
0.0
122
1.0
132
0.0
 79
     1
146
0.0
  0
ENDTAB
  0
TABLE
  2
LTYPE
  5
5
330
0
100
AcDbSymbolTable
 70
     1
  0
LTYPE
  5
13
330
5
100
AcDbSymbolTableRecord
100
AcDbLinetypeTableRecord
  2
ByBlock
 70
     0
  3

 72
    65
 73
     0
 40
0.0
  0
LTYPE
  5
14
330
5
100
AcDbSymbolTableRecord
100
AcDbLinetypeTableRecord
  2
ByLayer
 70
     0
  3

 72
    65
 73
     0
 40
0.0
  0
LTYPE
  5
15
330
5
100
AcDbSymbolTableRecord
100
AcDbLinetypeTableRecord
  2
Continuous
 70
     0
  3
Solid line
 72
    65
 73
     0
 40
0.0
  0
ENDTAB
  0
TABLE
  2
LAYER
  5
2
330
0
100
AcDbSymbolTable
 70
     1
  0
LAYER
  5
10
330
2
100
AcDbSymbolTableRecord
100
AcDbLayerTableRecord
  2
0
 70
     0
 62
     7
  6
Continuous
370
    -3
390
F
  0
ENDTAB
  0
TABLE
  2
STYLE
  5
3
330
0
100
AcDbSymbolTable
 70
     1
  0
STYLE
  5
11
330
3
100
AcDbSymbolTableRecord
100
AcDbTextStyleTableRecord
  2
Standard
 70
     0
 40
0.0
 41
1.0
 50
0.0
 71
     0
 42
0.2
  3
txt
  4

  0
ENDTAB
  0
TABLE
  2
VIEW
  5
6
330
0
100
AcDbSymbolTable
 70
     0
  0
ENDTAB
  0
TABLE
  2
UCS
  5
7
330
0
100
AcDbSymbolTable
 70
     0
  0
ENDTAB
  0
TABLE
  2
APPID
  5
9
330
0
100
AcDbSymbolTable
 70
     1
  0
APPID
  5
12
330
9
100
AcDbSymbolTableRecord
100
AcDbRegAppTableRecord
  2
ACAD
 70
     0
  0
ENDTAB
  0
TABLE
  2
DIMSTYLE
  5
A
330
0
100
AcDbSymbolTable
 70
     1
100
AcDbDimStyleTable
 71
     0
  0
DIMSTYLE
105
32B
330
A
100
AcDbSymbolTableRecord
100
AcDbDimStyleTableRecord
  2
Standard
 70
     0
340
11
  0
ENDTAB
  0
TABLE
  2
BLOCK_RECORD
  5
1
330
0
100
AcDbSymbolTable
 70
     0
  0
BLOCK_RECORD
  5
1E
330
1
100
AcDbSymbolTableRecord
100
AcDbBlockTableRecord
  2
*Model_Space
340
21
  0
BLOCK_RECORD
  5
1A
330
1
100
AcDbSymbolTableRecord
100
AcDbBlockTableRecord
  2
*Paper_Space
340
1D
  0
ENDTAB
  0
ENDSEC
  0
SECTION
  2
BLOCKS
  0
BLOCK
  5
1F
330
1E
100
AcDbEntity
  8
0
100
AcDbBlockBegin
  2
*Model_Space
 70
     0
 10
0.0
 20
0.0
 30
0.0
  3
*Model_Space
  1

  0
ENDBLK
  5
20
330
1E
100
AcDbEntity
  8
0
100
AcDbBlockEnd
  0
BLOCK
  5
1B
330
1A
100
AcDbEntity
 67
     1
  8
0
100
AcDbBlockBegin
  2
*Paper_Space
 70
     0
 10
0.0
 20
0.0
 30
0.0
  3
*Paper_Space
  1

  0
ENDBLK
  5
1C
330
1A
100
AcDbEntity
 67
     1
  8
0
100
AcDbBlockEnd
  0
ENDSEC
  0
SECTION
  2
ENTITIES
  0
LINE
  5
22
330
1E
100
AcDbEntity
  8
0
100
AcDbLine
 10
0.0000000000000012
 20
21.0
 30
0.0
 11
1.6
 21
21.0
 31
0.0
  0
LINE
  5
23
330
1E
100
AcDbEntity
  8
0
100
AcDbLine
 10
0.0000000000000013
 20
21.0
 30
0.0
 11
1.0
 21
21.49999999999999
 31
0.0
  0
LINE
  5
24
330
1E
100
AcDbEntity
  8
0
100
AcDbLine
 10
0.0000000000000013
 20
21.0
 30
0.0
 11
1.0
 21
21.49999999999999
 31
0.0
  0
LINE
  5
25
330
1E
100
AcDbEntity
  8
0
100
AcDbLine
 10
0.0000000000000013
 20
21.0
 30
0.0
 11
0.500000000000001
 21
19.0
 31
0.0
  0
LINE
  5
26
330
1E
100
AcDbEntity
  8
0
100
AcDbLine
 10
0.0000000000000013
 20
21.0
 30
0.0
 11
1.6
 21
21.0
 31
0.0
  0
LINE
  5
27
330
1E
100
AcDbEntity
  8
0
100
AcDbLine
 10
0.0000000000000013
 20
21.0
 30
0.0
 11
0.500000000000001
 21
19.0
 31
0.0
  0
LINE
  5
28
330
1E
100
AcDbEntity
  8
0
100
AcDbLine
 10
0.500000000000001
 20
19.0
 30
0.0
 11
2.0
 21
16.5
 31
0.0
  0
LINE
  5
29
330
1E
100
AcDbEntity
  8
0
100
AcDbLine
 10
1.0
 20
21.49999999999999
 30
0.0
 11
2.5
 21
21.49999999999999
 31
0.0
  0
LINE
  5
2A
330
1E
100
AcDbEntity
  8
0
100
AcDbLine
 10
1.6
 20
21.0
 30
0.0
 11
5.799999999999999
 21
21.0
 31
0.0
  0
LINE
  5
2B
330
1E
100
AcDbEntity
  8
0
100
AcDbLine
 10
2.5
 20
21.49999999999999
 30
0.0
 11
6.599999999999999
 21
21.49999999999999
 31
0.0
  0
LINE
  5
2C
330
1E
100
AcDbEntity
  8
0
100
AcDbLine
 10
2.0
 20
16.5
 30
0.0
 11
4.5
 21
14.0
 31
0.0
  0
LINE
  5
2D
330
1E
100
AcDbEntity
  8
0
100
AcDbLine
 10
1.6
 20
22.0254
 30
0.0
 11
5.799999999999999
 21
22.0254
 31
0.0
  0
LINE
  5
2E
330
1E
100
AcDbEntity
  8
0
100
AcDbLine
 10
5.799999999999999
 20
21.0
 30
0.0
 11
12.6
 21
21.0
 31
0.0
  0
LINE
  5
2F
330
1E
100
AcDbEntity
  8
0
100
AcDbLine
 10
4.5
 20
14.0
 30
0.0
 11
8.0
 21
12.0
 31
0.0
  0
LINE
  5
30
330
1E
100
AcDbEntity
  8
0
100
AcDbLine
 10
12.7232
 20
7.632819999999999
 30
0.0
 11
13.4369
 21
7.02963
 31
0.0
  0
LINE
  5
31
330
1E
100
AcDbEntity
  8
0
100
AcDbLine
 10
13.2668
 20
7.632819999999999
 30
0.0
 11
14.2134
 21
7.02963
 31
0.0
  0
LINE
  5
33
330
1E
100
AcDbEntity
  8
0
100
AcDbLine
 10
12.6392
 20
7.891329999999999
 30
0.0
 11
13.2668
 21
7.632819999999999
 31
0.0
  0
LINE
  5
34
330
1E
100
AcDbEntity
  8
0
100
AcDbLine
 10
12.6392
 20
7.891329999999999
 30
0.0
 11
12.7232
 21
7.632819999999999
 31
0.0
  0
LINE
  5
36
330
1E
100
AcDbEntity
  8
0
100
AcDbLine
 10
11.9365
 20
7.632819999999999
 30
0.0
 11
12.796
 21
7.02963
 31
0.0
  0
LINE
  5
38
330
1E
100
AcDbEntity
  8
0
100
AcDbLine
 10
12.796
 20
7.02963
 30
0.0
 11
13.6555
 21
6.42644
 31
0.0
  0
LINE
  5
3A
330
1E
100
AcDbEntity
  8
0
100
AcDbLine
 10
11.56819999999999
 20
7.891329999999999
 30
0.0
 11
11.9365
 21
7.632819999999999
 31
0.0
  0
LINE
  5
3B
330
1E
100
AcDbEntity
  8
0
100
AcDbLine
 10
11.56819999999999
 20
7.891329999999999
 30
0.0
 11
11.8863714795405
 21
8.344690433716239
 31
0.0
  0
LINE
  5
3C
330
1E
100
AcDbEntity
  8
0
100
AcDbLine
 10
12.6
 20
21.0
 30
0.0
 11
21.6
 21
21.0
 31
0.0
  0
LINE
  5
3D
330
1E
100
AcDbEntity
  8
0
100
AcDbLine
 10
8.0
 20
12.0
 30
0.0
 11
10.5
 21
9.5
 31
0.0
  0
LINE
  5
3E
330
1E
100
AcDbEntity
  8
0
100
AcDbLine
 10
10.5
 20
9.5
 30
0.0
 11
11.8863714795405
 21
8.344690433716239
 31
0.0
  0
LINE
  5
3F
330
1E
100
AcDbEntity
  8
0
100
AcDbLine
 10
6.599999999999999
 20
21.49999999999999
 30
0.0
 11
13.3
 21
21.49999999999999
 31
0.0
  0
LINE
  5
40
330
1E
100
AcDbEntity
  8
0
100
AcDbLine
 10
5.799999999999999
 20
22.0254
 30
0.0
 11
12.6
 21
22.0254
 31
0.0
  0
LINE
  5
41
330
1E
100
AcDbEntity
  8
0
100
AcDbLine
 10
2.5
 20
21.49999999999999
 30
0.0
 11
6.599999999999999
 21
21.49999999999999
 31
0.0
  0
LINE
  5
42
330
1E
100
AcDbEntity
  8
0
100
AcDbLine
 10
1.6
 20
22.0254
 30
0.0
 11
5.799999999999999
 21
22.0254
 31
0.0
  0
LINE
  5
43
330
1E
100
AcDbEntity
  8
0
100
AcDbLine
 10
1.0
 20
21.49999999999999
 30
0.0
 11
2.5
 21
21.49999999999999
 31
0.0
  0
LINE
  5
44
330
1E
100
AcDbEntity
  8
0
100
AcDbLine
 10
0.0000000000000015
 20
22.0254
 30
0.0
 11
1.6
 21
22.0254
 31
0.0
  0
LINE
  5
45
330
1E
100
AcDbEntity
  8
0
100
AcDbLine
 10
18.0562
 20
4.155869999999999
 30
0.0
 11
18.3332
 21
3.988449999999999
 31
0.0
  0
LINE
  5
46
330
1E
100
AcDbEntity
  8
0
100
AcDbLine
 10
18.0562
 20
4.155869999999999
 30
0.0
 11
18.1664864071578
 21
4.43340543713688
 31
0.0
  0
LINE
  5
47
330
1E
100
AcDbEntity
  8
0
100
AcDbLine
 10
18.0562
 20
4.155869999999999
 30
0.0
 11
18.6073
 21
3.988449999999999
 31
0.0
  0
LINE
  5
48
330
1E
100
AcDbEntity
  8
0
100
AcDbLine
 10
18.0562
 20
4.155869999999999
 30
0.0
 11
18.1929496046153
 21
4.5
 31
0.0
  0
LINE
  5
49
330
1E
100
AcDbEntity
  8
0
100
AcDbLine
 10
18.6073
 20
3.988449999999999
 30
0.0
 11
19.6323
 21
3.597799999999999
 31
0.0
  0
LINE
  5
4B
330
1E
100
AcDbEntity
  8
0
100
AcDbLine
 10
18.3332
 20
3.988449999999999
 30
0.0
 11
19.2408
 21
3.597799999999999
 31
0.0
  0
LINE
  5
4C
330
1E
100
AcDbEntity
  8
0
100
AcDbLine
 10
14.02379999999999
 20
6.16793
 30
0.0
 11
14.2603394099599
 21
6.504975497313089
 31
0.0
  0
LINE
  5
4D
330
1E
100
AcDbEntity
  8
0
100
AcDbLine
 10
13.6555
 20
6.42644
 30
0.0
 11
14.02379999999999
 21
6.16793
 31
0.0
  0
LINE
  5
4F
330
1E
100
AcDbEntity
  8
0
100
AcDbLine
 10
13.4369
 20
7.02963
 30
0.0
 11
14.3836
 21
6.42644
 31
0.0
  0
LINE
  5
50
330
1E
100
AcDbEntity
  8
0
100
AcDbLine
 10
14.2134
 20
7.02963
 30
0.0
 11
14.92709999999999
 21
6.42644
 31
0.0
  0
LINE
  5
52
330
1E
100
AcDbEntity
  8
0
100
AcDbLine
 10
14.2603394099599
 20
6.504975497313089
 30
0.0
 11
14.3836
 21
6.42644
 31
0.0
  0
LINE
  5
53
330
1E
100
AcDbEntity
  8
0
100
AcDbLine
 10
14.92709999999999
 20
6.42644
 30
0.0
 11
15.0111
 21
6.16793
 31
0.0
  0
LINE
  5
55
330
1E
100
AcDbEntity
  8
0
100
AcDbLine
 10
14.3836
 20
6.42644
 30
0.0
 11
14.95935452269669
 21
6.1892474873907
 31
0.0
  0
LINE
  5
56
330
1E
100
AcDbEntity
  8
0
100
AcDbLine
 10
14.3836
 20
6.42644
 30
0.0
 11
15.0111
 21
6.16793
 31
0.0
  0
LINE
  5
57
330
1E
100
AcDbEntity
  8
0
100
AcDbLine
 10
14.95935452269669
 20
6.1892474873907
 30
0.0
 11
18.0
 21
4.5
 31
0.0
  0
LINE
  5
5A
330
1E
100
AcDbEntity
  8
0
100
AcDbLine
 10
15.5733
 20
7.632819999999999
 30
0.0
 11
16.0926
 21
7.02963
 31
0.0
  0
LINE
  5
5B
330
1E
100
AcDbEntity
  8
0
100
AcDbLine
 10
15.5733
 20
7.632819999999999
 30
0.0
 11
15.7793
 21
7.891329999999999
 31
0.0
  0
LINE
  5
5D
330
1E
100
AcDbEntity
  8
0
100
AcDbLine
 10
16.0926
 20
7.02963
 30
0.0
 11
17.0619
 21
6.42644
 31
0.0
  0
LINE
  5
5E
330
1E
100
AcDbEntity
  8
0
100
AcDbLine
 10
17.0619
 20
6.42644
 30
0.0
 11
17.90589999999999
 21
6.16793
 31
0.0
  0
LINE
  5
60
330
1E
100
AcDbEntity
  8
0
100
AcDbLine
 10
17.90589999999999
 20
6.16793
 30
0.0
 11
18.11189999999999
 21
6.42644
 31
0.0
  0
LINE
  5
61
330
1E
100
AcDbEntity
  8
0
100
AcDbLine
 10
17.5926
 20
7.02963
 30
0.0
 11
18.11189999999999
 21
6.42644
 31
0.0
  0
LINE
  5
62
330
1E
100
AcDbEntity
  8
0
100
AcDbLine
 10
16.6233
 20
7.632819999999999
 30
0.0
 11
17.5926
 21
7.02963
 31
0.0
  0
LINE
  5
64
330
1E
100
AcDbEntity
  8
0
100
AcDbLine
 10
15.7793
 20
7.891329999999999
 30
0.0
 11
16.6233
 21
7.632819999999999
 31
0.0
  0
LINE
  5
66
330
1E
100
AcDbEntity
  8
0
100
AcDbLine
 10
14.95935452269669
 20
6.1892474873907
 30
0.0
 11
18.0
 21
4.5
 31
0.0
  0
LINE
  5
67
330
1E
100
AcDbEntity
  8
0
100
AcDbLine
 10
18.0
 20
4.5
 30
0.0
 11
18.1664864071578
 21
4.43340543713688
 31
0.0
  0
LINE
  5
68
330
1E
100
AcDbEntity
  8
0
100
AcDbLine
 10
18.0
 20
4.5
 30
0.0
 11
18.1664864071578
 21
4.43340543713688
 31
0.0
  0
LINE
  5
69
330
1E
100
AcDbEntity
  8
0
100
AcDbLine
 10
13.3
 20
21.49999999999999
 30
0.0
 11
22.1
 21
21.49999999999999
 31
0.0
  0
LINE
  5
6A
330
1E
100
AcDbEntity
  8
0
100
AcDbLine
 10
12.6
 20
22.0254
 30
0.0
 11
21.6
 21
22.0254
 31
0.0
  0
LINE
  5
6B
330
1E
100
AcDbEntity
  8
0
100
AcDbLine
 10
0.0000000000000013
 20
22.0254
 30
0.0
 11
0.0000000000000017
 21
27.27899999999999
 31
0.0
  0
LINE
  5
6C
330
1E
100
AcDbEntity
  8
0
100
AcDbLine
 10
0.0000000000000013
 20
22.0254
 30
0.0
 11
1.0
 21
21.49999999999999
 31
0.0
  0
LINE
  5
6D
330
1E
100
AcDbEntity
  8
0
100
AcDbLine
 10
0.0000000000000013
 20
22.0254
 30
0.0
 11
1.6
 21
22.0254
 31
0.0
  0
LINE
  5
6E
330
1E
100
AcDbEntity
  8
0
100
AcDbLine
 10
0.0000000000000016
 20
27.27899999999999
 30
0.0
 11
0.500000000000002
 21
31.4819
 31
0.0
  0
LINE
  5
6F
330
1E
100
AcDbEntity
  8
0
100
AcDbLine
 10
1.0
 20
36.7356
 30
0.0
 11
3.0
 21
46.7175
 31
0.0
  0
LINE
  5
70
330
1E
100
AcDbEntity
  8
0
100
AcDbLine
 10
16.0
 20
71.935
 30
0.0
 11
19.0
 21
74.0
 31
0.0
  0
LINE
  5
71
330
1E
100
AcDbEntity
  8
0
100
AcDbLine
 10
12.0
 20
67.2067
 30
0.0
 11
16.0
 21
71.935
 31
0.0
  0
LINE
  5
72
330
1E
100
AcDbEntity
  8
0
100
AcDbLine
 10
8.5
 20
60.9023
 30
0.0
 11
12.0
 21
67.2067
 31
0.0
  0
LINE
  5
73
330
1E
100
AcDbEntity
  8
0
100
AcDbLine
 10
5.5
 20
54.598
 30
0.0
 11
8.5
 21
60.9023
 31
0.0
  0
LINE
  5
74
330
1E
100
AcDbEntity
  8
0
100
AcDbLine
 10
3.0
 20
46.7175
 30
0.0
 11
5.5
 21
54.598
 31
0.0
  0
LINE
  5
75
330
1E
100
AcDbEntity
  8
0
100
AcDbLine
 10
1.0
 20
36.7356
 30
0.0
 11
3.0
 21
46.7175
 31
0.0
  0
LINE
  5
76
330
1E
100
AcDbEntity
  8
0
100
AcDbLine
 10
0.500000000000002
 20
31.4819
 30
0.0
 11
1.0
 21
36.7356
 31
0.0
  0
LINE
  5
77
330
1E
100
AcDbEntity
  8
0
100
AcDbLine
 10
0.0000000000000017
 20
27.27899999999999
 30
0.0
 11
0.500000000000002
 21
31.4819
 31
0.0
  0
LINE
  5
78
330
1E
100
AcDbEntity
  8
0
100
AcDbLine
 10
0.0000000000000013
 20
22.0254
 30
0.0
 11
1.0
 21
21.49999999999999
 31
0.0
  0
LINE
  5
79
330
1E
100
AcDbEntity
  8
0
100
AcDbLine
 10
20.81699999999999
 20
3.039719999999999
 30
0.0
 11
20.96664762140629
 21
3.41630985198229
 31
0.0
  0
LINE
  5
7A
330
1E
100
AcDbEntity
  8
0
100
AcDbLine
 10
20.5399
 20
3.20714
 30
0.0
 11
20.81699999999999
 21
3.039719999999999
 31
0.0
  0
LINE
  5
7C
330
1E
100
AcDbEntity
  8
0
100
AcDbLine
 10
20.2658
 20
3.20714
 30
0.0
 11
20.81699999999999
 21
3.039719999999999
 31
0.0
  0
LINE
  5
7D
330
1E
100
AcDbEntity
  8
0
100
AcDbLine
 10
21.541
 20
3.20714
 30
0.0
 11
22.3287
 21
3.039719999999999
 31
0.0
  0
LINE
  5
7E
330
1E
100
AcDbEntity
  8
0
100
AcDbLine
 10
20.9313421113544
 20
3.327463155458259
 30
0.0
 11
23.0
 21
2.5
 31
0.0
  0
LINE
  5
7F
330
1E
100
AcDbEntity
  8
0
100
AcDbLine
 10
20.46829999999999
 20
3.597799999999999
 30
0.0
 11
21.541
 21
3.20714
 31
0.0
  0
LINE
  5
80
330
1E
100
AcDbEntity
  8
0
100
AcDbLine
 10
19.6323
 20
3.597799999999999
 30
0.0
 11
20.5399
 21
3.20714
 31
0.0
  0
LINE
  5
82
330
1E
100
AcDbEntity
  8
0
100
AcDbLine
 10
19.7401
 20
3.988449999999999
 30
0.0
 11
20.46829999999999
 21
3.597799999999999
 31
0.0
  0
LINE
  5
83
330
1E
100
AcDbEntity
  8
0
100
AcDbLine
 10
19.7401
 20
3.988449999999999
 30
0.0
 11
19.756
 21
4.155869999999999
 31
0.0
  0
LINE
  5
84
330
1E
100
AcDbEntity
  8
0
100
AcDbLine
 10
19.756
 20
4.155869999999999
 30
0.0
 11
20.5438
 21
3.988449999999999
 31
0.0
  0
LINE
  5
87
330
1E
100
AcDbEntity
  8
0
100
AcDbLine
 10
20.5438
 20
3.988449999999999
 30
0.0
 11
21.61639999999999
 21
3.597799999999999
 31
0.0
  0
LINE
  5
89
330
1E
100
AcDbEntity
  8
0
100
AcDbLine
 10
21.5078
 20
6.42644
 30
0.0
 11
22.51069999999999
 21
6.16793
 31
0.0
  0
LINE
  5
8A
330
1E
100
AcDbEntity
  8
0
100
AcDbLine
 10
20.7744
 20
7.891329999999999
 30
0.0
 11
21.77729999999999
 21
7.632819999999999
 31
0.0
  0
LINE
  5
8C
330
1E
100
AcDbEntity
  8
0
100
AcDbLine
 10
20.5819
 20
7.02963
 30
0.0
 11
21.5078
 21
6.42644
 31
0.0
  0
LINE
  5
8D
330
1E
100
AcDbEntity
  8
0
100
AcDbLine
 10
20.2924
 20
7.632819999999999
 30
0.0
 11
20.7744
 21
7.891329999999999
 31
0.0
  0
LINE
  5
8E
330
1E
100
AcDbEntity
  8
0
100
AcDbLine
 10
20.2924
 20
7.632819999999999
 30
0.0
 11
20.5819
 21
7.02963
 31
0.0
  0
LINE
  5
90
330
1E
100
AcDbEntity
  8
0
100
AcDbLine
 10
19.2408
 20
3.597799999999999
 30
0.0
 11
20.2658
 21
3.20714
 31
0.0
  0
LINE
  5
91
330
1E
100
AcDbEntity
  8
0
100
AcDbLine
 10
21.61639999999999
 20
3.597799999999999
 30
0.0
 11
22.34459999999999
 21
3.20714
 31
0.0
  0
LINE
  5
93
330
1E
100
AcDbEntity
  8
0
100
AcDbLine
 10
21.77729999999999
 20
7.632819999999999
 30
0.0
 11
22.70319999999999
 21
7.02963
 31
0.0
  0
LINE
  5
94
330
1E
100
AcDbEntity
  8
0
100
AcDbLine
 10
21.6
 20
21.0
 30
0.0
 11
32.0
 21
21.0
 31
0.0
  0
LINE
  5
95
330
1E
100
AcDbEntity
  8
0
100
AcDbLine
 10
20.9313421113544
 20
3.327463155458259
 30
0.0
 11
23.0
 21
2.5
 31
0.0
  0
LINE
  5
96
330
1E
100
AcDbEntity
  8
0
100
AcDbLine
 10
22.7321
 20
3.988449999999999
 30
0.0
 11
23.23139999999999
 21
3.597799999999999
 31
0.0
  0
LINE
  5
97
330
1E
100
AcDbEntity
  8
0
100
AcDbLine
 10
22.7321
 20
3.988449999999999
 30
0.0
 11
23.03999999999999
 21
4.155869999999999
 31
0.0
  0
LINE
  5
99
330
1E
100
AcDbEntity
  8
0
100
AcDbLine
 10
23.23139999999999
 20
3.597799999999999
 30
0.0
 11
24.2786
 21
3.20714
 31
0.0
  0
LINE
  5
9A
330
1E
100
AcDbEntity
  8
0
100
AcDbLine
 10
23.03999999999999
 20
4.155869999999999
 30
0.0
 11
24.0105
 21
3.988449999999999
 31
0.0
  0
LINE
  5
9D
330
1E
100
AcDbEntity
  8
0
100
AcDbLine
 10
22.3287
 20
3.039719999999999
 30
0.0
 11
22.34459999999999
 21
3.20714
 31
0.0
  0
LINE
  5
A0
330
1E
100
AcDbEntity
  8
0
100
AcDbLine
 10
22.70319999999999
 20
7.02963
 30
0.0
 11
22.99269999999999
 21
6.42644
 31
0.0
  0
LINE
  5
A1
330
1E
100
AcDbEntity
  8
0
100
AcDbLine
 10
22.51069999999999
 20
6.16793
 30
0.0
 11
22.99269999999999
 21
6.42644
 31
0.0
  0
LINE
  5
A2
330
1E
100
AcDbEntity
  8
0
100
AcDbLine
 10
24.0105
 20
3.988449999999999
 30
0.0
 11
25.0577
 21
3.597799999999999
 31
0.0
  0
LINE
  5
A4
330
1E
100
AcDbEntity
  8
0
100
AcDbLine
 10
23.0
 20
2.5
 30
0.0
 11
28.0
 21
0.9999999999999978
 31
0.0
  0
LINE
  5
A5
330
1E
100
AcDbEntity
  8
0
100
AcDbLine
 10
22.1
 20
21.49999999999999
 30
0.0
 11
32.2
 21
21.49999999999999
 31
0.0
  0
LINE
  5
A6
330
1E
100
AcDbEntity
  8
0
100
AcDbLine
 10
19.73099999999999
 20
74.0
 30
0.0
 11
22.1675
 21
74.0
 31
0.0
  0
LINE
  5
A7
330
1E
100
AcDbEntity
  8
0
100
AcDbLine
 10
22.1675
 20
74.0
 30
0.0
 11
25.94419999999999
 21
74.0
 31
0.0
  0
LINE
  5
A8
330
1E
100
AcDbEntity
  8
0
100
AcDbLine
 10
21.6
 20
22.0254
 30
0.0
 11
32.0
 21
22.0254
 31
0.0
  0
LINE
  5
A9
330
1E
100
AcDbEntity
  8
0
100
AcDbLine
 10
19.0
 20
74.0
 30
0.0
 11
21.4366
 21
77.0
 31
0.0
  0
LINE
  5
AA
330
1E
100
AcDbEntity
  8
0
100
AcDbLine
 10
19.0
 20
74.0
 30
0.0
 11
19.73099999999999
 21
74.0
 31
0.0
  0
LINE
  5
AB
330
1E
100
AcDbEntity
  8
0
100
AcDbLine
 10
21.4366
 20
77.0
 30
0.0
 11
24.1168
 21
79.1
 31
0.0
  0
LINE
  5
AC
330
1E
100
AcDbEntity
  8
0
100
AcDbLine
 10
24.2786
 20
3.20714
 30
0.0
 11
25.24919999999999
 21
3.039719999999999
 31
0.0
  0
LINE
  5
AF
330
1E
100
AcDbEntity
  8
0
100
AcDbLine
 10
25.24919999999999
 20
3.039719999999999
 30
0.0
 11
25.55699999999999
 21
3.20714
 31
0.0
  0
LINE
  5
B0
330
1E
100
AcDbEntity
  8
0
100
AcDbLine
 10
25.0577
 20
3.597799999999999
 30
0.0
 11
25.55699999999999
 21
3.20714
 31
0.0
  0
LINE
  5
B1
330
1E
100
AcDbEntity
  8
0
100
AcDbLine
 10
28.292
 20
3.20714
 30
0.0
 11
29.3793
 21
3.039719999999999
 31
0.0
  0
LINE
  5
B2
330
1E
100
AcDbEntity
  8
0
100
AcDbLine
 10
27.3417
 20
3.597799999999999
 30
0.0
 11
28.292
 21
3.20714
 31
0.0
  0
LINE
  5
B3
330
1E
100
AcDbEntity
  8
0
100
AcDbLine
 10
27.6841
 20
4.155869999999999
 30
0.0
 11
28.7714
 21
3.988449999999999
 31
0.0
  0
LINE
  5
B5
330
1E
100
AcDbEntity
  8
0
100
AcDbLine
 10
27.10539999999999
 20
3.988449999999999
 30
0.0
 11
27.6841
 21
4.155869999999999
 31
0.0
  0
LINE
  5
B6
330
1E
100
AcDbEntity
  8
0
100
AcDbLine
 10
27.10539999999999
 20
3.988449999999999
 30
0.0
 11
27.3417
 21
3.597799999999999
 31
0.0
  0
LINE
  5
B8
330
1E
100
AcDbEntity
  8
0
100
AcDbLine
 10
28.7714
 20
3.988449999999999
 30
0.0
 11
29.7217
 21
3.597799999999999
 31
0.0
  0
LINE
  5
BC
330
1E
100
AcDbEntity
  8
0
100
AcDbLine
 10
29.7217
 20
3.597799999999999
 30
0.0
 11
29.958
 21
3.20714
 31
0.0
  0
LINE
  5
BD
330
1E
100
AcDbEntity
  8
0
100
AcDbLine
 10
29.3793
 20
3.039719999999999
 30
0.0
 11
29.958
 21
3.20714
 31
0.0
  0
LINE
  5
BF
330
1E
100
AcDbEntity
  8
0
100
AcDbLine
 10
28.5119
 20
6.16793
 30
0.0
 11
29.2371
 21
6.42644
 31
0.0
  0
LINE
  5
C0
330
1E
100
AcDbEntity
  8
0
100
AcDbLine
 10
28.3776
 20
7.632819999999999
 30
0.0
 11
29.197
 21
7.02963
 31
0.0
  0
LINE
  5
C1
330
1E
100
AcDbEntity
  8
0
100
AcDbLine
 10
29.197
 20
7.02963
 30
0.0
 11
29.2371
 21
6.42644
 31
0.0
  0
LINE
  5
C2
330
1E
100
AcDbEntity
  8
0
100
AcDbLine
 10
27.41839999999999
 20
6.42644
 30
0.0
 11
28.5119
 21
6.16793
 31
0.0
  0
LINE
  5
C3
330
1E
100
AcDbEntity
  8
0
100
AcDbLine
 10
26.599
 20
7.02963
 30
0.0
 11
27.41839999999999
 21
6.42644
 31
0.0
  0
LINE
  5
C4
330
1E
100
AcDbEntity
  8
0
100
AcDbLine
 10
27.2841
 20
7.891329999999999
 30
0.0
 11
28.3776
 21
7.632819999999999
 31
0.0
  0
LINE
  5
C6
330
1E
100
AcDbEntity
  8
0
100
AcDbLine
 10
26.5589
 20
7.632819999999999
 30
0.0
 11
27.2841
 21
7.891329999999999
 31
0.0
  0
LINE
  5
C7
330
1E
100
AcDbEntity
  8
0
100
AcDbLine
 10
26.5589
 20
7.632819999999999
 30
0.0
 11
26.599
 21
7.02963
 31
0.0
  0
LINE
  5
C8
330
1E
100
AcDbEntity
  8
0
100
AcDbLine
 10
32.0
 20
21.0
 30
0.0
 11
41.5
 21
21.0
 31
0.0
  0
LINE
  5
C9
330
1E
100
AcDbEntity
  8
0
100
AcDbLine
 10
28.0
 20
0.9999999999999978
 30
0.0
 11
33.5
 21
0.199999999999998
 31
0.0
  0
LINE
  5
CA
330
1E
100
AcDbEntity
  8
0
100
AcDbLine
 10
33.3078
 20
3.20714
 30
0.0
 11
34.4377
 21
3.039719999999999
 31
0.0
  0
LINE
  5
CB
330
1E
100
AcDbEntity
  8
0
100
AcDbLine
 10
32.519
 20
3.597799999999999
 30
0.0
 11
32.5618
 21
3.988449999999999
 31
0.0
  0
LINE
  5
CC
330
1E
100
AcDbEntity
  8
0
100
AcDbLine
 10
32.519
 20
3.597799999999999
 30
0.0
 11
33.3078
 21
3.20714
 31
0.0
  0
LINE
  5
CD
330
1E
100
AcDbEntity
  8
0
100
AcDbLine
 10
33.372
 20
4.155869999999999
 30
0.0
 11
34.50199999999999
 21
3.988449999999999
 31
0.0
  0
LINE
  5
CF
330
1E
100
AcDbEntity
  8
0
100
AcDbLine
 10
32.5618
 20
3.988449999999999
 30
0.0
 11
33.372
 21
4.155869999999999
 31
0.0
  0
LINE
  5
D1
330
1E
100
AcDbEntity
  8
0
100
AcDbLine
 10
38.79999999999999
 20
-0.0000000000000024
 30
0.0
 11
40.0
 21
-0.0000000000000024
 31
0.0
  0
LINE
  5
D2
330
1E
100
AcDbEntity
  8
0
100
AcDbLine
 10
40.0
 20
-0.0000000000000024
 30
0.0
 11
41.4129
 21
-0.0000000000000025
 31
0.0
  0
LINE
  5
D3
330
1E
100
AcDbEntity
  8
0
100
AcDbLine
 10
49.0
 20
-0.000000000000003
 30
0.0
 11
52.5
 21
0.199999999999997
 31
0.0
  0
LINE
  5
D4
330
1E
100
AcDbEntity
  8
0
100
AcDbLine
 10
48.85139999999999
 20
-0.000000000000003
 30
0.0
 11
49.0
 21
-0.000000000000003
 31
0.0
  0
LINE
  5
D5
330
1E
100
AcDbEntity
  8
0
100
AcDbLine
 10
47.2
 20
-0.0000000000000029
 30
0.0
 11
48.2
 21
-0.000000000000003
 31
0.0
  0
LINE
  5
D6
330
1E
100
AcDbEntity
  8
0
100
AcDbLine
 10
48.2
 20
-0.000000000000003
 30
0.0
 11
48.85139999999999
 21
-0.000000000000003
 31
0.0
  0
LINE
  5
D7
330
1E
100
AcDbEntity
  8
0
100
AcDbLine
 10
46.0
 20
-0.0000000000000028
 30
0.0
 11
47.2
 21
-0.0000000000000029
 31
0.0
  0
LINE
  5
D8
330
1E
100
AcDbEntity
  8
0
100
AcDbLine
 10
44.58709999999999
 20
-0.0000000000000027
 30
0.0
 11
46.0
 21
-0.0000000000000028
 31
0.0
  0
LINE
  5
D9
330
1E
100
AcDbEntity
  8
0
100
AcDbLine
 10
43.0
 20
-0.0000000000000026
 30
0.0
 11
44.58709999999999
 21
-0.0000000000000027
 31
0.0
  0
LINE
  5
DA
330
1E
100
AcDbEntity
  8
0
100
AcDbLine
 10
49.0
 20
-0.000000000000003
 30
0.0
 11
52.5
 21
0.199999999999997
 31
0.0
  0
LINE
  5
DB
330
1E
100
AcDbEntity
  8
0
100
AcDbLine
 10
41.4129
 20
-0.0000000000000025
 30
0.0
 11
43.0
 21
-0.0000000000000026
 31
0.0
  0
LINE
  5
DC
330
1E
100
AcDbEntity
  8
0
100
AcDbLine
 10
37.79999999999999
 20
-0.0000000000000023
 30
0.0
 11
38.79999999999999
 21
-0.0000000000000024
 31
0.0
  0
LINE
  5
DD
330
1E
100
AcDbEntity
  8
0
100
AcDbLine
 10
37.1486
 20
-0.0000000000000023
 30
0.0
 11
37.79999999999999
 21
-0.0000000000000023
 31
0.0
  0
LINE
  5
DE
330
1E
100
AcDbEntity
  8
0
100
AcDbLine
 10
35.2479
 20
3.20714
 30
0.0
 11
35.2907
 21
3.597799999999999
 31
0.0
  0
LINE
  5
DF
330
1E
100
AcDbEntity
  8
0
100
AcDbLine
 10
34.4377
 20
3.039719999999999
 30
0.0
 11
35.2479
 21
3.20714
 31
0.0
  0
LINE
  5
E0
330
1E
100
AcDbEntity
  8
0
100
AcDbLine
 10
34.50199999999999
 20
3.988449999999999
 30
0.0
 11
35.2907
 21
3.597799999999999
 31
0.0
  0
LINE
  5
E2
330
1E
100
AcDbEntity
  8
0
100
AcDbLine
 10
38.4106
 20
3.597799999999999
 30
0.0
 11
38.72959999999999
 21
3.988449999999999
 31
0.0
  0
LINE
  5
E3
330
1E
100
AcDbEntity
  8
0
100
AcDbLine
 10
38.4106
 20
3.597799999999999
 30
0.0
 11
38.984
 21
3.20714
 31
0.0
  0
LINE
  5
E6
330
1E
100
AcDbEntity
  8
0
100
AcDbLine
 10
44.934
 20
3.20714
 30
0.0
 11
45.92049999999999
 21
3.039719999999999
 31
0.0
  0
LINE
  5
E7
330
1E
100
AcDbEntity
  8
0
100
AcDbLine
 10
45.92049999999999
 20
3.039719999999999
 30
0.0
 11
47.016
 21
3.20714
 31
0.0
  0
LINE
  5
E8
330
1E
100
AcDbEntity
  8
0
100
AcDbLine
 10
50.7521
 20
3.20714
 30
0.0
 11
51.5623
 21
3.039719999999999
 31
0.0
  0
LINE
  5
E9
330
1E
100
AcDbEntity
  8
0
100
AcDbLine
 10
51.5623
 20
3.039719999999999
 30
0.0
 11
52.6922
 21
3.20714
 31
0.0
  0
LINE
  5
EA
330
1E
100
AcDbEntity
  8
0
100
AcDbLine
 10
47.016
 20
3.20714
 30
0.0
 11
47.58939999999999
 21
3.597799999999999
 31
0.0
  0
LINE
  5
EB
330
1E
100
AcDbEntity
  8
0
100
AcDbLine
 10
41.066
 20
3.20714
 30
0.0
 11
41.38499999999999
 21
3.597799999999999
 31
0.0
  0
LINE
  5
EC
330
1E
100
AcDbEntity
  8
0
100
AcDbLine
 10
40.0795
 20
3.039719999999999
 30
0.0
 11
41.066
 21
3.20714
 31
0.0
  0
LINE
  5
ED
330
1E
100
AcDbEntity
  8
0
100
AcDbLine
 10
39.7161
 20
4.155869999999999
 30
0.0
 11
40.81159999999999
 21
3.988449999999999
 31
0.0
  0
LINE
  5
EF
330
1E
100
AcDbEntity
  8
0
100
AcDbLine
 10
45.18839999999999
 20
3.988449999999999
 30
0.0
 11
46.2839
 21
4.155869999999999
 31
0.0
  0
LINE
  5
F0
330
1E
100
AcDbEntity
  8
0
100
AcDbLine
 10
44.615
 20
3.597799999999999
 30
0.0
 11
44.934
 21
3.20714
 31
0.0
  0
LINE
  5
F1
330
1E
100
AcDbEntity
  8
0
100
AcDbLine
 10
44.615
 20
3.597799999999999
 30
0.0
 11
45.18839999999999
 21
3.988449999999999
 31
0.0
  0
LINE
  5
F2
330
1E
100
AcDbEntity
  8
0
100
AcDbLine
 10
50.7093
 20
3.597799999999999
 30
0.0
 11
50.7521
 21
3.20714
 31
0.0
  0
LINE
  5
F3
330
1E
100
AcDbEntity
  8
0
100
AcDbLine
 10
50.7093
 20
3.597799999999999
 30
0.0
 11
51.498
 21
3.988449999999999
 31
0.0
  0
LINE
  5
F4
330
1E
100
AcDbEntity
  8
0
100
AcDbLine
 10
51.498
 20
3.988449999999999
 30
0.0
 11
52.628
 21
4.155869999999999
 31
0.0
  0
LINE
  5
F6
330
1E
100
AcDbEntity
  8
0
100
AcDbLine
 10
47.2704
 20
3.988449999999999
 30
0.0
 11
47.58939999999999
 21
3.597799999999999
 31
0.0
  0
LINE
  5
FC
330
1E
100
AcDbEntity
  8
0
100
AcDbLine
 10
46.2839
 20
4.155869999999999
 30
0.0
 11
47.2704
 21
3.988449999999999
 31
0.0
  0
LINE
  5
FD
330
1E
100
AcDbEntity
  8
0
100
AcDbLine
 10
40.81159999999999
 20
3.988449999999999
 30
0.0
 11
41.38499999999999
 21
3.597799999999999
 31
0.0
  0
LINE
  5
FF
330
1E
100
AcDbEntity
  8
0
100
AcDbLine
 10
38.984
 20
3.20714
 30
0.0
 11
40.0795
 21
3.039719999999999
 31
0.0
  0
LINE
  5
100
330
1E
100
AcDbEntity
  8
0
100
AcDbLine
 10
38.72959999999999
 20
3.988449999999999
 30
0.0
 11
39.7161
 21
4.155869999999999
 31
0.0
  0
LINE
  5
102
330
1E
100
AcDbEntity
  8
0
100
AcDbLine
 10
41.95
 20
6.42644
 30
0.0
 11
43.0
 21
6.16793
 31
0.0
  0
LINE
  5
103
330
1E
100
AcDbEntity
  8
0
100
AcDbLine
 10
36.4193
 20
6.42644
 30
0.0
 11
36.6315
 21
7.02963
 31
0.0
  0
LINE
  5
104
330
1E
100
AcDbEntity
  8
0
100
AcDbLine
 10
35.5004
 20
6.16793
 30
0.0
 11
36.4193
 21
6.42644
 31
0.0
  0
LINE
  5
106
330
1E
100
AcDbEntity
  8
0
100
AcDbLine
 10
41.5
 20
7.02963
 30
0.0
 11
41.95
 21
7.632819999999999
 31
0.0
  0
LINE
  5
107
330
1E
100
AcDbEntity
  8
0
100
AcDbLine
 10
41.5
 20
7.02963
 30
0.0
 11
41.95
 21
6.42644
 31
0.0
  0
LINE
  5
109
330
1E
100
AcDbEntity
  8
0
100
AcDbLine
 10
41.95
 20
7.632819999999999
 30
0.0
 11
43.0
 21
7.891329999999999
 31
0.0
  0
LINE
  5
10A
330
1E
100
AcDbEntity
  8
0
100
AcDbLine
 10
35.9744
 20
7.632819999999999
 30
0.0
 11
36.6315
 21
7.02963
 31
0.0
  0
LINE
  5
10B
330
1E
100
AcDbEntity
  8
0
100
AcDbLine
 10
34.3909
 20
6.42644
 30
0.0
 11
35.5004
 21
6.16793
 31
0.0
  0
LINE
  5
10C
330
1E
100
AcDbEntity
  8
0
100
AcDbLine
 10
33.73369999999999
 20
7.02963
 30
0.0
 11
33.946
 21
7.632819999999999
 31
0.0
  0
LINE
  5
10D
330
1E
100
AcDbEntity
  8
0
100
AcDbLine
 10
33.73369999999999
 20
7.02963
 30
0.0
 11
34.3909
 21
6.42644
 31
0.0
  0
LINE
  5
10F
330
1E
100
AcDbEntity
  8
0
100
AcDbLine
 10
41.5
 20
11.8809
 30
0.0
 11
44.5
 21
11.8809
 31
0.0
  0
LINE
  5
110
330
1E
100
AcDbEntity
  8
0
100
AcDbLine
 10
41.5
 20
20.1368
 30
0.0
 11
41.5
 21
18.5193
 31
0.0
  0
LINE
  5
111
330
1E
100
AcDbEntity
  8
0
100
AcDbLine
 10
41.5
 20
20.1368
 30
0.0
 11
41.5
 21
21.55209999999999
 31
0.0
  0
LINE
  5
112
330
1E
100
AcDbEntity
  8
0
100
AcDbLine
 10
41.5
 20
18.5193
 30
0.0
 11
41.5
 21
16.80069999999999
 31
0.0
  0
LINE
  5
113
330
1E
100
AcDbEntity
  8
0
100
AcDbLine
 10
41.5
 20
18.5193
 30
0.0
 11
41.5
 21
20.1368
 31
0.0
  0
LINE
  5
114
330
1E
100
AcDbEntity
  8
0
100
AcDbLine
 10
41.5
 20
16.80069999999999
 30
0.0
 11
41.5
 21
15.35169999999999
 31
0.0
  0
LINE
  5
115
330
1E
100
AcDbEntity
  8
0
100
AcDbLine
 10
41.5
 20
16.80069999999999
 30
0.0
 11
41.5
 21
18.5193
 31
0.0
  0
LINE
  5
116
330
1E
100
AcDbEntity
  8
0
100
AcDbLine
 10
41.5
 20
15.35169999999999
 30
0.0
 11
41.5
 21
14.4082
 31
0.0
  0
LINE
  5
117
330
1E
100
AcDbEntity
  8
0
100
AcDbLine
 10
41.5
 20
15.35169999999999
 30
0.0
 11
41.5
 21
16.80069999999999
 31
0.0
  0
LINE
  5
118
330
1E
100
AcDbEntity
  8
0
100
AcDbLine
 10
41.5
 20
14.4082
 30
0.0
 11
41.5
 21
13.5658
 31
0.0
  0
LINE
  5
119
330
1E
100
AcDbEntity
  8
0
100
AcDbLine
 10
41.5
 20
14.4082
 30
0.0
 11
41.5
 21
15.35169999999999
 31
0.0
  0
LINE
  5
11A
330
1E
100
AcDbEntity
  8
0
100
AcDbLine
 10
41.5
 20
13.5658
 30
0.0
 11
41.5
 21
12.8244
 31
0.0
  0
LINE
  5
11B
330
1E
100
AcDbEntity
  8
0
100
AcDbLine
 10
41.5
 20
13.5658
 30
0.0
 11
41.5
 21
14.4082
 31
0.0
  0
LINE
  5
11C
330
1E
100
AcDbEntity
  8
0
100
AcDbLine
 10
41.5
 20
12.8244
 30
0.0
 11
41.5
 21
12.319
 31
0.0
  0
LINE
  5
11D
330
1E
100
AcDbEntity
  8
0
100
AcDbLine
 10
41.5
 20
12.8244
 30
0.0
 11
41.5
 21
13.5658
 31
0.0
  0
LINE
  5
11E
330
1E
100
AcDbEntity
  8
0
100
AcDbLine
 10
41.5
 20
12.319
 30
0.0
 11
41.5
 21
12.1168
 31
0.0
  0
LINE
  5
11F
330
1E
100
AcDbEntity
  8
0
100
AcDbLine
 10
41.5
 20
12.319
 30
0.0
 11
41.5
 21
12.8244
 31
0.0
  0
LINE
  5
120
330
1E
100
AcDbEntity
  8
0
100
AcDbLine
 10
41.5
 20
12.1168
 30
0.0
 11
41.5
 21
11.91459999999999
 31
0.0
  0
LINE
  5
121
330
1E
100
AcDbEntity
  8
0
100
AcDbLine
 10
41.5
 20
12.1168
 30
0.0
 11
41.5
 21
12.319
 31
0.0
  0
LINE
  5
122
330
1E
100
AcDbEntity
  8
0
100
AcDbLine
 10
41.5
 20
11.91459999999999
 30
0.0
 11
41.5
 21
12.1168
 31
0.0
  0
LINE
  5
123
330
1E
100
AcDbEntity
  8
0
100
AcDbLine
 10
34.86489999999999
 20
7.891329999999999
 30
0.0
 11
35.9744
 21
7.632819999999999
 31
0.0
  0
LINE
  5
125
330
1E
100
AcDbEntity
  8
0
100
AcDbLine
 10
33.946
 20
7.632819999999999
 30
0.0
 11
34.86489999999999
 21
7.891329999999999
 31
0.0
  0
LINE
  5
126
330
1E
100
AcDbEntity
  8
0
100
AcDbLine
 10
50.4996
 20
6.16792999999999
 30
0.0
 11
51.6091
 21
6.42644
 31
0.0
  0
LINE
  5
127
330
1E
100
AcDbEntity
  8
0
100
AcDbLine
 10
43.0
 20
7.891329999999999
 30
0.0
 11
44.05
 21
7.632819999999999
 31
0.0
  0
LINE
  5
128
330
1E
100
AcDbEntity
  8
0
100
AcDbLine
 10
44.05
 20
7.632819999999999
 30
0.0
 11
44.5
 21
7.02963
 31
0.0
  0
LINE
  5
129
330
1E
100
AcDbEntity
  8
0
100
AcDbLine
 10
49.36849999999999
 20
7.02963
 30
0.0
 11
49.5807
 21
6.42644
 31
0.0
  0
LINE
  5
12A
330
1E
100
AcDbEntity
  8
0
100
AcDbLine
 10
49.36849999999999
 20
7.02963
 30
0.0
 11
50.02559999999999
 21
7.632819999999999
 31
0.0
  0
LINE
  5
12B
330
1E
100
AcDbEntity
  8
0
100
AcDbLine
 10
49.5807
 20
6.42644
 30
0.0
 11
50.4996
 21
6.16792999999999
 31
0.0
  0
LINE
  5
12C
330
1E
100
AcDbEntity
  8
0
100
AcDbLine
 10
51.6091
 20
6.42644
 30
0.0
 11
52.2663
 21
7.02963
 31
0.0
  0
LINE
  5
12D
330
1E
100
AcDbEntity
  8
0
100
AcDbLine
 10
44.5
 20
12.1168
 30
0.0
 11
44.5
 21
12.319
 31
0.0
  0
LINE
  5
12E
330
1E
100
AcDbEntity
  8
0
100
AcDbLine
 10
44.5
 20
12.1168
 30
0.0
 11
44.5
 21
11.91459999999999
 31
0.0
  0
LINE
  5
12F
330
1E
100
AcDbEntity
  8
0
100
AcDbLine
 10
44.5
 20
11.91459999999999
 30
0.0
 11
44.5
 21
12.1168
 31
0.0
  0
LINE
  5
130
330
1E
100
AcDbEntity
  8
0
100
AcDbLine
 10
44.5
 20
18.5193
 30
0.0
 11
44.5
 21
20.1368
 31
0.0
  0
LINE
  5
131
330
1E
100
AcDbEntity
  8
0
100
AcDbLine
 10
44.5
 20
18.5193
 30
0.0
 11
44.5
 21
16.80069999999999
 31
0.0
  0
LINE
  5
132
330
1E
100
AcDbEntity
  8
0
100
AcDbLine
 10
44.5
 20
20.1368
 30
0.0
 11
44.5
 21
21.55209999999999
 31
0.0
  0
LINE
  5
133
330
1E
100
AcDbEntity
  8
0
100
AcDbLine
 10
44.5
 20
20.1368
 30
0.0
 11
44.5
 21
18.5193
 31
0.0
  0
LINE
  5
134
330
1E
100
AcDbEntity
  8
0
100
AcDbLine
 10
44.5
 20
16.80069999999999
 30
0.0
 11
44.5
 21
18.5193
 31
0.0
  0
LINE
  5
135
330
1E
100
AcDbEntity
  8
0
100
AcDbLine
 10
44.5
 20
16.80069999999999
 30
0.0
 11
44.5
 21
15.35169999999999
 31
0.0
  0
LINE
  5
136
330
1E
100
AcDbEntity
  8
0
100
AcDbLine
 10
44.5
 20
15.35169999999999
 30
0.0
 11
44.5
 21
16.80069999999999
 31
0.0
  0
LINE
  5
137
330
1E
100
AcDbEntity
  8
0
100
AcDbLine
 10
44.5
 20
15.35169999999999
 30
0.0
 11
44.5
 21
14.4082
 31
0.0
  0
LINE
  5
138
330
1E
100
AcDbEntity
  8
0
100
AcDbLine
 10
44.5
 20
14.4082
 30
0.0
 11
44.5
 21
15.35169999999999
 31
0.0
  0
LINE
  5
139
330
1E
100
AcDbEntity
  8
0
100
AcDbLine
 10
44.5
 20
14.4082
 30
0.0
 11
44.5
 21
13.5658
 31
0.0
  0
LINE
  5
13A
330
1E
100
AcDbEntity
  8
0
100
AcDbLine
 10
44.5
 20
13.5658
 30
0.0
 11
44.5
 21
14.4082
 31
0.0
  0
LINE
  5
13B
330
1E
100
AcDbEntity
  8
0
100
AcDbLine
 10
44.5
 20
13.5658
 30
0.0
 11
44.5
 21
12.8244
 31
0.0
  0
LINE
  5
13C
330
1E
100
AcDbEntity
  8
0
100
AcDbLine
 10
44.5
 20
12.8244
 30
0.0
 11
44.5
 21
13.5658
 31
0.0
  0
LINE
  5
13D
330
1E
100
AcDbEntity
  8
0
100
AcDbLine
 10
44.5
 20
12.8244
 30
0.0
 11
44.5
 21
12.319
 31
0.0
  0
LINE
  5
13E
330
1E
100
AcDbEntity
  8
0
100
AcDbLine
 10
44.5
 20
12.319
 30
0.0
 11
44.5
 21
12.8244
 31
0.0
  0
LINE
  5
13F
330
1E
100
AcDbEntity
  8
0
100
AcDbLine
 10
44.5
 20
12.319
 30
0.0
 11
44.5
 21
12.1168
 31
0.0
  0
LINE
  5
140
330
1E
100
AcDbEntity
  8
0
100
AcDbLine
 10
50.02559999999999
 20
7.632819999999999
 30
0.0
 11
51.1351
 21
7.891329999999999
 31
0.0
  0
LINE
  5
142
330
1E
100
AcDbEntity
  8
0
100
AcDbLine
 10
52.054
 20
7.632819999999999
 30
0.0
 11
52.2663
 21
7.02963
 31
0.0
  0
LINE
  5
144
330
1E
100
AcDbEntity
  8
0
100
AcDbLine
 10
51.1351
 20
7.891329999999999
 30
0.0
 11
52.054
 21
7.632819999999999
 31
0.0
  0
LINE
  5
147
330
1E
100
AcDbEntity
  8
0
100
AcDbLine
 10
44.05
 20
6.42644
 30
0.0
 11
44.5
 21
7.02963
 31
0.0
  0
LINE
  5
148
330
1E
100
AcDbEntity
  8
0
100
AcDbLine
 10
43.0
 20
6.16793
 30
0.0
 11
44.05
 21
6.42644
 31
0.0
  0
LINE
  5
149
330
1E
100
AcDbEntity
  8
0
100
AcDbLine
 10
52.5
 20
0.199999999999997
 30
0.0
 11
58.0
 21
0.999999999999996
 31
0.0
  0
LINE
  5
14A
330
1E
100
AcDbEntity
  8
0
100
AcDbLine
 10
41.5
 20
21.31619999999999
 30
0.0
 11
41.5
 21
21.51839999999999
 31
0.0
  0
LINE
  5
14B
330
1E
100
AcDbEntity
  8
0
100
AcDbLine
 10
44.5
 20
21.0
 30
0.0
 11
54.0
 21
21.0
 31
0.0
  0
LINE
  5
14C
330
1E
100
AcDbEntity
  8
0
100
AcDbLine
 10
52.6922
 20
3.20714
 30
0.0
 11
53.481
 21
3.597799999999999
 31
0.0
  0
LINE
  5
14D
330
1E
100
AcDbEntity
  8
0
100
AcDbLine
 10
53.4382
 20
3.988449999999999
 30
0.0
 11
53.481
 21
3.597799999999999
 31
0.0
  0
LINE
  5
150
330
1E
100
AcDbEntity
  8
0
100
AcDbLine
 10
52.628
 20
4.155869999999999
 30
0.0
 11
53.4382
 21
3.988449999999999
 31
0.0
  0
LINE
  5
153
330
1E
100
AcDbEntity
  8
0
100
AcDbLine
 10
56.042
 20
3.20714
 30
0.0
 11
56.62069999999999
 21
3.039719999999999
 31
0.0
  0
LINE
  5
154
330
1E
100
AcDbEntity
  8
0
100
AcDbLine
 10
56.042
 20
3.20714
 30
0.0
 11
56.2783
 21
3.597799999999999
 31
0.0
  0
LINE
  5
155
330
1E
100
AcDbEntity
  8
0
100
AcDbLine
 10
56.62069999999999
 20
3.039719999999999
 30
0.0
 11
57.708
 21
3.20714
 31
0.0
  0
LINE
  5
156
330
1E
100
AcDbEntity
  8
0
100
AcDbLine
 10
57.708
 20
3.20714
 30
0.0
 11
58.65829999999999
 21
3.597799999999999
 31
0.0
  0
LINE
  5
158
330
1E
100
AcDbEntity
  8
0
100
AcDbLine
 10
61.7214
 20
3.20714
 30
0.0
 11
62.7686
 21
3.597799999999999
 31
0.0
  0
LINE
  5
159
330
1E
100
AcDbEntity
  8
0
100
AcDbLine
 10
60.75079999999999
 20
3.039719999999999
 30
0.0
 11
61.7214
 21
3.20714
 31
0.0
  0
LINE
  5
15A
330
1E
100
AcDbEntity
  8
0
100
AcDbLine
 10
60.443
 20
3.20714
 30
0.0
 11
60.9423
 21
3.597799999999999
 31
0.0
  0
LINE
  5
15B
330
1E
100
AcDbEntity
  8
0
100
AcDbLine
 10
60.443
 20
3.20714
 30
0.0
 11
60.75079999999999
 21
3.039719999999999
 31
0.0
  0
LINE
  5
15E
330
1E
100
AcDbEntity
  8
0
100
AcDbLine
 10
58.65829999999999
 20
3.597799999999999
 30
0.0
 11
58.89459999999999
 21
3.988449999999999
 31
0.0
  0
LINE
  5
15F
330
1E
100
AcDbEntity
  8
0
100
AcDbLine
 10
62.7686
 20
3.597799999999999
 30
0.0
 11
63.26789999999999
 21
3.988449999999999
 31
0.0
  0
LINE
  5
160
330
1E
100
AcDbEntity
  8
0
100
AcDbLine
 10
60.9423
 20
3.597799999999999
 30
0.0
 11
61.98949999999999
 21
3.988449999999999
 31
0.0
  0
LINE
  5
162
330
1E
100
AcDbEntity
  8
0
100
AcDbLine
 10
65.03335237859371
 20
3.41630985198229
 30
0.0
 11
65.183
 21
3.039719999999999
 31
0.0
  0
LINE
  5
163
330
1E
100
AcDbEntity
  8
0
100
AcDbLine
 10
64.459
 20
3.20714
 30
0.0
 11
65.5317
 21
3.597799999999999
 31
0.0
  0
LINE
  5
164
330
1E
100
AcDbEntity
  8
0
100
AcDbLine
 10
63.6713
 20
3.039719999999999
 30
0.0
 11
64.459
 21
3.20714
 31
0.0
  0
LINE
  5
165
330
1E
100
AcDbEntity
  8
0
100
AcDbLine
 10
63.6554
 20
3.20714
 30
0.0
 11
64.3836
 21
3.597799999999999
 31
0.0
  0
LINE
  5
166
330
1E
100
AcDbEntity
  8
0
100
AcDbLine
 10
63.6554
 20
3.20714
 30
0.0
 11
63.6713
 21
3.039719999999999
 31
0.0
  0
LINE
  5
167
330
1E
100
AcDbEntity
  8
0
100
AcDbLine
 10
64.3836
 20
3.597799999999999
 30
0.0
 11
65.45619999999999
 21
3.988449999999999
 31
0.0
  0
LINE
  5
168
330
1E
100
AcDbEntity
  8
0
100
AcDbLine
 10
65.7342
 20
3.20714
 30
0.0
 11
66.75920000000001
 21
3.597799999999999
 31
0.0
  0
LINE
  5
169
330
1E
100
AcDbEntity
  8
0
100
AcDbLine
 10
65.183
 20
3.039719999999999
 30
0.0
 11
65.46009999999999
 21
3.20714
 31
0.0
  0
LINE
  5
16A
330
1E
100
AcDbEntity
  8
0
100
AcDbLine
 10
65.183
 20
3.039719999999999
 30
0.0
 11
65.7342
 21
3.20714
 31
0.0
  0
LINE
  5
16C
330
1E
100
AcDbEntity
  8
0
100
AcDbLine
 10
65.46009999999999
 20
3.20714
 30
0.0
 11
66.3677
 21
3.597799999999999
 31
0.0
  0
LINE
  5
16D
330
1E
100
AcDbEntity
  8
0
100
AcDbLine
 10
66.3677
 20
3.597799999999999
 30
0.0
 11
67.39270000000001
 21
3.988449999999999
 31
0.0
  0
LINE
  5
16E
330
1E
100
AcDbEntity
  8
0
100
AcDbLine
 10
65.5317
 20
3.597799999999999
 30
0.0
 11
66.2599
 21
3.988449999999999
 31
0.0
  0
LINE
  5
16F
330
1E
100
AcDbEntity
  8
0
100
AcDbLine
 10
65.0686578886456
 20
3.32746315545825
 30
0.0
 11
65.183
 21
3.039719999999999
 31
0.0
  0
LINE
  5
171
330
1E
100
AcDbEntity
  8
0
100
AcDbLine
 10
57.2286
 20
3.988449999999999
 30
0.0
 11
58.3159
 21
4.155869999999999
 31
0.0
  0
LINE
  5
172
330
1E
100
AcDbEntity
  8
0
100
AcDbLine
 10
56.2783
 20
3.597799999999999
 30
0.0
 11
57.2286
 21
3.988449999999999
 31
0.0
  0
LINE
  5
177
330
1E
100
AcDbEntity
  8
0
100
AcDbLine
 10
58.3159
 20
4.155869999999999
 30
0.0
 11
58.89459999999999
 21
3.988449999999999
 31
0.0
  0
LINE
  5
178
330
1E
100
AcDbEntity
  8
0
100
AcDbLine
 10
57.4881
 20
6.16792999999999
 30
0.0
 11
58.5816
 21
6.42644
 31
0.0
  0
LINE
  5
17A
330
1E
100
AcDbEntity
  8
0
100
AcDbLine
 10
57.6224
 20
7.632819999999999
 30
0.0
 11
58.7159
 21
7.891329999999999
 31
0.0
  0
LINE
  5
17B
330
1E
100
AcDbEntity
  8
0
100
AcDbLine
 10
56.803
 20
7.02963
 30
0.0
 11
57.6224
 21
7.632819999999999
 31
0.0
  0
LINE
  5
17C
330
1E
100
AcDbEntity
  8
0
100
AcDbLine
 10
56.7629
 20
6.42644
 30
0.0
 11
57.4881
 21
6.16792999999999
 31
0.0
  0
LINE
  5
17D
330
1E
100
AcDbEntity
  8
0
100
AcDbLine
 10
56.7629
 20
6.42644
 30
0.0
 11
56.803
 21
7.02963
 31
0.0
  0
LINE
  5
17E
330
1E
100
AcDbEntity
  8
0
100
AcDbLine
 10
58.5816
 20
6.42644
 30
0.0
 11
59.40100000000001
 21
7.02963
 31
0.0
  0
LINE
  5
17F
330
1E
100
AcDbEntity
  8
0
100
AcDbLine
 10
62.96
 20
4.155869999999999
 30
0.0
 11
63.26789999999999
 21
3.988449999999999
 31
0.0
  0
LINE
  5
180
330
1E
100
AcDbEntity
  8
0
100
AcDbLine
 10
61.98949999999999
 20
3.988449999999999
 30
0.0
 11
62.96
 21
4.155869999999999
 31
0.0
  0
LINE
  5
186
330
1E
100
AcDbEntity
  8
0
100
AcDbLine
 10
63.29679999999999
 20
7.02963
 30
0.0
 11
64.22270000000001
 21
7.632819999999999
 31
0.0
  0
LINE
  5
187
330
1E
100
AcDbEntity
  8
0
100
AcDbLine
 10
63.0073
 20
6.42644
 30
0.0
 11
63.4893
 21
6.16792999999999
 31
0.0
  0
LINE
  5
188
330
1E
100
AcDbEntity
  8
0
100
AcDbLine
 10
63.0073
 20
6.42644
 30
0.0
 11
63.29679999999999
 21
7.02963
 31
0.0
  0
LINE
  5
189
330
1E
100
AcDbEntity
  8
0
100
AcDbLine
 10
63.4893
 20
6.16792999999999
 30
0.0
 11
64.4922
 21
6.42644
 31
0.0
  0
LINE
  5
18A
330
1E
100
AcDbEntity
  8
0
100
AcDbLine
 10
64.22270000000001
 20
7.632819999999999
 30
0.0
 11
65.2256
 21
7.89132999999999
 31
0.0
  0
LINE
  5
18B
330
1E
100
AcDbEntity
  8
0
100
AcDbLine
 10
64.4922
 20
6.42644
 30
0.0
 11
65.41809999999999
 21
7.02963
 31
0.0
  0
LINE
  5
18D
330
1E
100
AcDbEntity
  8
0
100
AcDbLine
 10
59.40100000000001
 20
7.02963
 30
0.0
 11
59.4411
 21
7.632819999999999
 31
0.0
  0
LINE
  5
191
330
1E
100
AcDbEntity
  8
0
100
AcDbLine
 10
58.7159
 20
7.891329999999999
 30
0.0
 11
59.4411
 21
7.632819999999999
 31
0.0
  0
LINE
  5
193
330
1E
100
AcDbEntity
  8
0
100
AcDbLine
 10
67.6668
 20
3.988449999999999
 30
0.0
 11
67.9438
 21
4.155869999999999
 31
0.0
  0
LINE
  5
194
330
1E
100
AcDbEntity
  8
0
100
AcDbLine
 10
67.39270000000001
 20
3.988449999999999
 30
0.0
 11
67.9438
 21
4.155869999999999
 31
0.0
  0
LINE
  5
197
330
1E
100
AcDbEntity
  8
0
100
AcDbLine
 10
65.41809999999999
 20
7.02963
 30
0.0
 11
65.70759999999999
 21
7.63281999999999
 31
0.0
  0
LINE
  5
198
330
1E
100
AcDbEntity
  8
0
100
AcDbLine
 10
65.2256
 20
7.89132999999999
 30
0.0
 11
65.70759999999999
 21
7.63281999999999
 31
0.0
  0
LINE
  5
19A
330
1E
100
AcDbEntity
  8
0
100
AcDbLine
 10
67.80705039538471
 20
4.5
 30
0.0
 11
67.9438
 21
4.155869999999999
 31
0.0
  0
LINE
  5
19D
330
1E
100
AcDbEntity
  8
0
100
AcDbLine
 10
66.244
 20
4.155869999999999
 30
0.0
 11
66.2599
 21
3.988449999999999
 31
0.0
  0
LINE
  5
19E
330
1E
100
AcDbEntity
  8
0
100
AcDbLine
 10
65.45619999999999
 20
3.988449999999999
 30
0.0
 11
66.244
 21
4.155869999999999
 31
0.0
  0
LINE
  5
19F
330
1E
100
AcDbEntity
  8
0
100
AcDbLine
 10
66.75920000000001
 20
3.597799999999999
 30
0.0
 11
67.6668
 21
3.988449999999999
 31
0.0
  0
LINE
  5
1A0
330
1E
100
AcDbEntity
  8
0
100
AcDbLine
 10
64.40000000000001
 20
21.0
 30
0.0
 11
73.4
 21
21.0
 31
0.0
  0
LINE
  5
1A1
330
1E
100
AcDbEntity
  8
0
100
AcDbLine
 10
54.0
 20
21.0
 30
0.0
 11
64.40000000000001
 21
21.0
 31
0.0
  0
LINE
  5
1A2
330
1E
100
AcDbEntity
  8
0
100
AcDbLine
 10
63.0
 20
2.5
 30
0.0
 11
65.0686578886456
 21
3.32746315545825
 31
0.0
  0
LINE
  5
1A3
330
1E
100
AcDbEntity
  8
0
100
AcDbLine
 10
63.0
 20
2.5
 30
0.0
 11
65.0686578886456
 21
3.32746315545825
 31
0.0
  0
LINE
  5
1A4
330
1E
100
AcDbEntity
  8
0
100
AcDbLine
 10
70.9889
 20
6.16792999999999
 30
0.0
 11
71.0729
 21
6.42644
 31
0.0
  0
LINE
  5
1A5
330
1E
100
AcDbEntity
  8
0
100
AcDbLine
 10
70.9889
 20
6.16792999999999
 30
0.0
 11
71.6164
 21
6.42644
 31
0.0
  0
LINE
  5
1A6
330
1E
100
AcDbEntity
  8
0
100
AcDbLine
 10
71.6164
 20
6.42644
 30
0.0
 11
72.5631
 21
7.02962999999999
 31
0.0
  0
LINE
  5
1A7
330
1E
100
AcDbEntity
  8
0
100
AcDbLine
 10
71.0729
 20
6.42644
 30
0.0
 11
71.7866
 21
7.02962999999999
 31
0.0
  0
LINE
  5
1A8
330
1E
100
AcDbEntity
  8
0
100
AcDbLine
 10
68.93810000000001
 20
6.42644
 30
0.0
 11
69.90739999999999
 21
7.02963
 31
0.0
  0
LINE
  5
1A9
330
1E
100
AcDbEntity
  8
0
100
AcDbLine
 10
68.09409999999999
 20
6.16792999999999
 30
0.0
 11
68.93810000000001
 21
6.42644
 31
0.0
  0
LINE
  5
1AA
330
1E
100
AcDbEntity
  8
0
100
AcDbLine
 10
67.88809999999999
 20
6.42644
 30
0.0
 11
68.4074
 21
7.02963
 31
0.0
  0
LINE
  5
1AB
330
1E
100
AcDbEntity
  8
0
100
AcDbLine
 10
67.88809999999999
 20
6.42644
 30
0.0
 11
68.09409999999999
 21
6.16792999999999
 31
0.0
  0
LINE
  5
1AD
330
1E
100
AcDbEntity
  8
0
100
AcDbLine
 10
68.4074
 20
7.02963
 30
0.0
 11
69.3767
 21
7.63281999999999
 31
0.0
  0
LINE
  5
1B1
330
1E
100
AcDbEntity
  8
0
100
AcDbLine
 10
71.7866
 20
7.02962999999999
 30
0.0
 11
72.7332
 21
7.63281999999999
 31
0.0
  0
LINE
  5
1B5
330
1E
100
AcDbEntity
  8
0
100
AcDbLine
 10
70.22069999999999
 20
7.89132999999999
 30
0.0
 11
70.4267
 21
7.63281999999999
 31
0.0
  0
LINE
  5
1B6
330
1E
100
AcDbEntity
  8
0
100
AcDbLine
 10
69.90739999999999
 20
7.02963
 30
0.0
 11
70.4267
 21
7.63281999999999
 31
0.0
  0
LINE
  5
1B7
330
1E
100
AcDbEntity
  8
0
100
AcDbLine
 10
69.3767
 20
7.63281999999999
 30
0.0
 11
70.22069999999999
 21
7.89132999999999
 31
0.0
  0
LINE
  5
1B8
330
1E
100
AcDbEntity
  8
0
100
AcDbLine
 10
71.73966059004008
 20
6.504975497313089
 30
0.0
 11
71.9762
 21
6.16792999999999
 31
0.0
  0
LINE
  5
1B9
330
1E
100
AcDbEntity
  8
0
100
AcDbLine
 10
72.5631
 20
7.02962999999999
 30
0.0
 11
73.27679999999999
 21
7.63281999999999
 31
0.0
  0
LINE
  5
1BB
330
1E
100
AcDbEntity
  8
0
100
AcDbLine
 10
72.7332
 20
7.63281999999999
 30
0.0
 11
73.36079999999999
 21
7.89132999999999
 31
0.0
  0
LINE
  5
1C0
330
1E
100
AcDbEntity
  8
0
100
AcDbLine
 10
73.27679999999999
 20
7.63281999999999
 30
0.0
 11
73.36079999999999
 21
7.89132999999999
 31
0.0
  0
LINE
  5
1C2
330
1E
100
AcDbEntity
  8
0
100
AcDbLine
 10
74.0635
 20
7.63281999999999
 30
0.0
 11
74.43179999999999
 21
7.89132999999999
 31
0.0
  0
LINE
  5
1C3
330
1E
100
AcDbEntity
  8
0
100
AcDbLine
 10
73.20399999999999
 20
7.02962999999999
 30
0.0
 11
74.0635
 21
7.63281999999999
 31
0.0
  0
LINE
  5
1C4
330
1E
100
AcDbEntity
  8
0
100
AcDbLine
 10
72.3446
 20
6.42644
 30
0.0
 11
73.20399999999999
 21
7.02962999999999
 31
0.0
  0
LINE
  5
1C5
330
1E
100
AcDbEntity
  8
0
100
AcDbLine
 10
71.9762
 20
6.16792999999999
 30
0.0
 11
72.3446
 21
6.42644
 31
0.0
  0
LINE
  5
1C6
330
1E
100
AcDbEntity
  8
0
100
AcDbLine
 10
73.4
 20
21.0
 30
0.0
 11
80.20000000000001
 21
21.0
 31
0.0
  0
LINE
  5
1C7
330
1E
100
AcDbEntity
  8
0
100
AcDbLine
 10
80.20000000000001
 20
21.0
 30
0.0
 11
84.40000000000001
 21
21.0
 31
0.0
  0
LINE
  5
1C8
330
1E
100
AcDbEntity
  8
0
100
AcDbLine
 10
81.5
 20
14.0
 30
0.0
 11
84.0
 21
16.5
 31
0.0
  0
LINE
  5
1C9
330
1E
100
AcDbEntity
  8
0
100
AcDbLine
 10
78.0
 20
12.0
 30
0.0
 11
81.5
 21
14.0
 31
0.0
  0
LINE
  5
1CA
330
1E
100
AcDbEntity
  8
0
100
AcDbLine
 10
75.5
 20
9.499999999999991
 30
0.0
 11
78.0
 21
12.0
 31
0.0
  0
LINE
  5
1CB
330
1E
100
AcDbEntity
  8
0
100
AcDbLine
 10
74.1136285204595
 20
8.344690433716239
 30
0.0
 11
75.5
 21
9.499999999999991
 31
0.0
  0
LINE
  5
1CC
330
1E
100
AcDbEntity
  8
0
100
AcDbLine
 10
74.1136285204595
 20
8.344690433716239
 30
0.0
 11
74.43179999999999
 21
7.89132999999999
 31
0.0
  0
LINE
  5
1CD
330
1E
100
AcDbEntity
  8
0
100
AcDbLine
 10
68.0
 20
4.5
 30
0.0
 11
71.0406454773033
 21
6.189247487390689
 31
0.0
  0
LINE
  5
1CE
330
1E
100
AcDbEntity
  8
0
100
AcDbLine
 10
68.0
 20
4.5
 30
0.0
 11
71.0406454773033
 21
6.189247487390689
 31
0.0
  0
LINE
  5
1CF
330
1E
100
AcDbEntity
  8
0
100
AcDbLine
 10
67.83351359284221
 20
4.43340543713688
 30
0.0
 11
68.0
 21
4.5
 31
0.0
  0
LINE
  5
1D0
330
1E
100
AcDbEntity
  8
0
100
AcDbLine
 10
58.0
 20
0.999999999999996
 30
0.0
 11
63.0
 21
2.5
 31
0.0
  0
LINE
  5
1D1
330
1E
100
AcDbEntity
  8
0
100
AcDbLine
 10
52.5
 20
0.199999999999997
 30
0.0
 11
58.0
 21
0.999999999999996
 31
0.0
  0
LINE
  5
1D2
330
1E
100
AcDbEntity
  8
0
100
AcDbLine
 10
37.0
 20
-0.0000000000000023
 30
0.0
 11
37.1486
 21
-0.0000000000000023
 31
0.0
  0
LINE
  5
1D3
330
1E
100
AcDbEntity
  8
0
100
AcDbLine
 10
33.5
 20
0.199999999999998
 30
0.0
 11
37.0
 21
-0.0000000000000023
 31
0.0
  0
LINE
  5
1D4
330
1E
100
AcDbEntity
  8
0
100
AcDbLine
 10
33.5
 20
0.199999999999998
 30
0.0
 11
37.0
 21
-0.0000000000000023
 31
0.0
  0
LINE
  5
1D5
330
1E
100
AcDbEntity
  8
0
100
AcDbLine
 10
79.40000000000001
 20
21.49999999999999
 30
0.0
 11
83.49999999999999
 21
21.49999999999999
 31
0.0
  0
LINE
  5
1D6
330
1E
100
AcDbEntity
  8
0
100
AcDbLine
 10
84.40000000000001
 20
21.0
 30
0.0
 11
86.0
 21
21.0
 31
0.0
  0
LINE
  5
1D7
330
1E
100
AcDbEntity
  8
0
100
AcDbLine
 10
85.5
 20
19.0
 30
0.0
 11
86.0
 21
21.0
 31
0.0
  0
LINE
  5
1D8
330
1E
100
AcDbEntity
  8
0
100
AcDbLine
 10
84.0
 20
16.5
 30
0.0
 11
85.5
 21
19.0
 31
0.0
  0
LINE
  5
1D9
330
1E
100
AcDbEntity
  8
0
100
AcDbLine
 10
83.49999999999999
 20
21.49999999999999
 30
0.0
 11
85.0
 21
21.49999999999999
 31
0.0
  0
LINE
  5
1DA
330
1E
100
AcDbEntity
  8
0
100
AcDbLine
 10
41.5
 20
21.55209999999999
 30
0.0
 11
41.5
 21
20.1368
 31
0.0
  0
LINE
  5
1DB
330
1E
100
AcDbEntity
  8
0
100
AcDbLine
 10
41.5
 20
21.55209999999999
 30
0.0
 11
41.5
 21
23.7087
 31
0.0
  0
LINE
  5
1DC
330
1E
100
AcDbEntity
  8
0
100
AcDbLine
 10
41.5
 20
22.0238
 30
0.0
 11
41.5
 21
27.5165
 31
0.0
  0
LINE
  5
1DD
330
1E
100
AcDbEntity
  8
0
100
AcDbLine
 10
41.5
 20
22.0238
 30
0.0
 11
41.5
 21
21.51839999999999
 31
0.0
  0
LINE
  5
1DE
330
1E
100
AcDbEntity
  8
0
100
AcDbLine
 10
41.5
 20
21.51839999999999
 30
0.0
 11
41.5
 21
22.0238
 31
0.0
  0
LINE
  5
1DF
330
1E
100
AcDbEntity
  8
0
100
AcDbLine
 10
41.5
 20
21.51839999999999
 30
0.0
 11
41.5
 21
21.31619999999999
 31
0.0
  0
LINE
  5
1E0
330
1E
100
AcDbEntity
  8
0
100
AcDbLine
 10
44.5
 20
21.55209999999999
 30
0.0
 11
44.5
 21
23.7087
 31
0.0
  0
LINE
  5
1E1
330
1E
100
AcDbEntity
  8
0
100
AcDbLine
 10
44.5
 20
21.55209999999999
 30
0.0
 11
44.5
 21
20.1368
 31
0.0
  0
LINE
  5
1E2
330
1E
100
AcDbEntity
  8
0
100
AcDbLine
 10
44.5
 20
21.49999999999999
 30
0.0
 11
53.79999999999999
 21
21.49999999999999
 31
0.0
  0
LINE
  5
1E3
330
1E
100
AcDbEntity
  8
0
100
AcDbLine
 10
72.7
 20
21.49999999999999
 30
0.0
 11
79.40000000000001
 21
21.49999999999999
 31
0.0
  0
LINE
  5
1E4
330
1E
100
AcDbEntity
  8
0
100
AcDbLine
 10
86.0
 20
22.0254
 30
0.0
 11
86.0
 21
27.27899999999999
 31
0.0
  0
LINE
  5
1E5
330
1E
100
AcDbEntity
  8
0
100
AcDbLine
 10
80.20000000000001
 20
22.0254
 30
0.0
 11
84.40000000000001
 21
22.0254
 31
0.0
  0
LINE
  5
1E6
330
1E
100
AcDbEntity
  8
0
100
AcDbLine
 10
73.4
 20
22.0254
 30
0.0
 11
80.20000000000001
 21
22.0254
 31
0.0
  0
LINE
  5
1E7
330
1E
100
AcDbEntity
  8
0
100
AcDbLine
 10
84.40000000000001
 20
22.0254
 30
0.0
 11
86.0
 21
22.0254
 31
0.0
  0
LINE
  5
1E8
330
1E
100
AcDbEntity
  8
0
100
AcDbLine
 10
63.9
 20
21.49999999999999
 30
0.0
 11
72.7
 21
21.49999999999999
 31
0.0
  0
LINE
  5
1E9
330
1E
100
AcDbEntity
  8
0
100
AcDbLine
 10
64.40000000000001
 20
22.0254
 30
0.0
 11
73.4
 21
22.0254
 31
0.0
  0
LINE
  5
1EA
330
1E
100
AcDbEntity
  8
0
100
AcDbLine
 10
53.79999999999999
 20
21.49999999999999
 30
0.0
 11
63.9
 21
21.49999999999999
 31
0.0
  0
LINE
  5
1EB
330
1E
100
AcDbEntity
  8
0
100
AcDbLine
 10
54.0
 20
22.0254
 30
0.0
 11
64.40000000000001
 21
22.0254
 31
0.0
  0
LINE
  5
1EC
330
1E
100
AcDbEntity
  8
0
100
AcDbLine
 10
44.5
 20
22.0254
 30
0.0
 11
54.0
 21
22.0254
 31
0.0
  0
LINE
  5
1ED
330
1E
100
AcDbEntity
  8
0
100
AcDbLine
 10
85.0
 20
21.49999999999999
 30
0.0
 11
86.0
 21
22.0254
 31
0.0
  0
LINE
  5
1EE
330
1E
100
AcDbEntity
  8
0
100
AcDbLine
 10
85.0
 20
21.49999999999999
 30
0.0
 11
86.0
 21
21.0
 31
0.0
  0
LINE
  5
1EF
330
1E
100
AcDbEntity
  8
0
100
AcDbLine
 10
32.2
 20
21.49999999999999
 30
0.0
 11
41.5
 21
21.49999999999999
 31
0.0
  0
LINE
  5
1F0
330
1E
100
AcDbEntity
  8
0
100
AcDbLine
 10
25.94419999999999
 20
74.0
 30
0.0
 11
30.9391
 21
74.0
 31
0.0
  0
LINE
  5
1F1
330
1E
100
AcDbEntity
  8
0
100
AcDbLine
 10
26.5469
 20
80.3462
 30
0.0
 11
27.1797
 21
80.3462
 31
0.0
  0
LINE
  5
1F2
330
1E
100
AcDbEntity
  8
0
100
AcDbLine
 10
30.9391
 20
74.0
 30
0.0
 11
36.665
 21
74.0
 31
0.0
  0
LINE
  5
1F3
330
1E
100
AcDbEntity
  8
0
100
AcDbLine
 10
27.1797
 20
80.3462
 30
0.0
 11
28.8672
 21
80.3462
 31
0.0
  0
LINE
  5
1F4
330
1E
100
AcDbEntity
  8
0
100
AcDbLine
 10
25.5625
 20
83.0385
 30
0.0
 11
25.5625
 21
81.6923
 31
0.0
  0
LINE
  5
1F5
330
1E
100
AcDbEntity
  8
0
100
AcDbLine
 10
25.5625
 20
83.0385
 30
0.0
 11
27.1094
 21
84.3846
 31
0.0
  0
LINE
  5
1F6
330
1E
100
AcDbEntity
  8
0
100
AcDbLine
 10
25.5625
 20
83.0385
 30
0.0
 11
26.1953
 21
83.0385
 31
0.0
  0
LINE
  5
1F7
330
1E
100
AcDbEntity
  8
0
100
AcDbLine
 10
27.6016
 20
84.3846
 30
0.0
 11
29.2891
 21
84.3846
 31
0.0
  0
LINE
  5
1F8
330
1E
100
AcDbEntity
  8
0
100
AcDbLine
 10
26.1953
 20
83.0385
 30
0.0
 11
27.9531
 21
83.0385
 31
0.0
  0
LINE
  5
1F9
330
1E
100
AcDbEntity
  8
0
100
AcDbLine
 10
27.9531
 20
83.0385
 30
0.0
 11
30.6953
 21
83.0385
 31
0.0
  0
LINE
  5
1FA
330
1E
100
AcDbEntity
  8
0
100
AcDbLine
 10
26.1953
 20
81.6923
 30
0.0
 11
27.9531
 21
81.6923
 31
0.0
  0
LINE
  5
1FB
330
1E
100
AcDbEntity
  8
0
100
AcDbLine
 10
30.6953
 20
83.0385
 30
0.0
 11
34.2813
 21
83.0385
 31
0.0
  0
LINE
  5
1FC
330
1E
100
AcDbEntity
  8
0
100
AcDbLine
 10
30.6953
 20
81.6923
 30
0.0
 11
34.2813
 21
81.6923
 31
0.0
  0
LINE
  5
1FD
330
1E
100
AcDbEntity
  8
0
100
AcDbLine
 10
29.2891
 20
84.3846
 30
0.0
 11
31.75
 21
84.3846
 31
0.0
  0
LINE
  5
1FE
330
1E
100
AcDbEntity
  8
0
100
AcDbLine
 10
27.9531
 20
81.6923
 30
0.0
 11
30.6953
 21
81.6923
 31
0.0
  0
LINE
  5
1FF
330
1E
100
AcDbEntity
  8
0
100
AcDbLine
 10
26.125
 20
87.07689999999999
 30
0.0
 11
26.125
 21
85.7308
 31
0.0
  0
LINE
  5
200
330
1E
100
AcDbEntity
  8
0
100
AcDbLine
 10
26.125
 20
87.07689999999999
 30
0.0
 11
27.6719
 21
88.42310000000001
 31
0.0
  0
LINE
  5
201
330
1E
100
AcDbEntity
  8
0
100
AcDbLine
 10
26.125
 20
87.07689999999999
 30
0.0
 11
26.6875
 21
87.07689999999999
 31
0.0
  0
LINE
  5
202
330
1E
100
AcDbEntity
  8
0
100
AcDbLine
 10
27.1797
 20
89.76919999999999
 30
0.0
 11
28.8672
 21
89.76919999999999
 31
0.0
  0
LINE
  5
203
330
1E
100
AcDbEntity
  8
0
100
AcDbLine
 10
27.6719
 20
88.42310000000001
 30
0.0
 11
28.1641
 21
88.42310000000001
 31
0.0
  0
LINE
  5
204
330
1E
100
AcDbEntity
  8
0
100
AcDbLine
 10
28.1641
 20
88.42310000000001
 30
0.0
 11
29.7109
 21
88.42310000000001
 31
0.0
  0
LINE
  5
205
330
1E
100
AcDbEntity
  8
0
100
AcDbLine
 10
26.6875
 20
87.07689999999999
 30
0.0
 11
28.375
 21
87.07689999999999
 31
0.0
  0
LINE
  5
206
330
1E
100
AcDbEntity
  8
0
100
AcDbLine
 10
28.375
 20
87.07689999999999
 30
0.0
 11
31.0469
 21
87.07689999999999
 31
0.0
  0
LINE
  5
207
330
1E
100
AcDbEntity
  8
0
100
AcDbLine
 10
26.6875
 20
85.7308
 30
0.0
 11
28.375
 21
85.7308
 31
0.0
  0
LINE
  5
208
330
1E
100
AcDbEntity
  8
0
100
AcDbLine
 10
31.0469
 20
87.07689999999999
 30
0.0
 11
34.5625
 21
87.07689999999999
 31
0.0
  0
LINE
  5
209
330
1E
100
AcDbEntity
  8
0
100
AcDbLine
 10
31.0469
 20
85.7308
 30
0.0
 11
34.5625
 21
85.7308
 31
0.0
  0
LINE
  5
20A
330
1E
100
AcDbEntity
  8
0
100
AcDbLine
 10
31.39839999999999
 20
89.76919999999999
 30
0.0
 11
34.7734
 21
89.76919999999999
 31
0.0
  0
LINE
  5
20B
330
1E
100
AcDbEntity
  8
0
100
AcDbLine
 10
28.8672
 20
89.76919999999999
 30
0.0
 11
31.39839999999999
 21
89.76919999999999
 31
0.0
  0
LINE
  5
20C
330
1E
100
AcDbEntity
  8
0
100
AcDbLine
 10
29.7109
 20
88.42310000000001
 30
0.0
 11
32.1016
 21
88.42310000000001
 31
0.0
  0
LINE
  5
20D
330
1E
100
AcDbEntity
  8
0
100
AcDbLine
 10
28.375
 20
85.7308
 30
0.0
 11
31.0469
 21
85.7308
 31
0.0
  0
LINE
  5
20E
330
1E
100
AcDbEntity
  8
0
100
AcDbLine
 10
27.6016
 20
93.8077
 30
0.0
 11
29.2891
 21
93.8077
 31
0.0
  0
LINE
  5
20F
330
1E
100
AcDbEntity
  8
0
100
AcDbLine
 10
28.0938
 20
92.4615
 30
0.0
 11
28.58589999999999
 21
92.4615
 31
0.0
  0
LINE
  5
210
330
1E
100
AcDbEntity
  8
0
100
AcDbLine
 10
28.58589999999999
 20
92.4615
 30
0.0
 11
30.0625
 21
92.4615
 31
0.0
  0
LINE
  5
211
330
1E
100
AcDbEntity
  8
0
100
AcDbLine
 10
27.1797
 20
91.11539999999999
 30
0.0
 11
28.8672
 21
91.11539999999999
 31
0.0
  0
LINE
  5
212
330
1E
100
AcDbEntity
  8
0
100
AcDbLine
 10
31.39839999999999
 20
91.11539999999999
 30
0.0
 11
34.7734
 21
91.11539999999999
 31
0.0
  0
LINE
  5
213
330
1E
100
AcDbEntity
  8
0
100
AcDbLine
 10
29.2891
 20
93.8077
 30
0.0
 11
31.75
 21
93.8077
 31
0.0
  0
LINE
  5
214
330
1E
100
AcDbEntity
  8
0
100
AcDbLine
 10
30.0625
 20
92.4615
 30
0.0
 11
32.45309999999999
 21
92.4615
 31
0.0
  0
LINE
  5
215
330
1E
100
AcDbEntity
  8
0
100
AcDbLine
 10
28.8672
 20
91.11539999999999
 30
0.0
 11
31.39839999999999
 21
91.11539999999999
 31
0.0
  0
LINE
  5
216
330
1E
100
AcDbEntity
  8
0
100
AcDbLine
 10
28.1641
 20
97.8462
 30
0.0
 11
29.7109
 21
97.8462
 31
0.0
  0
LINE
  5
217
330
1E
100
AcDbEntity
  8
0
100
AcDbLine
 10
28.6563
 20
96.5
 30
0.0
 11
29.07809999999999
 21
96.5
 31
0.0
  0
LINE
  5
218
330
1E
100
AcDbEntity
  8
0
100
AcDbLine
 10
29.07809999999999
 20
96.5
 30
0.0
 11
30.5547
 21
96.5
 31
0.0
  0
LINE
  5
219
330
1E
100
AcDbEntity
  8
0
100
AcDbLine
 10
27.6016
 20
95.1538
 30
0.0
 11
29.2891
 21
95.1538
 31
0.0
  0
LINE
  5
21A
330
1E
100
AcDbEntity
  8
0
100
AcDbLine
 10
29.7109
 20
97.8462
 30
0.0
 11
32.1016
 21
97.8462
 31
0.0
  0
LINE
  5
21B
330
1E
100
AcDbEntity
  8
0
100
AcDbLine
 10
30.5547
 20
96.5
 30
0.0
 11
32.80469999999999
 21
96.5
 31
0.0
  0
LINE
  5
21C
330
1E
100
AcDbEntity
  8
0
100
AcDbLine
 10
29.2891
 20
95.1538
 30
0.0
 11
31.75
 21
95.1538
 31
0.0
  0
LINE
  5
21D
330
1E
100
AcDbEntity
  8
0
100
AcDbLine
 10
28.58589999999999
 20
101.885
 30
0.0
 11
30.0625
 21
101.885
 31
0.0
  0
LINE
  5
21E
330
1E
100
AcDbEntity
  8
0
100
AcDbLine
 10
29.07809999999999
 20
100.5379999999999
 30
0.0
 11
29.57029999999999
 21
100.5379999999999
 31
0.0
  0
LINE
  5
21F
330
1E
100
AcDbEntity
  8
0
100
AcDbLine
 10
29.57029999999999
 20
100.5379999999999
 30
0.0
 11
30.9766
 21
100.5379999999999
 31
0.0
  0
LINE
  5
220
330
1E
100
AcDbEntity
  8
0
100
AcDbLine
 10
28.1641
 20
99.1923
 30
0.0
 11
29.7109
 21
99.1923
 31
0.0
  0
LINE
  5
221
330
1E
100
AcDbEntity
  8
0
100
AcDbLine
 10
30.0625
 20
101.885
 30
0.0
 11
32.45309999999999
 21
101.885
 31
0.0
  0
LINE
  5
222
330
1E
100
AcDbEntity
  8
0
100
AcDbLine
 10
30.9766
 20
100.5379999999999
 30
0.0
 11
33.1563
 21
100.5379999999999
 31
0.0
  0
LINE
  5
223
330
1E
100
AcDbEntity
  8
0
100
AcDbLine
 10
29.7109
 20
99.1923
 30
0.0
 11
32.1016
 21
99.1923
 31
0.0
  0
LINE
  5
224
330
1E
100
AcDbEntity
  8
0
100
AcDbLine
 10
30.0625
 20
114.0
 30
0.0
 11
30.4844
 21
114.0
 31
0.0
  0
LINE
  5
225
330
1E
100
AcDbEntity
  8
0
100
AcDbLine
 10
30.4844
 20
114.0
 30
0.0
 11
31.8906
 21
114.0
 31
0.0
  0
LINE
  5
226
330
1E
100
AcDbEntity
  8
0
100
AcDbLine
 10
28.0938
 20
103.231
 30
0.0
 11
28.0938
 21
101.885
 31
0.0
  0
LINE
  5
227
330
1E
100
AcDbEntity
  8
0
100
AcDbLine
 10
28.0938
 20
103.231
 30
0.0
 11
30.0625
 21
114.0
 31
0.0
  0
LINE
  5
228
330
1E
100
AcDbEntity
  8
0
100
AcDbLine
 10
28.0938
 20
101.885
 30
0.0
 11
29.07809999999999
 21
100.5379999999999
 31
0.0
  0
LINE
  5
229
330
1E
100
AcDbEntity
  8
0
100
AcDbLine
 10
28.0938
 20
101.885
 30
0.0
 11
28.58589999999999
 21
101.885
 31
0.0
  0
LINE
  5
22A
330
1E
100
AcDbEntity
  8
0
100
AcDbLine
 10
28.0938
 20
101.885
 30
0.0
 11
28.0938
 21
103.231
 31
0.0
  0
LINE
  5
22B
330
1E
100
AcDbEntity
  8
0
100
AcDbLine
 10
27.6719
 20
99.1923
 30
0.0
 11
27.6719
 21
97.8462
 31
0.0
  0
LINE
  5
22C
330
1E
100
AcDbEntity
  8
0
100
AcDbLine
 10
27.6719
 20
99.1923
 30
0.0
 11
29.07809999999999
 21
100.5379999999999
 31
0.0
  0
LINE
  5
22D
330
1E
100
AcDbEntity
  8
0
100
AcDbLine
 10
27.6719
 20
99.1923
 30
0.0
 11
28.1641
 21
99.1923
 31
0.0
  0
LINE
  5
22E
330
1E
100
AcDbEntity
  8
0
100
AcDbLine
 10
27.6719
 20
97.8462
 30
0.0
 11
28.6563
 21
96.5
 31
0.0
  0
LINE
  5
22F
330
1E
100
AcDbEntity
  8
0
100
AcDbLine
 10
27.6719
 20
97.8462
 30
0.0
 11
28.1641
 21
97.8462
 31
0.0
  0
LINE
  5
230
330
1E
100
AcDbEntity
  8
0
100
AcDbLine
 10
27.6719
 20
97.8462
 30
0.0
 11
27.6719
 21
99.1923
 31
0.0
  0
LINE
  5
231
330
1E
100
AcDbEntity
  8
0
100
AcDbLine
 10
27.1094
 20
95.1538
 30
0.0
 11
27.1094
 21
93.8077
 31
0.0
  0
LINE
  5
232
330
1E
100
AcDbEntity
  8
0
100
AcDbLine
 10
27.1094
 20
95.1538
 30
0.0
 11
28.6563
 21
96.5
 31
0.0
  0
LINE
  5
233
330
1E
100
AcDbEntity
  8
0
100
AcDbLine
 10
27.1094
 20
95.1538
 30
0.0
 11
27.6016
 21
95.1538
 31
0.0
  0
LINE
  5
234
330
1E
100
AcDbEntity
  8
0
100
AcDbLine
 10
27.1094
 20
93.8077
 30
0.0
 11
28.0938
 21
92.4615
 31
0.0
  0
LINE
  5
235
330
1E
100
AcDbEntity
  8
0
100
AcDbLine
 10
27.1094
 20
93.8077
 30
0.0
 11
27.6016
 21
93.8077
 31
0.0
  0
LINE
  5
236
330
1E
100
AcDbEntity
  8
0
100
AcDbLine
 10
27.1094
 20
93.8077
 30
0.0
 11
27.1094
 21
95.1538
 31
0.0
  0
LINE
  5
237
330
1E
100
AcDbEntity
  8
0
100
AcDbLine
 10
26.5469
 20
91.11539999999999
 30
0.0
 11
26.5469
 21
89.76919999999999
 31
0.0
  0
LINE
  5
238
330
1E
100
AcDbEntity
  8
0
100
AcDbLine
 10
26.5469
 20
91.11539999999999
 30
0.0
 11
28.0938
 21
92.4615
 31
0.0
  0
LINE
  5
239
330
1E
100
AcDbEntity
  8
0
100
AcDbLine
 10
26.5469
 20
91.11539999999999
 30
0.0
 11
27.1797
 21
91.11539999999999
 31
0.0
  0
LINE
  5
23A
330
1E
100
AcDbEntity
  8
0
100
AcDbLine
 10
26.5469
 20
89.76919999999999
 30
0.0
 11
27.6719
 21
88.42310000000001
 31
0.0
  0
LINE
  5
23B
330
1E
100
AcDbEntity
  8
0
100
AcDbLine
 10
26.5469
 20
89.76919999999999
 30
0.0
 11
27.1797
 21
89.76919999999999
 31
0.0
  0
LINE
  5
23C
330
1E
100
AcDbEntity
  8
0
100
AcDbLine
 10
26.5469
 20
89.76919999999999
 30
0.0
 11
26.5469
 21
91.11539999999999
 31
0.0
  0
LINE
  5
23D
330
1E
100
AcDbEntity
  8
0
100
AcDbLine
 10
26.125
 20
85.7308
 30
0.0
 11
27.1094
 21
84.3846
 31
0.0
  0
LINE
  5
23E
330
1E
100
AcDbEntity
  8
0
100
AcDbLine
 10
26.125
 20
85.7308
 30
0.0
 11
26.6875
 21
85.7308
 31
0.0
  0
LINE
  5
23F
330
1E
100
AcDbEntity
  8
0
100
AcDbLine
 10
26.125
 20
85.7308
 30
0.0
 11
26.125
 21
87.07689999999999
 31
0.0
  0
LINE
  5
240
330
1E
100
AcDbEntity
  8
0
100
AcDbLine
 10
27.1094
 20
84.3846
 30
0.0
 11
27.6016
 21
84.3846
 31
0.0
  0
LINE
  5
241
330
1E
100
AcDbEntity
  8
0
100
AcDbLine
 10
25.5625
 20
81.6923
 30
0.0
 11
26.5469
 21
80.3462
 31
0.0
  0
LINE
  5
242
330
1E
100
AcDbEntity
  8
0
100
AcDbLine
 10
25.5625
 20
81.6923
 30
0.0
 11
26.1953
 21
81.6923
 31
0.0
  0
LINE
  5
243
330
1E
100
AcDbEntity
  8
0
100
AcDbLine
 10
25.5625
 20
81.6923
 30
0.0
 11
25.5625
 21
83.0385
 31
0.0
  0
LINE
  5
244
330
1E
100
AcDbEntity
  8
0
100
AcDbLine
 10
28.8672
 20
80.3462
 30
0.0
 11
31.39839999999999
 21
80.3462
 31
0.0
  0
LINE
  5
245
330
1E
100
AcDbEntity
  8
0
100
AcDbLine
 10
36.665
 20
74.0
 30
0.0
 11
43.0
 21
74.0
 31
0.0
  0
LINE
  5
246
330
1E
100
AcDbEntity
  8
0
100
AcDbLine
 10
41.5
 20
23.7087
 30
0.0
 11
41.5
 21
21.55209999999999
 31
0.0
  0
LINE
  5
247
330
1E
100
AcDbEntity
  8
0
100
AcDbLine
 10
41.5
 20
23.7087
 30
0.0
 11
41.5
 21
25.6295
 31
0.0
  0
LINE
  5
248
330
1E
100
AcDbEntity
  8
0
100
AcDbLine
 10
41.5
 20
25.6295
 30
0.0
 11
41.5
 21
23.7087
 31
0.0
  0
LINE
  5
249
330
1E
100
AcDbEntity
  8
0
100
AcDbLine
 10
41.5
 20
25.6295
 30
0.0
 11
41.5
 21
26.8089
 31
0.0
  0
LINE
  5
24A
330
1E
100
AcDbEntity
  8
0
100
AcDbLine
 10
44.5
 20
23.7087
 30
0.0
 11
44.5
 21
25.6295
 31
0.0
  0
LINE
  5
24B
330
1E
100
AcDbEntity
  8
0
100
AcDbLine
 10
44.5
 20
23.7087
 30
0.0
 11
44.5
 21
21.55209999999999
 31
0.0
  0
LINE
  5
24C
330
1E
100
AcDbEntity
  8
0
100
AcDbLine
 10
41.5
 20
26.8089
 30
0.0
 11
41.5
 21
25.6295
 31
0.0
  0
LINE
  5
24D
330
1E
100
AcDbEntity
  8
0
100
AcDbLine
 10
41.5
 20
26.8089
 30
0.0
 11
41.5
 21
27.4828
 31
0.0
  0
LINE
  5
24E
330
1E
100
AcDbEntity
  8
0
100
AcDbLine
 10
44.5
 20
25.6295
 30
0.0
 11
44.5
 21
26.8089
 31
0.0
  0
LINE
  5
24F
330
1E
100
AcDbEntity
  8
0
100
AcDbLine
 10
44.5
 20
25.6295
 30
0.0
 11
44.5
 21
23.7087
 31
0.0
  0
LINE
  5
250
330
1E
100
AcDbEntity
  8
0
100
AcDbLine
 10
44.5
 20
26.8089
 30
0.0
 11
44.5
 21
27.4828
 31
0.0
  0
LINE
  5
251
330
1E
100
AcDbEntity
  8
0
100
AcDbLine
 10
44.5
 20
26.8089
 30
0.0
 11
44.5
 21
25.6295
 31
0.0
  0
LINE
  5
252
330
1E
100
AcDbEntity
  8
0
100
AcDbLine
 10
41.5
 20
27.4828
 30
0.0
 11
41.5
 21
26.8089
 31
0.0
  0
LINE
  5
253
330
1E
100
AcDbEntity
  8
0
100
AcDbLine
 10
41.5
 20
27.4828
 30
0.0
 11
41.5
 21
27.92089999999999
 31
0.0
  0
LINE
  5
254
330
1E
100
AcDbEntity
  8
0
100
AcDbLine
 10
41.5
 20
27.92089999999999
 30
0.0
 11
41.5
 21
27.4828
 31
0.0
  0
LINE
  5
255
330
1E
100
AcDbEntity
  8
0
100
AcDbLine
 10
41.5
 20
27.92089999999999
 30
0.0
 11
41.5
 21
28.29159999999999
 31
0.0
  0
LINE
  5
256
330
1E
100
AcDbEntity
  8
0
100
AcDbLine
 10
41.5
 20
28.29159999999999
 30
0.0
 11
41.5
 21
27.92089999999999
 31
0.0
  0
LINE
  5
257
330
1E
100
AcDbEntity
  8
0
100
AcDbLine
 10
41.5
 20
28.29159999999999
 30
0.0
 11
41.5
 21
28.0557
 31
0.0
  0
LINE
  5
258
330
1E
100
AcDbEntity
  8
0
100
AcDbLine
 10
41.5
 20
28.29159999999999
 30
0.0
 11
44.5
 21
28.29159999999999
 31
0.0
  0
LINE
  5
259
330
1E
100
AcDbEntity
  8
0
100
AcDbLine
 10
41.5
 20
28.0557
 30
0.0
 11
41.5
 21
28.29159999999999
 31
0.0
  0
LINE
  5
25A
330
1E
100
AcDbEntity
  8
0
100
AcDbLine
 10
41.5
 20
28.0557
 30
0.0
 11
41.5
 21
27.5165
 31
0.0
  0
LINE
  5
25B
330
1E
100
AcDbEntity
  8
0
100
AcDbLine
 10
44.5
 20
28.29159999999999
 30
0.0
 11
44.5
 21
27.92089999999999
 31
0.0
  0
LINE
  5
25C
330
1E
100
AcDbEntity
  8
0
100
AcDbLine
 10
41.5
 20
27.5165
 30
0.0
 11
41.5
 21
28.0557
 31
0.0
  0
LINE
  5
25D
330
1E
100
AcDbEntity
  8
0
100
AcDbLine
 10
41.5
 20
27.5165
 30
0.0
 11
41.5
 21
22.0238
 31
0.0
  0
LINE
  5
25E
330
1E
100
AcDbEntity
  8
0
100
AcDbLine
 10
44.5
 20
27.4828
 30
0.0
 11
44.5
 21
27.92089999999999
 31
0.0
  0
LINE
  5
25F
330
1E
100
AcDbEntity
  8
0
100
AcDbLine
 10
44.5
 20
27.4828
 30
0.0
 11
44.5
 21
26.8089
 31
0.0
  0
LINE
  5
260
330
1E
100
AcDbEntity
  8
0
100
AcDbLine
 10
44.5
 20
27.92089999999999
 30
0.0
 11
44.5
 21
28.29159999999999
 31
0.0
  0
LINE
  5
261
330
1E
100
AcDbEntity
  8
0
100
AcDbLine
 10
44.5
 20
27.92089999999999
 30
0.0
 11
44.5
 21
27.4828
 31
0.0
  0
LINE
  5
262
330
1E
100
AcDbEntity
  8
0
100
AcDbLine
 10
43.0
 20
74.0
 30
0.0
 11
49.335
 21
74.0
 31
0.0
  0
LINE
  5
263
330
1E
100
AcDbEntity
  8
0
100
AcDbLine
 10
49.335
 20
74.0
 30
0.0
 11
55.0609
 21
74.0
 31
0.0
  0
LINE
  5
264
330
1E
100
AcDbEntity
  8
0
100
AcDbLine
 10
66.26899999999999
 20
74.0
 30
0.0
 11
67.0
 21
74.0
 31
0.0
  0
LINE
  5
265
330
1E
100
AcDbEntity
  8
0
100
AcDbLine
 10
63.8325
 20
74.0
 30
0.0
 11
66.26899999999999
 21
74.0
 31
0.0
  0
LINE
  5
266
330
1E
100
AcDbEntity
  8
0
100
AcDbLine
 10
60.0558
 20
74.0
 30
0.0
 11
63.8325
 21
74.0
 31
0.0
  0
LINE
  5
267
330
1E
100
AcDbEntity
  8
0
100
AcDbLine
 10
55.0609
 20
74.0
 30
0.0
 11
60.0558
 21
74.0
 31
0.0
  0
LINE
  5
268
330
1E
100
AcDbEntity
  8
0
100
AcDbLine
 10
43.0
 20
80.3462
 30
0.0
 11
47.28909999999999
 21
80.3462
 31
0.0
  0
LINE
  5
269
330
1E
100
AcDbEntity
  8
0
100
AcDbLine
 10
58.8203
 20
80.3462
 30
0.0
 11
59.4531
 21
80.3462
 31
0.0
  0
LINE
  5
26A
330
1E
100
AcDbEntity
  8
0
100
AcDbLine
 10
57.13280000000001
 20
80.3462
 30
0.0
 11
58.8203
 21
80.3462
 31
0.0
  0
LINE
  5
26B
330
1E
100
AcDbEntity
  8
0
100
AcDbLine
 10
54.6016
 20
80.3462
 30
0.0
 11
57.13280000000001
 21
80.3462
 31
0.0
  0
LINE
  5
26C
330
1E
100
AcDbEntity
  8
0
100
AcDbLine
 10
47.28909999999999
 20
80.3462
 30
0.0
 11
51.22659999999999
 21
80.3462
 31
0.0
  0
LINE
  5
26D
330
1E
100
AcDbEntity
  8
0
100
AcDbLine
 10
51.22659999999999
 20
80.3462
 30
0.0
 11
54.6016
 21
80.3462
 31
0.0
  0
LINE
  5
26E
330
1E
100
AcDbEntity
  8
0
100
AcDbLine
 10
64.5635
 20
77.0
 30
0.0
 11
67.0
 21
74.0
 31
0.0
  0
LINE
  5
26F
330
1E
100
AcDbEntity
  8
0
100
AcDbLine
 10
61.8833
 20
79.1
 30
0.0
 11
64.5635
 21
77.0
 31
0.0
  0
LINE
  5
270
330
1E
100
AcDbEntity
  8
0
100
AcDbLine
 10
59.4531
 20
80.3462
 30
0.0
 11
61.8833
 21
79.1
 31
0.0
  0
LINE
  5
271
330
1E
100
AcDbEntity
  8
0
100
AcDbLine
 10
59.4531
 20
80.3462
 30
0.0
 11
60.4375
 21
81.6923
 31
0.0
  0
LINE
  5
272
330
1E
100
AcDbEntity
  8
0
100
AcDbLine
 10
67.0
 20
74.0
 30
0.0
 11
70.0
 21
71.935
 31
0.0
  0
LINE
  5
273
330
1E
100
AcDbEntity
  8
0
100
AcDbLine
 10
70.0
 20
71.935
 30
0.0
 11
74.0
 21
67.2067
 31
0.0
  0
LINE
  5
274
330
1E
100
AcDbEntity
  8
0
100
AcDbLine
 10
74.0
 20
67.2067
 30
0.0
 11
77.5
 21
60.9023
 31
0.0
  0
LINE
  5
275
330
1E
100
AcDbEntity
  8
0
100
AcDbLine
 10
77.5
 20
60.9023
 30
0.0
 11
80.5
 21
54.598
 31
0.0
  0
LINE
  5
276
330
1E
100
AcDbEntity
  8
0
100
AcDbLine
 10
80.5
 20
54.598
 30
0.0
 11
83.0
 21
46.7175
 31
0.0
  0
LINE
  5
277
330
1E
100
AcDbEntity
  8
0
100
AcDbLine
 10
83.0
 20
46.7175
 30
0.0
 11
85.0
 21
36.7356
 31
0.0
  0
LINE
  5
278
330
1E
100
AcDbEntity
  8
0
100
AcDbLine
 10
85.0
 20
36.7356
 30
0.0
 11
85.5
 21
31.4819
 31
0.0
  0
LINE
  5
279
330
1E
100
AcDbEntity
  8
0
100
AcDbLine
 10
85.5
 20
31.4819
 30
0.0
 11
86.0
 21
27.27899999999999
 31
0.0
  0
LINE
  5
27A
330
1E
100
AcDbEntity
  8
0
100
AcDbLine
 10
86.0
 20
27.27899999999999
 30
0.0
 11
86.0
 21
22.0254
 31
0.0
  0
LINE
  5
27B
330
1E
100
AcDbEntity
  8
0
100
AcDbLine
 10
38.7109
 20
80.3462
 30
0.0
 11
43.0
 21
80.3462
 31
0.0
  0
LINE
  5
27C
330
1E
100
AcDbEntity
  8
0
100
AcDbLine
 10
31.75
 20
95.1538
 30
0.0
 11
35.05469999999999
 21
95.1538
 31
0.0
  0
LINE
  5
27D
330
1E
100
AcDbEntity
  8
0
100
AcDbLine
 10
31.75
 20
93.8077
 30
0.0
 11
35.05469999999999
 21
93.8077
 31
0.0
  0
LINE
  5
27E
330
1E
100
AcDbEntity
  8
0
100
AcDbLine
 10
31.75
 20
84.3846
 30
0.0
 11
35.05469999999999
 21
84.3846
 31
0.0
  0
LINE
  5
27F
330
1E
100
AcDbEntity
  8
0
100
AcDbLine
 10
43.0
 20
81.6923
 30
0.0
 11
47.5703
 21
81.6923
 31
0.0
  0
LINE
  5
280
330
1E
100
AcDbEntity
  8
0
100
AcDbLine
 10
47.5703
 20
81.6923
 30
0.0
 11
51.7187
 21
81.6923
 31
0.0
  0
LINE
  5
281
330
1E
100
AcDbEntity
  8
0
100
AcDbLine
 10
51.7187
 20
81.6923
 30
0.0
 11
55.3047
 21
81.6923
 31
0.0
  0
LINE
  5
282
330
1E
100
AcDbEntity
  8
0
100
AcDbLine
 10
60.4375
 20
81.6923
 30
0.0
 11
60.4375
 21
83.0385
 31
0.0
  0
LINE
  5
283
330
1E
100
AcDbEntity
  8
0
100
AcDbLine
 10
59.8047
 20
81.6923
 30
0.0
 11
60.4375
 21
81.6923
 31
0.0
  0
LINE
  5
284
330
1E
100
AcDbEntity
  8
0
100
AcDbLine
 10
58.0469
 20
81.6923
 30
0.0
 11
59.8047
 21
81.6923
 31
0.0
  0
LINE
  5
285
330
1E
100
AcDbEntity
  8
0
100
AcDbLine
 10
55.3047
 20
81.6923
 30
0.0
 11
58.0469
 21
81.6923
 31
0.0
  0
LINE
  5
286
330
1E
100
AcDbEntity
  8
0
100
AcDbLine
 10
38.42969999999999
 20
81.6923
 30
0.0
 11
43.0
 21
81.6923
 31
0.0
  0
LINE
  5
287
330
1E
100
AcDbEntity
  8
0
100
AcDbLine
 10
32.45309999999999
 20
101.885
 30
0.0
 11
35.5469
 21
101.885
 31
0.0
  0
LINE
  5
288
330
1E
100
AcDbEntity
  8
0
100
AcDbLine
 10
32.1016
 20
99.1923
 30
0.0
 11
35.3359
 21
99.1923
 31
0.0
  0
LINE
  5
289
330
1E
100
AcDbEntity
  8
0
100
AcDbLine
 10
32.1016
 20
97.8462
 30
0.0
 11
35.3359
 21
97.8462
 31
0.0
  0
LINE
  5
28A
330
1E
100
AcDbEntity
  8
0
100
AcDbLine
 10
33.8594
 20
114.0
 30
0.0
 11
36.5313
 21
114.0
 31
0.0
  0
LINE
  5
28B
330
1E
100
AcDbEntity
  8
0
100
AcDbLine
 10
33.1563
 20
100.5379999999999
 30
0.0
 11
36.03909999999999
 21
100.5379999999999
 31
0.0
  0
LINE
  5
28C
330
1E
100
AcDbEntity
  8
0
100
AcDbLine
 10
32.80469999999999
 20
96.5
 30
0.0
 11
35.7578
 21
96.5
 31
0.0
  0
LINE
  5
28D
330
1E
100
AcDbEntity
  8
0
100
AcDbLine
 10
32.45309999999999
 20
92.4615
 30
0.0
 11
35.5469
 21
92.4615
 31
0.0
  0
LINE
  5
28E
330
1E
100
AcDbEntity
  8
0
100
AcDbLine
 10
32.1016
 20
88.42310000000001
 30
0.0
 11
35.3359
 21
88.42310000000001
 31
0.0
  0
LINE
  5
28F
330
1E
100
AcDbEntity
  8
0
100
AcDbLine
 10
43.0
 20
83.0385
 30
0.0
 11
47.5703
 21
83.0385
 31
0.0
  0
LINE
  5
290
330
1E
100
AcDbEntity
  8
0
100
AcDbLine
 10
47.5703
 20
83.0385
 30
0.0
 11
51.7187
 21
83.0385
 31
0.0
  0
LINE
  5
291
330
1E
100
AcDbEntity
  8
0
100
AcDbLine
 10
51.7187
 20
83.0385
 30
0.0
 11
55.3047
 21
83.0385
 31
0.0
  0
LINE
  5
292
330
1E
100
AcDbEntity
  8
0
100
AcDbLine
 10
59.8047
 20
83.0385
 30
0.0
 11
60.4375
 21
83.0385
 31
0.0
  0
LINE
  5
293
330
1E
100
AcDbEntity
  8
0
100
AcDbLine
 10
60.4375
 20
83.0385
 30
0.0
 11
60.4375
 21
81.6923
 31
0.0
  0
LINE
  5
294
330
1E
100
AcDbEntity
  8
0
100
AcDbLine
 10
58.0469
 20
83.0385
 30
0.0
 11
59.8047
 21
83.0385
 31
0.0
  0
LINE
  5
295
330
1E
100
AcDbEntity
  8
0
100
AcDbLine
 10
55.3047
 20
83.0385
 30
0.0
 11
58.0469
 21
83.0385
 31
0.0
  0
LINE
  5
296
330
1E
100
AcDbEntity
  8
0
100
AcDbLine
 10
35.05469999999999
 20
95.1538
 30
0.0
 11
38.85159999999999
 21
95.1538
 31
0.0
  0
LINE
  5
297
330
1E
100
AcDbEntity
  8
0
100
AcDbLine
 10
35.05469999999999
 20
93.8077
 30
0.0
 11
38.85159999999999
 21
93.8077
 31
0.0
  0
LINE
  5
298
330
1E
100
AcDbEntity
  8
0
100
AcDbLine
 10
34.7734
 20
91.11539999999999
 30
0.0
 11
38.7109
 21
91.11539999999999
 31
0.0
  0
LINE
  5
299
330
1E
100
AcDbEntity
  8
0
100
AcDbLine
 10
34.7734
 20
89.76919999999999
 30
0.0
 11
38.7109
 21
89.76919999999999
 31
0.0
  0
LINE
  5
29A
330
1E
100
AcDbEntity
  8
0
100
AcDbLine
 10
34.5625
 20
87.07689999999999
 30
0.0
 11
38.6406
 21
87.07689999999999
 31
0.0
  0
LINE
  5
29B
330
1E
100
AcDbEntity
  8
0
100
AcDbLine
 10
34.5625
 20
85.7308
 30
0.0
 11
38.6406
 21
85.7308
 31
0.0
  0
LINE
  5
29C
330
1E
100
AcDbEntity
  8
0
100
AcDbLine
 10
43.0
 20
84.3846
 30
0.0
 11
47.1484
 21
84.3846
 31
0.0
  0
LINE
  5
29D
330
1E
100
AcDbEntity
  8
0
100
AcDbLine
 10
47.1484
 20
84.3846
 30
0.0
 11
50.9453
 21
84.3846
 31
0.0
  0
LINE
  5
29E
330
1E
100
AcDbEntity
  8
0
100
AcDbLine
 10
50.9453
 20
84.3846
 30
0.0
 11
54.25
 21
84.3846
 31
0.0
  0
LINE
  5
29F
330
1E
100
AcDbEntity
  8
0
100
AcDbLine
 10
58.3984
 20
84.3846
 30
0.0
 11
58.8906
 21
84.3846
 31
0.0
  0
LINE
  5
2A0
330
1E
100
AcDbEntity
  8
0
100
AcDbLine
 10
58.8906
 20
84.3846
 30
0.0
 11
60.4375
 21
83.0385
 31
0.0
  0
LINE
  5
2A1
330
1E
100
AcDbEntity
  8
0
100
AcDbLine
 10
58.8906
 20
84.3846
 30
0.0
 11
59.875
 21
85.7308
 31
0.0
  0
LINE
  5
2A2
330
1E
100
AcDbEntity
  8
0
100
AcDbLine
 10
56.7109
 20
84.3846
 30
0.0
 11
58.3984
 21
84.3846
 31
0.0
  0
LINE
  5
2A3
330
1E
100
AcDbEntity
  8
0
100
AcDbLine
 10
54.25
 20
84.3846
 30
0.0
 11
56.7109
 21
84.3846
 31
0.0
  0
LINE
  5
2A4
330
1E
100
AcDbEntity
  8
0
100
AcDbLine
 10
35.3359
 20
99.1923
 30
0.0
 11
38.99219999999999
 21
99.1923
 31
0.0
  0
LINE
  5
2A5
330
1E
100
AcDbEntity
  8
0
100
AcDbLine
 10
35.3359
 20
97.8462
 30
0.0
 11
38.99219999999999
 21
97.8462
 31
0.0
  0
LINE
  5
2A6
330
1E
100
AcDbEntity
  8
0
100
AcDbLine
 10
35.5469
 20
101.885
 30
0.0
 11
39.1328
 21
101.885
 31
0.0
  0
LINE
  5
2A7
330
1E
100
AcDbEntity
  8
0
100
AcDbLine
 10
36.5313
 20
114.0
 30
0.0
 11
39.625
 21
114.0
 31
0.0
  0
LINE
  5
2A8
330
1E
100
AcDbEntity
  8
0
100
AcDbLine
 10
36.03909999999999
 20
100.5379999999999
 30
0.0
 11
39.41409999999999
 21
100.5379999999999
 31
0.0
  0
LINE
  5
2A9
330
1E
100
AcDbEntity
  8
0
100
AcDbLine
 10
35.7578
 20
96.5
 30
0.0
 11
39.2031
 21
96.5
 31
0.0
  0
LINE
  5
2AA
330
1E
100
AcDbEntity
  8
0
100
AcDbLine
 10
35.5469
 20
92.4615
 30
0.0
 11
39.1328
 21
92.4615
 31
0.0
  0
LINE
  5
2AB
330
1E
100
AcDbEntity
  8
0
100
AcDbLine
 10
35.3359
 20
88.42310000000001
 30
0.0
 11
38.99219999999999
 21
88.42310000000001
 31
0.0
  0
LINE
  5
2AC
330
1E
100
AcDbEntity
  8
0
100
AcDbLine
 10
38.6406
 20
87.07689999999999
 30
0.0
 11
43.0
 21
87.07689999999999
 31
0.0
  0
LINE
  5
2AD
330
1E
100
AcDbEntity
  8
0
100
AcDbLine
 10
43.0
 20
85.7308
 30
0.0
 11
47.3594
 21
85.7308
 31
0.0
  0
LINE
  5
2AE
330
1E
100
AcDbEntity
  8
0
100
AcDbLine
 10
43.0
 20
87.07689999999999
 30
0.0
 11
47.3594
 21
87.07689999999999
 31
0.0
  0
LINE
  5
2AF
330
1E
100
AcDbEntity
  8
0
100
AcDbLine
 10
47.3594
 20
87.07689999999999
 30
0.0
 11
51.4375
 21
87.07689999999999
 31
0.0
  0
LINE
  5
2B0
330
1E
100
AcDbEntity
  8
0
100
AcDbLine
 10
51.4375
 20
87.07689999999999
 30
0.0
 11
54.95309999999999
 21
87.07689999999999
 31
0.0
  0
LINE
  5
2B1
330
1E
100
AcDbEntity
  8
0
100
AcDbLine
 10
47.3594
 20
85.7308
 30
0.0
 11
51.4375
 21
85.7308
 31
0.0
  0
LINE
  5
2B2
330
1E
100
AcDbEntity
  8
0
100
AcDbLine
 10
51.4375
 20
85.7308
 30
0.0
 11
54.95309999999999
 21
85.7308
 31
0.0
  0
LINE
  5
2B3
330
1E
100
AcDbEntity
  8
0
100
AcDbLine
 10
43.0
 20
88.42310000000001
 30
0.0
 11
47.0078
 21
88.42310000000001
 31
0.0
  0
LINE
  5
2B4
330
1E
100
AcDbEntity
  8
0
100
AcDbLine
 10
47.0078
 20
88.42310000000001
 30
0.0
 11
50.6641
 21
88.42310000000001
 31
0.0
  0
LINE
  5
2B5
330
1E
100
AcDbEntity
  8
0
100
AcDbLine
 10
50.6641
 20
88.42310000000001
 30
0.0
 11
53.8984
 21
88.42310000000001
 31
0.0
  0
LINE
  5
2B6
330
1E
100
AcDbEntity
  8
0
100
AcDbLine
 10
53.8984
 20
88.42310000000001
 30
0.0
 11
56.2891
 21
88.42310000000001
 31
0.0
  0
LINE
  5
2B7
330
1E
100
AcDbEntity
  8
0
100
AcDbLine
 10
54.95309999999999
 20
87.07689999999999
 30
0.0
 11
57.625
 21
87.07689999999999
 31
0.0
  0
LINE
  5
2B8
330
1E
100
AcDbEntity
  8
0
100
AcDbLine
 10
59.875
 20
85.7308
 30
0.0
 11
59.875
 21
87.07689999999999
 31
0.0
  0
LINE
  5
2B9
330
1E
100
AcDbEntity
  8
0
100
AcDbLine
 10
59.3125
 20
85.7308
 30
0.0
 11
59.875
 21
85.7308
 31
0.0
  0
LINE
  5
2BA
330
1E
100
AcDbEntity
  8
0
100
AcDbLine
 10
56.2891
 20
88.42310000000001
 30
0.0
 11
57.8359
 21
88.42310000000001
 31
0.0
  0
LINE
  5
2BB
330
1E
100
AcDbEntity
  8
0
100
AcDbLine
 10
59.3125
 20
87.07689999999999
 30
0.0
 11
59.875
 21
87.07689999999999
 31
0.0
  0
LINE
  5
2BC
330
1E
100
AcDbEntity
  8
0
100
AcDbLine
 10
57.8359
 20
88.42310000000001
 30
0.0
 11
58.3281
 21
88.42310000000001
 31
0.0
  0
LINE
  5
2BD
330
1E
100
AcDbEntity
  8
0
100
AcDbLine
 10
58.3281
 20
88.42310000000001
 30
0.0
 11
59.875
 21
87.07689999999999
 31
0.0
  0
LINE
  5
2BE
330
1E
100
AcDbEntity
  8
0
100
AcDbLine
 10
58.3281
 20
88.42310000000001
 30
0.0
 11
59.4531
 21
89.76919999999999
 31
0.0
  0
LINE
  5
2BF
330
1E
100
AcDbEntity
  8
0
100
AcDbLine
 10
59.875
 20
87.07689999999999
 30
0.0
 11
59.875
 21
85.7308
 31
0.0
  0
LINE
  5
2C0
330
1E
100
AcDbEntity
  8
0
100
AcDbLine
 10
57.625
 20
87.07689999999999
 30
0.0
 11
59.3125
 21
87.07689999999999
 31
0.0
  0
LINE
  5
2C1
330
1E
100
AcDbEntity
  8
0
100
AcDbLine
 10
57.625
 20
85.7308
 30
0.0
 11
59.3125
 21
85.7308
 31
0.0
  0
LINE
  5
2C2
330
1E
100
AcDbEntity
  8
0
100
AcDbLine
 10
54.95309999999999
 20
85.7308
 30
0.0
 11
57.625
 21
85.7308
 31
0.0
  0
LINE
  5
2C3
330
1E
100
AcDbEntity
  8
0
100
AcDbLine
 10
38.7109
 20
91.11539999999999
 30
0.0
 11
43.0
 21
91.11539999999999
 31
0.0
  0
LINE
  5
2C4
330
1E
100
AcDbEntity
  8
0
100
AcDbLine
 10
43.0
 20
89.76919999999999
 30
0.0
 11
47.28909999999999
 21
89.76919999999999
 31
0.0
  0
LINE
  5
2C5
330
1E
100
AcDbEntity
  8
0
100
AcDbLine
 10
43.0
 20
91.11539999999999
 30
0.0
 11
47.28909999999999
 21
91.11539999999999
 31
0.0
  0
LINE
  5
2C6
330
1E
100
AcDbEntity
  8
0
100
AcDbLine
 10
47.28909999999999
 20
91.11539999999999
 30
0.0
 11
51.22659999999999
 21
91.11539999999999
 31
0.0
  0
LINE
  5
2C7
330
1E
100
AcDbEntity
  8
0
100
AcDbLine
 10
51.22659999999999
 20
91.11539999999999
 30
0.0
 11
54.6016
 21
91.11539999999999
 31
0.0
  0
LINE
  5
2C8
330
1E
100
AcDbEntity
  8
0
100
AcDbLine
 10
47.28909999999999
 20
89.76919999999999
 30
0.0
 11
51.22659999999999
 21
89.76919999999999
 31
0.0
  0
LINE
  5
2C9
330
1E
100
AcDbEntity
  8
0
100
AcDbLine
 10
51.22659999999999
 20
89.76919999999999
 30
0.0
 11
54.6016
 21
89.76919999999999
 31
0.0
  0
LINE
  5
2CA
330
1E
100
AcDbEntity
  8
0
100
AcDbLine
 10
43.0
 20
92.4615
 30
0.0
 11
46.8672
 21
92.4615
 31
0.0
  0
LINE
  5
2CB
330
1E
100
AcDbEntity
  8
0
100
AcDbLine
 10
46.8672
 20
92.4615
 30
0.0
 11
50.4531
 21
92.4615
 31
0.0
  0
LINE
  5
2CC
330
1E
100
AcDbEntity
  8
0
100
AcDbLine
 10
50.4531
 20
92.4615
 30
0.0
 11
53.5469
 21
92.4615
 31
0.0
  0
LINE
  5
2CD
330
1E
100
AcDbEntity
  8
0
100
AcDbLine
 10
53.5469
 20
92.4615
 30
0.0
 11
55.9375
 21
92.4615
 31
0.0
  0
LINE
  5
2CE
330
1E
100
AcDbEntity
  8
0
100
AcDbLine
 10
54.6016
 20
91.11539999999999
 30
0.0
 11
57.13280000000001
 21
91.11539999999999
 31
0.0
  0
LINE
  5
2CF
330
1E
100
AcDbEntity
  8
0
100
AcDbLine
 10
59.4531
 20
89.76919999999999
 30
0.0
 11
59.4531
 21
91.11539999999999
 31
0.0
  0
LINE
  5
2D0
330
1E
100
AcDbEntity
  8
0
100
AcDbLine
 10
58.8203
 20
89.76919999999999
 30
0.0
 11
59.4531
 21
89.76919999999999
 31
0.0
  0
LINE
  5
2D1
330
1E
100
AcDbEntity
  8
0
100
AcDbLine
 10
55.9375
 20
92.4615
 30
0.0
 11
57.4141
 21
92.4615
 31
0.0
  0
LINE
  5
2D2
330
1E
100
AcDbEntity
  8
0
100
AcDbLine
 10
58.8203
 20
91.11539999999999
 30
0.0
 11
59.4531
 21
91.11539999999999
 31
0.0
  0
LINE
  5
2D3
330
1E
100
AcDbEntity
  8
0
100
AcDbLine
 10
57.4141
 20
92.4615
 30
0.0
 11
57.9063
 21
92.4615
 31
0.0
  0
LINE
  5
2D4
330
1E
100
AcDbEntity
  8
0
100
AcDbLine
 10
57.9063
 20
92.4615
 30
0.0
 11
59.4531
 21
91.11539999999999
 31
0.0
  0
LINE
  5
2D5
330
1E
100
AcDbEntity
  8
0
100
AcDbLine
 10
57.9063
 20
92.4615
 30
0.0
 11
58.8906
 21
93.8077
 31
0.0
  0
LINE
  5
2D6
330
1E
100
AcDbEntity
  8
0
100
AcDbLine
 10
59.4531
 20
91.11539999999999
 30
0.0
 11
59.4531
 21
89.76919999999999
 31
0.0
  0
LINE
  5
2D7
330
1E
100
AcDbEntity
  8
0
100
AcDbLine
 10
57.13280000000001
 20
91.11539999999999
 30
0.0
 11
58.8203
 21
91.11539999999999
 31
0.0
  0
LINE
  5
2D8
330
1E
100
AcDbEntity
  8
0
100
AcDbLine
 10
57.13280000000001
 20
89.76919999999999
 30
0.0
 11
58.8203
 21
89.76919999999999
 31
0.0
  0
LINE
  5
2D9
330
1E
100
AcDbEntity
  8
0
100
AcDbLine
 10
54.6016
 20
89.76919999999999
 30
0.0
 11
57.13280000000001
 21
89.76919999999999
 31
0.0
  0
LINE
  5
2DA
330
1E
100
AcDbEntity
  8
0
100
AcDbLine
 10
38.85159999999999
 20
95.1538
 30
0.0
 11
43.0
 21
95.1538
 31
0.0
  0
LINE
  5
2DB
330
1E
100
AcDbEntity
  8
0
100
AcDbLine
 10
43.0
 20
93.8077
 30
0.0
 11
47.1484
 21
93.8077
 31
0.0
  0
LINE
  5
2DC
330
1E
100
AcDbEntity
  8
0
100
AcDbLine
 10
43.0
 20
95.1538
 30
0.0
 11
47.1484
 21
95.1538
 31
0.0
  0
LINE
  5
2DD
330
1E
100
AcDbEntity
  8
0
100
AcDbLine
 10
47.1484
 20
95.1538
 30
0.0
 11
50.9453
 21
95.1538
 31
0.0
  0
LINE
  5
2DE
330
1E
100
AcDbEntity
  8
0
100
AcDbLine
 10
50.9453
 20
95.1538
 30
0.0
 11
54.25
 21
95.1538
 31
0.0
  0
LINE
  5
2DF
330
1E
100
AcDbEntity
  8
0
100
AcDbLine
 10
47.1484
 20
93.8077
 30
0.0
 11
50.9453
 21
93.8077
 31
0.0
  0
LINE
  5
2E0
330
1E
100
AcDbEntity
  8
0
100
AcDbLine
 10
50.9453
 20
93.8077
 30
0.0
 11
54.25
 21
93.8077
 31
0.0
  0
LINE
  5
2E1
330
1E
100
AcDbEntity
  8
0
100
AcDbLine
 10
43.0
 20
96.5
 30
0.0
 11
46.79689999999999
 21
96.5
 31
0.0
  0
LINE
  5
2E2
330
1E
100
AcDbEntity
  8
0
100
AcDbLine
 10
46.79689999999999
 20
96.5
 30
0.0
 11
50.24219999999999
 21
96.5
 31
0.0
  0
LINE
  5
2E3
330
1E
100
AcDbEntity
  8
0
100
AcDbLine
 10
50.24219999999999
 20
96.5
 30
0.0
 11
53.1953
 21
96.5
 31
0.0
  0
LINE
  5
2E4
330
1E
100
AcDbEntity
  8
0
100
AcDbLine
 10
53.1953
 20
96.5
 30
0.0
 11
55.4453
 21
96.5
 31
0.0
  0
LINE
  5
2E5
330
1E
100
AcDbEntity
  8
0
100
AcDbLine
 10
54.25
 20
95.1538
 30
0.0
 11
56.7109
 21
95.1538
 31
0.0
  0
LINE
  5
2E6
330
1E
100
AcDbEntity
  8
0
100
AcDbLine
 10
58.8906
 20
93.8077
 30
0.0
 11
58.8906
 21
95.1538
 31
0.0
  0
LINE
  5
2E7
330
1E
100
AcDbEntity
  8
0
100
AcDbLine
 10
58.3984
 20
93.8077
 30
0.0
 11
58.8906
 21
93.8077
 31
0.0
  0
LINE
  5
2E8
330
1E
100
AcDbEntity
  8
0
100
AcDbLine
 10
55.4453
 20
96.5
 30
0.0
 11
56.9219
 21
96.5
 31
0.0
  0
LINE
  5
2E9
330
1E
100
AcDbEntity
  8
0
100
AcDbLine
 10
58.3984
 20
95.1538
 30
0.0
 11
58.8906
 21
95.1538
 31
0.0
  0
LINE
  5
2EA
330
1E
100
AcDbEntity
  8
0
100
AcDbLine
 10
56.9219
 20
96.5
 30
0.0
 11
57.3438
 21
96.5
 31
0.0
  0
LINE
  5
2EB
330
1E
100
AcDbEntity
  8
0
100
AcDbLine
 10
57.3438
 20
96.5
 30
0.0
 11
58.8906
 21
95.1538
 31
0.0
  0
LINE
  5
2EC
330
1E
100
AcDbEntity
  8
0
100
AcDbLine
 10
57.3438
 20
96.5
 30
0.0
 11
58.3281
 21
97.8462
 31
0.0
  0
LINE
  5
2ED
330
1E
100
AcDbEntity
  8
0
100
AcDbLine
 10
58.8906
 20
95.1538
 30
0.0
 11
58.8906
 21
93.8077
 31
0.0
  0
LINE
  5
2EE
330
1E
100
AcDbEntity
  8
0
100
AcDbLine
 10
56.7109
 20
95.1538
 30
0.0
 11
58.3984
 21
95.1538
 31
0.0
  0
LINE
  5
2EF
330
1E
100
AcDbEntity
  8
0
100
AcDbLine
 10
56.7109
 20
93.8077
 30
0.0
 11
58.3984
 21
93.8077
 31
0.0
  0
LINE
  5
2F0
330
1E
100
AcDbEntity
  8
0
100
AcDbLine
 10
54.25
 20
93.8077
 30
0.0
 11
56.7109
 21
93.8077
 31
0.0
  0
LINE
  5
2F1
330
1E
100
AcDbEntity
  8
0
100
AcDbLine
 10
38.99219999999999
 20
99.1923
 30
0.0
 11
43.0
 21
99.1923
 31
0.0
  0
LINE
  5
2F2
330
1E
100
AcDbEntity
  8
0
100
AcDbLine
 10
43.0
 20
97.8462
 30
0.0
 11
47.0078
 21
97.8462
 31
0.0
  0
LINE
  5
2F3
330
1E
100
AcDbEntity
  8
0
100
AcDbLine
 10
43.0
 20
99.1923
 30
0.0
 11
47.0078
 21
99.1923
 31
0.0
  0
LINE
  5
2F4
330
1E
100
AcDbEntity
  8
0
100
AcDbLine
 10
47.0078
 20
99.1923
 30
0.0
 11
50.6641
 21
99.1923
 31
0.0
  0
LINE
  5
2F5
330
1E
100
AcDbEntity
  8
0
100
AcDbLine
 10
50.6641
 20
99.1923
 30
0.0
 11
53.8984
 21
99.1923
 31
0.0
  0
LINE
  5
2F6
330
1E
100
AcDbEntity
  8
0
100
AcDbLine
 10
47.0078
 20
97.8462
 30
0.0
 11
50.6641
 21
97.8462
 31
0.0
  0
LINE
  5
2F7
330
1E
100
AcDbEntity
  8
0
100
AcDbLine
 10
50.6641
 20
97.8462
 30
0.0
 11
53.8984
 21
97.8462
 31
0.0
  0
LINE
  5
2F8
330
1E
100
AcDbEntity
  8
0
100
AcDbLine
 10
43.0
 20
100.5379999999999
 30
0.0
 11
46.5859
 21
100.5379999999999
 31
0.0
  0
LINE
  5
2F9
330
1E
100
AcDbEntity
  8
0
100
AcDbLine
 10
46.5859
 20
100.5379999999999
 30
0.0
 11
49.9609
 21
100.5379999999999
 31
0.0
  0
LINE
  5
2FA
330
1E
100
AcDbEntity
  8
0
100
AcDbLine
 10
49.9609
 20
100.5379999999999
 30
0.0
 11
52.8437
 21
100.5379999999999
 31
0.0
  0
LINE
  5
2FB
330
1E
100
AcDbEntity
  8
0
100
AcDbLine
 10
52.8437
 20
100.5379999999999
 30
0.0
 11
55.0234
 21
100.5379999999999
 31
0.0
  0
LINE
  5
2FC
330
1E
100
AcDbEntity
  8
0
100
AcDbLine
 10
53.8984
 20
99.1923
 30
0.0
 11
56.2891
 21
99.1923
 31
0.0
  0
LINE
  5
2FD
330
1E
100
AcDbEntity
  8
0
100
AcDbLine
 10
58.3281
 20
97.8462
 30
0.0
 11
58.3281
 21
99.1923
 31
0.0
  0
LINE
  5
2FE
330
1E
100
AcDbEntity
  8
0
100
AcDbLine
 10
57.8359
 20
97.8462
 30
0.0
 11
58.3281
 21
97.8462
 31
0.0
  0
LINE
  5
2FF
330
1E
100
AcDbEntity
  8
0
100
AcDbLine
 10
55.0234
 20
100.5379999999999
 30
0.0
 11
56.4297
 21
100.5379999999999
 31
0.0
  0
LINE
  5
300
330
1E
100
AcDbEntity
  8
0
100
AcDbLine
 10
57.8359
 20
99.1923
 30
0.0
 11
58.3281
 21
99.1923
 31
0.0
  0
LINE
  5
301
330
1E
100
AcDbEntity
  8
0
100
AcDbLine
 10
56.4297
 20
100.5379999999999
 30
0.0
 11
56.9219
 21
100.5379999999999
 31
0.0
  0
LINE
  5
302
330
1E
100
AcDbEntity
  8
0
100
AcDbLine
 10
56.9219
 20
100.5379999999999
 30
0.0
 11
58.3281
 21
99.1923
 31
0.0
  0
LINE
  5
303
330
1E
100
AcDbEntity
  8
0
100
AcDbLine
 10
56.9219
 20
100.5379999999999
 30
0.0
 11
57.9063
 21
101.885
 31
0.0
  0
LINE
  5
304
330
1E
100
AcDbEntity
  8
0
100
AcDbLine
 10
58.3281
 20
99.1923
 30
0.0
 11
58.3281
 21
97.8462
 31
0.0
  0
LINE
  5
305
330
1E
100
AcDbEntity
  8
0
100
AcDbLine
 10
56.2891
 20
99.1923
 30
0.0
 11
57.8359
 21
99.1923
 31
0.0
  0
LINE
  5
306
330
1E
100
AcDbEntity
  8
0
100
AcDbLine
 10
56.2891
 20
97.8462
 30
0.0
 11
57.8359
 21
97.8462
 31
0.0
  0
LINE
  5
307
330
1E
100
AcDbEntity
  8
0
100
AcDbLine
 10
53.8984
 20
97.8462
 30
0.0
 11
56.2891
 21
97.8462
 31
0.0
  0
LINE
  5
308
330
1E
100
AcDbEntity
  8
0
100
AcDbLine
 10
43.0
 20
101.885
 30
0.0
 11
46.8672
 21
101.885
 31
0.0
  0
LINE
  5
309
330
1E
100
AcDbEntity
  8
0
100
AcDbLine
 10
43.0
 20
114.0
 30
0.0
 11
46.375
 21
114.0
 31
0.0
  0
LINE
  5
30A
330
1E
100
AcDbEntity
  8
0
100
AcDbLine
 10
46.375
 20
114.0
 30
0.0
 11
49.4687
 21
114.0
 31
0.0
  0
LINE
  5
30B
330
1E
100
AcDbEntity
  8
0
100
AcDbLine
 10
49.4687
 20
114.0
 30
0.0
 11
52.14059999999999
 21
114.0
 31
0.0
  0
LINE
  5
30C
330
1E
100
AcDbEntity
  8
0
100
AcDbLine
 10
46.8672
 20
101.885
 30
0.0
 11
50.4531
 21
101.885
 31
0.0
  0
LINE
  5
30D
330
1E
100
AcDbEntity
  8
0
100
AcDbLine
 10
50.4531
 20
101.885
 30
0.0
 11
53.5469
 21
101.885
 31
0.0
  0
LINE
  5
30E
330
1E
100
AcDbEntity
  8
0
100
AcDbLine
 10
52.14059999999999
 20
114.0
 30
0.0
 11
54.1094
 21
114.0
 31
0.0
  0
LINE
  5
30F
330
1E
100
AcDbEntity
  8
0
100
AcDbLine
 10
57.9063
 20
101.885
 30
0.0
 11
57.9063
 21
103.231
 31
0.0
  0
LINE
  5
310
330
1E
100
AcDbEntity
  8
0
100
AcDbLine
 10
57.4141
 20
101.885
 30
0.0
 11
57.9063
 21
101.885
 31
0.0
  0
LINE
  5
311
330
1E
100
AcDbEntity
  8
0
100
AcDbLine
 10
55.5156
 20
114.0
 30
0.0
 11
55.9375
 21
114.0
 31
0.0
  0
LINE
  5
312
330
1E
100
AcDbEntity
  8
0
100
AcDbLine
 10
55.9375
 20
114.0
 30
0.0
 11
57.9063
 21
103.231
 31
0.0
  0
LINE
  5
313
330
1E
100
AcDbEntity
  8
0
100
AcDbLine
 10
54.1094
 20
114.0
 30
0.0
 11
55.5156
 21
114.0
 31
0.0
  0
LINE
  5
314
330
1E
100
AcDbEntity
  8
0
100
AcDbLine
 10
57.9063
 20
103.231
 30
0.0
 11
57.9063
 21
101.885
 31
0.0
  0
LINE
  5
315
330
1E
100
AcDbEntity
  8
0
100
AcDbLine
 10
55.9375
 20
101.885
 30
0.0
 11
57.4141
 21
101.885
 31
0.0
  0
LINE
  5
316
330
1E
100
AcDbEntity
  8
0
100
AcDbLine
 10
53.5469
 20
101.885
 30
0.0
 11
55.9375
 21
101.885
 31
0.0
  0
LINE
  5
317
330
1E
100
AcDbEntity
  8
0
100
AcDbLine
 10
39.625
 20
114.0
 30
0.0
 11
43.0
 21
114.0
 31
0.0
  0
LINE
  5
318
330
1E
100
AcDbEntity
  8
0
100
AcDbLine
 10
39.1328
 20
101.885
 30
0.0
 11
43.0
 21
101.885
 31
0.0
  0
LINE
  5
319
330
1E
100
AcDbEntity
  8
0
100
AcDbLine
 10
39.41409999999999
 20
100.5379999999999
 30
0.0
 11
43.0
 21
100.5379999999999
 31
0.0
  0
LINE
  5
31A
330
1E
100
AcDbEntity
  8
0
100
AcDbLine
 10
38.99219999999999
 20
97.8462
 30
0.0
 11
43.0
 21
97.8462
 31
0.0
  0
LINE
  5
31B
330
1E
100
AcDbEntity
  8
0
100
AcDbLine
 10
39.2031
 20
96.5
 30
0.0
 11
43.0
 21
96.5
 31
0.0
  0
LINE
  5
31C
330
1E
100
AcDbEntity
  8
0
100
AcDbLine
 10
38.85159999999999
 20
93.8077
 30
0.0
 11
43.0
 21
93.8077
 31
0.0
  0
LINE
  5
31D
330
1E
100
AcDbEntity
  8
0
100
AcDbLine
 10
39.1328
 20
92.4615
 30
0.0
 11
43.0
 21
92.4615
 31
0.0
  0
LINE
  5
31E
330
1E
100
AcDbEntity
  8
0
100
AcDbLine
 10
38.7109
 20
89.76919999999999
 30
0.0
 11
43.0
 21
89.76919999999999
 31
0.0
  0
LINE
  5
31F
330
1E
100
AcDbEntity
  8
0
100
AcDbLine
 10
38.99219999999999
 20
88.42310000000001
 30
0.0
 11
43.0
 21
88.42310000000001
 31
0.0
  0
LINE
  5
320
330
1E
100
AcDbEntity
  8
0
100
AcDbLine
 10
38.6406
 20
85.7308
 30
0.0
 11
43.0
 21
85.7308
 31
0.0
  0
LINE
  5
321
330
1E
100
AcDbEntity
  8
0
100
AcDbLine
 10
38.85159999999999
 20
84.3846
 30
0.0
 11
43.0
 21
84.3846
 31
0.0
  0
LINE
  5
322
330
1E
100
AcDbEntity
  8
0
100
AcDbLine
 10
35.05469999999999
 20
84.3846
 30
0.0
 11
38.85159999999999
 21
84.3846
 31
0.0
  0
LINE
  5
323
330
1E
100
AcDbEntity
  8
0
100
AcDbLine
 10
38.42969999999999
 20
83.0385
 30
0.0
 11
43.0
 21
83.0385
 31
0.0
  0
LINE
  5
324
330
1E
100
AcDbEntity
  8
0
100
AcDbLine
 10
34.2813
 20
83.0385
 30
0.0
 11
38.42969999999999
 21
83.0385
 31
0.0
  0
LINE
  5
325
330
1E
100
AcDbEntity
  8
0
100
AcDbLine
 10
34.2813
 20
81.6923
 30
0.0
 11
38.42969999999999
 21
81.6923
 31
0.0
  0
LINE
  5
326
330
1E
100
AcDbEntity
  8
0
100
AcDbLine
 10
31.8906
 20
114.0
 30
0.0
 11
33.8594
 21
114.0
 31
0.0
  0
LINE
  5
327
330
1E
100
AcDbEntity
  8
0
100
AcDbLine
 10
34.7734
 20
80.3462
 30
0.0
 11
38.7109
 21
80.3462
 31
0.0
  0
LINE
  5
328
330
1E
100
AcDbEntity
  8
0
100
AcDbLine
 10
31.39839999999999
 20
80.3462
 30
0.0
 11
34.7734
 21
80.3462
 31
0.0
  0
LINE
  5
329
330
1E
100
AcDbEntity
  8
0
100
AcDbLine
 10
32.0
 20
22.0254
 30
0.0
 11
41.5
 21
22.0254
 31
0.0
  0
LINE
  5
32A
330
1E
100
AcDbEntity
  8
0
100
AcDbLine
 10
24.1168
 20
79.1
 30
0.0
 11
26.5469
 21
80.3462
 31
0.0
  0
ENDSEC
  0
SECTION
  2
OBJECTS
  0
DICTIONARY
  5
C
330
0
100
AcDbDictionary
281
     1
  3
ACAD_GROUP
350
D
  3
ACAD_LAYOUT
350
19
  3
ACAD_MLINESTYLE
350
16
  3
ACAD_PLOTSETTINGS
350
18
  3
ACAD_PLOTSTYLENAME
350
E
  3
AcDbVariableDictionary
350
32F
  0
DICTIONARY
  5
D
102
{ACAD_REACTORS
330
C
102
}
330
C
100
AcDbDictionary
281
     1
  0
DICTIONARY
  5
19
102
{ACAD_REACTORS
330
C
102
}
330
C
100
AcDbDictionary
281
     1
  3
Layout1
350
1D
  3
Model
350
21
  0
DICTIONARY
  5
16
102
{ACAD_REACTORS
330
C
102
}
330
C
100
AcDbDictionary
281
     1
  3
Standard
350
17
  0
DICTIONARY
  5
18
102
{ACAD_REACTORS
330
C
102
}
330
C
100
AcDbDictionary
281
     1
  0
ACDBDICTIONARYWDFLT
  5
E
102
{ACAD_REACTORS
330
C
102
}
330
C
100
AcDbDictionary
281
     1
  3
Normal
350
F
100
AcDbDictionaryWithDefault
340
F
  0
DICTIONARY
  5
32F
102
{ACAD_REACTORS
330
C
102
}
330
C
100
AcDbDictionary
281
     1
  3
DIMASSOC
350
330
  0
LAYOUT
  5
1D
102
{ACAD_REACTORS
330
19
102
}
330
19
100
AcDbPlotSettings
  1

  2
hp deskjet 980c series
  4

  6

 40
0.0
 41
0.0
 42
0.0
 43
0.0
 44
0.0
 45
0.0
 46
0.0
 47
0.0
 48
0.0
 49
0.0
140
0.0
141
0.0
142
1.0
143
1.0
 70
   688
 72
     0
 73
     0
 74
     5
  7

 75
    16
147
1.0
148
0.0
149
0.0
100
AcDbLayout
  1
Layout1
 70
     1
 71
     1
 10
0.0
 20
0.0
 11
12.0
 21
9.0
 12
0.0
 22
0.0
 32
0.0
 14
1.000000000000000E+20
 24
1.000000000000000E+20
 34
1.000000000000000E+20
 15
-1.000000000000000E+20
 25
-1.000000000000000E+20
 35
-1.000000000000000E+20
146
0.0
 13
0.0
 23
0.0
 33
0.0
 16
1.0
 26
0.0
 36
0.0
 17
0.0
 27
1.0
 37
0.0
 76
     0
330
1A
  0
LAYOUT
  5
21
102
{ACAD_REACTORS
330
19
102
}
330
19
100
AcDbPlotSettings
  1

  2
hp deskjet 980c series
  4

  6

 40
0.0
 41
0.0
 42
0.0
 43
0.0
 44
0.0
 45
0.0
 46
0.0
 47
0.0
 48
0.0
 49
0.0
140
0.0
141
0.0
142
1.0
143
1.0
 70
  1712
 72
     0
 73
     0
 74
     0
  7

 75
     0
147
1.0
148
0.0
149
0.0
100
AcDbLayout
  1
Model
 70
     1
 71
     0
 10
0.0
 20
0.0
 11
12.0
 21
9.0
 12
0.0
 22
0.0
 32
0.0
 14
0.0
 24
0.0
 34
0.0
 15
0.0
 25
0.0
 35
0.0
146
0.0
 13
0.0
 23
0.0
 33
0.0
 16
1.0
 26
0.0
 36
0.0
 17
0.0
 27
1.0
 37
0.0
 76
     0
330
1E
  0
MLINESTYLE
  5
17
102
{ACAD_REACTORS
330
16
102
}
330
16
100
AcDbMlineStyle
  2
STANDARD
 70
     0
  3

 62
   256
 51
90.0
 52
90.0
 71
     2
 49
0.5
 62
   256
  6
BYLAYER
 49
-0.5
 62
   256
  6
BYLAYER
  0
ACDBPLACEHOLDER
  5
F
102
{ACAD_REACTORS
330
E
102
}
330
E
  0
DICTIONARYVAR
  5
330
102
{ACAD_REACTORS
330
32F
102
}
330
32F
100
DictionaryVariables
280
     0
  1
1
  0
ENDSEC
  0
EOF
