  0
SECTION
  2
HEADER
  9
$ACADVER
  1
AC1015
  9
$ACADMAINTVER
 70
    13
  9
$DWGCODEPAGE
  3
ANSI_1252
  9
$INSBASE
 10
0.0
 20
0.0
 30
0.0
  9
$EXTMIN
 10
0.0516000000000016
 20
-0.000000000000003
 30
0.0
  9
$EXTMAX
 10
99.94840000000001
 20
114.0
 30
0.0
  9
$LIMMIN
 10
0.0
 20
0.0
  9
$LIMMAX
 10
12.0
 20
9.0
  9
$ORTHOMODE
 70
     0
  9
$REGENMODE
 70
     1
  9
$FILLMODE
 70
     1
  9
$QTEXTMODE
 70
     0
  9
$MIRRTEXT
 70
     1
  9
$LTSCALE
 40
1.0
  9
$ATTMODE
 70
     1
  9
$TEXTSIZE
 40
0.2
  9
$TRACEWID
 40
0.05
  9
$TEXTSTYLE
  7
Standard
  9
$CLAYER
  8
0
  9
$CELTYPE
  6
Continuous
  9
$CECOLOR
 62
   256
  9
$CELTSCALE
 40
1.0
  9
$DISPSILH
 70
     0
  9
$DIMSCALE
 40
1.0
  9
$DIMASZ
 40
0.18
  9
$DIMEXO
 40
0.0625
  9
$DIMDLI
 40
0.38
  9
$DIMRND
 40
0.0
  9
$DIMDLE
 40
0.0
  9
$DIMEXE
 40
0.18
  9
$DIMTP
 40
0.0
  9
$DIMTM
 40
0.0
  9
$DIMTXT
 40
0.18
  9
$DIMCEN
 40
0.09
  9
$DIMTSZ
 40
0.0
  9
$DIMTOL
 70
     0
  9
$DIMLIM
 70
     0
  9
$DIMTIH
 70
     1
  9
$DIMTOH
 70
     1
  9
$DIMSE1
 70
     0
  9
$DIMSE2
 70
     0
  9
$DIMTAD
 70
     0
  9
$DIMZIN
 70
     0
  9
$DIMBLK
  1

  9
$DIMASO
 70
     1
  9
$DIMSHO
 70
     1
  9
$DIMPOST
  1

  9
$DIMAPOST
  1

  9
$DIMALT
 70
     0
  9
$DIMALTD
 70
     2
  9
$DIMALTF
 40
25.4
  9
$DIMLFAC
 40
1.0
  9
$DIMTOFL
 70
     0
  9
$DIMTVP
 40
0.0
  9
$DIMTIX
 70
     0
  9
$DIMSOXD
 70
     0
  9
$DIMSAH
 70
     0
  9
$DIMBLK1
  1

  9
$DIMBLK2
  1

  9
$DIMSTYLE
  2
Standard
  9
$DIMCLRD
 70
     0
  9
$DIMCLRE
 70
     0
  9
$DIMCLRT
 70
     0
  9
$DIMTFAC
 40
1.0
  9
$DIMGAP
 40
0.09
  9
$DIMJUST
 70
     0
  9
$DIMSD1
 70
     0
  9
$DIMSD2
 70
     0
  9
$DIMTOLJ
 70
     1
  9
$DIMTZIN
 70
     0
  9
$DIMALTZ
 70
     0
  9
$DIMALTTZ
 70
     0
  9
$DIMUPT
 70
     0
  9
$DIMDEC
 70
     4
  9
$DIMTDEC
 70
     4
  9
$DIMALTU
 70
     2
  9
$DIMALTTD
 70
     2
  9
$DIMTXSTY
  7
Standard
  9
$DIMAUNIT
 70
     0
  9
$DIMADEC
 70
     0
  9
$DIMALTRND
 40
0.0
  9
$DIMAZIN
 70
     0
  9
$DIMDSEP
 70
    46
  9
$DIMATFIT
 70
     3
  9
$DIMFRAC
 70
     0
  9
$DIMLDRBLK
  1

  9
$DIMLUNIT
 70
     2
  9
$DIMLWD
 70
    -2
  9
$DIMLWE
 70
    -2
  9
$DIMTMOVE
 70
     0
  9
$LUNITS
 70
     2
  9
$LUPREC
 70
     4
  9
$SKETCHINC
 40
0.1
  9
$FILLETRAD
 40
0.0
  9
$AUNITS
 70
     0
  9
$AUPREC
 70
     0
  9
$MENU
  1
.
  9
$ELEVATION
 40
0.0
  9
$PELEVATION
 40
0.0
  9
$THICKNESS
 40
0.0
  9
$LIMCHECK
 70
     0
  9
$CHAMFERA
 40
0.0
  9
$CHAMFERB
 40
0.0
  9
$CHAMFERC
 40
0.0
  9
$CHAMFERD
 40
0.0
  9
$SKPOLY
 70
     0
  9
$TDCREATE
 40
2454833.632957175
  9
$TDUCREATE
 40
2454833.591290509
  9
$TDUPDATE
 40
2454833.636376041
  9
$TDUUPDATE
 40
2454833.594709374
  9
$TDINDWG
 40
0.0034190509
  9
$TDUSRTIMER
 40
0.0034190509
  9
$USRTIMER
 70
     1
  9
$ANGBASE
 50
0.0
  9
$ANGDIR
 70
     0
  9
$PDMODE
 70
     0
  9
$PDSIZE
 40
0.0
  9
$PLINEWID
 40
0.0
  9
$SPLFRAME
 70
     0
  9
$SPLINETYPE
 70
     6
  9
$SPLINESEGS
 70
     8
  9
$HANDSEED
  5
2F9
  9
$SURFTAB1
 70
     6
  9
$SURFTAB2
 70
     6
  9
$SURFTYPE
 70
     6
  9
$SURFU
 70
     6
  9
$SURFV
 70
     6
  9
$UCSBASE
  2

  9
$UCSNAME
  2

  9
$UCSORG
 10
0.0
 20
0.0
 30
0.0
  9
$UCSXDIR
 10
1.0
 20
0.0
 30
0.0
  9
$UCSYDIR
 10
0.0
 20
1.0
 30
0.0
  9
$UCSORTHOREF
  2

  9
$UCSORTHOVIEW
 70
     1
  9
$UCSORGTOP
 10
0.0
 20
0.0
 30
0.0
  9
$UCSORGBOTTOM
 10
0.0
 20
0.0
 30
0.0
  9
$UCSORGLEFT
 10
0.0
 20
0.0
 30
0.0
  9
$UCSORGRIGHT
 10
0.0
 20
0.0
 30
0.0
  9
$UCSORGFRONT
 10
0.0
 20
0.0
 30
0.0
  9
$UCSORGBACK
 10
0.0
 20
0.0
 30
0.0
  9
$PUCSBASE
  2

  9
$PUCSNAME
  2

  9
$PUCSORG
 10
0.0
 20
0.0
 30
0.0
  9
$PUCSXDIR
 10
1.0
 20
0.0
 30
0.0
  9
$PUCSYDIR
 10
0.0
 20
1.0
 30
0.0
  9
$PUCSORTHOREF
  2

  9
$PUCSORTHOVIEW
 70
     0
  9
$PUCSORGTOP
 10
0.0
 20
0.0
 30
0.0
  9
$PUCSORGBOTTOM
 10
0.0
 20
0.0
 30
0.0
  9
$PUCSORGLEFT
 10
0.0
 20
0.0
 30
0.0
  9
$PUCSORGRIGHT
 10
0.0
 20
0.0
 30
0.0
  9
$PUCSORGFRONT
 10
0.0
 20
0.0
 30
0.0
  9
$PUCSORGBACK
 10
0.0
 20
0.0
 30
0.0
  9
$USERI1
 70
     0
  9
$USERI2
 70
     0
  9
$USERI3
 70
     0
  9
$USERI4
 70
     0
  9
$USERI5
 70
     0
  9
$USERR1
 40
0.0
  9
$USERR2
 40
0.0
  9
$USERR3
 40
0.0
  9
$USERR4
 40
0.0
  9
$USERR5
 40
0.0
  9
$WORLDVIEW
 70
     1
  9
$SHADEDGE
 70
     3
  9
$SHADEDIF
 70
    70
  9
$TILEMODE
 70
     1
  9
$MAXACTVP
 70
    64
  9
$PINSBASE
 10
0.0
 20
0.0
 30
0.0
  9
$PLIMCHECK
 70
     0
  9
$PEXTMIN
 10
1.000000000000000E+20
 20
1.000000000000000E+20
 30
1.000000000000000E+20
  9
$PEXTMAX
 10
-1.000000000000000E+20
 20
-1.000000000000000E+20
 30
-1.000000000000000E+20
  9
$PLIMMIN
 10
0.0
 20
0.0
  9
$PLIMMAX
 10
12.0
 20
9.0
  9
$UNITMODE
 70
     0
  9
$VISRETAIN
 70
     1
  9
$PLINEGEN
 70
     0
  9
$PSLTSCALE
 70
     1
  9
$TREEDEPTH
 70
  3020
  9
$CMLSTYLE
  2
Standard
  9
$CMLJUST
 70
     0
  9
$CMLSCALE
 40
1.0
  9
$PROXYGRAPHICS
 70
     1
  9
$MEASUREMENT
 70
     0
  9
$CELWEIGHT
370
    -1
  9
$ENDCAPS
280
     0
  9
$JOINSTYLE
280
     0
  9
$LWDISPLAY
290
     0
  9
$INSUNITS
 70
     0
  9
$HYPERLINKBASE
  1

  9
$STYLESHEET
  1

  9
$XEDIT
290
     1
  9
$CEPSNTYPE
380
     0
  9
$PSTYLEMODE
290
     1
  9
$FINGERPRINTGUID
  2
{6033A9F6-7B78-44FE-9DB2-36962931D8C2}
  9
$VERSIONGUID
  2
{83447393-E876-450A-8E76-C8DDA81AAA39}
  9
$EXTNAMES
290
     1
  9
$PSVPSCALE
 40
0.0
  9
$OLESTARTUP
290
     0
  0
ENDSEC
  0
SECTION
  2
CLASSES
  0
CLASS
  1
ACDBDICTIONARYWDFLT
  2
AcDbDictionaryWithDefault
  3
AutoCAD 2000
 90
        0
280
     0
281
     0
  0
CLASS
  1
ACDBPLACEHOLDER
  2
AcDbPlaceHolder
  3
AutoCAD 2000
 90
        0
280
     0
281
     0
  0
CLASS
  1
LAYOUT
  2
AcDbLayout
  3
AutoCAD 2000
 90
        0
280
     0
281
     0
  0
CLASS
  1
DICTIONARYVAR
  2
AcDbDictionaryVar
  3
AutoCAD 2000
 90
        0
280
     0
281
     0
  0
ENDSEC
  0
SECTION
  2
TABLES
  0
TABLE
  2
VPORT
  5
8
330
0
100
AcDbSymbolTable
 70
     2
  0
VPORT
  5
2F8
330
8
100
AcDbSymbolTableRecord
100
AcDbViewportTableRecord
  2
*Active
 70
     0
 10
0.0
 20
0.0
 11
1.0
 21
1.0
 12
50.0
 22
57.0
 13
0.0
 23
0.0
 14
1.0
 24
1.0
 15
0.0
 25
0.0
 16
0.0
 26
0.0
 36
1.0
 17
0.0
 27
0.0
 37
0.0
 40
114.8746803069053
 41
2.078104993597951
 42
50.0
 43
0.0
 44
0.0
 50
0.0
 51
0.0
 71
     0
 72
   100
 73
     1
 74
     3
 75
     0
 76
     0
 77
     0
 78
     0
281
     0
 65
     1
110
0.0
120
0.0
130
0.0
111
1.0
121
0.0
131
0.0
112
0.0
122
1.0
132
0.0
 79
     1
146
0.0
  0
ENDTAB
  0
TABLE
  2
LTYPE
  5
5
330
0
100
AcDbSymbolTable
 70
     1
  0
LTYPE
  5
13
330
5
100
AcDbSymbolTableRecord
100
AcDbLinetypeTableRecord
  2
ByBlock
 70
     0
  3

 72
    65
 73
     0
 40
0.0
  0
LTYPE
  5
14
330
5
100
AcDbSymbolTableRecord
100
AcDbLinetypeTableRecord
  2
ByLayer
 70
     0
  3

 72
    65
 73
     0
 40
0.0
  0
LTYPE
  5
15
330
5
100
AcDbSymbolTableRecord
100
AcDbLinetypeTableRecord
  2
Continuous
 70
     0
  3
Solid line
 72
    65
 73
     0
 40
0.0
  0
ENDTAB
  0
TABLE
  2
LAYER
  5
2
330
0
100
AcDbSymbolTable
 70
     1
  0
LAYER
  5
10
330
2
100
AcDbSymbolTableRecord
100
AcDbLayerTableRecord
  2
0
 70
     0
 62
     7
  6
Continuous
370
    -3
390
F
  0
ENDTAB
  0
TABLE
  2
STYLE
  5
3
330
0
100
AcDbSymbolTable
 70
     1
  0
STYLE
  5
11
330
3
100
AcDbSymbolTableRecord
100
AcDbTextStyleTableRecord
  2
Standard
 70
     0
 40
0.0
 41
1.0
 50
0.0
 71
     0
 42
0.2
  3
txt
  4

  0
ENDTAB
  0
TABLE
  2
VIEW
  5
6
330
0
100
AcDbSymbolTable
 70
     0
  0
ENDTAB
  0
TABLE
  2
UCS
  5
7
330
0
100
AcDbSymbolTable
 70
     0
  0
ENDTAB
  0
TABLE
  2
APPID
  5
9
330
0
100
AcDbSymbolTable
 70
     1
  0
APPID
  5
12
330
9
100
AcDbSymbolTableRecord
100
AcDbRegAppTableRecord
  2
ACAD
 70
     0
  0
ENDTAB
  0
TABLE
  2
DIMSTYLE
  5
A
330
0
100
AcDbSymbolTable
 70
     1
100
AcDbDimStyleTable
 71
     0
  0
DIMSTYLE
105
2F2
330
A
100
AcDbSymbolTableRecord
100
AcDbDimStyleTableRecord
  2
Standard
 70
     0
340
11
  0
ENDTAB
  0
TABLE
  2
BLOCK_RECORD
  5
1
330
0
100
AcDbSymbolTable
 70
     0
  0
BLOCK_RECORD
  5
1E
330
1
100
AcDbSymbolTableRecord
100
AcDbBlockTableRecord
  2
*Model_Space
340
21
  0
BLOCK_RECORD
  5
1A
330
1
100
AcDbSymbolTableRecord
100
AcDbBlockTableRecord
  2
*Paper_Space
340
1D
  0
ENDTAB
  0
ENDSEC
  0
SECTION
  2
BLOCKS
  0
BLOCK
  5
1F
330
1E
100
AcDbEntity
  8
0
100
AcDbBlockBegin
  2
*Model_Space
 70
     0
 10
0.0
 20
0.0
 30
0.0
  3
*Model_Space
  1

  0
ENDBLK
  5
20
330
1E
100
AcDbEntity
  8
0
100
AcDbBlockEnd
  0
BLOCK
  5
1B
330
1A
100
AcDbEntity
 67
     1
  8
0
100
AcDbBlockBegin
  2
*Paper_Space
 70
     0
 10
0.0
 20
0.0
 30
0.0
  3
*Paper_Space
  1

  0
ENDBLK
  5
1C
330
1A
100
AcDbEntity
 67
     1
  8
0
100
AcDbBlockEnd
  0
ENDSEC
  0
SECTION
  2
ENTITIES
  0
LINE
  5
22
330
1E
100
AcDbEntity
  8
0
100
AcDbLine
 10
0.5516000000000022
 20
19.0
 30
0.0
 11
2.0516
 21
16.5
 31
0.0
  0
LINE
  5
23
330
1E
100
AcDbEntity
  8
0
100
AcDbLine
 10
0.0516000000000016
 20
21.0
 30
0.0
 11
0.5516000000000022
 21
19.0
 31
0.0
  0
LINE
  5
24
330
1E
100
AcDbEntity
  8
0
100
AcDbLine
 10
0.0516000000000016
 20
21.0
 30
0.0
 11
1.6516
 21
21.0
 31
0.0
  0
LINE
  5
25
330
1E
100
AcDbEntity
  8
0
100
AcDbLine
 10
0.0516000000000016
 20
21.0
 30
0.0
 11
1.0516
 21
21.49999999999999
 31
0.0
  0
LINE
  5
26
330
1E
100
AcDbEntity
  8
0
100
AcDbLine
 10
0.5516000000000022
 20
19.0
 30
0.0
 11
2.0516
 21
16.5
 31
0.0
  0
LINE
  5
27
330
1E
100
AcDbEntity
  8
0
100
AcDbLine
 10
1.6516
 20
21.0
 30
0.0
 11
5.8516
 21
21.0
 31
0.0
  0
LINE
  5
28
330
1E
100
AcDbEntity
  8
0
100
AcDbLine
 10
2.0516
 20
16.5
 30
0.0
 11
4.551599999999999
 21
14.0
 31
0.0
  0
LINE
  5
29
330
1E
100
AcDbEntity
  8
0
100
AcDbLine
 10
11.98809999999999
 20
7.632819999999999
 30
0.0
 11
12.8476
 21
7.02963
 31
0.0
  0
LINE
  5
2B
330
1E
100
AcDbEntity
  8
0
100
AcDbLine
 10
11.6198
 20
7.891329999999999
 30
0.0
 11
11.98809999999999
 21
7.632819999999999
 31
0.0
  0
LINE
  5
2C
330
1E
100
AcDbEntity
  8
0
100
AcDbLine
 10
11.6198
 20
7.891329999999999
 30
0.0
 11
11.9379714795405
 21
8.344690433716239
 31
0.0
  0
LINE
  5
2D
330
1E
100
AcDbEntity
  8
0
100
AcDbLine
 10
12.8476
 20
7.02963
 30
0.0
 11
13.7071
 21
6.42644
 31
0.0
  0
LINE
  5
2F
330
1E
100
AcDbEntity
  8
0
100
AcDbLine
 10
12.7748
 20
7.632819999999999
 30
0.0
 11
13.4885
 21
7.02963
 31
0.0
  0
LINE
  5
30
330
1E
100
AcDbEntity
  8
0
100
AcDbLine
 10
13.3184
 20
7.632819999999999
 30
0.0
 11
14.265
 21
7.02963
 31
0.0
  0
LINE
  5
32
330
1E
100
AcDbEntity
  8
0
100
AcDbLine
 10
12.69079999999999
 20
7.891329999999999
 30
0.0
 11
13.3184
 21
7.632819999999999
 31
0.0
  0
LINE
  5
33
330
1E
100
AcDbEntity
  8
0
100
AcDbLine
 10
12.69079999999999
 20
7.891329999999999
 30
0.0
 11
12.7748
 21
7.632819999999999
 31
0.0
  0
LINE
  5
35
330
1E
100
AcDbEntity
  8
0
100
AcDbLine
 10
5.8516
 20
21.0
 30
0.0
 11
12.6516
 21
21.0
 31
0.0
  0
LINE
  5
36
330
1E
100
AcDbEntity
  8
0
100
AcDbLine
 10
4.551599999999999
 20
14.0
 30
0.0
 11
8.0516
 21
12.0
 31
0.0
  0
LINE
  5
37
330
1E
100
AcDbEntity
  8
0
100
AcDbLine
 10
12.6516
 20
21.0
 30
0.0
 11
21.65159999999999
 21
21.0
 31
0.0
  0
LINE
  5
38
330
1E
100
AcDbEntity
  8
0
100
AcDbLine
 10
8.0516
 20
12.0
 30
0.0
 11
10.5516
 21
9.5
 31
0.0
  0
LINE
  5
39
330
1E
100
AcDbEntity
  8
0
100
AcDbLine
 10
10.5516
 20
9.5
 30
0.0
 11
11.9379714795405
 21
8.344690433716239
 31
0.0
  0
LINE
  5
3A
330
1E
100
AcDbEntity
  8
0
100
AcDbLine
 10
18.1078
 20
4.155869999999999
 30
0.0
 11
18.38479999999999
 21
3.988449999999999
 31
0.0
  0
LINE
  5
3B
330
1E
100
AcDbEntity
  8
0
100
AcDbLine
 10
18.1078
 20
4.155869999999999
 30
0.0
 11
18.21808640715779
 21
4.43340543713688
 31
0.0
  0
LINE
  5
3C
330
1E
100
AcDbEntity
  8
0
100
AcDbLine
 10
18.38479999999999
 20
3.988449999999999
 30
0.0
 11
19.2924
 21
3.597799999999999
 31
0.0
  0
LINE
  5
3D
330
1E
100
AcDbEntity
  8
0
100
AcDbLine
 10
18.6589
 20
3.988449999999999
 30
0.0
 11
19.6839
 21
3.597799999999999
 31
0.0
  0
LINE
  5
3F
330
1E
100
AcDbEntity
  8
0
100
AcDbLine
 10
18.1078
 20
4.155869999999999
 30
0.0
 11
18.6589
 21
3.988449999999999
 31
0.0
  0
LINE
  5
40
330
1E
100
AcDbEntity
  8
0
100
AcDbLine
 10
18.1078
 20
4.155869999999999
 30
0.0
 11
18.38479999999999
 21
3.988449999999999
 31
0.0
  0
LINE
  5
41
330
1E
100
AcDbEntity
  8
0
100
AcDbLine
 10
18.1078
 20
4.155869999999999
 30
0.0
 11
18.2445496046153
 21
4.5
 31
0.0
  0
LINE
  5
42
330
1E
100
AcDbEntity
  8
0
100
AcDbLine
 10
14.0754
 20
6.16793
 30
0.0
 11
14.31193940995989
 21
6.504975497313089
 31
0.0
  0
LINE
  5
43
330
1E
100
AcDbEntity
  8
0
100
AcDbLine
 10
13.7071
 20
6.42644
 30
0.0
 11
14.0754
 21
6.16793
 31
0.0
  0
LINE
  5
45
330
1E
100
AcDbEntity
  8
0
100
AcDbLine
 10
13.4885
 20
7.02963
 30
0.0
 11
14.4352
 21
6.42644
 31
0.0
  0
LINE
  5
46
330
1E
100
AcDbEntity
  8
0
100
AcDbLine
 10
14.4352
 20
6.42644
 30
0.0
 11
15.0109545226967
 21
6.1892474873907
 31
0.0
  0
LINE
  5
47
330
1E
100
AcDbEntity
  8
0
100
AcDbLine
 10
14.4352
 20
6.42644
 30
0.0
 11
15.06269999999999
 21
6.16793
 31
0.0
  0
LINE
  5
48
330
1E
100
AcDbEntity
  8
0
100
AcDbLine
 10
14.31193940995989
 20
6.504975497313089
 30
0.0
 11
14.4352
 21
6.42644
 31
0.0
  0
LINE
  5
49
330
1E
100
AcDbEntity
  8
0
100
AcDbLine
 10
14.97869999999999
 20
6.42644
 30
0.0
 11
15.06269999999999
 21
6.16793
 31
0.0
  0
LINE
  5
4B
330
1E
100
AcDbEntity
  8
0
100
AcDbLine
 10
14.265
 20
7.02963
 30
0.0
 11
14.97869999999999
 21
6.42644
 31
0.0
  0
LINE
  5
4D
330
1E
100
AcDbEntity
  8
0
100
AcDbLine
 10
15.0109545226967
 20
6.1892474873907
 30
0.0
 11
18.0516
 21
4.5
 31
0.0
  0
LINE
  5
50
330
1E
100
AcDbEntity
  8
0
100
AcDbLine
 10
15.6249
 20
7.632819999999999
 30
0.0
 11
16.1442
 21
7.02963
 31
0.0
  0
LINE
  5
51
330
1E
100
AcDbEntity
  8
0
100
AcDbLine
 10
15.6249
 20
7.632819999999999
 30
0.0
 11
15.8309
 21
7.891329999999999
 31
0.0
  0
LINE
  5
53
330
1E
100
AcDbEntity
  8
0
100
AcDbLine
 10
16.1442
 20
7.02963
 30
0.0
 11
17.11349999999999
 21
6.42644
 31
0.0
  0
LINE
  5
54
330
1E
100
AcDbEntity
  8
0
100
AcDbLine
 10
17.11349999999999
 20
6.42644
 30
0.0
 11
17.95749999999999
 21
6.16793
 31
0.0
  0
LINE
  5
56
330
1E
100
AcDbEntity
  8
0
100
AcDbLine
 10
17.95749999999999
 20
6.16793
 30
0.0
 11
18.16349999999999
 21
6.42644
 31
0.0
  0
LINE
  5
57
330
1E
100
AcDbEntity
  8
0
100
AcDbLine
 10
17.6442
 20
7.02963
 30
0.0
 11
18.16349999999999
 21
6.42644
 31
0.0
  0
LINE
  5
58
330
1E
100
AcDbEntity
  8
0
100
AcDbLine
 10
16.6749
 20
7.632819999999999
 30
0.0
 11
17.6442
 21
7.02963
 31
0.0
  0
LINE
  5
5A
330
1E
100
AcDbEntity
  8
0
100
AcDbLine
 10
15.8309
 20
7.891329999999999
 30
0.0
 11
16.6749
 21
7.632819999999999
 31
0.0
  0
LINE
  5
5C
330
1E
100
AcDbEntity
  8
0
100
AcDbLine
 10
15.0109545226967
 20
6.1892474873907
 30
0.0
 11
18.0516
 21
4.5
 31
0.0
  0
LINE
  5
5D
330
1E
100
AcDbEntity
  8
0
100
AcDbLine
 10
18.0516
 20
4.5
 30
0.0
 11
18.21808640715779
 21
4.43340543713688
 31
0.0
  0
LINE
  5
5E
330
1E
100
AcDbEntity
  8
0
100
AcDbLine
 10
18.0516
 20
4.5
 30
0.0
 11
18.21808640715779
 21
4.43340543713688
 31
0.0
  0
LINE
  5
5F
330
1E
100
AcDbEntity
  8
0
100
AcDbLine
 10
13.3516
 20
21.49999999999999
 30
0.0
 11
22.1516
 21
21.49999999999999
 31
0.0
  0
LINE
  5
60
330
1E
100
AcDbEntity
  8
0
100
AcDbLine
 10
6.6516
 20
21.49999999999999
 30
0.0
 11
13.3516
 21
21.49999999999999
 31
0.0
  0
LINE
  5
61
330
1E
100
AcDbEntity
  8
0
100
AcDbLine
 10
2.5516
 20
21.49999999999999
 30
0.0
 11
6.6516
 21
21.49999999999999
 31
0.0
  0
LINE
  5
62
330
1E
100
AcDbEntity
  8
0
100
AcDbLine
 10
1.6516
 20
22.0254
 30
0.0
 11
5.8516
 21
22.0254
 31
0.0
  0
LINE
  5
63
330
1E
100
AcDbEntity
  8
0
100
AcDbLine
 10
1.0516
 20
21.49999999999999
 30
0.0
 11
2.5516
 21
21.49999999999999
 31
0.0
  0
LINE
  5
64
330
1E
100
AcDbEntity
  8
0
100
AcDbLine
 10
1.0516
 20
36.7356
 30
0.0
 11
3.0516
 21
46.7175
 31
0.0
  0
LINE
  5
65
330
1E
100
AcDbEntity
  8
0
100
AcDbLine
 10
5.551599999999999
 20
54.598
 30
0.0
 11
8.5516
 21
60.9023
 31
0.0
  0
LINE
  5
66
330
1E
100
AcDbEntity
  8
0
100
AcDbLine
 10
3.0516
 20
46.7175
 30
0.0
 11
5.551599999999999
 21
54.598
 31
0.0
  0
LINE
  5
67
330
1E
100
AcDbEntity
  8
0
100
AcDbLine
 10
1.0516
 20
36.7356
 30
0.0
 11
3.0516
 21
46.7175
 31
0.0
  0
LINE
  5
68
330
1E
100
AcDbEntity
  8
0
100
AcDbLine
 10
0.5516000000000022
 20
31.4819
 30
0.0
 11
1.0516
 21
36.7356
 31
0.0
  0
LINE
  5
69
330
1E
100
AcDbEntity
  8
0
100
AcDbLine
 10
0.0516000000000016
 20
27.27899999999999
 30
0.0
 11
0.0516000000000016
 21
22.0254
 31
0.0
  0
LINE
  5
6A
330
1E
100
AcDbEntity
  8
0
100
AcDbLine
 10
0.0516000000000016
 20
27.27899999999999
 30
0.0
 11
0.5516000000000022
 21
31.4819
 31
0.0
  0
LINE
  5
6B
330
1E
100
AcDbEntity
  8
0
100
AcDbLine
 10
12.6516
 20
22.0254
 30
0.0
 11
21.65159999999999
 21
22.0254
 31
0.0
  0
LINE
  5
6C
330
1E
100
AcDbEntity
  8
0
100
AcDbLine
 10
16.0516
 20
71.935
 30
0.0
 11
19.0516
 21
74.0
 31
0.0
  0
LINE
  5
6D
330
1E
100
AcDbEntity
  8
0
100
AcDbLine
 10
12.0516
 20
67.2067
 30
0.0
 11
16.0516
 21
71.935
 31
0.0
  0
LINE
  5
6E
330
1E
100
AcDbEntity
  8
0
100
AcDbLine
 10
8.5516
 20
60.9023
 30
0.0
 11
12.0516
 21
67.2067
 31
0.0
  0
LINE
  5
6F
330
1E
100
AcDbEntity
  8
0
100
AcDbLine
 10
5.8516
 20
22.0254
 30
0.0
 11
12.6516
 21
22.0254
 31
0.0
  0
LINE
  5
70
330
1E
100
AcDbEntity
  8
0
100
AcDbLine
 10
0.0516000000000016
 20
22.0254
 30
0.0
 11
1.6516
 21
22.0254
 31
0.0
  0
LINE
  5
71
330
1E
100
AcDbEntity
  8
0
100
AcDbLine
 10
0.0516000000000016
 20
22.0254
 30
0.0
 11
1.0516
 21
21.49999999999999
 31
0.0
  0
LINE
  5
72
330
1E
100
AcDbEntity
  8
0
100
AcDbLine
 10
0.0516000000000016
 20
22.0254
 30
0.0
 11
0.0516000000000016
 21
27.27899999999999
 31
0.0
  0
LINE
  5
73
330
1E
100
AcDbEntity
  8
0
100
AcDbLine
 10
20.3174
 20
3.20714
 30
0.0
 11
20.8686
 21
3.039719999999999
 31
0.0
  0
LINE
  5
74
330
1E
100
AcDbEntity
  8
0
100
AcDbLine
 10
20.8686
 20
3.039719999999999
 30
0.0
 11
21.01824762140629
 21
3.41630985198229
 31
0.0
  0
LINE
  5
75
330
1E
100
AcDbEntity
  8
0
100
AcDbLine
 10
20.8686
 20
3.039719999999999
 30
0.0
 11
21.01824762140629
 21
3.41630985198229
 31
0.0
  0
LINE
  5
76
330
1E
100
AcDbEntity
  8
0
100
AcDbLine
 10
20.3174
 20
3.20714
 30
0.0
 11
20.8686
 21
3.039719999999999
 31
0.0
  0
LINE
  5
77
330
1E
100
AcDbEntity
  8
0
100
AcDbLine
 10
20.5915
 20
3.20714
 30
0.0
 11
20.8686
 21
3.039719999999999
 31
0.0
  0
LINE
  5
79
330
1E
100
AcDbEntity
  8
0
100
AcDbLine
 10
21.5926
 20
3.20714
 30
0.0
 11
22.38029999999999
 21
3.039719999999999
 31
0.0
  0
LINE
  5
7A
330
1E
100
AcDbEntity
  8
0
100
AcDbLine
 10
19.2924
 20
3.597799999999999
 30
0.0
 11
20.3174
 21
3.20714
 31
0.0
  0
LINE
  5
7B
330
1E
100
AcDbEntity
  8
0
100
AcDbLine
 10
19.2924
 20
3.597799999999999
 30
0.0
 11
20.3174
 21
3.20714
 31
0.0
  0
LINE
  5
7C
330
1E
100
AcDbEntity
  8
0
100
AcDbLine
 10
19.6839
 20
3.597799999999999
 30
0.0
 11
20.5915
 21
3.20714
 31
0.0
  0
LINE
  5
7E
330
1E
100
AcDbEntity
  8
0
100
AcDbLine
 10
19.79169999999999
 20
3.988449999999999
 30
0.0
 11
20.51989999999999
 21
3.597799999999999
 31
0.0
  0
LINE
  5
7F
330
1E
100
AcDbEntity
  8
0
100
AcDbLine
 10
19.79169999999999
 20
3.988449999999999
 30
0.0
 11
19.8076
 21
4.155869999999999
 31
0.0
  0
LINE
  5
80
330
1E
100
AcDbEntity
  8
0
100
AcDbLine
 10
20.51989999999999
 20
3.597799999999999
 30
0.0
 11
21.5926
 21
3.20714
 31
0.0
  0
LINE
  5
81
330
1E
100
AcDbEntity
  8
0
100
AcDbLine
 10
20.344
 20
7.632819999999999
 30
0.0
 11
20.6335
 21
7.02963
 31
0.0
  0
LINE
  5
82
330
1E
100
AcDbEntity
  8
0
100
AcDbLine
 10
20.344
 20
7.632819999999999
 30
0.0
 11
20.826
 21
7.891329999999999
 31
0.0
  0
LINE
  5
84
330
1E
100
AcDbEntity
  8
0
100
AcDbLine
 10
20.6335
 20
7.02963
 30
0.0
 11
21.5594
 21
6.42644
 31
0.0
  0
LINE
  5
85
330
1E
100
AcDbEntity
  8
0
100
AcDbLine
 10
20.826
 20
7.891329999999999
 30
0.0
 11
21.82889999999999
 21
7.632819999999999
 31
0.0
  0
LINE
  5
88
330
1E
100
AcDbEntity
  8
0
100
AcDbLine
 10
21.5594
 20
6.42644
 30
0.0
 11
22.56229999999999
 21
6.16793
 31
0.0
  0
LINE
  5
89
330
1E
100
AcDbEntity
  8
0
100
AcDbLine
 10
20.5954
 20
3.988449999999999
 30
0.0
 11
21.668
 21
3.597799999999999
 31
0.0
  0
LINE
  5
8B
330
1E
100
AcDbEntity
  8
0
100
AcDbLine
 10
19.8076
 20
4.155869999999999
 30
0.0
 11
20.5954
 21
3.988449999999999
 31
0.0
  0
LINE
  5
8E
330
1E
100
AcDbEntity
  8
0
100
AcDbLine
 10
20.98294211135439
 20
3.327463155458259
 30
0.0
 11
23.0516
 21
2.5
 31
0.0
  0
LINE
  5
8F
330
1E
100
AcDbEntity
  8
0
100
AcDbLine
 10
21.82889999999999
 20
7.632819999999999
 30
0.0
 11
22.75479999999999
 21
7.02963
 31
0.0
  0
LINE
  5
90
330
1E
100
AcDbEntity
  8
0
100
AcDbLine
 10
21.668
 20
3.597799999999999
 30
0.0
 11
22.39619999999999
 21
3.20714
 31
0.0
  0
LINE
  5
92
330
1E
100
AcDbEntity
  8
0
100
AcDbLine
 10
21.65159999999999
 20
21.0
 30
0.0
 11
32.0516
 21
21.0
 31
0.0
  0
LINE
  5
93
330
1E
100
AcDbEntity
  8
0
100
AcDbLine
 10
20.98294211135439
 20
3.327463155458259
 30
0.0
 11
23.0516
 21
2.5
 31
0.0
  0
LINE
  5
95
330
1E
100
AcDbEntity
  8
0
100
AcDbLine
 10
22.38029999999999
 20
3.039719999999999
 30
0.0
 11
22.39619999999999
 21
3.20714
 31
0.0
  0
LINE
  5
97
330
1E
100
AcDbEntity
  8
0
100
AcDbLine
 10
22.56229999999999
 20
6.16793
 30
0.0
 11
23.04429999999999
 21
6.42644
 31
0.0
  0
LINE
  5
99
330
1E
100
AcDbEntity
  8
0
100
AcDbLine
 10
22.75479999999999
 20
7.02963
 30
0.0
 11
23.04429999999999
 21
6.42644
 31
0.0
  0
LINE
  5
9A
330
1E
100
AcDbEntity
  8
0
100
AcDbLine
 10
22.7837
 20
3.988449999999999
 30
0.0
 11
23.283
 21
3.597799999999999
 31
0.0
  0
LINE
  5
9B
330
1E
100
AcDbEntity
  8
0
100
AcDbLine
 10
22.7837
 20
3.988449999999999
 30
0.0
 11
23.09159999999999
 21
4.155869999999999
 31
0.0
  0
LINE
  5
9D
330
1E
100
AcDbEntity
  8
0
100
AcDbLine
 10
23.283
 20
3.597799999999999
 30
0.0
 11
24.3302
 21
3.20714
 31
0.0
  0
LINE
  5
9E
330
1E
100
AcDbEntity
  8
0
100
AcDbLine
 10
24.0621
 20
3.988449999999999
 30
0.0
 11
25.1093
 21
3.597799999999999
 31
0.0
  0
LINE
  5
A0
330
1E
100
AcDbEntity
  8
0
100
AcDbLine
 10
23.09159999999999
 20
4.155869999999999
 30
0.0
 11
24.0621
 21
3.988449999999999
 31
0.0
  0
LINE
  5
A2
330
1E
100
AcDbEntity
  8
0
100
AcDbLine
 10
23.0516
 20
2.5
 30
0.0
 11
28.0516
 21
0.9999999999999969
 31
0.0
  0
LINE
  5
A3
330
1E
100
AcDbEntity
  8
0
100
AcDbLine
 10
22.1516
 20
21.49999999999999
 30
0.0
 11
32.2516
 21
21.49999999999999
 31
0.0
  0
LINE
  5
A4
330
1E
100
AcDbEntity
  8
0
100
AcDbLine
 10
19.78259999999999
 20
74.0
 30
0.0
 11
22.2191
 21
74.0
 31
0.0
  0
LINE
  5
A5
330
1E
100
AcDbEntity
  8
0
100
AcDbLine
 10
22.2191
 20
74.0
 30
0.0
 11
25.9958
 21
74.0
 31
0.0
  0
LINE
  5
A6
330
1E
100
AcDbEntity
  8
0
100
AcDbLine
 10
21.65159999999999
 20
22.0254
 30
0.0
 11
32.0516
 21
22.0254
 31
0.0
  0
LINE
  5
A7
330
1E
100
AcDbEntity
  8
0
100
AcDbLine
 10
19.0516
 20
74.0
 30
0.0
 11
21.4882
 21
77.0
 31
0.0
  0
LINE
  5
A8
330
1E
100
AcDbEntity
  8
0
100
AcDbLine
 10
19.0516
 20
74.0
 30
0.0
 11
19.78259999999999
 21
74.0
 31
0.0
  0
LINE
  5
A9
330
1E
100
AcDbEntity
  8
0
100
AcDbLine
 10
21.4882
 20
77.0
 30
0.0
 11
24.1684
 21
79.1
 31
0.0
  0
LINE
  5
AA
330
1E
100
AcDbEntity
  8
0
100
AcDbLine
 10
24.3302
 20
3.20714
 30
0.0
 11
25.30079999999999
 21
3.039719999999999
 31
0.0
  0
LINE
  5
AD
330
1E
100
AcDbEntity
  8
0
100
AcDbLine
 10
25.30079999999999
 20
3.039719999999999
 30
0.0
 11
25.60859999999999
 21
3.20714
 31
0.0
  0
LINE
  5
AE
330
1E
100
AcDbEntity
  8
0
100
AcDbLine
 10
25.1093
 20
3.597799999999999
 30
0.0
 11
25.60859999999999
 21
3.20714
 31
0.0
  0
LINE
  5
AF
330
1E
100
AcDbEntity
  8
0
100
AcDbLine
 10
27.3933
 20
3.597799999999999
 30
0.0
 11
28.3436
 21
3.20714
 31
0.0
  0
LINE
  5
B0
330
1E
100
AcDbEntity
  8
0
100
AcDbLine
 10
27.157
 20
3.988449999999999
 30
0.0
 11
27.7357
 21
4.155869999999999
 31
0.0
  0
LINE
  5
B1
330
1E
100
AcDbEntity
  8
0
100
AcDbLine
 10
27.157
 20
3.988449999999999
 30
0.0
 11
27.3933
 21
3.597799999999999
 31
0.0
  0
LINE
  5
B3
330
1E
100
AcDbEntity
  8
0
100
AcDbLine
 10
27.7357
 20
4.155869999999999
 30
0.0
 11
28.823
 21
3.988449999999999
 31
0.0
  0
LINE
  5
B5
330
1E
100
AcDbEntity
  8
0
100
AcDbLine
 10
28.823
 20
3.988449999999999
 30
0.0
 11
29.7733
 21
3.597799999999999
 31
0.0
  0
LINE
  5
B7
330
1E
100
AcDbEntity
  8
0
100
AcDbLine
 10
28.3436
 20
3.20714
 30
0.0
 11
29.4309
 21
3.039719999999999
 31
0.0
  0
LINE
  5
B8
330
1E
100
AcDbEntity
  8
0
100
AcDbLine
 10
28.5635
 20
6.16793
 30
0.0
 11
29.28869999999999
 21
6.42644
 31
0.0
  0
LINE
  5
B9
330
1E
100
AcDbEntity
  8
0
100
AcDbLine
 10
27.46999999999999
 20
6.42644
 30
0.0
 11
28.5635
 21
6.16793
 31
0.0
  0
LINE
  5
BA
330
1E
100
AcDbEntity
  8
0
100
AcDbLine
 10
27.3357
 20
7.891329999999999
 30
0.0
 11
28.4292
 21
7.632819999999999
 31
0.0
  0
LINE
  5
BC
330
1E
100
AcDbEntity
  8
0
100
AcDbLine
 10
28.4292
 20
7.632819999999999
 30
0.0
 11
29.2486
 21
7.02963
 31
0.0
  0
LINE
  5
BD
330
1E
100
AcDbEntity
  8
0
100
AcDbLine
 10
26.6506
 20
7.02963
 30
0.0
 11
27.46999999999999
 21
6.42644
 31
0.0
  0
LINE
  5
BE
330
1E
100
AcDbEntity
  8
0
100
AcDbLine
 10
26.61049999999999
 20
7.632819999999999
 30
0.0
 11
27.3357
 21
7.891329999999999
 31
0.0
  0
LINE
  5
BF
330
1E
100
AcDbEntity
  8
0
100
AcDbLine
 10
26.61049999999999
 20
7.632819999999999
 30
0.0
 11
26.6506
 21
7.02963
 31
0.0
  0
LINE
  5
C0
330
1E
100
AcDbEntity
  8
0
100
AcDbLine
 10
28.0516
 20
0.9999999999999969
 30
0.0
 11
33.5516
 21
0.199999999999997
 31
0.0
  0
LINE
  5
C1
330
1E
100
AcDbEntity
  8
0
100
AcDbLine
 10
25.9958
 20
74.0
 30
0.0
 11
30.9907
 21
74.0
 31
0.0
  0
LINE
  5
C2
330
1E
100
AcDbEntity
  8
0
100
AcDbLine
 10
26.5985
 20
80.3462
 30
0.0
 11
27.2313
 21
80.3462
 31
0.0
  0
LINE
  5
C3
330
1E
100
AcDbEntity
  8
0
100
AcDbLine
 10
24.1684
 20
79.1
 30
0.0
 11
26.5985
 21
80.3462
 31
0.0
  0
LINE
  5
C4
330
1E
100
AcDbEntity
  8
0
100
AcDbLine
 10
25.6141
 20
81.6923
 30
0.0
 11
26.5985
 21
80.3462
 31
0.0
  0
LINE
  5
C5
330
1E
100
AcDbEntity
  8
0
100
AcDbLine
 10
25.6141
 20
81.6923
 30
0.0
 11
26.2469
 21
81.6923
 31
0.0
  0
LINE
  5
C6
330
1E
100
AcDbEntity
  8
0
100
AcDbLine
 10
25.6141
 20
81.6923
 30
0.0
 11
25.6141
 21
83.0385
 31
0.0
  0
LINE
  5
C7
330
1E
100
AcDbEntity
  8
0
100
AcDbLine
 10
25.6141
 20
83.0385
 30
0.0
 11
26.2469
 21
83.0385
 31
0.0
  0
LINE
  5
C8
330
1E
100
AcDbEntity
  8
0
100
AcDbLine
 10
25.6141
 20
83.0385
 30
0.0
 11
27.16099999999999
 21
84.3846
 31
0.0
  0
LINE
  5
C9
330
1E
100
AcDbEntity
  8
0
100
AcDbLine
 10
25.6141
 20
83.0385
 30
0.0
 11
25.6141
 21
81.6923
 31
0.0
  0
LINE
  5
CA
330
1E
100
AcDbEntity
  8
0
100
AcDbLine
 10
26.5985
 20
91.11539999999999
 30
0.0
 11
27.2313
 21
91.11539999999999
 31
0.0
  0
LINE
  5
CB
330
1E
100
AcDbEntity
  8
0
100
AcDbLine
 10
26.5985
 20
91.11539999999999
 30
0.0
 11
28.1454
 21
92.4615
 31
0.0
  0
LINE
  5
CC
330
1E
100
AcDbEntity
  8
0
100
AcDbLine
 10
26.5985
 20
91.11539999999999
 30
0.0
 11
26.5985
 21
89.76919999999999
 31
0.0
  0
LINE
  5
CD
330
1E
100
AcDbEntity
  8
0
100
AcDbLine
 10
26.5985
 20
89.76919999999999
 30
0.0
 11
27.7235
 21
88.42310000000001
 31
0.0
  0
LINE
  5
CE
330
1E
100
AcDbEntity
  8
0
100
AcDbLine
 10
26.5985
 20
89.76919999999999
 30
0.0
 11
27.2313
 21
89.76919999999999
 31
0.0
  0
LINE
  5
CF
330
1E
100
AcDbEntity
  8
0
100
AcDbLine
 10
26.5985
 20
89.76919999999999
 30
0.0
 11
26.5985
 21
91.11539999999999
 31
0.0
  0
LINE
  5
D0
330
1E
100
AcDbEntity
  8
0
100
AcDbLine
 10
26.1766
 20
87.07689999999999
 30
0.0
 11
26.7391
 21
87.07689999999999
 31
0.0
  0
LINE
  5
D1
330
1E
100
AcDbEntity
  8
0
100
AcDbLine
 10
26.1766
 20
87.07689999999999
 30
0.0
 11
27.7235
 21
88.42310000000001
 31
0.0
  0
LINE
  5
D2
330
1E
100
AcDbEntity
  8
0
100
AcDbLine
 10
26.1766
 20
87.07689999999999
 30
0.0
 11
26.1766
 21
85.7308
 31
0.0
  0
LINE
  5
D3
330
1E
100
AcDbEntity
  8
0
100
AcDbLine
 10
26.7391
 20
87.07689999999999
 30
0.0
 11
28.4266
 21
87.07689999999999
 31
0.0
  0
LINE
  5
D4
330
1E
100
AcDbEntity
  8
0
100
AcDbLine
 10
26.1766
 20
85.7308
 30
0.0
 11
27.16099999999999
 21
84.3846
 31
0.0
  0
LINE
  5
D5
330
1E
100
AcDbEntity
  8
0
100
AcDbLine
 10
26.1766
 20
85.7308
 30
0.0
 11
26.7391
 21
85.7308
 31
0.0
  0
LINE
  5
D6
330
1E
100
AcDbEntity
  8
0
100
AcDbLine
 10
26.1766
 20
85.7308
 30
0.0
 11
26.1766
 21
87.07689999999999
 31
0.0
  0
LINE
  5
D7
330
1E
100
AcDbEntity
  8
0
100
AcDbLine
 10
27.16099999999999
 20
95.1538
 30
0.0
 11
27.6532
 21
95.1538
 31
0.0
  0
LINE
  5
D8
330
1E
100
AcDbEntity
  8
0
100
AcDbLine
 10
27.16099999999999
 20
95.1538
 30
0.0
 11
28.70789999999999
 21
96.5
 31
0.0
  0
LINE
  5
D9
330
1E
100
AcDbEntity
  8
0
100
AcDbLine
 10
27.16099999999999
 20
95.1538
 30
0.0
 11
27.16099999999999
 21
93.8077
 31
0.0
  0
LINE
  5
DA
330
1E
100
AcDbEntity
  8
0
100
AcDbLine
 10
27.16099999999999
 20
93.8077
 30
0.0
 11
28.1454
 21
92.4615
 31
0.0
  0
LINE
  5
DB
330
1E
100
AcDbEntity
  8
0
100
AcDbLine
 10
27.16099999999999
 20
93.8077
 30
0.0
 11
27.6532
 21
93.8077
 31
0.0
  0
LINE
  5
DC
330
1E
100
AcDbEntity
  8
0
100
AcDbLine
 10
27.16099999999999
 20
93.8077
 30
0.0
 11
27.16099999999999
 21
95.1538
 31
0.0
  0
LINE
  5
DD
330
1E
100
AcDbEntity
  8
0
100
AcDbLine
 10
27.6532
 20
95.1538
 30
0.0
 11
29.3407
 21
95.1538
 31
0.0
  0
LINE
  5
DE
330
1E
100
AcDbEntity
  8
0
100
AcDbLine
 10
27.6532
 20
93.8077
 30
0.0
 11
29.3407
 21
93.8077
 31
0.0
  0
LINE
  5
DF
330
1E
100
AcDbEntity
  8
0
100
AcDbLine
 10
27.2313
 20
91.11539999999999
 30
0.0
 11
28.9188
 21
91.11539999999999
 31
0.0
  0
LINE
  5
E0
330
1E
100
AcDbEntity
  8
0
100
AcDbLine
 10
27.2313
 20
89.76919999999999
 30
0.0
 11
28.9188
 21
89.76919999999999
 31
0.0
  0
LINE
  5
E1
330
1E
100
AcDbEntity
  8
0
100
AcDbLine
 10
26.7391
 20
85.7308
 30
0.0
 11
28.4266
 21
85.7308
 31
0.0
  0
LINE
  5
E2
330
1E
100
AcDbEntity
  8
0
100
AcDbLine
 10
27.16099999999999
 20
84.3846
 30
0.0
 11
27.6532
 21
84.3846
 31
0.0
  0
LINE
  5
E3
330
1E
100
AcDbEntity
  8
0
100
AcDbLine
 10
27.7235
 20
99.1923
 30
0.0
 11
28.21569999999999
 21
99.1923
 31
0.0
  0
LINE
  5
E4
330
1E
100
AcDbEntity
  8
0
100
AcDbLine
 10
27.7235
 20
99.1923
 30
0.0
 11
29.12969999999999
 21
100.5379999999999
 31
0.0
  0
LINE
  5
E5
330
1E
100
AcDbEntity
  8
0
100
AcDbLine
 10
27.7235
 20
99.1923
 30
0.0
 11
27.7235
 21
97.8462
 31
0.0
  0
LINE
  5
E6
330
1E
100
AcDbEntity
  8
0
100
AcDbLine
 10
27.7235
 20
97.8462
 30
0.0
 11
28.70789999999999
 21
96.5
 31
0.0
  0
LINE
  5
E7
330
1E
100
AcDbEntity
  8
0
100
AcDbLine
 10
27.7235
 20
97.8462
 30
0.0
 11
28.21569999999999
 21
97.8462
 31
0.0
  0
LINE
  5
E8
330
1E
100
AcDbEntity
  8
0
100
AcDbLine
 10
27.7235
 20
97.8462
 30
0.0
 11
27.7235
 21
99.1923
 31
0.0
  0
LINE
  5
E9
330
1E
100
AcDbEntity
  8
0
100
AcDbLine
 10
27.7235
 20
88.42310000000001
 30
0.0
 11
28.21569999999999
 21
88.42310000000001
 31
0.0
  0
LINE
  5
EA
330
1E
100
AcDbEntity
  8
0
100
AcDbLine
 10
27.6532
 20
84.3846
 30
0.0
 11
29.3407
 21
84.3846
 31
0.0
  0
LINE
  5
EB
330
1E
100
AcDbEntity
  8
0
100
AcDbLine
 10
26.2469
 20
83.0385
 30
0.0
 11
28.0047
 21
83.0385
 31
0.0
  0
LINE
  5
EC
330
1E
100
AcDbEntity
  8
0
100
AcDbLine
 10
28.0047
 20
83.0385
 30
0.0
 11
30.7469
 21
83.0385
 31
0.0
  0
LINE
  5
ED
330
1E
100
AcDbEntity
  8
0
100
AcDbLine
 10
26.2469
 20
81.6923
 30
0.0
 11
28.0047
 21
81.6923
 31
0.0
  0
LINE
  5
EE
330
1E
100
AcDbEntity
  8
0
100
AcDbLine
 10
28.1454
 20
103.231
 30
0.0
 11
30.1141
 21
114.0
 31
0.0
  0
LINE
  5
EF
330
1E
100
AcDbEntity
  8
0
100
AcDbLine
 10
28.1454
 20
103.231
 30
0.0
 11
28.1454
 21
101.885
 31
0.0
  0
LINE
  5
F0
330
1E
100
AcDbEntity
  8
0
100
AcDbLine
 10
28.1454
 20
101.885
 30
0.0
 11
29.12969999999999
 21
100.5379999999999
 31
0.0
  0
LINE
  5
F1
330
1E
100
AcDbEntity
  8
0
100
AcDbLine
 10
28.1454
 20
101.885
 30
0.0
 11
28.63749999999999
 21
101.885
 31
0.0
  0
LINE
  5
F2
330
1E
100
AcDbEntity
  8
0
100
AcDbLine
 10
28.1454
 20
101.885
 30
0.0
 11
28.1454
 21
103.231
 31
0.0
  0
LINE
  5
F3
330
1E
100
AcDbEntity
  8
0
100
AcDbLine
 10
28.21569999999999
 20
99.1923
 30
0.0
 11
29.7625
 21
99.1923
 31
0.0
  0
LINE
  5
F4
330
1E
100
AcDbEntity
  8
0
100
AcDbLine
 10
28.21569999999999
 20
97.8462
 30
0.0
 11
29.7625
 21
97.8462
 31
0.0
  0
LINE
  5
F5
330
1E
100
AcDbEntity
  8
0
100
AcDbLine
 10
28.1454
 20
92.4615
 30
0.0
 11
28.63749999999999
 21
92.4615
 31
0.0
  0
LINE
  5
F6
330
1E
100
AcDbEntity
  8
0
100
AcDbLine
 10
28.21569999999999
 20
88.42310000000001
 30
0.0
 11
29.7625
 21
88.42310000000001
 31
0.0
  0
LINE
  5
F7
330
1E
100
AcDbEntity
  8
0
100
AcDbLine
 10
28.63749999999999
 20
101.885
 30
0.0
 11
30.1141
 21
101.885
 31
0.0
  0
LINE
  5
F8
330
1E
100
AcDbEntity
  8
0
100
AcDbLine
 10
28.70789999999999
 20
96.5
 30
0.0
 11
29.12969999999999
 21
96.5
 31
0.0
  0
LINE
  5
F9
330
1E
100
AcDbEntity
  8
0
100
AcDbLine
 10
28.63749999999999
 20
92.4615
 30
0.0
 11
30.1141
 21
92.4615
 31
0.0
  0
LINE
  5
FA
330
1E
100
AcDbEntity
  8
0
100
AcDbLine
 10
28.9188
 20
91.11539999999999
 30
0.0
 11
31.45
 21
91.11539999999999
 31
0.0
  0
LINE
  5
FB
330
1E
100
AcDbEntity
  8
0
100
AcDbLine
 10
28.9188
 20
89.76919999999999
 30
0.0
 11
31.45
 21
89.76919999999999
 31
0.0
  0
LINE
  5
FC
330
1E
100
AcDbEntity
  8
0
100
AcDbLine
 10
28.4266
 20
87.07689999999999
 30
0.0
 11
31.0985
 21
87.07689999999999
 31
0.0
  0
LINE
  5
FD
330
1E
100
AcDbEntity
  8
0
100
AcDbLine
 10
28.4266
 20
85.7308
 30
0.0
 11
31.0985
 21
85.7308
 31
0.0
  0
LINE
  5
FE
330
1E
100
AcDbEntity
  8
0
100
AcDbLine
 10
28.0047
 20
81.6923
 30
0.0
 11
30.7469
 21
81.6923
 31
0.0
  0
LINE
  5
FF
330
1E
100
AcDbEntity
  8
0
100
AcDbLine
 10
27.2313
 20
80.3462
 30
0.0
 11
28.9188
 21
80.3462
 31
0.0
  0
LINE
  5
102
330
1E
100
AcDbEntity
  8
0
100
AcDbLine
 10
29.7733
 20
3.597799999999999
 30
0.0
 11
30.0096
 21
3.20714
 31
0.0
  0
LINE
  5
103
330
1E
100
AcDbEntity
  8
0
100
AcDbLine
 10
29.4309
 20
3.039719999999999
 30
0.0
 11
30.0096
 21
3.20714
 31
0.0
  0
LINE
  5
105
330
1E
100
AcDbEntity
  8
0
100
AcDbLine
 10
29.2486
 20
7.02963
 30
0.0
 11
29.28869999999999
 21
6.42644
 31
0.0
  0
LINE
  5
106
330
1E
100
AcDbEntity
  8
0
100
AcDbLine
 10
32.0516
 20
21.0
 30
0.0
 11
43.05159999999999
 21
21.0
 31
0.0
  0
LINE
  5
107
330
1E
100
AcDbEntity
  8
0
100
AcDbLine
 10
32.5706
 20
3.597799999999999
 30
0.0
 11
32.6134
 21
3.988449999999999
 31
0.0
  0
LINE
  5
108
330
1E
100
AcDbEntity
  8
0
100
AcDbLine
 10
32.5706
 20
3.597799999999999
 30
0.0
 11
33.3594
 21
3.20714
 31
0.0
  0
LINE
  5
109
330
1E
100
AcDbEntity
  8
0
100
AcDbLine
 10
34.4893
 20
3.039719999999999
 30
0.0
 11
35.2995
 21
3.20714
 31
0.0
  0
LINE
  5
10A
330
1E
100
AcDbEntity
  8
0
100
AcDbLine
 10
33.7853
 20
7.02963
 30
0.0
 11
33.9976
 21
7.632819999999999
 31
0.0
  0
LINE
  5
10B
330
1E
100
AcDbEntity
  8
0
100
AcDbLine
 10
33.7853
 20
7.02963
 30
0.0
 11
34.4425
 21
6.42644
 31
0.0
  0
LINE
  5
10E
330
1E
100
AcDbEntity
  8
0
100
AcDbLine
 10
34.4425
 20
6.42644
 30
0.0
 11
35.552
 21
6.16793
 31
0.0
  0
LINE
  5
10F
330
1E
100
AcDbEntity
  8
0
100
AcDbLine
 10
33.9976
 20
7.632819999999999
 30
0.0
 11
34.91649999999999
 21
7.891329999999999
 31
0.0
  0
LINE
  5
110
330
1E
100
AcDbEntity
  8
0
100
AcDbLine
 10
33.4236
 20
4.155869999999999
 30
0.0
 11
34.5536
 21
3.988449999999999
 31
0.0
  0
LINE
  5
113
330
1E
100
AcDbEntity
  8
0
100
AcDbLine
 10
34.5536
 20
3.988449999999999
 30
0.0
 11
35.3423
 21
3.597799999999999
 31
0.0
  0
LINE
  5
115
330
1E
100
AcDbEntity
  8
0
100
AcDbLine
 10
33.3594
 20
3.20714
 30
0.0
 11
34.4893
 21
3.039719999999999
 31
0.0
  0
LINE
  5
116
330
1E
100
AcDbEntity
  8
0
100
AcDbLine
 10
32.6134
 20
3.988449999999999
 30
0.0
 11
33.4236
 21
4.155869999999999
 31
0.0
  0
LINE
  5
118
330
1E
100
AcDbEntity
  8
0
100
AcDbLine
 10
33.5516
 20
0.199999999999997
 30
0.0
 11
37.0516
 21
-0.0000000000000026
 31
0.0
  0
LINE
  5
119
330
1E
100
AcDbEntity
  8
0
100
AcDbLine
 10
33.5516
 20
0.199999999999997
 30
0.0
 11
37.0516
 21
-0.0000000000000026
 31
0.0
  0
LINE
  5
11A
330
1E
100
AcDbEntity
  8
0
100
AcDbLine
 10
32.2516
 20
21.49999999999999
 30
0.0
 11
43.05159999999999
 21
21.49999999999999
 31
0.0
  0
LINE
  5
11B
330
1E
100
AcDbEntity
  8
0
100
AcDbLine
 10
30.9907
 20
74.0
 30
0.0
 11
36.7166
 21
74.0
 31
0.0
  0
LINE
  5
11C
330
1E
100
AcDbEntity
  8
0
100
AcDbLine
 10
32.0516
 20
22.0254
 30
0.0
 11
43.05159999999999
 21
22.0254
 31
0.0
  0
LINE
  5
11D
330
1E
100
AcDbEntity
  8
0
100
AcDbLine
 10
43.05159999999999
 20
-0.000000000000003
 30
0.0
 11
44.6006
 21
-0.000000000000003
 31
0.0
  0
LINE
  5
11E
330
1E
100
AcDbEntity
  8
0
100
AcDbLine
 10
34.91649999999999
 20
7.891329999999999
 30
0.0
 11
36.02599999999999
 21
7.632819999999999
 31
0.0
  0
LINE
  5
120
330
1E
100
AcDbEntity
  8
0
100
AcDbLine
 10
36.02599999999999
 20
7.632819999999999
 30
0.0
 11
36.6831
 21
7.02963
 31
0.0
  0
LINE
  5
121
330
1E
100
AcDbEntity
  8
0
100
AcDbLine
 10
36.4709
 20
6.42644
 30
0.0
 11
36.6831
 21
7.02963
 31
0.0
  0
LINE
  5
122
330
1E
100
AcDbEntity
  8
0
100
AcDbLine
 10
35.552
 20
6.16793
 30
0.0
 11
36.4709
 21
6.42644
 31
0.0
  0
LINE
  5
123
330
1E
100
AcDbEntity
  8
0
100
AcDbLine
 10
35.2995
 20
3.20714
 30
0.0
 11
35.3423
 21
3.597799999999999
 31
0.0
  0
LINE
  5
124
330
1E
100
AcDbEntity
  8
0
100
AcDbLine
 10
37.85159999999999
 20
-0.0000000000000028
 30
0.0
 11
38.85159999999999
 21
-0.0000000000000029
 31
0.0
  0
LINE
  5
125
330
1E
100
AcDbEntity
  8
0
100
AcDbLine
 10
38.4622
 20
3.597799999999999
 30
0.0
 11
38.7812
 21
3.988449999999999
 31
0.0
  0
LINE
  5
126
330
1E
100
AcDbEntity
  8
0
100
AcDbLine
 10
38.4622
 20
3.597799999999999
 30
0.0
 11
39.0356
 21
3.20714
 31
0.0
  0
LINE
  5
128
330
1E
100
AcDbEntity
  8
0
100
AcDbLine
 10
39.7677
 20
4.155869999999999
 30
0.0
 11
40.86319999999999
 21
3.988449999999999
 31
0.0
  0
LINE
  5
12A
330
1E
100
AcDbEntity
  8
0
100
AcDbLine
 10
39.0356
 20
3.20714
 30
0.0
 11
40.1311
 21
3.039719999999999
 31
0.0
  0
LINE
  5
12B
330
1E
100
AcDbEntity
  8
0
100
AcDbLine
 10
38.7812
 20
3.988449999999999
 30
0.0
 11
39.7677
 21
4.155869999999999
 31
0.0
  0
LINE
  5
12D
330
1E
100
AcDbEntity
  8
0
100
AcDbLine
 10
37.1353
 20
-0.0000000000000027
 30
0.0
 11
37.85159999999999
 21
-0.0000000000000028
 31
0.0
  0
LINE
  5
12E
330
1E
100
AcDbEntity
  8
0
100
AcDbLine
 10
37.0516
 20
-0.0000000000000026
 30
0.0
 11
37.1353
 21
-0.0000000000000027
 31
0.0
  0
LINE
  5
12F
330
1E
100
AcDbEntity
  8
0
100
AcDbLine
 10
38.85159999999999
 20
-0.0000000000000029
 30
0.0
 11
40.0516
 21
-0.000000000000003
 31
0.0
  0
LINE
  5
130
330
1E
100
AcDbEntity
  8
0
100
AcDbLine
 10
40.86319999999999
 20
3.988449999999999
 30
0.0
 11
41.43659999999999
 21
3.597799999999999
 31
0.0
  0
LINE
  5
132
330
1E
100
AcDbEntity
  8
0
100
AcDbLine
 10
41.1176
 20
3.20714
 30
0.0
 11
41.43659999999999
 21
3.597799999999999
 31
0.0
  0
LINE
  5
133
330
1E
100
AcDbEntity
  8
0
100
AcDbLine
 10
40.1311
 20
3.039719999999999
 30
0.0
 11
41.1176
 21
3.20714
 31
0.0
  0
LINE
  5
135
330
1E
100
AcDbEntity
  8
0
100
AcDbLine
 10
43.05159999999999
 20
6.16793
 30
0.0
 11
44.1016
 21
6.42644
 31
0.0
  0
LINE
  5
136
330
1E
100
AcDbEntity
  8
0
100
AcDbLine
 10
42.0016
 20
6.42644
 30
0.0
 11
43.05159999999999
 21
6.16793
 31
0.0
  0
LINE
  5
137
330
1E
100
AcDbEntity
  8
0
100
AcDbLine
 10
41.5516
 20
7.02963
 30
0.0
 11
42.0016
 21
7.632819999999999
 31
0.0
  0
LINE
  5
138
330
1E
100
AcDbEntity
  8
0
100
AcDbLine
 10
41.5516
 20
7.02963
 30
0.0
 11
42.0016
 21
6.42644
 31
0.0
  0
LINE
  5
13A
330
1E
100
AcDbEntity
  8
0
100
AcDbLine
 10
43.05159999999999
 20
7.891329999999999
 30
0.0
 11
44.1016
 21
7.632819999999999
 31
0.0
  0
LINE
  5
13B
330
1E
100
AcDbEntity
  8
0
100
AcDbLine
 10
42.0016
 20
7.632819999999999
 30
0.0
 11
43.05159999999999
 21
7.891329999999999
 31
0.0
  0
LINE
  5
13C
330
1E
100
AcDbEntity
  8
0
100
AcDbLine
 10
40.0516
 20
-0.000000000000003
 30
0.0
 11
41.5026
 21
-0.000000000000003
 31
0.0
  0
LINE
  5
13D
330
1E
100
AcDbEntity
  8
0
100
AcDbLine
 10
41.5026
 20
-0.000000000000003
 30
0.0
 11
43.05159999999999
 21
-0.000000000000003
 31
0.0
  0
LINE
  5
13E
330
1E
100
AcDbEntity
  8
0
100
AcDbLine
 10
46.0516
 20
-0.000000000000003
 30
0.0
 11
47.2516
 21
-0.0000000000000029
 31
0.0
  0
LINE
  5
13F
330
1E
100
AcDbEntity
  8
0
100
AcDbLine
 10
44.6006
 20
-0.000000000000003
 30
0.0
 11
46.0516
 21
-0.000000000000003
 31
0.0
  0
LINE
  5
140
330
1E
100
AcDbEntity
  8
0
100
AcDbLine
 10
47.2516
 20
-0.0000000000000029
 30
0.0
 11
48.2516
 21
-0.0000000000000028
 31
0.0
  0
LINE
  5
141
330
1E
100
AcDbEntity
  8
0
100
AcDbLine
 10
48.2516
 20
-0.0000000000000028
 30
0.0
 11
48.9679
 21
-0.0000000000000027
 31
0.0
  0
LINE
  5
142
330
1E
100
AcDbEntity
  8
0
100
AcDbLine
 10
49.0516
 20
-0.0000000000000026
 30
0.0
 11
52.5516
 21
0.199999999999997
 31
0.0
  0
LINE
  5
143
330
1E
100
AcDbEntity
  8
0
100
AcDbLine
 10
48.9679
 20
-0.0000000000000027
 30
0.0
 11
49.0516
 21
-0.0000000000000026
 31
0.0
  0
LINE
  5
144
330
1E
100
AcDbEntity
  8
0
100
AcDbLine
 10
44.6666
 20
3.597799999999999
 30
0.0
 11
44.9856
 21
3.20714
 31
0.0
  0
LINE
  5
145
330
1E
100
AcDbEntity
  8
0
100
AcDbLine
 10
44.6666
 20
3.597799999999999
 30
0.0
 11
45.24
 21
3.988449999999999
 31
0.0
  0
LINE
  5
148
330
1E
100
AcDbEntity
  8
0
100
AcDbLine
 10
45.24
 20
3.988449999999999
 30
0.0
 11
46.3355
 21
4.155869999999999
 31
0.0
  0
LINE
  5
149
330
1E
100
AcDbEntity
  8
0
100
AcDbLine
 10
44.9856
 20
3.20714
 30
0.0
 11
45.97209999999999
 21
3.039719999999999
 31
0.0
  0
LINE
  5
14A
330
1E
100
AcDbEntity
  8
0
100
AcDbLine
 10
45.97209999999999
 20
3.039719999999999
 30
0.0
 11
47.0676
 21
3.20714
 31
0.0
  0
LINE
  5
14B
330
1E
100
AcDbEntity
  8
0
100
AcDbLine
 10
50.7609
 20
3.597799999999999
 30
0.0
 11
50.8037
 21
3.20714
 31
0.0
  0
LINE
  5
14C
330
1E
100
AcDbEntity
  8
0
100
AcDbLine
 10
50.7609
 20
3.597799999999999
 30
0.0
 11
51.54959999999999
 21
3.988449999999999
 31
0.0
  0
LINE
  5
14D
330
1E
100
AcDbEntity
  8
0
100
AcDbLine
 10
50.8037
 20
3.20714
 30
0.0
 11
51.6139
 21
3.039719999999999
 31
0.0
  0
LINE
  5
14E
330
1E
100
AcDbEntity
  8
0
100
AcDbLine
 10
51.6139
 20
3.039719999999999
 30
0.0
 11
52.7438
 21
3.20714
 31
0.0
  0
LINE
  5
14F
330
1E
100
AcDbEntity
  8
0
100
AcDbLine
 10
51.54959999999999
 20
3.988449999999999
 30
0.0
 11
52.6796
 21
4.155869999999999
 31
0.0
  0
LINE
  5
151
330
1E
100
AcDbEntity
  8
0
100
AcDbLine
 10
47.0676
 20
3.20714
 30
0.0
 11
47.641
 21
3.597799999999999
 31
0.0
  0
LINE
  5
154
330
1E
100
AcDbEntity
  8
0
100
AcDbLine
 10
49.6323
 20
6.42644
 30
0.0
 11
50.5512
 21
6.16793
 31
0.0
  0
LINE
  5
155
330
1E
100
AcDbEntity
  8
0
100
AcDbLine
 10
50.5512
 20
6.16793
 30
0.0
 11
51.6607
 21
6.42644
 31
0.0
  0
LINE
  5
156
330
1E
100
AcDbEntity
  8
0
100
AcDbLine
 10
51.6607
 20
6.42644
 30
0.0
 11
52.3179
 21
7.02963
 31
0.0
  0
LINE
  5
158
330
1E
100
AcDbEntity
  8
0
100
AcDbLine
 10
47.32199999999999
 20
3.988449999999999
 30
0.0
 11
47.641
 21
3.597799999999999
 31
0.0
  0
LINE
  5
159
330
1E
100
AcDbEntity
  8
0
100
AcDbLine
 10
46.3355
 20
4.155869999999999
 30
0.0
 11
47.32199999999999
 21
3.988449999999999
 31
0.0
  0
LINE
  5
15A
330
1E
100
AcDbEntity
  8
0
100
AcDbLine
 10
49.42009999999999
 20
7.02963
 30
0.0
 11
49.6323
 21
6.42644
 31
0.0
  0
LINE
  5
15B
330
1E
100
AcDbEntity
  8
0
100
AcDbLine
 10
49.42009999999999
 20
7.02963
 30
0.0
 11
50.07719999999999
 21
7.632819999999999
 31
0.0
  0
LINE
  5
15C
330
1E
100
AcDbEntity
  8
0
100
AcDbLine
 10
50.07719999999999
 20
7.632819999999999
 30
0.0
 11
51.1867
 21
7.891329999999999
 31
0.0
  0
LINE
  5
15E
330
1E
100
AcDbEntity
  8
0
100
AcDbLine
 10
52.1056
 20
7.632819999999999
 30
0.0
 11
52.3179
 21
7.02963
 31
0.0
  0
LINE
  5
160
330
1E
100
AcDbEntity
  8
0
100
AcDbLine
 10
51.1867
 20
7.891329999999999
 30
0.0
 11
52.1056
 21
7.632819999999999
 31
0.0
  0
LINE
  5
163
330
1E
100
AcDbEntity
  8
0
100
AcDbLine
 10
44.1016
 20
7.632819999999999
 30
0.0
 11
44.5516
 21
7.02963
 31
0.0
  0
LINE
  5
164
330
1E
100
AcDbEntity
  8
0
100
AcDbLine
 10
44.1016
 20
6.42644
 30
0.0
 11
44.5516
 21
7.02963
 31
0.0
  0
LINE
  5
167
330
1E
100
AcDbEntity
  8
0
100
AcDbLine
 10
56.3299
 20
3.597799999999999
 30
0.0
 11
57.2802
 21
3.988449999999999
 31
0.0
  0
LINE
  5
168
330
1E
100
AcDbEntity
  8
0
100
AcDbLine
 10
56.0936
 20
3.20714
 30
0.0
 11
56.67229999999999
 21
3.039719999999999
 31
0.0
  0
LINE
  5
169
330
1E
100
AcDbEntity
  8
0
100
AcDbLine
 10
56.0936
 20
3.20714
 30
0.0
 11
56.3299
 21
3.597799999999999
 31
0.0
  0
LINE
  5
16A
330
1E
100
AcDbEntity
  8
0
100
AcDbLine
 10
56.67229999999999
 20
3.039719999999999
 30
0.0
 11
57.7596
 21
3.20714
 31
0.0
  0
LINE
  5
16C
330
1E
100
AcDbEntity
  8
0
100
AcDbLine
 10
62.8202
 20
3.597799999999999
 30
0.0
 11
63.31949999999999
 21
3.988449999999999
 31
0.0
  0
LINE
  5
16D
330
1E
100
AcDbEntity
  8
0
100
AcDbLine
 10
61.773
 20
3.20714
 30
0.0
 11
62.8202
 21
3.597799999999999
 31
0.0
  0
LINE
  5
16E
330
1E
100
AcDbEntity
  8
0
100
AcDbLine
 10
60.80239999999999
 20
3.039719999999999
 30
0.0
 11
61.773
 21
3.20714
 31
0.0
  0
LINE
  5
16F
330
1E
100
AcDbEntity
  8
0
100
AcDbLine
 10
60.49459999999999
 20
3.20714
 30
0.0
 11
60.99389999999999
 21
3.597799999999999
 31
0.0
  0
LINE
  5
170
330
1E
100
AcDbEntity
  8
0
100
AcDbLine
 10
60.49459999999999
 20
3.20714
 30
0.0
 11
60.80239999999999
 21
3.039719999999999
 31
0.0
  0
LINE
  5
171
330
1E
100
AcDbEntity
  8
0
100
AcDbLine
 10
60.99389999999999
 20
3.597799999999999
 30
0.0
 11
62.0411
 21
3.988449999999999
 31
0.0
  0
LINE
  5
172
330
1E
100
AcDbEntity
  8
0
100
AcDbLine
 10
57.7596
 20
3.20714
 30
0.0
 11
58.70989999999999
 21
3.597799999999999
 31
0.0
  0
LINE
  5
173
330
1E
100
AcDbEntity
  8
0
100
AcDbLine
 10
62.0411
 20
3.988449999999999
 30
0.0
 11
63.0116
 21
4.155869999999999
 31
0.0
  0
LINE
  5
174
330
1E
100
AcDbEntity
  8
0
100
AcDbLine
 10
57.2802
 20
3.988449999999999
 30
0.0
 11
58.3675
 21
4.155869999999999
 31
0.0
  0
LINE
  5
175
330
1E
100
AcDbEntity
  8
0
100
AcDbLine
 10
58.70989999999999
 20
3.597799999999999
 30
0.0
 11
58.94619999999999
 21
3.988449999999999
 31
0.0
  0
LINE
  5
176
330
1E
100
AcDbEntity
  8
0
100
AcDbLine
 10
52.7438
 20
3.20714
 30
0.0
 11
53.5326
 21
3.597799999999999
 31
0.0
  0
LINE
  5
178
330
1E
100
AcDbEntity
  8
0
100
AcDbLine
 10
56.8145
 20
6.42644
 30
0.0
 11
57.5397
 21
6.16793
 31
0.0
  0
LINE
  5
179
330
1E
100
AcDbEntity
  8
0
100
AcDbLine
 10
56.8145
 20
6.42644
 30
0.0
 11
56.85459999999999
 21
7.02963
 31
0.0
  0
LINE
  5
17A
330
1E
100
AcDbEntity
  8
0
100
AcDbLine
 10
63.0116
 20
4.155869999999999
 30
0.0
 11
63.31949999999999
 21
3.988449999999999
 31
0.0
  0
LINE
  5
17F
330
1E
100
AcDbEntity
  8
0
100
AcDbLine
 10
58.3675
 20
4.155869999999999
 30
0.0
 11
58.94619999999999
 21
3.988449999999999
 31
0.0
  0
LINE
  5
180
330
1E
100
AcDbEntity
  8
0
100
AcDbLine
 10
57.5397
 20
6.16793
 30
0.0
 11
58.6332
 21
6.42644
 31
0.0
  0
LINE
  5
181
330
1E
100
AcDbEntity
  8
0
100
AcDbLine
 10
58.6332
 20
6.42644
 30
0.0
 11
59.4526
 21
7.02963
 31
0.0
  0
LINE
  5
183
330
1E
100
AcDbEntity
  8
0
100
AcDbLine
 10
53.4898
 20
3.988449999999999
 30
0.0
 11
53.5326
 21
3.597799999999999
 31
0.0
  0
LINE
  5
184
330
1E
100
AcDbEntity
  8
0
100
AcDbLine
 10
52.6796
 20
4.155869999999999
 30
0.0
 11
53.4898
 21
3.988449999999999
 31
0.0
  0
LINE
  5
187
330
1E
100
AcDbEntity
  8
0
100
AcDbLine
 10
57.674
 20
7.632819999999999
 30
0.0
 11
58.7675
 21
7.891329999999999
 31
0.0
  0
LINE
  5
188
330
1E
100
AcDbEntity
  8
0
100
AcDbLine
 10
56.85459999999999
 20
7.02963
 30
0.0
 11
57.674
 21
7.632819999999999
 31
0.0
  0
LINE
  5
189
330
1E
100
AcDbEntity
  8
0
100
AcDbLine
 10
59.4526
 20
7.02963
 30
0.0
 11
59.4927
 21
7.632819999999999
 31
0.0
  0
LINE
  5
18A
330
1E
100
AcDbEntity
  8
0
100
AcDbLine
 10
58.7675
 20
7.891329999999999
 30
0.0
 11
59.4927
 21
7.632819999999999
 31
0.0
  0
LINE
  5
18D
330
1E
100
AcDbEntity
  8
0
100
AcDbLine
 10
63.0589
 20
6.42644
 30
0.0
 11
63.34839999999999
 21
7.02963
 31
0.0
  0
LINE
  5
18E
330
1E
100
AcDbEntity
  8
0
100
AcDbLine
 10
63.0589
 20
6.42644
 30
0.0
 11
63.5409
 21
6.16793
 31
0.0
  0
LINE
  5
18F
330
1E
100
AcDbEntity
  8
0
100
AcDbLine
 10
63.7229
 20
3.039719999999999
 30
0.0
 11
64.5106
 21
3.20714
 31
0.0
  0
LINE
  5
194
330
1E
100
AcDbEntity
  8
0
100
AcDbLine
 10
63.707
 20
3.20714
 30
0.0
 11
64.43519999999999
 21
3.597799999999999
 31
0.0
  0
LINE
  5
195
330
1E
100
AcDbEntity
  8
0
100
AcDbLine
 10
63.707
 20
3.20714
 30
0.0
 11
63.7229
 21
3.039719999999999
 31
0.0
  0
LINE
  5
196
330
1E
100
AcDbEntity
  8
0
100
AcDbLine
 10
64.43519999999999
 20
3.597799999999999
 30
0.0
 11
65.5078
 21
3.988449999999999
 31
0.0
  0
LINE
  5
197
330
1E
100
AcDbEntity
  8
0
100
AcDbLine
 10
63.5409
 20
6.16793
 30
0.0
 11
64.5438
 21
6.42644
 31
0.0
  0
LINE
  5
198
330
1E
100
AcDbEntity
  8
0
100
AcDbLine
 10
63.34839999999999
 20
7.02963
 30
0.0
 11
64.2743
 21
7.632819999999999
 31
0.0
  0
LINE
  5
199
330
1E
100
AcDbEntity
  8
0
100
AcDbLine
 10
64.2743
 20
7.632819999999999
 30
0.0
 11
65.27719999999999
 21
7.891329999999999
 31
0.0
  0
LINE
  5
19A
330
1E
100
AcDbEntity
  8
0
100
AcDbLine
 10
63.0516
 20
2.5
 30
0.0
 11
65.12025788864559
 21
3.32746315545825
 31
0.0
  0
LINE
  5
19B
330
1E
100
AcDbEntity
  8
0
100
AcDbLine
 10
58.0516
 20
0.9999999999999969
 30
0.0
 11
63.0516
 21
2.5
 31
0.0
  0
LINE
  5
19C
330
1E
100
AcDbEntity
  8
0
100
AcDbLine
 10
52.5516
 20
0.199999999999997
 30
0.0
 11
58.0516
 21
0.9999999999999969
 31
0.0
  0
LINE
  5
19D
330
1E
100
AcDbEntity
  8
0
100
AcDbLine
 10
49.0516
 20
-0.0000000000000026
 30
0.0
 11
52.5516
 21
0.199999999999997
 31
0.0
  0
LINE
  5
19E
330
1E
100
AcDbEntity
  8
0
100
AcDbLine
 10
64.5106
 20
3.20714
 30
0.0
 11
65.58329999999999
 21
3.597799999999999
 31
0.0
  0
LINE
  5
19F
330
1E
100
AcDbEntity
  8
0
100
AcDbLine
 10
65.12025788864559
 20
3.32746315545825
 30
0.0
 11
65.2346
 21
3.039719999999999
 31
0.0
  0
LINE
  5
1A0
330
1E
100
AcDbEntity
  8
0
100
AcDbLine
 10
65.0849523785937
 20
3.41630985198229
 30
0.0
 11
65.2346
 21
3.039719999999999
 31
0.0
  0
LINE
  5
1A2
330
1E
100
AcDbEntity
  8
0
100
AcDbLine
 10
65.0849523785937
 20
3.41630985198229
 30
0.0
 11
65.2346
 21
3.039719999999999
 31
0.0
  0
LINE
  5
1A4
330
1E
100
AcDbEntity
  8
0
100
AcDbLine
 10
65.2346
 20
3.039719999999999
 30
0.0
 11
65.5117
 21
3.20714
 31
0.0
  0
LINE
  5
1A5
330
1E
100
AcDbEntity
  8
0
100
AcDbLine
 10
65.2346
 20
3.039719999999999
 30
0.0
 11
65.78579999999999
 21
3.20714
 31
0.0
  0
LINE
  5
1A6
330
1E
100
AcDbEntity
  8
0
100
AcDbLine
 10
65.58329999999999
 20
3.597799999999999
 30
0.0
 11
66.31149999999999
 21
3.988449999999999
 31
0.0
  0
LINE
  5
1A7
330
1E
100
AcDbEntity
  8
0
100
AcDbLine
 10
66.8108
 20
3.597799999999999
 30
0.0
 11
67.7184
 21
3.988449999999999
 31
0.0
  0
LINE
  5
1A8
330
1E
100
AcDbEntity
  8
0
100
AcDbLine
 10
65.78579999999999
 20
3.20714
 30
0.0
 11
66.8108
 21
3.597799999999999
 31
0.0
  0
LINE
  5
1A9
330
1E
100
AcDbEntity
  8
0
100
AcDbLine
 10
65.5117
 20
3.20714
 30
0.0
 11
66.41930000000001
 21
3.597799999999999
 31
0.0
  0
LINE
  5
1AA
330
1E
100
AcDbEntity
  8
0
100
AcDbLine
 10
65.5078
 20
3.988449999999999
 30
0.0
 11
66.29559999999999
 21
4.155869999999999
 31
0.0
  0
LINE
  5
1AB
330
1E
100
AcDbEntity
  8
0
100
AcDbLine
 10
66.29559999999999
 20
4.155869999999999
 30
0.0
 11
66.31149999999999
 21
3.988449999999999
 31
0.0
  0
LINE
  5
1AD
330
1E
100
AcDbEntity
  8
0
100
AcDbLine
 10
66.41930000000001
 20
3.597799999999999
 30
0.0
 11
67.4443
 21
3.988449999999999
 31
0.0
  0
LINE
  5
1AE
330
1E
100
AcDbEntity
  8
0
100
AcDbLine
 10
67.7184
 20
3.988449999999999
 30
0.0
 11
67.9954
 21
4.155869999999999
 31
0.0
  0
LINE
  5
1AF
330
1E
100
AcDbEntity
  8
0
100
AcDbLine
 10
67.4443
 20
3.988449999999999
 30
0.0
 11
67.9954
 21
4.155869999999999
 31
0.0
  0
LINE
  5
1B1
330
1E
100
AcDbEntity
  8
0
100
AcDbLine
 10
67.8586503953847
 20
4.5
 30
0.0
 11
67.9954
 21
4.155869999999999
 31
0.0
  0
LINE
  5
1B5
330
1E
100
AcDbEntity
  8
0
100
AcDbLine
 10
64.5438
 20
6.42644
 30
0.0
 11
65.4697
 21
7.02963
 31
0.0
  0
LINE
  5
1B6
330
1E
100
AcDbEntity
  8
0
100
AcDbLine
 10
65.27719999999999
 20
7.891329999999999
 30
0.0
 11
65.7592
 21
7.632819999999999
 31
0.0
  0
LINE
  5
1B7
330
1E
100
AcDbEntity
  8
0
100
AcDbLine
 10
65.4697
 20
7.02963
 30
0.0
 11
65.7592
 21
7.632819999999999
 31
0.0
  0
LINE
  5
1BB
330
1E
100
AcDbEntity
  8
0
100
AcDbLine
 10
67.9397
 20
6.42644
 30
0.0
 11
68.459
 21
7.02963
 31
0.0
  0
LINE
  5
1BC
330
1E
100
AcDbEntity
  8
0
100
AcDbLine
 10
67.9397
 20
6.42644
 30
0.0
 11
68.1457
 21
6.16793
 31
0.0
  0
LINE
  5
1BD
330
1E
100
AcDbEntity
  8
0
100
AcDbLine
 10
68.9897
 20
6.42644
 30
0.0
 11
69.959
 21
7.02963
 31
0.0
  0
LINE
  5
1BE
330
1E
100
AcDbEntity
  8
0
100
AcDbLine
 10
68.1457
 20
6.16793
 30
0.0
 11
68.9897
 21
6.42644
 31
0.0
  0
LINE
  5
1C0
330
1E
100
AcDbEntity
  8
0
100
AcDbLine
 10
68.459
 20
7.02963
 30
0.0
 11
69.42829999999999
 21
7.632819999999999
 31
0.0
  0
LINE
  5
1C1
330
1E
100
AcDbEntity
  8
0
100
AcDbLine
 10
71.66800000000001
 20
6.42644
 30
0.0
 11
72.6147
 21
7.02963
 31
0.0
  0
LINE
  5
1C2
330
1E
100
AcDbEntity
  8
0
100
AcDbLine
 10
71.04049999999999
 20
6.16793
 30
0.0
 11
71.12449999999999
 21
6.42644
 31
0.0
  0
LINE
  5
1C3
330
1E
100
AcDbEntity
  8
0
100
AcDbLine
 10
71.04049999999999
 20
6.16793
 30
0.0
 11
71.66800000000001
 21
6.42644
 31
0.0
  0
LINE
  5
1C7
330
1E
100
AcDbEntity
  8
0
100
AcDbLine
 10
71.79126059004009
 20
6.504975497313089
 30
0.0
 11
72.0278
 21
6.16793
 31
0.0
  0
LINE
  5
1C8
330
1E
100
AcDbEntity
  8
0
100
AcDbLine
 10
71.79126059004009
 20
6.504975497313089
 30
0.0
 11
72.0278
 21
6.16793
 31
0.0
  0
LINE
  5
1CA
330
1E
100
AcDbEntity
  8
0
100
AcDbLine
 10
71.12449999999999
 20
6.42644
 30
0.0
 11
71.8382
 21
7.02963
 31
0.0
  0
LINE
  5
1CB
330
1E
100
AcDbEntity
  8
0
100
AcDbLine
 10
72.0278
 20
6.16793
 30
0.0
 11
72.39619999999999
 21
6.42644
 31
0.0
  0
LINE
  5
1CD
330
1E
100
AcDbEntity
  8
0
100
AcDbLine
 10
72.39619999999999
 20
6.42644
 30
0.0
 11
73.2556
 21
7.02963
 31
0.0
  0
LINE
  5
1CE
330
1E
100
AcDbEntity
  8
0
100
AcDbLine
 10
73.2556
 20
7.02963
 30
0.0
 11
74.11509999999999
 21
7.632819999999999
 31
0.0
  0
LINE
  5
1CF
330
1E
100
AcDbEntity
  8
0
100
AcDbLine
 10
72.6147
 20
7.02963
 30
0.0
 11
73.3284
 21
7.632819999999999
 31
0.0
  0
LINE
  5
1D0
330
1E
100
AcDbEntity
  8
0
100
AcDbLine
 10
71.8382
 20
7.02963
 30
0.0
 11
72.7848
 21
7.632819999999999
 31
0.0
  0
LINE
  5
1D4
330
1E
100
AcDbEntity
  8
0
100
AcDbLine
 10
74.11509999999999
 20
7.632819999999999
 30
0.0
 11
74.4834
 21
7.891329999999999
 31
0.0
  0
LINE
  5
1D5
330
1E
100
AcDbEntity
  8
0
100
AcDbLine
 10
73.3284
 20
7.632819999999999
 30
0.0
 11
73.4124
 21
7.891329999999999
 31
0.0
  0
LINE
  5
1D9
330
1E
100
AcDbEntity
  8
0
100
AcDbLine
 10
72.7848
 20
7.632819999999999
 30
0.0
 11
73.4124
 21
7.891329999999999
 31
0.0
  0
LINE
  5
1DA
330
1E
100
AcDbEntity
  8
0
100
AcDbLine
 10
70.2723
 20
7.891329999999999
 30
0.0
 11
70.47830000000001
 21
7.632819999999999
 31
0.0
  0
LINE
  5
1DB
330
1E
100
AcDbEntity
  8
0
100
AcDbLine
 10
69.959
 20
7.02963
 30
0.0
 11
70.47830000000001
 21
7.632819999999999
 31
0.0
  0
LINE
  5
1DC
330
1E
100
AcDbEntity
  8
0
100
AcDbLine
 10
69.42829999999999
 20
7.632819999999999
 30
0.0
 11
70.2723
 21
7.891329999999999
 31
0.0
  0
LINE
  5
1E0
330
1E
100
AcDbEntity
  8
0
100
AcDbLine
 10
73.45159999999999
 20
21.0
 30
0.0
 11
80.25159999999999
 21
21.0
 31
0.0
  0
LINE
  5
1E1
330
1E
100
AcDbEntity
  8
0
100
AcDbLine
 10
77.88360724529851
 20
11.88980613261779
 30
0.0
 11
78.70350000000001
 21
11.8809
 31
0.0
  0
LINE
  5
1E2
330
1E
100
AcDbEntity
  8
0
100
AcDbLine
 10
81.67109999999999
 20
11.91459999999999
 30
0.0
 11
84.9084
 21
12.1168
 31
0.0
  0
LINE
  5
1E3
330
1E
100
AcDbEntity
  8
0
100
AcDbLine
 10
78.70350000000001
 20
11.8809
 30
0.0
 11
81.67109999999999
 21
11.91459999999999
 31
0.0
  0
LINE
  5
1E4
330
1E
100
AcDbEntity
  8
0
100
AcDbLine
 10
77.9407850355537
 20
11.88918503555369
 30
0.0
 11
78.70350000000001
 21
11.8809
 31
0.0
  0
LINE
  5
1E5
330
1E
100
AcDbEntity
  8
0
100
AcDbLine
 10
80.25159999999999
 20
21.0
 30
0.0
 11
84.45159999999999
 21
21.0
 31
0.0
  0
LINE
  5
1E6
330
1E
100
AcDbEntity
  8
0
100
AcDbLine
 10
84.45159999999999
 20
21.0
 30
0.0
 11
86.0416241112893
 21
21.0
 31
0.0
  0
LINE
  5
1E7
330
1E
100
AcDbEntity
  8
0
100
AcDbLine
 10
75.55159999999999
 20
9.5
 30
0.0
 11
77.9407850355537
 21
11.88918503555369
 31
0.0
  0
LINE
  5
1E8
330
1E
100
AcDbEntity
  8
0
100
AcDbLine
 10
74.16522852045949
 20
8.344690433716239
 30
0.0
 11
75.55159999999999
 21
9.5
 31
0.0
  0
LINE
  5
1E9
330
1E
100
AcDbEntity
  8
0
100
AcDbLine
 10
74.16522852045949
 20
8.344690433716239
 30
0.0
 11
74.4834
 21
7.891329999999999
 31
0.0
  0
LINE
  5
1EA
330
1E
100
AcDbEntity
  8
0
100
AcDbLine
 10
68.05159999999999
 20
4.5
 30
0.0
 11
71.09224547730329
 21
6.189247487390719
 31
0.0
  0
LINE
  5
1EB
330
1E
100
AcDbEntity
  8
0
100
AcDbLine
 10
68.05159999999999
 20
4.5
 30
0.0
 11
71.09224547730329
 21
6.189247487390719
 31
0.0
  0
LINE
  5
1EC
330
1E
100
AcDbEntity
  8
0
100
AcDbLine
 10
67.8851135928422
 20
4.43340543713688
 30
0.0
 11
68.05159999999999
 21
4.5
 31
0.0
  0
LINE
  5
1ED
330
1E
100
AcDbEntity
  8
0
100
AcDbLine
 10
64.4516
 20
21.0
 30
0.0
 11
73.45159999999999
 21
21.0
 31
0.0
  0
LINE
  5
1EE
330
1E
100
AcDbEntity
  8
0
100
AcDbLine
 10
54.0516
 20
21.0
 30
0.0
 11
64.4516
 21
21.0
 31
0.0
  0
LINE
  5
1EF
330
1E
100
AcDbEntity
  8
0
100
AcDbLine
 10
43.05159999999999
 20
21.0
 30
0.0
 11
54.0516
 21
21.0
 31
0.0
  0
LINE
  5
1F0
330
1E
100
AcDbEntity
  8
0
100
AcDbLine
 10
63.9516
 20
21.49999999999999
 30
0.0
 11
72.75159999999999
 21
21.49999999999999
 31
0.0
  0
LINE
  5
1F1
330
1E
100
AcDbEntity
  8
0
100
AcDbLine
 10
53.85159999999999
 20
21.49999999999999
 30
0.0
 11
63.9516
 21
21.49999999999999
 31
0.0
  0
LINE
  5
1F2
330
1E
100
AcDbEntity
  8
0
100
AcDbLine
 10
43.05159999999999
 20
21.49999999999999
 30
0.0
 11
53.85159999999999
 21
21.49999999999999
 31
0.0
  0
LINE
  5
1F3
330
1E
100
AcDbEntity
  8
0
100
AcDbLine
 10
72.75159999999999
 20
21.49999999999999
 30
0.0
 11
79.4516
 21
21.49999999999999
 31
0.0
  0
LINE
  5
1F4
330
1E
100
AcDbEntity
  8
0
100
AcDbLine
 10
64.4516
 20
22.0254
 30
0.0
 11
73.45159999999999
 21
22.0254
 31
0.0
  0
LINE
  5
1F5
330
1E
100
AcDbEntity
  8
0
100
AcDbLine
 10
54.0516
 20
22.0254
 30
0.0
 11
64.4516
 21
22.0254
 31
0.0
  0
LINE
  5
1F6
330
1E
100
AcDbEntity
  8
0
100
AcDbLine
 10
43.05159999999999
 20
22.0254
 30
0.0
 11
54.0516
 21
22.0254
 31
0.0
  0
LINE
  5
1F7
330
1E
100
AcDbEntity
  8
0
100
AcDbLine
 10
43.05159999999999
 20
74.0
 30
0.0
 11
49.3866
 21
74.0
 31
0.0
  0
LINE
  5
1F8
330
1E
100
AcDbEntity
  8
0
100
AcDbLine
 10
36.7166
 20
74.0
 30
0.0
 11
43.05159999999999
 21
74.0
 31
0.0
  0
LINE
  5
1F9
330
1E
100
AcDbEntity
  8
0
100
AcDbLine
 10
43.05159999999999
 20
80.3462
 30
0.0
 11
47.3407
 21
80.3462
 31
0.0
  0
LINE
  5
1FA
330
1E
100
AcDbEntity
  8
0
100
AcDbLine
 10
49.3866
 20
74.0
 30
0.0
 11
55.1125
 21
74.0
 31
0.0
  0
LINE
  5
1FB
330
1E
100
AcDbEntity
  8
0
100
AcDbLine
 10
55.1125
 20
74.0
 30
0.0
 11
60.1074
 21
74.0
 31
0.0
  0
LINE
  5
1FC
330
1E
100
AcDbEntity
  8
0
100
AcDbLine
 10
47.3407
 20
80.3462
 30
0.0
 11
51.27819999999999
 21
80.3462
 31
0.0
  0
LINE
  5
1FD
330
1E
100
AcDbEntity
  8
0
100
AcDbLine
 10
51.27819999999999
 20
80.3462
 30
0.0
 11
54.6532
 21
80.3462
 31
0.0
  0
LINE
  5
1FE
330
1E
100
AcDbEntity
  8
0
100
AcDbLine
 10
63.8841
 20
74.0
 30
0.0
 11
66.3206
 21
74.0
 31
0.0
  0
LINE
  5
1FF
330
1E
100
AcDbEntity
  8
0
100
AcDbLine
 10
60.1074
 20
74.0
 30
0.0
 11
63.8841
 21
74.0
 31
0.0
  0
LINE
  5
200
330
1E
100
AcDbEntity
  8
0
100
AcDbLine
 10
66.3206
 20
74.0
 30
0.0
 11
67.05159999999999
 21
74.0
 31
0.0
  0
LINE
  5
201
330
1E
100
AcDbEntity
  8
0
100
AcDbLine
 10
64.6151
 20
77.0
 30
0.0
 11
67.05159999999999
 21
74.0
 31
0.0
  0
LINE
  5
202
330
1E
100
AcDbEntity
  8
0
100
AcDbLine
 10
61.9349
 20
79.1
 30
0.0
 11
64.6151
 21
77.0
 31
0.0
  0
LINE
  5
203
330
1E
100
AcDbEntity
  8
0
100
AcDbLine
 10
59.5047
 20
80.3462
 30
0.0
 11
61.9349
 21
79.1
 31
0.0
  0
LINE
  5
204
330
1E
100
AcDbEntity
  8
0
100
AcDbLine
 10
59.5047
 20
80.3462
 30
0.0
 11
60.4891
 21
81.6923
 31
0.0
  0
LINE
  5
205
330
1E
100
AcDbEntity
  8
0
100
AcDbLine
 10
58.8719
 20
80.3462
 30
0.0
 11
59.5047
 21
80.3462
 31
0.0
  0
LINE
  5
206
330
1E
100
AcDbEntity
  8
0
100
AcDbLine
 10
57.1844
 20
80.3462
 30
0.0
 11
58.8719
 21
80.3462
 31
0.0
  0
LINE
  5
207
330
1E
100
AcDbEntity
  8
0
100
AcDbLine
 10
54.6532
 20
80.3462
 30
0.0
 11
57.1844
 21
80.3462
 31
0.0
  0
LINE
  5
208
330
1E
100
AcDbEntity
  8
0
100
AcDbLine
 10
67.05159999999999
 20
74.0
 30
0.0
 11
70.0516
 21
71.935
 31
0.0
  0
LINE
  5
209
330
1E
100
AcDbEntity
  8
0
100
AcDbLine
 10
70.0516
 20
71.935
 30
0.0
 11
74.05159999999999
 21
67.2067
 31
0.0
  0
LINE
  5
20A
330
1E
100
AcDbEntity
  8
0
100
AcDbLine
 10
74.05159999999999
 20
67.2067
 30
0.0
 11
77.5516
 21
60.9023
 31
0.0
  0
LINE
  5
20B
330
1E
100
AcDbEntity
  8
0
100
AcDbLine
 10
77.5516
 20
60.9023
 30
0.0
 11
80.55159999999998
 21
54.598
 31
0.0
  0
LINE
  5
20C
330
1E
100
AcDbEntity
  8
0
100
AcDbLine
 10
73.45159999999999
 20
22.0254
 30
0.0
 11
80.25159999999999
 21
22.0254
 31
0.0
  0
LINE
  5
20D
330
1E
100
AcDbEntity
  8
0
100
AcDbLine
 10
79.4516
 20
21.49999999999999
 30
0.0
 11
83.55159999999999
 21
21.49999999999999
 31
0.0
  0
LINE
  5
20E
330
1E
100
AcDbEntity
  8
0
100
AcDbLine
 10
80.55159999999998
 20
54.598
 30
0.0
 11
83.05159999999998
 21
46.7175
 31
0.0
  0
LINE
  5
20F
330
1E
100
AcDbEntity
  8
0
100
AcDbLine
 10
83.05159999999998
 20
46.7175
 30
0.0
 11
85.0516
 21
36.7356
 31
0.0
  0
LINE
  5
210
330
1E
100
AcDbEntity
  8
0
100
AcDbLine
 10
80.25159999999999
 20
22.0254
 30
0.0
 11
84.45159999999999
 21
22.0254
 31
0.0
  0
LINE
  5
211
330
1E
100
AcDbEntity
  8
0
100
AcDbLine
 10
83.55159999999999
 20
21.49999999999999
 30
0.0
 11
85.0516
 21
21.49999999999999
 31
0.0
  0
LINE
  5
212
330
1E
100
AcDbEntity
  8
0
100
AcDbLine
 10
85.31310000000001
 20
21.31619999999999
 30
0.0
 11
86.29099999999999
 21
21.51839999999999
 31
0.0
  0
LINE
  5
213
330
1E
100
AcDbEntity
  8
0
100
AcDbLine
 10
84.9084
 20
12.1168
 30
0.0
 11
87.16779999999999
 21
12.319
 31
0.0
  0
LINE
  5
214
330
1E
100
AcDbEntity
  8
0
100
AcDbLine
 10
99.71240000000001
 20
18.5193
 30
0.0
 11
99.94840000000001
 21
20.1368
 31
0.0
  0
LINE
  5
215
330
1E
100
AcDbEntity
  8
0
100
AcDbLine
 10
98.4984
 20
16.80069999999999
 30
0.0
 11
99.71240000000001
 21
18.5193
 31
0.0
  0
LINE
  5
216
330
1E
100
AcDbEntity
  8
0
100
AcDbLine
 10
96.4413
 20
15.35169999999999
 30
0.0
 11
98.4984
 21
16.80069999999999
 31
0.0
  0
LINE
  5
217
330
1E
100
AcDbEntity
  8
0
100
AcDbLine
 10
94.6541
 20
14.4082
 30
0.0
 11
96.4413
 21
15.35169999999999
 31
0.0
  0
LINE
  5
218
330
1E
100
AcDbEntity
  8
0
100
AcDbLine
 10
92.46210000000001
 20
13.5658
 30
0.0
 11
94.6541
 21
14.4082
 31
0.0
  0
LINE
  5
219
330
1E
100
AcDbEntity
  8
0
100
AcDbLine
 10
89.7306
 20
12.8244
 30
0.0
 11
92.46210000000001
 21
13.5658
 31
0.0
  0
LINE
  5
21A
330
1E
100
AcDbEntity
  8
0
100
AcDbLine
 10
87.16779999999999
 20
12.319
 30
0.0
 11
89.7306
 21
12.8244
 31
0.0
  0
LINE
  5
21B
330
1E
100
AcDbEntity
  8
0
100
AcDbLine
 10
85.3881598205889
 20
21.3317200897056
 30
0.0
 11
86.29099999999999
 21
21.51839999999999
 31
0.0
  0
LINE
  5
21C
330
1E
100
AcDbEntity
  8
0
100
AcDbLine
 10
86.05159999999999
 20
27.27899999999999
 30
0.0
 11
86.05159999999999
 21
22.0254
 31
0.0
  0
LINE
  5
21D
330
1E
100
AcDbEntity
  8
0
100
AcDbLine
 10
85.0516
 20
36.7356
 30
0.0
 11
85.55159999999998
 21
31.4819
 31
0.0
  0
LINE
  5
21E
330
1E
100
AcDbEntity
  8
0
100
AcDbLine
 10
85.55159999999998
 20
31.4819
 30
0.0
 11
86.05159999999999
 21
27.27899999999999
 31
0.0
  0
LINE
  5
21F
330
1E
100
AcDbEntity
  8
0
100
AcDbLine
 10
99.88100000000001
 20
21.55209999999999
 30
0.0
 11
99.94840000000001
 21
20.1368
 31
0.0
  0
LINE
  5
220
330
1E
100
AcDbEntity
  8
0
100
AcDbLine
 10
98.4984
 20
23.7087
 30
0.0
 11
99.88100000000001
 21
21.55209999999999
 31
0.0
  0
LINE
  5
221
330
1E
100
AcDbEntity
  8
0
100
AcDbLine
 10
95.868
 20
25.6295
 30
0.0
 11
98.4984
 21
23.7087
 31
0.0
  0
LINE
  5
222
330
1E
100
AcDbEntity
  8
0
100
AcDbLine
 10
93.23770000000001
 20
26.8089
 30
0.0
 11
95.868
 21
25.6295
 31
0.0
  0
LINE
  5
223
330
1E
100
AcDbEntity
  8
0
100
AcDbLine
 10
91.2818
 20
27.4828
 30
0.0
 11
93.23770000000001
 21
26.8089
 31
0.0
  0
LINE
  5
224
330
1E
100
AcDbEntity
  8
0
100
AcDbLine
 10
86.76309999999999
 20
22.0238
 30
0.0
 11
86.83049999999999
 21
27.5165
 31
0.0
  0
LINE
  5
225
330
1E
100
AcDbEntity
  8
0
100
AcDbLine
 10
86.29099999999999
 20
21.51839999999999
 30
0.0
 11
86.76309999999999
 21
22.0238
 31
0.0
  0
LINE
  5
226
330
1E
100
AcDbEntity
  8
0
100
AcDbLine
 10
89.5283
 20
27.92089999999999
 30
0.0
 11
91.2818
 21
27.4828
 31
0.0
  0
LINE
  5
227
330
1E
100
AcDbEntity
  8
0
100
AcDbLine
 10
87.9771
 20
28.29159999999999
 30
0.0
 11
89.5283
 21
27.92089999999999
 31
0.0
  0
LINE
  5
228
330
1E
100
AcDbEntity
  8
0
100
AcDbLine
 10
87.16779999999999
 20
28.0557
 30
0.0
 11
87.9771
 21
28.29159999999999
 31
0.0
  0
LINE
  5
229
330
1E
100
AcDbEntity
  8
0
100
AcDbLine
 10
86.83049999999999
 20
27.5165
 30
0.0
 11
87.16779999999999
 21
28.0557
 31
0.0
  0
LINE
  5
22A
330
1E
100
AcDbEntity
  8
0
100
AcDbLine
 10
86.05159999999999
 20
22.0254
 30
0.0
 11
86.05159999999999
 21
27.27899999999999
 31
0.0
  0
LINE
  5
22B
330
1E
100
AcDbEntity
  8
0
100
AcDbLine
 10
85.0516
 20
21.49999999999999
 30
0.0
 11
86.05159999999999
 21
22.0254
 31
0.0
  0
LINE
  5
22C
330
1E
100
AcDbEntity
  8
0
100
AcDbLine
 10
85.0516
 20
21.49999999999999
 30
0.0
 11
85.3881598205889
 21
21.3317200897056
 31
0.0
  0
LINE
  5
22D
330
1E
100
AcDbEntity
  8
0
100
AcDbLine
 10
84.45159999999999
 20
22.0254
 30
0.0
 11
86.05159999999999
 21
22.0254
 31
0.0
  0
LINE
  5
22E
330
1E
100
AcDbEntity
  8
0
100
AcDbLine
 10
38.7625
 20
80.3462
 30
0.0
 11
43.05159999999999
 21
80.3462
 31
0.0
  0
LINE
  5
22F
330
1E
100
AcDbEntity
  8
0
100
AcDbLine
 10
34.825
 20
80.3462
 30
0.0
 11
38.7625
 21
80.3462
 31
0.0
  0
LINE
  5
230
330
1E
100
AcDbEntity
  8
0
100
AcDbLine
 10
29.12969999999999
 20
100.5379999999999
 30
0.0
 11
29.6219
 21
100.5379999999999
 31
0.0
  0
LINE
  5
231
330
1E
100
AcDbEntity
  8
0
100
AcDbLine
 10
29.12969999999999
 20
96.5
 30
0.0
 11
30.6063
 21
96.5
 31
0.0
  0
LINE
  5
232
330
1E
100
AcDbEntity
  8
0
100
AcDbLine
 10
29.3407
 20
95.1538
 30
0.0
 11
31.8016
 21
95.1538
 31
0.0
  0
LINE
  5
233
330
1E
100
AcDbEntity
  8
0
100
AcDbLine
 10
29.3407
 20
93.8077
 30
0.0
 11
31.8016
 21
93.8077
 31
0.0
  0
LINE
  5
234
330
1E
100
AcDbEntity
  8
0
100
AcDbLine
 10
29.6219
 20
100.5379999999999
 30
0.0
 11
31.02819999999999
 21
100.5379999999999
 31
0.0
  0
LINE
  5
235
330
1E
100
AcDbEntity
  8
0
100
AcDbLine
 10
30.1141
 20
114.0
 30
0.0
 11
30.53599999999999
 21
114.0
 31
0.0
  0
LINE
  5
236
330
1E
100
AcDbEntity
  8
0
100
AcDbLine
 10
30.1141
 20
101.885
 30
0.0
 11
32.50469999999999
 21
101.885
 31
0.0
  0
LINE
  5
237
330
1E
100
AcDbEntity
  8
0
100
AcDbLine
 10
29.7625
 20
99.1923
 30
0.0
 11
32.1532
 21
99.1923
 31
0.0
  0
LINE
  5
238
330
1E
100
AcDbEntity
  8
0
100
AcDbLine
 10
29.7625
 20
97.8462
 30
0.0
 11
32.1532
 21
97.8462
 31
0.0
  0
LINE
  5
239
330
1E
100
AcDbEntity
  8
0
100
AcDbLine
 10
30.53599999999999
 20
114.0
 30
0.0
 11
31.9422
 21
114.0
 31
0.0
  0
LINE
  5
23A
330
1E
100
AcDbEntity
  8
0
100
AcDbLine
 10
30.6063
 20
96.5
 30
0.0
 11
32.85629999999999
 21
96.5
 31
0.0
  0
LINE
  5
23B
330
1E
100
AcDbEntity
  8
0
100
AcDbLine
 10
30.1141
 20
92.4615
 30
0.0
 11
32.50469999999999
 21
92.4615
 31
0.0
  0
LINE
  5
23C
330
1E
100
AcDbEntity
  8
0
100
AcDbLine
 10
29.7625
 20
88.42310000000001
 30
0.0
 11
32.1532
 21
88.42310000000001
 31
0.0
  0
LINE
  5
23D
330
1E
100
AcDbEntity
  8
0
100
AcDbLine
 10
29.3407
 20
84.3846
 30
0.0
 11
31.8016
 21
84.3846
 31
0.0
  0
LINE
  5
23E
330
1E
100
AcDbEntity
  8
0
100
AcDbLine
 10
30.7469
 20
83.0385
 30
0.0
 11
34.3329
 21
83.0385
 31
0.0
  0
LINE
  5
23F
330
1E
100
AcDbEntity
  8
0
100
AcDbLine
 10
43.05159999999999
 20
81.6923
 30
0.0
 11
47.62189999999999
 21
81.6923
 31
0.0
  0
LINE
  5
240
330
1E
100
AcDbEntity
  8
0
100
AcDbLine
 10
60.4891
 20
81.6923
 30
0.0
 11
60.4891
 21
83.0385
 31
0.0
  0
LINE
  5
241
330
1E
100
AcDbEntity
  8
0
100
AcDbLine
 10
59.8563
 20
81.6923
 30
0.0
 11
60.4891
 21
81.6923
 31
0.0
  0
LINE
  5
242
330
1E
100
AcDbEntity
  8
0
100
AcDbLine
 10
58.0985
 20
81.6923
 30
0.0
 11
59.8563
 21
81.6923
 31
0.0
  0
LINE
  5
243
330
1E
100
AcDbEntity
  8
0
100
AcDbLine
 10
55.3563
 20
81.6923
 30
0.0
 11
58.0985
 21
81.6923
 31
0.0
  0
LINE
  5
244
330
1E
100
AcDbEntity
  8
0
100
AcDbLine
 10
47.62189999999999
 20
81.6923
 30
0.0
 11
51.7703
 21
81.6923
 31
0.0
  0
LINE
  5
245
330
1E
100
AcDbEntity
  8
0
100
AcDbLine
 10
51.7703
 20
81.6923
 30
0.0
 11
55.3563
 21
81.6923
 31
0.0
  0
LINE
  5
246
330
1E
100
AcDbEntity
  8
0
100
AcDbLine
 10
38.48129999999999
 20
81.6923
 30
0.0
 11
43.05159999999999
 21
81.6923
 31
0.0
  0
LINE
  5
247
330
1E
100
AcDbEntity
  8
0
100
AcDbLine
 10
31.02819999999999
 20
100.5379999999999
 30
0.0
 11
33.2079
 21
100.5379999999999
 31
0.0
  0
LINE
  5
248
330
1E
100
AcDbEntity
  8
0
100
AcDbLine
 10
31.0985
 20
87.07689999999999
 30
0.0
 11
34.6141
 21
87.07689999999999
 31
0.0
  0
LINE
  5
249
330
1E
100
AcDbEntity
  8
0
100
AcDbLine
 10
31.45
 20
91.11539999999999
 30
0.0
 11
34.825
 21
91.11539999999999
 31
0.0
  0
LINE
  5
24A
330
1E
100
AcDbEntity
  8
0
100
AcDbLine
 10
31.8016
 20
95.1538
 30
0.0
 11
35.10629999999999
 21
95.1538
 31
0.0
  0
LINE
  5
24B
330
1E
100
AcDbEntity
  8
0
100
AcDbLine
 10
31.9422
 20
114.0
 30
0.0
 11
33.911
 21
114.0
 31
0.0
  0
LINE
  5
24C
330
1E
100
AcDbEntity
  8
0
100
AcDbLine
 10
32.1532
 20
99.1923
 30
0.0
 11
35.3875
 21
99.1923
 31
0.0
  0
LINE
  5
24D
330
1E
100
AcDbEntity
  8
0
100
AcDbLine
 10
33.911
 20
114.0
 30
0.0
 11
36.5829
 21
114.0
 31
0.0
  0
LINE
  5
24E
330
1E
100
AcDbEntity
  8
0
100
AcDbLine
 10
32.50469999999999
 20
101.885
 30
0.0
 11
35.5985
 21
101.885
 31
0.0
  0
LINE
  5
24F
330
1E
100
AcDbEntity
  8
0
100
AcDbLine
 10
33.2079
 20
100.5379999999999
 30
0.0
 11
36.0907
 21
100.5379999999999
 31
0.0
  0
LINE
  5
250
330
1E
100
AcDbEntity
  8
0
100
AcDbLine
 10
32.1532
 20
97.8462
 30
0.0
 11
35.3875
 21
97.8462
 31
0.0
  0
LINE
  5
251
330
1E
100
AcDbEntity
  8
0
100
AcDbLine
 10
32.85629999999999
 20
96.5
 30
0.0
 11
35.8094
 21
96.5
 31
0.0
  0
LINE
  5
252
330
1E
100
AcDbEntity
  8
0
100
AcDbLine
 10
31.8016
 20
93.8077
 30
0.0
 11
35.10629999999999
 21
93.8077
 31
0.0
  0
LINE
  5
253
330
1E
100
AcDbEntity
  8
0
100
AcDbLine
 10
32.50469999999999
 20
92.4615
 30
0.0
 11
35.5985
 21
92.4615
 31
0.0
  0
LINE
  5
254
330
1E
100
AcDbEntity
  8
0
100
AcDbLine
 10
31.45
 20
89.76919999999999
 30
0.0
 11
34.825
 21
89.76919999999999
 31
0.0
  0
LINE
  5
255
330
1E
100
AcDbEntity
  8
0
100
AcDbLine
 10
32.1532
 20
88.42310000000001
 30
0.0
 11
35.3875
 21
88.42310000000001
 31
0.0
  0
LINE
  5
256
330
1E
100
AcDbEntity
  8
0
100
AcDbLine
 10
31.0985
 20
85.7308
 30
0.0
 11
34.6141
 21
85.7308
 31
0.0
  0
LINE
  5
257
330
1E
100
AcDbEntity
  8
0
100
AcDbLine
 10
31.8016
 20
84.3846
 30
0.0
 11
35.10629999999999
 21
84.3846
 31
0.0
  0
LINE
  5
258
330
1E
100
AcDbEntity
  8
0
100
AcDbLine
 10
43.05159999999999
 20
83.0385
 30
0.0
 11
47.62189999999999
 21
83.0385
 31
0.0
  0
LINE
  5
259
330
1E
100
AcDbEntity
  8
0
100
AcDbLine
 10
47.62189999999999
 20
83.0385
 30
0.0
 11
51.7703
 21
83.0385
 31
0.0
  0
LINE
  5
25A
330
1E
100
AcDbEntity
  8
0
100
AcDbLine
 10
59.8563
 20
83.0385
 30
0.0
 11
60.4891
 21
83.0385
 31
0.0
  0
LINE
  5
25B
330
1E
100
AcDbEntity
  8
0
100
AcDbLine
 10
60.4891
 20
83.0385
 30
0.0
 11
60.4891
 21
81.6923
 31
0.0
  0
LINE
  5
25C
330
1E
100
AcDbEntity
  8
0
100
AcDbLine
 10
58.0985
 20
83.0385
 30
0.0
 11
59.8563
 21
83.0385
 31
0.0
  0
LINE
  5
25D
330
1E
100
AcDbEntity
  8
0
100
AcDbLine
 10
55.3563
 20
83.0385
 30
0.0
 11
58.0985
 21
83.0385
 31
0.0
  0
LINE
  5
25E
330
1E
100
AcDbEntity
  8
0
100
AcDbLine
 10
51.7703
 20
83.0385
 30
0.0
 11
55.3563
 21
83.0385
 31
0.0
  0
LINE
  5
25F
330
1E
100
AcDbEntity
  8
0
100
AcDbLine
 10
35.10629999999999
 20
95.1538
 30
0.0
 11
38.9032
 21
95.1538
 31
0.0
  0
LINE
  5
260
330
1E
100
AcDbEntity
  8
0
100
AcDbLine
 10
35.10629999999999
 20
93.8077
 30
0.0
 11
38.9032
 21
93.8077
 31
0.0
  0
LINE
  5
261
330
1E
100
AcDbEntity
  8
0
100
AcDbLine
 10
34.825
 20
91.11539999999999
 30
0.0
 11
38.7625
 21
91.11539999999999
 31
0.0
  0
LINE
  5
262
330
1E
100
AcDbEntity
  8
0
100
AcDbLine
 10
34.825
 20
89.76919999999999
 30
0.0
 11
38.7625
 21
89.76919999999999
 31
0.0
  0
LINE
  5
263
330
1E
100
AcDbEntity
  8
0
100
AcDbLine
 10
34.6141
 20
87.07689999999999
 30
0.0
 11
38.6922
 21
87.07689999999999
 31
0.0
  0
LINE
  5
264
330
1E
100
AcDbEntity
  8
0
100
AcDbLine
 10
34.6141
 20
85.7308
 30
0.0
 11
38.6922
 21
85.7308
 31
0.0
  0
LINE
  5
265
330
1E
100
AcDbEntity
  8
0
100
AcDbLine
 10
43.05159999999999
 20
84.3846
 30
0.0
 11
47.2
 21
84.3846
 31
0.0
  0
LINE
  5
266
330
1E
100
AcDbEntity
  8
0
100
AcDbLine
 10
47.2
 20
84.3846
 30
0.0
 11
50.99689999999999
 21
84.3846
 31
0.0
  0
LINE
  5
267
330
1E
100
AcDbEntity
  8
0
100
AcDbLine
 10
58.45
 20
84.3846
 30
0.0
 11
58.9422
 21
84.3846
 31
0.0
  0
LINE
  5
268
330
1E
100
AcDbEntity
  8
0
100
AcDbLine
 10
58.9422
 20
84.3846
 30
0.0
 11
60.4891
 21
83.0385
 31
0.0
  0
LINE
  5
269
330
1E
100
AcDbEntity
  8
0
100
AcDbLine
 10
58.9422
 20
84.3846
 30
0.0
 11
59.9266
 21
85.7308
 31
0.0
  0
LINE
  5
26A
330
1E
100
AcDbEntity
  8
0
100
AcDbLine
 10
56.7625
 20
84.3846
 30
0.0
 11
58.45
 21
84.3846
 31
0.0
  0
LINE
  5
26B
330
1E
100
AcDbEntity
  8
0
100
AcDbLine
 10
54.3016
 20
84.3846
 30
0.0
 11
56.7625
 21
84.3846
 31
0.0
  0
LINE
  5
26C
330
1E
100
AcDbEntity
  8
0
100
AcDbLine
 10
50.99689999999999
 20
84.3846
 30
0.0
 11
54.3016
 21
84.3846
 31
0.0
  0
LINE
  5
26D
330
1E
100
AcDbEntity
  8
0
100
AcDbLine
 10
35.3875
 20
99.1923
 30
0.0
 11
39.04379999999999
 21
99.1923
 31
0.0
  0
LINE
  5
26E
330
1E
100
AcDbEntity
  8
0
100
AcDbLine
 10
35.3875
 20
97.8462
 30
0.0
 11
39.04379999999999
 21
97.8462
 31
0.0
  0
LINE
  5
26F
330
1E
100
AcDbEntity
  8
0
100
AcDbLine
 10
35.5985
 20
101.885
 30
0.0
 11
39.1844
 21
101.885
 31
0.0
  0
LINE
  5
270
330
1E
100
AcDbEntity
  8
0
100
AcDbLine
 10
36.5829
 20
114.0
 30
0.0
 11
39.6766
 21
114.0
 31
0.0
  0
LINE
  5
271
330
1E
100
AcDbEntity
  8
0
100
AcDbLine
 10
36.0907
 20
100.5379999999999
 30
0.0
 11
39.46569999999999
 21
100.5379999999999
 31
0.0
  0
LINE
  5
272
330
1E
100
AcDbEntity
  8
0
100
AcDbLine
 10
35.8094
 20
96.5
 30
0.0
 11
39.2547
 21
96.5
 31
0.0
  0
LINE
  5
273
330
1E
100
AcDbEntity
  8
0
100
AcDbLine
 10
35.5985
 20
92.4615
 30
0.0
 11
39.1844
 21
92.4615
 31
0.0
  0
LINE
  5
274
330
1E
100
AcDbEntity
  8
0
100
AcDbLine
 10
35.3875
 20
88.42310000000001
 30
0.0
 11
39.04379999999999
 21
88.42310000000001
 31
0.0
  0
LINE
  5
275
330
1E
100
AcDbEntity
  8
0
100
AcDbLine
 10
38.6922
 20
87.07689999999999
 30
0.0
 11
43.05159999999999
 21
87.07689999999999
 31
0.0
  0
LINE
  5
276
330
1E
100
AcDbEntity
  8
0
100
AcDbLine
 10
43.05159999999999
 20
85.7308
 30
0.0
 11
47.411
 21
85.7308
 31
0.0
  0
LINE
  5
277
330
1E
100
AcDbEntity
  8
0
100
AcDbLine
 10
43.05159999999999
 20
87.07689999999999
 30
0.0
 11
47.411
 21
87.07689999999999
 31
0.0
  0
LINE
  5
278
330
1E
100
AcDbEntity
  8
0
100
AcDbLine
 10
43.05159999999999
 20
88.42310000000001
 30
0.0
 11
47.0594
 21
88.42310000000001
 31
0.0
  0
LINE
  5
279
330
1E
100
AcDbEntity
  8
0
100
AcDbLine
 10
47.0594
 20
88.42310000000001
 30
0.0
 11
50.7157
 21
88.42310000000001
 31
0.0
  0
LINE
  5
27A
330
1E
100
AcDbEntity
  8
0
100
AcDbLine
 10
50.7157
 20
88.42310000000001
 30
0.0
 11
53.95
 21
88.42310000000001
 31
0.0
  0
LINE
  5
27B
330
1E
100
AcDbEntity
  8
0
100
AcDbLine
 10
47.411
 20
87.07689999999999
 30
0.0
 11
51.4891
 21
87.07689999999999
 31
0.0
  0
LINE
  5
27C
330
1E
100
AcDbEntity
  8
0
100
AcDbLine
 10
51.4891
 20
87.07689999999999
 30
0.0
 11
55.00469999999999
 21
87.07689999999999
 31
0.0
  0
LINE
  5
27D
330
1E
100
AcDbEntity
  8
0
100
AcDbLine
 10
47.411
 20
85.7308
 30
0.0
 11
51.4891
 21
85.7308
 31
0.0
  0
LINE
  5
27E
330
1E
100
AcDbEntity
  8
0
100
AcDbLine
 10
59.9266
 20
85.7308
 30
0.0
 11
59.9266
 21
87.07689999999999
 31
0.0
  0
LINE
  5
27F
330
1E
100
AcDbEntity
  8
0
100
AcDbLine
 10
59.3641
 20
85.7308
 30
0.0
 11
59.9266
 21
85.7308
 31
0.0
  0
LINE
  5
280
330
1E
100
AcDbEntity
  8
0
100
AcDbLine
 10
57.6766
 20
85.7308
 30
0.0
 11
59.3641
 21
85.7308
 31
0.0
  0
LINE
  5
281
330
1E
100
AcDbEntity
  8
0
100
AcDbLine
 10
53.95
 20
88.42310000000001
 30
0.0
 11
56.3407
 21
88.42310000000001
 31
0.0
  0
LINE
  5
282
330
1E
100
AcDbEntity
  8
0
100
AcDbLine
 10
59.3641
 20
87.07689999999999
 30
0.0
 11
59.9266
 21
87.07689999999999
 31
0.0
  0
LINE
  5
283
330
1E
100
AcDbEntity
  8
0
100
AcDbLine
 10
59.9266
 20
87.07689999999999
 30
0.0
 11
59.9266
 21
85.7308
 31
0.0
  0
LINE
  5
284
330
1E
100
AcDbEntity
  8
0
100
AcDbLine
 10
57.8875
 20
88.42310000000001
 30
0.0
 11
58.3797
 21
88.42310000000001
 31
0.0
  0
LINE
  5
285
330
1E
100
AcDbEntity
  8
0
100
AcDbLine
 10
58.3797
 20
88.42310000000001
 30
0.0
 11
59.9266
 21
87.07689999999999
 31
0.0
  0
LINE
  5
286
330
1E
100
AcDbEntity
  8
0
100
AcDbLine
 10
58.3797
 20
88.42310000000001
 30
0.0
 11
59.5047
 21
89.76919999999999
 31
0.0
  0
LINE
  5
287
330
1E
100
AcDbEntity
  8
0
100
AcDbLine
 10
56.3407
 20
88.42310000000001
 30
0.0
 11
57.8875
 21
88.42310000000001
 31
0.0
  0
LINE
  5
288
330
1E
100
AcDbEntity
  8
0
100
AcDbLine
 10
57.6766
 20
87.07689999999999
 30
0.0
 11
59.3641
 21
87.07689999999999
 31
0.0
  0
LINE
  5
289
330
1E
100
AcDbEntity
  8
0
100
AcDbLine
 10
55.00469999999999
 20
87.07689999999999
 30
0.0
 11
57.6766
 21
87.07689999999999
 31
0.0
  0
LINE
  5
28A
330
1E
100
AcDbEntity
  8
0
100
AcDbLine
 10
55.00469999999999
 20
85.7308
 30
0.0
 11
57.6766
 21
85.7308
 31
0.0
  0
LINE
  5
28B
330
1E
100
AcDbEntity
  8
0
100
AcDbLine
 10
51.4891
 20
85.7308
 30
0.0
 11
55.00469999999999
 21
85.7308
 31
0.0
  0
LINE
  5
28C
330
1E
100
AcDbEntity
  8
0
100
AcDbLine
 10
38.7625
 20
91.11539999999999
 30
0.0
 11
43.05159999999999
 21
91.11539999999999
 31
0.0
  0
LINE
  5
28D
330
1E
100
AcDbEntity
  8
0
100
AcDbLine
 10
43.05159999999999
 20
89.76919999999999
 30
0.0
 11
47.3407
 21
89.76919999999999
 31
0.0
  0
LINE
  5
28E
330
1E
100
AcDbEntity
  8
0
100
AcDbLine
 10
43.05159999999999
 20
91.11539999999999
 30
0.0
 11
47.3407
 21
91.11539999999999
 31
0.0
  0
LINE
  5
28F
330
1E
100
AcDbEntity
  8
0
100
AcDbLine
 10
43.05159999999999
 20
92.4615
 30
0.0
 11
46.9188
 21
92.4615
 31
0.0
  0
LINE
  5
290
330
1E
100
AcDbEntity
  8
0
100
AcDbLine
 10
46.9188
 20
92.4615
 30
0.0
 11
50.5047
 21
92.4615
 31
0.0
  0
LINE
  5
291
330
1E
100
AcDbEntity
  8
0
100
AcDbLine
 10
50.5047
 20
92.4615
 30
0.0
 11
53.5985
 21
92.4615
 31
0.0
  0
LINE
  5
292
330
1E
100
AcDbEntity
  8
0
100
AcDbLine
 10
47.3407
 20
91.11539999999999
 30
0.0
 11
51.27819999999999
 21
91.11539999999999
 31
0.0
  0
LINE
  5
293
330
1E
100
AcDbEntity
  8
0
100
AcDbLine
 10
51.27819999999999
 20
91.11539999999999
 30
0.0
 11
54.6532
 21
91.11539999999999
 31
0.0
  0
LINE
  5
294
330
1E
100
AcDbEntity
  8
0
100
AcDbLine
 10
47.3407
 20
89.76919999999999
 30
0.0
 11
51.27819999999999
 21
89.76919999999999
 31
0.0
  0
LINE
  5
295
330
1E
100
AcDbEntity
  8
0
100
AcDbLine
 10
59.5047
 20
89.76919999999999
 30
0.0
 11
59.5047
 21
91.11539999999999
 31
0.0
  0
LINE
  5
296
330
1E
100
AcDbEntity
  8
0
100
AcDbLine
 10
58.8719
 20
89.76919999999999
 30
0.0
 11
59.5047
 21
89.76919999999999
 31
0.0
  0
LINE
  5
297
330
1E
100
AcDbEntity
  8
0
100
AcDbLine
 10
57.1844
 20
89.76919999999999
 30
0.0
 11
58.8719
 21
89.76919999999999
 31
0.0
  0
LINE
  5
298
330
1E
100
AcDbEntity
  8
0
100
AcDbLine
 10
53.5985
 20
92.4615
 30
0.0
 11
55.9891
 21
92.4615
 31
0.0
  0
LINE
  5
299
330
1E
100
AcDbEntity
  8
0
100
AcDbLine
 10
58.8719
 20
91.11539999999999
 30
0.0
 11
59.5047
 21
91.11539999999999
 31
0.0
  0
LINE
  5
29A
330
1E
100
AcDbEntity
  8
0
100
AcDbLine
 10
59.5047
 20
91.11539999999999
 30
0.0
 11
59.5047
 21
89.76919999999999
 31
0.0
  0
LINE
  5
29B
330
1E
100
AcDbEntity
  8
0
100
AcDbLine
 10
57.4657
 20
92.4615
 30
0.0
 11
57.9579
 21
92.4615
 31
0.0
  0
LINE
  5
29C
330
1E
100
AcDbEntity
  8
0
100
AcDbLine
 10
57.9579
 20
92.4615
 30
0.0
 11
59.5047
 21
91.11539999999999
 31
0.0
  0
LINE
  5
29D
330
1E
100
AcDbEntity
  8
0
100
AcDbLine
 10
57.9579
 20
92.4615
 30
0.0
 11
58.9422
 21
93.8077
 31
0.0
  0
LINE
  5
29E
330
1E
100
AcDbEntity
  8
0
100
AcDbLine
 10
55.9891
 20
92.4615
 30
0.0
 11
57.4657
 21
92.4615
 31
0.0
  0
LINE
  5
29F
330
1E
100
AcDbEntity
  8
0
100
AcDbLine
 10
57.1844
 20
91.11539999999999
 30
0.0
 11
58.8719
 21
91.11539999999999
 31
0.0
  0
LINE
  5
2A0
330
1E
100
AcDbEntity
  8
0
100
AcDbLine
 10
54.6532
 20
91.11539999999999
 30
0.0
 11
57.1844
 21
91.11539999999999
 31
0.0
  0
LINE
  5
2A1
330
1E
100
AcDbEntity
  8
0
100
AcDbLine
 10
54.6532
 20
89.76919999999999
 30
0.0
 11
57.1844
 21
89.76919999999999
 31
0.0
  0
LINE
  5
2A2
330
1E
100
AcDbEntity
  8
0
100
AcDbLine
 10
51.27819999999999
 20
89.76919999999999
 30
0.0
 11
54.6532
 21
89.76919999999999
 31
0.0
  0
LINE
  5
2A3
330
1E
100
AcDbEntity
  8
0
100
AcDbLine
 10
38.9032
 20
95.1538
 30
0.0
 11
43.05159999999999
 21
95.1538
 31
0.0
  0
LINE
  5
2A4
330
1E
100
AcDbEntity
  8
0
100
AcDbLine
 10
43.05159999999999
 20
93.8077
 30
0.0
 11
47.2
 21
93.8077
 31
0.0
  0
LINE
  5
2A5
330
1E
100
AcDbEntity
  8
0
100
AcDbLine
 10
43.05159999999999
 20
95.1538
 30
0.0
 11
47.2
 21
95.1538
 31
0.0
  0
LINE
  5
2A6
330
1E
100
AcDbEntity
  8
0
100
AcDbLine
 10
43.05159999999999
 20
96.5
 30
0.0
 11
46.84849999999999
 21
96.5
 31
0.0
  0
LINE
  5
2A7
330
1E
100
AcDbEntity
  8
0
100
AcDbLine
 10
46.84849999999999
 20
96.5
 30
0.0
 11
50.29379999999999
 21
96.5
 31
0.0
  0
LINE
  5
2A8
330
1E
100
AcDbEntity
  8
0
100
AcDbLine
 10
50.29379999999999
 20
96.5
 30
0.0
 11
53.2469
 21
96.5
 31
0.0
  0
LINE
  5
2A9
330
1E
100
AcDbEntity
  8
0
100
AcDbLine
 10
47.2
 20
95.1538
 30
0.0
 11
50.99689999999999
 21
95.1538
 31
0.0
  0
LINE
  5
2AA
330
1E
100
AcDbEntity
  8
0
100
AcDbLine
 10
50.99689999999999
 20
95.1538
 30
0.0
 11
54.3016
 21
95.1538
 31
0.0
  0
LINE
  5
2AB
330
1E
100
AcDbEntity
  8
0
100
AcDbLine
 10
47.2
 20
93.8077
 30
0.0
 11
50.99689999999999
 21
93.8077
 31
0.0
  0
LINE
  5
2AC
330
1E
100
AcDbEntity
  8
0
100
AcDbLine
 10
58.9422
 20
93.8077
 30
0.0
 11
58.9422
 21
95.1538
 31
0.0
  0
LINE
  5
2AD
330
1E
100
AcDbEntity
  8
0
100
AcDbLine
 10
58.45
 20
93.8077
 30
0.0
 11
58.9422
 21
93.8077
 31
0.0
  0
LINE
  5
2AE
330
1E
100
AcDbEntity
  8
0
100
AcDbLine
 10
56.7625
 20
93.8077
 30
0.0
 11
58.45
 21
93.8077
 31
0.0
  0
LINE
  5
2AF
330
1E
100
AcDbEntity
  8
0
100
AcDbLine
 10
53.2469
 20
96.5
 30
0.0
 11
55.4969
 21
96.5
 31
0.0
  0
LINE
  5
2B0
330
1E
100
AcDbEntity
  8
0
100
AcDbLine
 10
58.45
 20
95.1538
 30
0.0
 11
58.9422
 21
95.1538
 31
0.0
  0
LINE
  5
2B1
330
1E
100
AcDbEntity
  8
0
100
AcDbLine
 10
58.9422
 20
95.1538
 30
0.0
 11
58.9422
 21
93.8077
 31
0.0
  0
LINE
  5
2B2
330
1E
100
AcDbEntity
  8
0
100
AcDbLine
 10
56.9735
 20
96.5
 30
0.0
 11
57.3954
 21
96.5
 31
0.0
  0
LINE
  5
2B3
330
1E
100
AcDbEntity
  8
0
100
AcDbLine
 10
57.3954
 20
96.5
 30
0.0
 11
58.9422
 21
95.1538
 31
0.0
  0
LINE
  5
2B4
330
1E
100
AcDbEntity
  8
0
100
AcDbLine
 10
57.3954
 20
96.5
 30
0.0
 11
58.3797
 21
97.8462
 31
0.0
  0
LINE
  5
2B5
330
1E
100
AcDbEntity
  8
0
100
AcDbLine
 10
55.4969
 20
96.5
 30
0.0
 11
56.9735
 21
96.5
 31
0.0
  0
LINE
  5
2B6
330
1E
100
AcDbEntity
  8
0
100
AcDbLine
 10
56.7625
 20
95.1538
 30
0.0
 11
58.45
 21
95.1538
 31
0.0
  0
LINE
  5
2B7
330
1E
100
AcDbEntity
  8
0
100
AcDbLine
 10
54.3016
 20
95.1538
 30
0.0
 11
56.7625
 21
95.1538
 31
0.0
  0
LINE
  5
2B8
330
1E
100
AcDbEntity
  8
0
100
AcDbLine
 10
54.3016
 20
93.8077
 30
0.0
 11
56.7625
 21
93.8077
 31
0.0
  0
LINE
  5
2B9
330
1E
100
AcDbEntity
  8
0
100
AcDbLine
 10
50.99689999999999
 20
93.8077
 30
0.0
 11
54.3016
 21
93.8077
 31
0.0
  0
LINE
  5
2BA
330
1E
100
AcDbEntity
  8
0
100
AcDbLine
 10
39.04379999999999
 20
99.1923
 30
0.0
 11
43.05159999999999
 21
99.1923
 31
0.0
  0
LINE
  5
2BB
330
1E
100
AcDbEntity
  8
0
100
AcDbLine
 10
43.05159999999999
 20
97.8462
 30
0.0
 11
47.0594
 21
97.8462
 31
0.0
  0
LINE
  5
2BC
330
1E
100
AcDbEntity
  8
0
100
AcDbLine
 10
43.05159999999999
 20
99.1923
 30
0.0
 11
47.0594
 21
99.1923
 31
0.0
  0
LINE
  5
2BD
330
1E
100
AcDbEntity
  8
0
100
AcDbLine
 10
43.05159999999999
 20
100.5379999999999
 30
0.0
 11
46.6375
 21
100.5379999999999
 31
0.0
  0
LINE
  5
2BE
330
1E
100
AcDbEntity
  8
0
100
AcDbLine
 10
46.6375
 20
100.5379999999999
 30
0.0
 11
50.0125
 21
100.5379999999999
 31
0.0
  0
LINE
  5
2BF
330
1E
100
AcDbEntity
  8
0
100
AcDbLine
 10
50.0125
 20
100.5379999999999
 30
0.0
 11
52.8953
 21
100.5379999999999
 31
0.0
  0
LINE
  5
2C0
330
1E
100
AcDbEntity
  8
0
100
AcDbLine
 10
47.0594
 20
99.1923
 30
0.0
 11
50.7157
 21
99.1923
 31
0.0
  0
LINE
  5
2C1
330
1E
100
AcDbEntity
  8
0
100
AcDbLine
 10
50.7157
 20
99.1923
 30
0.0
 11
53.95
 21
99.1923
 31
0.0
  0
LINE
  5
2C2
330
1E
100
AcDbEntity
  8
0
100
AcDbLine
 10
47.0594
 20
97.8462
 30
0.0
 11
50.7157
 21
97.8462
 31
0.0
  0
LINE
  5
2C3
330
1E
100
AcDbEntity
  8
0
100
AcDbLine
 10
58.3797
 20
97.8462
 30
0.0
 11
58.3797
 21
99.1923
 31
0.0
  0
LINE
  5
2C4
330
1E
100
AcDbEntity
  8
0
100
AcDbLine
 10
57.8875
 20
97.8462
 30
0.0
 11
58.3797
 21
97.8462
 31
0.0
  0
LINE
  5
2C5
330
1E
100
AcDbEntity
  8
0
100
AcDbLine
 10
56.3407
 20
97.8462
 30
0.0
 11
57.8875
 21
97.8462
 31
0.0
  0
LINE
  5
2C6
330
1E
100
AcDbEntity
  8
0
100
AcDbLine
 10
52.8953
 20
100.5379999999999
 30
0.0
 11
55.075
 21
100.5379999999999
 31
0.0
  0
LINE
  5
2C7
330
1E
100
AcDbEntity
  8
0
100
AcDbLine
 10
57.8875
 20
99.1923
 30
0.0
 11
58.3797
 21
99.1923
 31
0.0
  0
LINE
  5
2C8
330
1E
100
AcDbEntity
  8
0
100
AcDbLine
 10
58.3797
 20
99.1923
 30
0.0
 11
58.3797
 21
97.8462
 31
0.0
  0
LINE
  5
2C9
330
1E
100
AcDbEntity
  8
0
100
AcDbLine
 10
56.4813
 20
100.5379999999999
 30
0.0
 11
56.9735
 21
100.5379999999999
 31
0.0
  0
LINE
  5
2CA
330
1E
100
AcDbEntity
  8
0
100
AcDbLine
 10
56.9735
 20
100.5379999999999
 30
0.0
 11
58.3797
 21
99.1923
 31
0.0
  0
LINE
  5
2CB
330
1E
100
AcDbEntity
  8
0
100
AcDbLine
 10
56.9735
 20
100.5379999999999
 30
0.0
 11
57.9579
 21
101.885
 31
0.0
  0
LINE
  5
2CC
330
1E
100
AcDbEntity
  8
0
100
AcDbLine
 10
55.075
 20
100.5379999999999
 30
0.0
 11
56.4813
 21
100.5379999999999
 31
0.0
  0
LINE
  5
2CD
330
1E
100
AcDbEntity
  8
0
100
AcDbLine
 10
56.3407
 20
99.1923
 30
0.0
 11
57.8875
 21
99.1923
 31
0.0
  0
LINE
  5
2CE
330
1E
100
AcDbEntity
  8
0
100
AcDbLine
 10
53.95
 20
99.1923
 30
0.0
 11
56.3407
 21
99.1923
 31
0.0
  0
LINE
  5
2CF
330
1E
100
AcDbEntity
  8
0
100
AcDbLine
 10
53.95
 20
97.8462
 30
0.0
 11
56.3407
 21
97.8462
 31
0.0
  0
LINE
  5
2D0
330
1E
100
AcDbEntity
  8
0
100
AcDbLine
 10
50.7157
 20
97.8462
 30
0.0
 11
53.95
 21
97.8462
 31
0.0
  0
LINE
  5
2D1
330
1E
100
AcDbEntity
  8
0
100
AcDbLine
 10
43.05159999999999
 20
101.885
 30
0.0
 11
46.9188
 21
101.885
 31
0.0
  0
LINE
  5
2D2
330
1E
100
AcDbEntity
  8
0
100
AcDbLine
 10
43.05159999999999
 20
114.0
 30
0.0
 11
46.4266
 21
114.0
 31
0.0
  0
LINE
  5
2D3
330
1E
100
AcDbEntity
  8
0
100
AcDbLine
 10
46.4266
 20
114.0
 30
0.0
 11
49.5203
 21
114.0
 31
0.0
  0
LINE
  5
2D4
330
1E
100
AcDbEntity
  8
0
100
AcDbLine
 10
49.5203
 20
114.0
 30
0.0
 11
52.19219999999999
 21
114.0
 31
0.0
  0
LINE
  5
2D5
330
1E
100
AcDbEntity
  8
0
100
AcDbLine
 10
46.9188
 20
101.885
 30
0.0
 11
50.5047
 21
101.885
 31
0.0
  0
LINE
  5
2D6
330
1E
100
AcDbEntity
  8
0
100
AcDbLine
 10
57.9579
 20
101.885
 30
0.0
 11
57.9579
 21
103.231
 31
0.0
  0
LINE
  5
2D7
330
1E
100
AcDbEntity
  8
0
100
AcDbLine
 10
57.4657
 20
101.885
 30
0.0
 11
57.9579
 21
101.885
 31
0.0
  0
LINE
  5
2D8
330
1E
100
AcDbEntity
  8
0
100
AcDbLine
 10
55.9891
 20
101.885
 30
0.0
 11
57.4657
 21
101.885
 31
0.0
  0
LINE
  5
2D9
330
1E
100
AcDbEntity
  8
0
100
AcDbLine
 10
55.5672
 20
114.0
 30
0.0
 11
55.9891
 21
114.0
 31
0.0
  0
LINE
  5
2DA
330
1E
100
AcDbEntity
  8
0
100
AcDbLine
 10
55.9891
 20
114.0
 30
0.0
 11
57.9579
 21
103.231
 31
0.0
  0
LINE
  5
2DB
330
1E
100
AcDbEntity
  8
0
100
AcDbLine
 10
54.161
 20
114.0
 30
0.0
 11
55.5672
 21
114.0
 31
0.0
  0
LINE
  5
2DC
330
1E
100
AcDbEntity
  8
0
100
AcDbLine
 10
52.19219999999999
 20
114.0
 30
0.0
 11
54.161
 21
114.0
 31
0.0
  0
LINE
  5
2DD
330
1E
100
AcDbEntity
  8
0
100
AcDbLine
 10
57.9579
 20
103.231
 30
0.0
 11
57.9579
 21
101.885
 31
0.0
  0
LINE
  5
2DE
330
1E
100
AcDbEntity
  8
0
100
AcDbLine
 10
53.5985
 20
101.885
 30
0.0
 11
55.9891
 21
101.885
 31
0.0
  0
LINE
  5
2DF
330
1E
100
AcDbEntity
  8
0
100
AcDbLine
 10
50.5047
 20
101.885
 30
0.0
 11
53.5985
 21
101.885
 31
0.0
  0
LINE
  5
2E0
330
1E
100
AcDbEntity
  8
0
100
AcDbLine
 10
39.6766
 20
114.0
 30
0.0
 11
43.05159999999999
 21
114.0
 31
0.0
  0
LINE
  5
2E1
330
1E
100
AcDbEntity
  8
0
100
AcDbLine
 10
39.1844
 20
101.885
 30
0.0
 11
43.05159999999999
 21
101.885
 31
0.0
  0
LINE
  5
2E2
330
1E
100
AcDbEntity
  8
0
100
AcDbLine
 10
39.46569999999999
 20
100.5379999999999
 30
0.0
 11
43.05159999999999
 21
100.5379999999999
 31
0.0
  0
LINE
  5
2E3
330
1E
100
AcDbEntity
  8
0
100
AcDbLine
 10
39.04379999999999
 20
97.8462
 30
0.0
 11
43.05159999999999
 21
97.8462
 31
0.0
  0
LINE
  5
2E4
330
1E
100
AcDbEntity
  8
0
100
AcDbLine
 10
39.2547
 20
96.5
 30
0.0
 11
43.05159999999999
 21
96.5
 31
0.0
  0
LINE
  5
2E5
330
1E
100
AcDbEntity
  8
0
100
AcDbLine
 10
38.9032
 20
93.8077
 30
0.0
 11
43.05159999999999
 21
93.8077
 31
0.0
  0
LINE
  5
2E6
330
1E
100
AcDbEntity
  8
0
100
AcDbLine
 10
39.1844
 20
92.4615
 30
0.0
 11
43.05159999999999
 21
92.4615
 31
0.0
  0
LINE
  5
2E7
330
1E
100
AcDbEntity
  8
0
100
AcDbLine
 10
38.7625
 20
89.76919999999999
 30
0.0
 11
43.05159999999999
 21
89.76919999999999
 31
0.0
  0
LINE
  5
2E8
330
1E
100
AcDbEntity
  8
0
100
AcDbLine
 10
39.04379999999999
 20
88.42310000000001
 30
0.0
 11
43.05159999999999
 21
88.42310000000001
 31
0.0
  0
LINE
  5
2E9
330
1E
100
AcDbEntity
  8
0
100
AcDbLine
 10
38.6922
 20
85.7308
 30
0.0
 11
43.05159999999999
 21
85.7308
 31
0.0
  0
LINE
  5
2EA
330
1E
100
AcDbEntity
  8
0
100
AcDbLine
 10
38.9032
 20
84.3846
 30
0.0
 11
43.05159999999999
 21
84.3846
 31
0.0
  0
LINE
  5
2EB
330
1E
100
AcDbEntity
  8
0
100
AcDbLine
 10
35.10629999999999
 20
84.3846
 30
0.0
 11
38.9032
 21
84.3846
 31
0.0
  0
LINE
  5
2EC
330
1E
100
AcDbEntity
  8
0
100
AcDbLine
 10
38.48129999999999
 20
83.0385
 30
0.0
 11
43.05159999999999
 21
83.0385
 31
0.0
  0
LINE
  5
2ED
330
1E
100
AcDbEntity
  8
0
100
AcDbLine
 10
34.3329
 20
83.0385
 30
0.0
 11
38.48129999999999
 21
83.0385
 31
0.0
  0
LINE
  5
2EE
330
1E
100
AcDbEntity
  8
0
100
AcDbLine
 10
34.3329
 20
81.6923
 30
0.0
 11
38.48129999999999
 21
81.6923
 31
0.0
  0
LINE
  5
2EF
330
1E
100
AcDbEntity
  8
0
100
AcDbLine
 10
30.7469
 20
81.6923
 30
0.0
 11
34.3329
 21
81.6923
 31
0.0
  0
LINE
  5
2F0
330
1E
100
AcDbEntity
  8
0
100
AcDbLine
 10
31.45
 20
80.3462
 30
0.0
 11
34.825
 21
80.3462
 31
0.0
  0
LINE
  5
2F1
330
1E
100
AcDbEntity
  8
0
100
AcDbLine
 10
28.9188
 20
80.3462
 30
0.0
 11
31.45
 21
80.3462
 31
0.0
  0
ENDSEC
  0
SECTION
  2
OBJECTS
  0
DICTIONARY
  5
C
330
0
100
AcDbDictionary
281
     1
  3
ACAD_GROUP
350
D
  3
ACAD_LAYOUT
350
19
  3
ACAD_MLINESTYLE
350
16
  3
ACAD_PLOTSETTINGS
350
18
  3
ACAD_PLOTSTYLENAME
350
E
  3
AcDbVariableDictionary
350
2F6
  0
DICTIONARY
  5
D
102
{ACAD_REACTORS
330
C
102
}
330
C
100
AcDbDictionary
281
     1
  0
DICTIONARY
  5
19
102
{ACAD_REACTORS
330
C
102
}
330
C
100
AcDbDictionary
281
     1
  3
Layout1
350
1D
  3
Model
350
21
  0
DICTIONARY
  5
16
102
{ACAD_REACTORS
330
C
102
}
330
C
100
AcDbDictionary
281
     1
  3
Standard
350
17
  0
DICTIONARY
  5
18
102
{ACAD_REACTORS
330
C
102
}
330
C
100
AcDbDictionary
281
     1
  0
ACDBDICTIONARYWDFLT
  5
E
102
{ACAD_REACTORS
330
C
102
}
330
C
100
AcDbDictionary
281
     1
  3
Normal
350
F
100
AcDbDictionaryWithDefault
340
F
  0
DICTIONARY
  5
2F6
102
{ACAD_REACTORS
330
C
102
}
330
C
100
AcDbDictionary
281
     1
  3
DIMASSOC
350
2F7
  0
LAYOUT
  5
1D
102
{ACAD_REACTORS
330
19
102
}
330
19
100
AcDbPlotSettings
  1

  2
hp deskjet 980c series
  4

  6

 40
0.0
 41
0.0
 42
0.0
 43
0.0
 44
0.0
 45
0.0
 46
0.0
 47
0.0
 48
0.0
 49
0.0
140
0.0
141
0.0
142
1.0
143
1.0
 70
   688
 72
     0
 73
     0
 74
     5
  7

 75
    16
147
1.0
148
0.0
149
0.0
100
AcDbLayout
  1
Layout1
 70
     1
 71
     1
 10
0.0
 20
0.0
 11
12.0
 21
9.0
 12
0.0
 22
0.0
 32
0.0
 14
1.000000000000000E+20
 24
1.000000000000000E+20
 34
1.000000000000000E+20
 15
-1.000000000000000E+20
 25
-1.000000000000000E+20
 35
-1.000000000000000E+20
146
0.0
 13
0.0
 23
0.0
 33
0.0
 16
1.0
 26
0.0
 36
0.0
 17
0.0
 27
1.0
 37
0.0
 76
     0
330
1A
  0
LAYOUT
  5
21
102
{ACAD_REACTORS
330
19
102
}
330
19
100
AcDbPlotSettings
  1

  2
hp deskjet 980c series
  4

  6

 40
0.0
 41
0.0
 42
0.0
 43
0.0
 44
0.0
 45
0.0
 46
0.0
 47
0.0
 48
0.0
 49
0.0
140
0.0
141
0.0
142
1.0
143
1.0
 70
  1712
 72
     0
 73
     0
 74
     0
  7

 75
     0
147
1.0
148
0.0
149
0.0
100
AcDbLayout
  1
Model
 70
     1
 71
     0
 10
0.0
 20
0.0
 11
12.0
 21
9.0
 12
0.0
 22
0.0
 32
0.0
 14
0.0
 24
0.0
 34
0.0
 15
0.0
 25
0.0
 35
0.0
146
0.0
 13
0.0
 23
0.0
 33
0.0
 16
1.0
 26
0.0
 36
0.0
 17
0.0
 27
1.0
 37
0.0
 76
     0
330
1E
  0
MLINESTYLE
  5
17
102
{ACAD_REACTORS
330
16
102
}
330
16
100
AcDbMlineStyle
  2
STANDARD
 70
     0
  3

 62
   256
 51
90.0
 52
90.0
 71
     2
 49
0.5
 62
   256
  6
BYLAYER
 49
-0.5
 62
   256
  6
BYLAYER
  0
ACDBPLACEHOLDER
  5
F
102
{ACAD_REACTORS
330
E
102
}
330
E
  0
DICTIONARYVAR
  5
2F7
102
{ACAD_REACTORS
330
2F6
102
}
330
2F6
100
DictionaryVariables
280
     0
  1
1
  0
ENDSEC
  0
EOF
