  0
SECTION
  2
HEADER
  9
$ACADVER
  1
AC1015
  9
$ACADMAINTVER
 70
    13
  9
$DWGCODEPAGE
  3
ANSI_1252
  9
$INSBASE
 10
0.0
 20
0.0
 30
0.0
  9
$EXTMIN
 10
0.0
 20
-0.0726500000000101
 30
0.0
  9
$EXTMAX
 10
119.0
 20
71.07264999999999
 30
0.0
  9
$LIMMIN
 10
0.0
 20
0.0
  9
$LIMMAX
 10
12.0
 20
9.0
  9
$ORTHOMODE
 70
     0
  9
$REGENMODE
 70
     1
  9
$FILLMODE
 70
     1
  9
$QTEXTMODE
 70
     0
  9
$MIRRTEXT
 70
     1
  9
$LTSCALE
 40
1.0
  9
$ATTMODE
 70
     1
  9
$TEXTSIZE
 40
0.2
  9
$TRACEWID
 40
0.05
  9
$TEXTSTYLE
  7
Standard
  9
$CLAYER
  8
0
  9
$CELTYPE
  6
Continuous
  9
$CECOLOR
 62
   256
  9
$CELTSCALE
 40
1.0
  9
$DISPSILH
 70
     0
  9
$DIMSCALE
 40
1.0
  9
$DIMASZ
 40
0.18
  9
$DIMEXO
 40
0.0625
  9
$DIMDLI
 40
0.38
  9
$DIMRND
 40
0.0
  9
$DIMDLE
 40
0.0
  9
$DIMEXE
 40
0.18
  9
$DIMTP
 40
0.0
  9
$DIMTM
 40
0.0
  9
$DIMTXT
 40
0.18
  9
$DIMCEN
 40
0.09
  9
$DIMTSZ
 40
0.0
  9
$DIMTOL
 70
     0
  9
$DIMLIM
 70
     0
  9
$DIMTIH
 70
     1
  9
$DIMTOH
 70
     1
  9
$DIMSE1
 70
     0
  9
$DIMSE2
 70
     0
  9
$DIMTAD
 70
     0
  9
$DIMZIN
 70
     0
  9
$DIMBLK
  1

  9
$DIMASO
 70
     1
  9
$DIMSHO
 70
     1
  9
$DIMPOST
  1

  9
$DIMAPOST
  1

  9
$DIMALT
 70
     0
  9
$DIMALTD
 70
     2
  9
$DIMALTF
 40
25.4
  9
$DIMLFAC
 40
1.0
  9
$DIMTOFL
 70
     0
  9
$DIMTVP
 40
0.0
  9
$DIMTIX
 70
     0
  9
$DIMSOXD
 70
     0
  9
$DIMSAH
 70
     0
  9
$DIMBLK1
  1

  9
$DIMBLK2
  1

  9
$DIMSTYLE
  2
Standard
  9
$DIMCLRD
 70
     0
  9
$DIMCLRE
 70
     0
  9
$DIMCLRT
 70
     0
  9
$DIMTFAC
 40
1.0
  9
$DIMGAP
 40
0.09
  9
$DIMJUST
 70
     0
  9
$DIMSD1
 70
     0
  9
$DIMSD2
 70
     0
  9
$DIMTOLJ
 70
     1
  9
$DIMTZIN
 70
     0
  9
$DIMALTZ
 70
     0
  9
$DIMALTTZ
 70
     0
  9
$DIMUPT
 70
     0
  9
$DIMDEC
 70
     4
  9
$DIMTDEC
 70
     4
  9
$DIMALTU
 70
     2
  9
$DIMALTTD
 70
     2
  9
$DIMTXSTY
  7
Standard
  9
$DIMAUNIT
 70
     0
  9
$DIMADEC
 70
     0
  9
$DIMALTRND
 40
0.0
  9
$DIMAZIN
 70
     0
  9
$DIMDSEP
 70
    46
  9
$DIMATFIT
 70
     3
  9
$DIMFRAC
 70
     0
  9
$DIMLDRBLK
  1

  9
$DIMLUNIT
 70
     2
  9
$DIMLWD
 70
    -2
  9
$DIMLWE
 70
    -2
  9
$DIMTMOVE
 70
     0
  9
$LUNITS
 70
     2
  9
$LUPREC
 70
     4
  9
$SKETCHINC
 40
0.1
  9
$FILLETRAD
 40
0.0
  9
$AUNITS
 70
     0
  9
$AUPREC
 70
     0
  9
$MENU
  1
.
  9
$ELEVATION
 40
0.0
  9
$PELEVATION
 40
0.0
  9
$THICKNESS
 40
0.0
  9
$LIMCHECK
 70
     0
  9
$CHAMFERA
 40
0.0
  9
$CHAMFERB
 40
0.0
  9
$CHAMFERC
 40
0.0
  9
$CHAMFERD
 40
0.0
  9
$SKPOLY
 70
     0
  9
$TDCREATE
 40
2454834.851511134
  9
$TDUCREATE
 40
2454834.809844467
  9
$TDUPDATE
 40
2454834.854949896
  9
$TDUUPDATE
 40
2454834.813283229
  9
$TDINDWG
 40
0.0034387616
  9
$TDUSRTIMER
 40
0.0034387616
  9
$USRTIMER
 70
     1
  9
$ANGBASE
 50
0.0
  9
$ANGDIR
 70
     0
  9
$PDMODE
 70
     0
  9
$PDSIZE
 40
0.0
  9
$PLINEWID
 40
0.0
  9
$SPLFRAME
 70
     0
  9
$SPLINETYPE
 70
     6
  9
$SPLINESEGS
 70
     8
  9
$HANDSEED
  5
348
  9
$SURFTAB1
 70
     6
  9
$SURFTAB2
 70
     6
  9
$SURFTYPE
 70
     6
  9
$SURFU
 70
     6
  9
$SURFV
 70
     6
  9
$UCSBASE
  2

  9
$UCSNAME
  2

  9
$UCSORG
 10
0.0
 20
0.0
 30
0.0
  9
$UCSXDIR
 10
1.0
 20
0.0
 30
0.0
  9
$UCSYDIR
 10
0.0
 20
1.0
 30
0.0
  9
$UCSORTHOREF
  2

  9
$UCSORTHOVIEW
 70
     1
  9
$UCSORGTOP
 10
0.0
 20
0.0
 30
0.0
  9
$UCSORGBOTTOM
 10
0.0
 20
0.0
 30
0.0
  9
$UCSORGLEFT
 10
0.0
 20
0.0
 30
0.0
  9
$UCSORGRIGHT
 10
0.0
 20
0.0
 30
0.0
  9
$UCSORGFRONT
 10
0.0
 20
0.0
 30
0.0
  9
$UCSORGBACK
 10
0.0
 20
0.0
 30
0.0
  9
$PUCSBASE
  2

  9
$PUCSNAME
  2

  9
$PUCSORG
 10
0.0
 20
0.0
 30
0.0
  9
$PUCSXDIR
 10
1.0
 20
0.0
 30
0.0
  9
$PUCSYDIR
 10
0.0
 20
1.0
 30
0.0
  9
$PUCSORTHOREF
  2

  9
$PUCSORTHOVIEW
 70
     0
  9
$PUCSORGTOP
 10
0.0
 20
0.0
 30
0.0
  9
$PUCSORGBOTTOM
 10
0.0
 20
0.0
 30
0.0
  9
$PUCSORGLEFT
 10
0.0
 20
0.0
 30
0.0
  9
$PUCSORGRIGHT
 10
0.0
 20
0.0
 30
0.0
  9
$PUCSORGFRONT
 10
0.0
 20
0.0
 30
0.0
  9
$PUCSORGBACK
 10
0.0
 20
0.0
 30
0.0
  9
$USERI1
 70
     0
  9
$USERI2
 70
     0
  9
$USERI3
 70
     0
  9
$USERI4
 70
     0
  9
$USERI5
 70
     0
  9
$USERR1
 40
0.0
  9
$USERR2
 40
0.0
  9
$USERR3
 40
0.0
  9
$USERR4
 40
0.0
  9
$USERR5
 40
0.0
  9
$WORLDVIEW
 70
     1
  9
$SHADEDGE
 70
     3
  9
$SHADEDIF
 70
    70
  9
$TILEMODE
 70
     1
  9
$MAXACTVP
 70
    64
  9
$PINSBASE
 10
0.0
 20
0.0
 30
0.0
  9
$PLIMCHECK
 70
     0
  9
$PEXTMIN
 10
1.000000000000000E+20
 20
1.000000000000000E+20
 30
1.000000000000000E+20
  9
$PEXTMAX
 10
-1.000000000000000E+20
 20
-1.000000000000000E+20
 30
-1.000000000000000E+20
  9
$PLIMMIN
 10
0.0
 20
0.0
  9
$PLIMMAX
 10
12.0
 20
9.0
  9
$UNITMODE
 70
     0
  9
$VISRETAIN
 70
     1
  9
$PLINEGEN
 70
     0
  9
$PSLTSCALE
 70
     1
  9
$TREEDEPTH
 70
  3020
  9
$CMLSTYLE
  2
Standard
  9
$CMLJUST
 70
     0
  9
$CMLSCALE
 40
1.0
  9
$PROXYGRAPHICS
 70
     1
  9
$MEASUREMENT
 70
     0
  9
$CELWEIGHT
370
    -1
  9
$ENDCAPS
280
     0
  9
$JOINSTYLE
280
     0
  9
$LWDISPLAY
290
     0
  9
$INSUNITS
 70
     0
  9
$HYPERLINKBASE
  1

  9
$STYLESHEET
  1

  9
$XEDIT
290
     1
  9
$CEPSNTYPE
380
     0
  9
$PSTYLEMODE
290
     1
  9
$FINGERPRINTGUID
  2
{1D2C1F2B-D0F1-4B93-8A3D-10EC8A0A34E9}
  9
$VERSIONGUID
  2
{3C26CA41-60B3-47B8-8136-00A801E7CF2A}
  9
$EXTNAMES
290
     1
  9
$PSVPSCALE
 40
0.0
  9
$OLESTARTUP
290
     0
  0
ENDSEC
  0
SECTION
  2
CLASSES
  0
CLASS
  1
ACDBDICTIONARYWDFLT
  2
AcDbDictionaryWithDefault
  3
AutoCAD 2000
 90
        0
280
     0
281
     0
  0
CLASS
  1
ACDBPLACEHOLDER
  2
AcDbPlaceHolder
  3
AutoCAD 2000
 90
        0
280
     0
281
     0
  0
CLASS
  1
LAYOUT
  2
AcDbLayout
  3
AutoCAD 2000
 90
        0
280
     0
281
     0
  0
CLASS
  1
DICTIONARYVAR
  2
AcDbDictionaryVar
  3
AutoCAD 2000
 90
        0
280
     0
281
     0
  0
ENDSEC
  0
SECTION
  2
TABLES
  0
TABLE
  2
VPORT
  5
8
330
0
100
AcDbSymbolTable
 70
     2
  0
VPORT
  5
347
330
8
100
AcDbSymbolTableRecord
100
AcDbViewportTableRecord
  2
*Active
 70
     0
 10
0.0
 20
0.0
 11
1.0
 21
1.0
 12
59.5
 22
35.49999999999999
 13
0.0
 23
0.0
 14
1.0
 24
1.0
 15
0.0
 25
0.0
 16
0.0
 26
0.0
 36
1.0
 17
0.0
 27
0.0
 37
0.0
 40
71.69117186700768
 41
2.078104993597951
 42
50.0
 43
0.0
 44
0.0
 50
0.0
 51
0.0
 71
     0
 72
   100
 73
     1
 74
     3
 75
     0
 76
     0
 77
     0
 78
     0
281
     0
 65
     1
110
0.0
120
0.0
130
0.0
111
1.0
121
0.0
131
0.0
112
0.0
122
1.0
132
0.0
 79
     1
146
0.0
  0
ENDTAB
  0
TABLE
  2
LTYPE
  5
5
330
0
100
AcDbSymbolTable
 70
     1
  0
LTYPE
  5
13
330
5
100
AcDbSymbolTableRecord
100
AcDbLinetypeTableRecord
  2
ByBlock
 70
     0
  3

 72
    65
 73
     0
 40
0.0
  0
LTYPE
  5
14
330
5
100
AcDbSymbolTableRecord
100
AcDbLinetypeTableRecord
  2
ByLayer
 70
     0
  3

 72
    65
 73
     0
 40
0.0
  0
LTYPE
  5
15
330
5
100
AcDbSymbolTableRecord
100
AcDbLinetypeTableRecord
  2
Continuous
 70
     0
  3
Solid line
 72
    65
 73
     0
 40
0.0
  0
ENDTAB
  0
TABLE
  2
LAYER
  5
2
330
0
100
AcDbSymbolTable
 70
     1
  0
LAYER
  5
10
330
2
100
AcDbSymbolTableRecord
100
AcDbLayerTableRecord
  2
0
 70
     0
 62
     7
  6
Continuous
370
    -3
390
F
  0
ENDTAB
  0
TABLE
  2
STYLE
  5
3
330
0
100
AcDbSymbolTable
 70
     1
  0
STYLE
  5
11
330
3
100
AcDbSymbolTableRecord
100
AcDbTextStyleTableRecord
  2
Standard
 70
     0
 40
0.0
 41
1.0
 50
0.0
 71
     0
 42
0.2
  3
txt
  4

  0
ENDTAB
  0
TABLE
  2
VIEW
  5
6
330
0
100
AcDbSymbolTable
 70
     0
  0
ENDTAB
  0
TABLE
  2
UCS
  5
7
330
0
100
AcDbSymbolTable
 70
     0
  0
ENDTAB
  0
TABLE
  2
APPID
  5
9
330
0
100
AcDbSymbolTable
 70
     1
  0
APPID
  5
12
330
9
100
AcDbSymbolTableRecord
100
AcDbRegAppTableRecord
  2
ACAD
 70
     0
  0
ENDTAB
  0
TABLE
  2
DIMSTYLE
  5
A
330
0
100
AcDbSymbolTable
 70
     1
100
AcDbDimStyleTable
 71
     0
  0
DIMSTYLE
105
341
330
A
100
AcDbSymbolTableRecord
100
AcDbDimStyleTableRecord
  2
Standard
 70
     0
340
11
  0
ENDTAB
  0
TABLE
  2
BLOCK_RECORD
  5
1
330
0
100
AcDbSymbolTable
 70
     0
  0
BLOCK_RECORD
  5
1E
330
1
100
AcDbSymbolTableRecord
100
AcDbBlockTableRecord
  2
*Model_Space
340
21
  0
BLOCK_RECORD
  5
1A
330
1
100
AcDbSymbolTableRecord
100
AcDbBlockTableRecord
  2
*Paper_Space
340
1D
  0
ENDTAB
  0
ENDSEC
  0
SECTION
  2
BLOCKS
  0
BLOCK
  5
1F
330
1E
100
AcDbEntity
  8
0
100
AcDbBlockBegin
  2
*Model_Space
 70
     0
 10
0.0
 20
0.0
 30
0.0
  3
*Model_Space
  1

  0
ENDBLK
  5
20
330
1E
100
AcDbEntity
  8
0
100
AcDbBlockEnd
  0
BLOCK
  5
1B
330
1A
100
AcDbEntity
 67
     1
  8
0
100
AcDbBlockBegin
  2
*Paper_Space
 70
     0
 10
0.0
 20
0.0
 30
0.0
  3
*Paper_Space
  1

  0
ENDBLK
  5
1C
330
1A
100
AcDbEntity
 67
     1
  8
0
100
AcDbBlockEnd
  0
ENDSEC
  0
SECTION
  2
ENTITIES
  0
LINE
  5
22
330
1E
100
AcDbEntity
  8
0
100
AcDbLine
 10
1.332089999999999
 20
32.56485
 30
0.0
 11
1.95373
 21
32.56485
 31
0.0
  0
LINE
  5
23
330
1E
100
AcDbEntity
  8
0
100
AcDbLine
 10
22.6443
 20
32.45165
 30
0.0
 11
23.3838
 21
32.43574999999999
 31
0.0
  0
LINE
  5
24
330
1E
100
AcDbEntity
  8
0
100
AcDbLine
 10
23.3838
 20
32.43574999999999
 30
0.0
 11
24.2118
 21
32.41975
 31
0.0
  0
LINE
  5
25
330
1E
100
AcDbEntity
  8
0
100
AcDbLine
 10
24.2118
 20
32.41975
 30
0.0
 11
24.651
 21
32.41295
 31
0.0
  0
LINE
  5
26
330
1E
100
AcDbEntity
  8
0
100
AcDbLine
 10
24.41829999999999
 20
32.41975
 30
0.0
 11
24.651
 21
32.41295
 31
0.0
  0
LINE
  5
27
330
1E
100
AcDbEntity
  8
0
100
AcDbLine
 10
24.41829999999999
 20
32.41975
 30
0.0
 11
24.42318670114939
 21
32.56485
 31
0.0
  0
LINE
  5
28
330
1E
100
AcDbEntity
  8
0
100
AcDbLine
 10
23.67869999999999
 20
32.43574999999999
 30
0.0
 11
24.41829999999999
 21
32.41975
 31
0.0
  0
LINE
  5
29
330
1E
100
AcDbEntity
  8
0
100
AcDbLine
 10
23.67869999999999
 20
32.43574999999999
 30
0.0
 11
23.6830555204322
 21
32.56485
 31
0.0
  0
LINE
  5
2A
330
1E
100
AcDbEntity
  8
0
100
AcDbLine
 10
22.8507
 20
32.45165
 30
0.0
 11
23.67869999999999
 21
32.43574999999999
 31
0.0
  0
LINE
  5
2B
330
1E
100
AcDbEntity
  8
0
100
AcDbLine
 10
22.8507
 20
32.45165
 30
0.0
 11
22.85451887356319
 21
32.56485
 31
0.0
  0
LINE
  5
2C
330
1E
100
AcDbEntity
  8
0
100
AcDbLine
 10
22.4116
 20
32.45855
 30
0.0
 11
22.8507
 21
32.45165
 31
0.0
  0
LINE
  5
2D
330
1E
100
AcDbEntity
  8
0
100
AcDbLine
 10
22.4116
 20
32.45855
 30
0.0
 11
22.6443
 21
32.45165
 31
0.0
  0
LINE
  5
2E
330
1E
100
AcDbEntity
  8
0
100
AcDbLine
 10
22.4116
 20
32.45855
 30
0.0
 11
22.415180194264
 21
32.56485
 31
0.0
  0
LINE
  5
2F
330
1E
100
AcDbEntity
  8
0
100
AcDbLine
 10
18.37089999999999
 20
32.56485
 30
0.0
 11
22.415180194264
 21
32.56485
 31
0.0
  0
LINE
  5
30
330
1E
100
AcDbEntity
  8
0
100
AcDbLine
 10
18.37089999999999
 20
32.56485
 30
0.0
 11
22.415180194264
 21
32.56485
 31
0.0
  0
LINE
  5
31
330
1E
100
AcDbEntity
  8
0
100
AcDbLine
 10
9.26505
 20
32.56485
 30
0.0
 11
13.4726
 21
32.56485
 31
0.0
  0
LINE
  5
32
330
1E
100
AcDbEntity
  8
0
100
AcDbLine
 10
6.313349999999999
 20
32.56485
 30
0.0
 11
9.578969999999999
 21
32.56485
 31
0.0
  0
LINE
  5
33
330
1E
100
AcDbEntity
  8
0
100
AcDbLine
 10
9.578969999999999
 20
32.56485
 30
0.0
 11
13.78659999999999
 21
32.56485
 31
0.0
  0
LINE
  5
34
330
1E
100
AcDbEntity
  8
0
100
AcDbLine
 10
13.78659999999999
 20
32.56485
 30
0.0
 11
18.68489999999999
 21
32.56485
 31
0.0
  0
LINE
  5
35
330
1E
100
AcDbEntity
  8
0
100
AcDbLine
 10
18.68489999999999
 20
32.56485
 30
0.0
 11
22.415180194264
 21
32.56485
 31
0.0
  0
LINE
  5
36
330
1E
100
AcDbEntity
  8
0
100
AcDbLine
 10
3.46343
 20
32.56485
 30
0.0
 11
6.313349999999999
 21
32.56485
 31
0.0
  0
LINE
  5
37
330
1E
100
AcDbEntity
  8
0
100
AcDbLine
 10
9.578969999999999
 20
32.56485
 30
0.0
 11
13.78659999999999
 21
32.56485
 31
0.0
  0
LINE
  5
38
330
1E
100
AcDbEntity
  8
0
100
AcDbLine
 10
13.78659999999999
 20
32.56485
 30
0.0
 11
18.68489999999999
 21
32.56485
 31
0.0
  0
LINE
  5
39
330
1E
100
AcDbEntity
  8
0
100
AcDbLine
 10
2.397759999999999
 20
32.56485
 30
0.0
 11
3.818659999999999
 21
32.56485
 31
0.0
  0
LINE
  5
3A
330
1E
100
AcDbEntity
  8
0
100
AcDbLine
 10
1.77612
 20
32.56485
 30
0.0
 11
2.397759999999999
 21
32.56485
 31
0.0
  0
LINE
  5
3B
330
1E
100
AcDbEntity
  8
0
100
AcDbLine
 10
18.37089999999999
 20
32.56485
 30
0.0
 11
24.1442
 21
32.56485
 31
0.0
  0
LINE
  5
3C
330
1E
100
AcDbEntity
  8
0
100
AcDbLine
 10
24.651
 20
32.41295
 30
0.0
 11
24.6561157126437
 21
32.56485
 31
0.0
  0
LINE
  5
3D
330
1E
100
AcDbEntity
  8
0
100
AcDbLine
 10
24.9495
 20
32.45165
 30
0.0
 11
25.5501
 21
32.43574999999999
 31
0.0
  0
LINE
  5
3E
330
1E
100
AcDbEntity
  8
0
100
AcDbLine
 10
25.5501
 20
32.43574999999999
 30
0.0
 11
26.4102
 21
32.41975
 31
0.0
  0
LINE
  5
3F
330
1E
100
AcDbEntity
  8
0
100
AcDbLine
 10
26.4102
 20
32.41975
 30
0.0
 11
27.0259
 21
32.41295
 31
0.0
  0
LINE
  5
40
330
1E
100
AcDbEntity
  8
0
100
AcDbLine
 10
31.5229
 20
32.37624999999999
 30
0.0
 11
32.19879999999999
 21
32.36025
 31
0.0
  0
LINE
  5
41
330
1E
100
AcDbEntity
  8
0
100
AcDbLine
 10
31.4003
 20
32.38304999999999
 30
0.0
 11
31.9323
 21
32.37624999999999
 31
0.0
  0
LINE
  5
42
330
1E
100
AcDbEntity
  8
0
100
AcDbLine
 10
31.4003
 20
32.38304999999999
 30
0.0
 11
31.5229
 21
32.37624999999999
 31
0.0
  0
LINE
  5
43
330
1E
100
AcDbEntity
  8
0
100
AcDbLine
 10
32.19879999999999
 20
32.36025
 30
0.0
 11
33.0501
 21
32.34434999999999
 31
0.0
  0
LINE
  5
44
330
1E
100
AcDbEntity
  8
0
100
AcDbLine
 10
33.582
 20
32.33744999999999
 30
0.0
 11
33.58947544827589
 21
32.56485
 31
0.0
  0
LINE
  5
45
330
1E
100
AcDbEntity
  8
0
100
AcDbLine
 10
33.0501
 20
32.34434999999999
 30
0.0
 11
33.582
 21
32.33744999999999
 31
0.0
  0
LINE
  5
46
330
1E
100
AcDbEntity
  8
0
100
AcDbLine
 10
33.4594
 20
32.34434999999999
 30
0.0
 11
33.582
 21
32.33744999999999
 31
0.0
  0
LINE
  5
47
330
1E
100
AcDbEntity
  8
0
100
AcDbLine
 10
33.4594
 20
32.34434999999999
 30
0.0
 11
33.466649037301
 21
32.56485
 31
0.0
  0
LINE
  5
48
330
1E
100
AcDbEntity
  8
0
100
AcDbLine
 10
32.7836
 20
32.36025
 30
0.0
 11
33.4594
 21
32.34434999999999
 31
0.0
  0
LINE
  5
49
330
1E
100
AcDbEntity
  8
0
100
AcDbLine
 10
32.7836
 20
32.36025
 30
0.0
 11
32.7903141724138
 21
32.56485
 31
0.0
  0
LINE
  5
4A
330
1E
100
AcDbEntity
  8
0
100
AcDbLine
 10
31.9323
 20
32.37624999999999
 30
0.0
 11
32.7836
 21
32.36025
 31
0.0
  0
LINE
  5
4B
330
1E
100
AcDbEntity
  8
0
100
AcDbLine
 10
31.9323
 20
32.37624999999999
 30
0.0
 11
31.93848947065919
 21
32.56485
 31
0.0
  0
LINE
  5
4C
330
1E
100
AcDbEntity
  8
0
100
AcDbLine
 10
31.6138
 20
32.41295
 30
0.0
 11
31.8264
 21
32.41975
 31
0.0
  0
LINE
  5
4D
330
1E
100
AcDbEntity
  8
0
100
AcDbLine
 10
30.0301
 20
32.43574999999999
 30
0.0
 11
30.8636
 21
32.41975
 31
0.0
  0
LINE
  5
4E
330
1E
100
AcDbEntity
  8
0
100
AcDbLine
 10
30.8636
 20
32.41975
 30
0.0
 11
31.6138
 21
32.41295
 31
0.0
  0
LINE
  5
4F
330
1E
100
AcDbEntity
  8
0
100
AcDbLine
 10
30.8636
 20
32.41975
 30
0.0
 11
31.40134439675829
 21
32.4148757506026
 31
0.0
  0
LINE
  5
50
330
1E
100
AcDbEntity
  8
0
100
AcDbLine
 10
31.8264
 20
32.41975
 30
0.0
 11
31.8303193678161
 21
32.56485
 31
0.0
  0
LINE
  5
51
330
1E
100
AcDbEntity
  8
0
100
AcDbLine
 10
31.4056
 20
32.43574999999999
 30
0.0
 11
31.8264
 21
32.41975
 31
0.0
  0
LINE
  5
52
330
1E
100
AcDbEntity
  8
0
100
AcDbLine
 10
31.4056
 20
32.43574999999999
 30
0.0
 11
31.4090799643658
 21
32.56485
 31
0.0
  0
LINE
  5
53
330
1E
100
AcDbEntity
  8
0
100
AcDbLine
 10
27.0259
 20
32.41295
 30
0.0
 11
27.03066651724139
 21
32.56485
 31
0.0
  0
LINE
  5
54
330
1E
100
AcDbEntity
  8
0
100
AcDbLine
 10
27.0155
 20
32.41975
 30
0.0
 11
27.02006147701149
 21
32.56485
 31
0.0
  0
LINE
  5
55
330
1E
100
AcDbEntity
  8
0
100
AcDbLine
 10
29.6093
 20
32.45165
 30
0.0
 11
30.0301
 21
32.43574999999999
 31
0.0
  0
LINE
  5
56
330
1E
100
AcDbEntity
  8
0
100
AcDbLine
 10
29.6093
 20
32.45165
 30
0.0
 11
29.8219
 21
32.45855
 31
0.0
  0
LINE
  5
57
330
1E
100
AcDbEntity
  8
0
100
AcDbLine
 10
29.6093
 20
32.45165
 30
0.0
 11
29.6123511954023
 21
32.56485
 31
0.0
  0
LINE
  5
58
330
1E
100
AcDbEntity
  8
0
100
AcDbLine
 10
30.57209999999999
 20
32.45165
 30
0.0
 11
31.4056
 21
32.43574999999999
 31
0.0
  0
LINE
  5
59
330
1E
100
AcDbEntity
  8
0
100
AcDbLine
 10
30.57209999999999
 20
32.45165
 30
0.0
 11
30.5751511954023
 21
32.56485
 31
0.0
  0
LINE
  5
5A
330
1E
100
AcDbEntity
  8
0
100
AcDbLine
 10
29.8219
 20
32.45855
 30
0.0
 11
30.57209999999999
 21
32.45165
 31
0.0
  0
LINE
  5
5B
330
1E
100
AcDbEntity
  8
0
100
AcDbLine
 10
29.8219
 20
32.45855
 30
0.0
 11
29.8247653773205
 21
32.56485
 31
0.0
  0
LINE
  5
5C
330
1E
100
AcDbEntity
  8
0
100
AcDbLine
 10
26.4148
 20
32.43574999999999
 30
0.0
 11
27.0155
 21
32.41975
 31
0.0
  0
LINE
  5
5D
330
1E
100
AcDbEntity
  8
0
100
AcDbLine
 10
26.4148
 20
32.43574999999999
 30
0.0
 11
26.418851301799
 21
32.56485
 31
0.0
  0
LINE
  5
5E
330
1E
100
AcDbEntity
  8
0
100
AcDbLine
 10
25.5548
 20
32.45165
 30
0.0
 11
26.4148
 21
32.43574999999999
 31
0.0
  0
LINE
  5
5F
330
1E
100
AcDbEntity
  8
0
100
AcDbLine
 10
25.5548
 20
32.45165
 30
0.0
 11
25.558352137931
 21
32.56485
 31
0.0
  0
LINE
  5
60
330
1E
100
AcDbEntity
  8
0
100
AcDbLine
 10
24.9391
 20
32.45855
 30
0.0
 11
25.5548
 21
32.45165
 31
0.0
  0
LINE
  5
61
330
1E
100
AcDbEntity
  8
0
100
AcDbLine
 10
24.9391
 20
32.45855
 30
0.0
 11
24.942435812403
 21
32.56485
 31
0.0
  0
LINE
  5
62
330
1E
100
AcDbEntity
  8
0
100
AcDbLine
 10
36.51839999999999
 20
32.43574999999999
 30
0.0
 11
37.2685
 21
32.41975
 31
0.0
  0
LINE
  5
63
330
1E
100
AcDbEntity
  8
0
100
AcDbLine
 10
36.30599999999999
 20
32.45165
 30
0.0
 11
36.51839999999999
 21
32.43574999999999
 31
0.0
  0
LINE
  5
64
330
1E
100
AcDbEntity
  8
0
100
AcDbLine
 10
36.51839999999999
 20
32.43574999999999
 30
0.0
 11
37.2685
 21
32.41975
 31
0.0
  0
LINE
  5
65
330
1E
100
AcDbEntity
  8
0
100
AcDbLine
 10
36.7272
 20
32.45855
 30
0.0
 11
37.5608
 21
32.45165
 31
0.0
  0
LINE
  5
66
330
1E
100
AcDbEntity
  8
0
100
AcDbLine
 10
36.7272
 20
32.45855
 30
0.0
 11
36.72939943674919
 21
32.56485
 31
0.0
  0
LINE
  5
67
330
1E
100
AcDbEntity
  8
0
100
AcDbLine
 10
36.30599999999999
 20
32.45165
 30
0.0
 11
36.7272
 21
32.45855
 31
0.0
  0
LINE
  5
68
330
1E
100
AcDbEntity
  8
0
100
AcDbLine
 10
36.30599999999999
 20
32.45165
 30
0.0
 11
36.51839999999999
 21
32.43574999999999
 31
0.0
  0
LINE
  5
69
330
1E
100
AcDbEntity
  8
0
100
AcDbLine
 10
36.30599999999999
 20
32.45165
 30
0.0
 11
36.3083420689655
 21
32.56485
 31
0.0
  0
LINE
  5
6A
330
1E
100
AcDbEntity
  8
0
100
AcDbLine
 10
33.58947544827589
 20
32.56485
 30
0.0
 11
36.3083420689655
 21
32.56485
 31
0.0
  0
LINE
  5
6B
330
1E
100
AcDbEntity
  8
0
100
AcDbLine
 10
35.9592
 20
32.56485
 30
0.0
 11
36.18339999999999
 21
32.56485
 31
0.0
  0
LINE
  5
6C
330
1E
100
AcDbEntity
  8
0
100
AcDbLine
 10
27.03066651724139
 20
32.56485
 30
0.0
 11
29.6123511954023
 21
32.56485
 31
0.0
  0
LINE
  5
6D
330
1E
100
AcDbEntity
  8
0
100
AcDbLine
 10
24.6561157126437
 20
32.56485
 30
0.0
 11
24.942435812403
 21
32.56485
 31
0.0
  0
LINE
  5
6E
330
1E
100
AcDbEntity
  8
0
100
AcDbLine
 10
24.6561157126437
 20
32.56485
 30
0.0
 11
24.942435812403
 21
32.56485
 31
0.0
  0
LINE
  5
6F
330
1E
100
AcDbEntity
  8
0
100
AcDbLine
 10
30.4864
 20
32.56485
 30
0.0
 11
37.26809999999999
 21
32.56485
 31
0.0
  0
LINE
  5
70
330
1E
100
AcDbEntity
  8
0
100
AcDbLine
 10
24.4582
 20
32.56485
 30
0.0
 11
30.6747
 21
32.56485
 31
0.0
  0
LINE
  5
71
330
1E
100
AcDbEntity
  8
0
100
AcDbLine
 10
18.68489999999999
 20
32.56485
 30
0.0
 11
24.4582
 21
32.56485
 31
0.0
  0
LINE
  5
72
330
1E
100
AcDbEntity
  8
0
100
AcDbLine
 10
38.1022
 20
32.41295
 30
0.0
 11
38.5233
 21
32.41975
 31
0.0
  0
LINE
  5
73
330
1E
100
AcDbEntity
  8
0
100
AcDbLine
 10
38.969
 20
32.33274999999999
 30
0.0
 11
39.2018
 21
32.32585
 31
0.0
  0
LINE
  5
74
330
1E
100
AcDbEntity
  8
0
100
AcDbLine
 10
39.2018
 20
32.32585
 30
0.0
 11
39.9413
 21
32.30995
 31
0.0
  0
LINE
  5
75
330
1E
100
AcDbEntity
  8
0
100
AcDbLine
 10
39.9413
 20
32.30995
 30
0.0
 11
40.76929999999999
 21
32.29395
 31
0.0
  0
LINE
  5
76
330
1E
100
AcDbEntity
  8
0
100
AcDbLine
 10
40.3786
 20
32.32585
 30
0.0
 11
40.9792
 21
32.30995
 31
0.0
  0
LINE
  5
77
330
1E
100
AcDbEntity
  8
0
100
AcDbLine
 10
40.3682
 20
32.33274999999999
 30
0.0
 11
40.9839
 21
32.32585
 31
0.0
  0
LINE
  5
78
330
1E
100
AcDbEntity
  8
0
100
AcDbLine
 10
40.76929999999999
 20
32.29395
 30
0.0
 11
41.2084
 21
32.28714999999999
 31
0.0
  0
LINE
  5
79
330
1E
100
AcDbEntity
  8
0
100
AcDbLine
 10
40.9792
 20
32.30995
 30
0.0
 11
41.8393
 21
32.29395
 31
0.0
  0
LINE
  5
7A
330
1E
100
AcDbEntity
  8
0
100
AcDbLine
 10
41.8393
 20
32.29395
 30
0.0
 11
42.45499999999999
 21
32.28714999999999
 31
0.0
  0
LINE
  5
7B
330
1E
100
AcDbEntity
  8
0
100
AcDbLine
 10
42.45499999999999
 20
32.28714999999999
 30
0.0
 11
42.4637140344828
 21
32.56485
 31
0.0
  0
LINE
  5
7C
330
1E
100
AcDbEntity
  8
0
100
AcDbLine
 10
42.4446
 20
32.29395
 30
0.0
 11
42.45311622413789
 21
32.56485
 31
0.0
  0
LINE
  5
7D
330
1E
100
AcDbEntity
  8
0
100
AcDbLine
 10
41.84389999999999
 20
32.30995
 30
0.0
 11
42.4446
 21
32.29395
 31
0.0
  0
LINE
  5
7E
330
1E
100
AcDbEntity
  8
0
100
AcDbLine
 10
41.84389999999999
 20
32.30995
 30
0.0
 11
41.8518985862069
 21
32.56485
 31
0.0
  0
LINE
  5
7F
330
1E
100
AcDbEntity
  8
0
100
AcDbLine
 10
40.9839
 20
32.32585
 30
0.0
 11
41.84389999999999
 21
32.30995
 31
0.0
  0
LINE
  5
80
330
1E
100
AcDbEntity
  8
0
100
AcDbLine
 10
40.9839
 20
32.32585
 30
0.0
 11
40.9913996551724
 21
32.56485
 31
0.0
  0
LINE
  5
81
330
1E
100
AcDbEntity
  8
0
100
AcDbLine
 10
40.84629999999999
 20
32.34434999999999
 30
0.0
 11
40.85161004655439
 21
32.56485
 31
0.0
  0
LINE
  5
82
330
1E
100
AcDbEntity
  8
0
100
AcDbLine
 10
40.52669999999999
 20
32.33744999999999
 30
0.0
 11
40.84629999999999
 21
32.34434999999999
 31
0.0
  0
LINE
  5
83
330
1E
100
AcDbEntity
  8
0
100
AcDbLine
 10
39.7284
 20
32.37624999999999
 30
0.0
 11
40.527
 21
32.36025
 31
0.0
  0
LINE
  5
84
330
1E
100
AcDbEntity
  8
0
100
AcDbLine
 10
39.7284
 20
32.37624999999999
 30
0.0
 11
39.73293099603429
 21
32.56485
 31
0.0
  0
LINE
  5
85
330
1E
100
AcDbEntity
  8
0
100
AcDbLine
 10
40.527
 20
32.36025
 30
0.0
 11
40.84629999999999
 21
32.34434999999999
 31
0.0
  0
LINE
  5
86
330
1E
100
AcDbEntity
  8
0
100
AcDbLine
 10
40.527
 20
32.36025
 30
0.0
 11
40.5319151034483
 21
32.56485
 31
0.0
  0
LINE
  5
87
330
1E
100
AcDbEntity
  8
0
100
AcDbLine
 10
39.72789999999999
 20
32.34434999999999
 30
0.0
 11
40.52669999999999
 21
32.33744999999999
 31
0.0
  0
LINE
  5
88
330
1E
100
AcDbEntity
  8
0
100
AcDbLine
 10
38.92929999999999
 20
32.36025
 30
0.0
 11
39.72789999999999
 21
32.34434999999999
 31
0.0
  0
LINE
  5
89
330
1E
100
AcDbEntity
  8
0
100
AcDbLine
 10
38.9296
 20
32.38304999999999
 30
0.0
 11
39.7284
 21
32.37624999999999
 31
0.0
  0
LINE
  5
8A
330
1E
100
AcDbEntity
  8
0
100
AcDbLine
 10
38.9296
 20
32.38304999999999
 30
0.0
 11
38.93396737931039
 21
32.56485
 31
0.0
  0
LINE
  5
8B
330
1E
100
AcDbEntity
  8
0
100
AcDbLine
 10
38.61
 20
32.37624999999999
 30
0.0
 11
38.9296
 21
32.38304999999999
 31
0.0
  0
LINE
  5
8C
330
1E
100
AcDbEntity
  8
0
100
AcDbLine
 10
38.61
 20
32.37624999999999
 30
0.0
 11
38.92929999999999
 21
32.36025
 31
0.0
  0
LINE
  5
8D
330
1E
100
AcDbEntity
  8
0
100
AcDbLine
 10
38.61
 20
32.37624999999999
 30
0.0
 11
38.6145309960343
 21
32.56485
 31
0.0
  0
LINE
  5
8E
330
1E
100
AcDbEntity
  8
0
100
AcDbLine
 10
38.61
 20
32.37624999999999
 30
0.0
 11
38.6145309960343
 21
32.56485
 31
0.0
  0
LINE
  5
8F
330
1E
100
AcDbEntity
  8
0
100
AcDbLine
 10
38.1022
 20
32.41295
 30
0.0
 11
38.5233
 21
32.41975
 31
0.0
  0
LINE
  5
90
330
1E
100
AcDbEntity
  8
0
100
AcDbLine
 10
37.5608
 20
32.45165
 30
0.0
 11
38.311
 21
32.43574999999999
 31
0.0
  0
LINE
  5
91
330
1E
100
AcDbEntity
  8
0
100
AcDbLine
 10
37.5608
 20
32.45165
 30
0.0
 11
37.5631420689655
 21
32.56485
 31
0.0
  0
LINE
  5
92
330
1E
100
AcDbEntity
  8
0
100
AcDbLine
 10
38.5233
 20
32.41975
 30
0.0
 11
38.526310408046
 21
32.56485
 31
0.0
  0
LINE
  5
93
330
1E
100
AcDbEntity
  8
0
100
AcDbLine
 10
38.311
 20
32.43574999999999
 30
0.0
 11
38.5233
 21
32.41975
 31
0.0
  0
LINE
  5
94
330
1E
100
AcDbEntity
  8
0
100
AcDbLine
 10
38.311
 20
32.43574999999999
 30
0.0
 11
38.3136711879993
 21
32.56485
 31
0.0
  0
LINE
  5
95
330
1E
100
AcDbEntity
  8
0
100
AcDbLine
 10
37.2685
 20
32.41975
 30
0.0
 11
38.1022
 21
32.41295
 31
0.0
  0
LINE
  5
96
330
1E
100
AcDbEntity
  8
0
100
AcDbLine
 10
37.2685
 20
32.41975
 30
0.0
 11
38.1022
 21
32.41295
 31
0.0
  0
LINE
  5
99
330
1E
100
AcDbEntity
  8
0
100
AcDbLine
 10
51.71199999999999
 20
2.85268999999999
 30
0.0
 11
54.04399999999999
 21
1.257589999999989
 31
0.0
  0
LINE
  5
9A
330
1E
100
AcDbEntity
  8
0
100
AcDbLine
 10
51.5074878850822
 20
3.09827999999999
 30
0.0
 11
51.71199999999999
 21
2.85268999999999
 31
0.0
  0
LINE
  5
9B
330
1E
100
AcDbEntity
  8
0
100
AcDbLine
 10
48.79999999999999
 20
3.09827999999999
 30
0.0
 11
59.5
 21
3.09827999999999
 31
0.0
  0
LINE
  5
9C
330
1E
100
AcDbEntity
  8
0
100
AcDbLine
 10
48.3316
 20
3.31153999999999
 30
0.0
 11
48.79999999999999
 21
3.09827999999999
 31
0.0
  0
LINE
  5
9D
330
1E
100
AcDbEntity
  8
0
100
AcDbLine
 10
48.0393
 20
4.95004999999999
 30
0.0
 11
48.3316
 21
4.57938999999999
 31
0.0
  0
LINE
  5
9E
330
1E
100
AcDbEntity
  8
0
100
AcDbLine
 10
48.79999999999999
 20
4.36613999999999
 30
0.0
 11
59.5
 21
4.36613999999999
 31
0.0
  0
LINE
  5
9F
330
1E
100
AcDbEntity
  8
0
100
AcDbLine
 10
48.79999999999999
 20
5.03059999999999
 30
0.0
 11
59.5
 21
5.03059999999999
 31
0.0
  0
LINE
  5
A0
330
1E
100
AcDbEntity
  8
0
100
AcDbLine
 10
48.6141
 20
5.06620999999999
 30
0.0
 11
48.79999999999999
 21
5.03059999999999
 31
0.0
  0
LINE
  5
A1
330
1E
100
AcDbEntity
  8
0
100
AcDbLine
 10
48.5393
 20
5.16137999999999
 30
0.0
 11
48.6141
 21
5.06620999999999
 31
0.0
  0
LINE
  5
A2
330
1E
100
AcDbEntity
  8
0
100
AcDbLine
 10
48.2762
 20
9.503317999999991
 30
0.0
 11
48.5393
 21
5.16137999999999
 31
0.0
  0
LINE
  5
A3
330
1E
100
AcDbEntity
  8
0
100
AcDbLine
 10
48.3316
 20
4.57938999999999
 30
0.0
 11
48.79999999999999
 21
4.36613999999999
 31
0.0
  0
LINE
  5
A4
330
1E
100
AcDbEntity
  8
0
100
AcDbLine
 10
48.0393
 20
4.95006999999999
 30
0.0
 11
48.3316
 21
4.57938999999999
 31
0.0
  0
LINE
  5
A5
330
1E
100
AcDbEntity
  8
0
100
AcDbLine
 10
48.0393
 20
3.68218999999999
 30
0.0
 11
48.3316
 21
3.31153999999999
 31
0.0
  0
LINE
  5
A6
330
1E
100
AcDbEntity
  8
0
100
AcDbLine
 10
47.7762
 20
8.024199999999989
 30
0.0
 11
48.0393
 21
3.68218999999999
 31
0.0
  0
LINE
  5
A7
330
1E
100
AcDbEntity
  8
0
100
AcDbLine
 10
42.85849999999999
 20
32.32585
 30
0.0
 11
43.2794
 21
32.30995
 31
0.0
  0
LINE
  5
A8
330
1E
100
AcDbEntity
  8
0
100
AcDbLine
 10
42.85849999999999
 20
32.32585
 30
0.0
 11
42.86494201149429
 21
32.56485
 31
0.0
  0
LINE
  5
A9
330
1E
100
AcDbEntity
  8
0
100
AcDbLine
 10
43.2794
 20
32.30995
 30
0.0
 11
44.1129
 21
32.29395
 31
0.0
  0
LINE
  5
AA
330
1E
100
AcDbEntity
  8
0
100
AcDbLine
 10
43.2794
 20
32.30995
 30
0.0
 11
43.28627058045979
 21
32.56485
 31
0.0
  0
LINE
  5
AB
330
1E
100
AcDbEntity
  8
0
100
AcDbLine
 10
45.0757
 20
32.29395
 30
0.0
 11
45.07917478562039
 21
32.4225909995616
 31
0.0
  0
LINE
  5
AC
330
1E
100
AcDbEntity
  8
0
100
AcDbLine
 10
44.1129
 20
32.29395
 30
0.0
 11
44.8631
 21
32.28714999999999
 31
0.0
  0
LINE
  5
AD
330
1E
100
AcDbEntity
  8
0
100
AcDbLine
 10
44.1129
 20
32.29395
 30
0.0
 11
44.1202018448276
 21
32.56485
 31
0.0
  0
LINE
  5
AE
330
1E
100
AcDbEntity
  8
0
100
AcDbLine
 10
44.8631
 20
32.28714999999999
 30
0.0
 11
45.0757
 21
32.29395
 31
0.0
  0
LINE
  5
AF
330
1E
100
AcDbEntity
  8
0
100
AcDbLine
 10
44.8631
 20
32.28714999999999
 30
0.0
 11
44.8668993672027
 21
32.42810733331939
 31
0.0
  0
LINE
  5
B0
330
1E
100
AcDbEntity
  8
0
100
AcDbLine
 10
47.435
 20
32.29395
 30
0.0
 11
48.2687
 21
32.28714999999999
 31
0.0
  0
LINE
  5
B1
330
1E
100
AcDbEntity
  8
0
100
AcDbLine
 10
46.6849
 20
32.30995
 30
0.0
 11
47.435
 21
32.29395
 31
0.0
  0
LINE
  5
B2
330
1E
100
AcDbEntity
  8
0
100
AcDbLine
 10
46.0488
 20
32.41295
 30
0.0
 11
46.4745017391784
 21
32.4177673936203
 31
0.0
  0
LINE
  5
B3
330
1E
100
AcDbEntity
  8
0
100
AcDbLine
 10
45.18849999999999
 20
32.41975
 30
0.0
 11
46.0488
 21
32.41295
 31
0.0
  0
LINE
  5
B4
330
1E
100
AcDbEntity
  8
0
100
AcDbLine
 10
46.0488
 20
32.41295
 30
0.0
 11
46.6497
 21
32.41975
 31
0.0
  0
LINE
  5
B5
330
1E
100
AcDbEntity
  8
0
100
AcDbLine
 10
45.07917478562039
 20
32.4225909995616
 30
0.0
 11
45.18849999999999
 21
32.41975
 31
0.0
  0
LINE
  5
B6
330
1E
100
AcDbEntity
  8
0
100
AcDbLine
 10
46.6603
 20
32.43574999999999
 30
0.0
 11
46.6619843324329
 21
32.56485
 31
0.0
  0
LINE
  5
B7
330
1E
100
AcDbEntity
  8
0
100
AcDbLine
 10
46.0447
 20
32.45165
 30
0.0
 11
46.6603
 21
32.43574999999999
 31
0.0
  0
LINE
  5
B8
330
1E
100
AcDbEntity
  8
0
100
AcDbLine
 10
46.0447
 20
32.45165
 30
0.0
 11
46.0461702988506
 21
32.56485
 31
0.0
  0
LINE
  5
B9
330
1E
100
AcDbEntity
  8
0
100
AcDbLine
 10
45.18849999999999
 20
32.41975
 30
0.0
 11
46.0488
 21
32.41295
 31
0.0
  0
LINE
  5
BA
330
1E
100
AcDbEntity
  8
0
100
AcDbLine
 10
44.57279999999999
 20
32.43574999999999
 30
0.0
 11
45.18849999999999
 21
32.41975
 31
0.0
  0
LINE
  5
BB
330
1E
100
AcDbEntity
  8
0
100
AcDbLine
 10
44.57279999999999
 20
32.43574999999999
 30
0.0
 11
44.5744843324329
 21
32.56485
 31
0.0
  0
LINE
  5
BC
330
1E
100
AcDbEntity
  8
0
100
AcDbLine
 10
45.1844
 20
32.45855
 30
0.0
 11
46.0447
 21
32.45165
 31
0.0
  0
LINE
  5
BD
330
1E
100
AcDbEntity
  8
0
100
AcDbLine
 10
45.1844
 20
32.45855
 30
0.0
 11
45.1857807575148
 21
32.56485
 31
0.0
  0
LINE
  5
BE
330
1E
100
AcDbEntity
  8
0
100
AcDbLine
 10
44.58339999999999
 20
32.45165
 30
0.0
 11
45.1844
 21
32.45855
 31
0.0
  0
LINE
  5
BF
330
1E
100
AcDbEntity
  8
0
100
AcDbLine
 10
44.58339999999999
 20
32.45165
 30
0.0
 11
44.58487680459771
 21
32.56485
 31
0.0
  0
LINE
  5
C0
330
1E
100
AcDbEntity
  8
0
100
AcDbLine
 10
46.8937
 20
32.33274999999999
 30
0.0
 11
47.7274
 21
32.32585
 31
0.0
  0
LINE
  5
C1
330
1E
100
AcDbEntity
  8
0
100
AcDbLine
 10
46.8937
 20
32.33274999999999
 30
0.0
 11
46.8985023449624
 21
32.56485
 31
0.0
  0
LINE
  5
C2
330
1E
100
AcDbEntity
  8
0
100
AcDbLine
 10
46.4726
 20
32.32585
 30
0.0
 11
46.8937
 21
32.33274999999999
 31
0.0
  0
LINE
  5
C3
330
1E
100
AcDbEntity
  8
0
100
AcDbLine
 10
46.4726
 20
32.32585
 30
0.0
 11
46.6849
 21
32.30995
 31
0.0
  0
LINE
  5
C4
330
1E
100
AcDbEntity
  8
0
100
AcDbLine
 10
46.4726
 20
32.32585
 30
0.0
 11
46.4745017391784
 21
32.4177673936203
 31
0.0
  0
LINE
  5
C5
330
1E
100
AcDbEntity
  8
0
100
AcDbLine
 10
46.4726
 20
32.32585
 30
0.0
 11
46.4745017391784
 21
32.4177673936203
 31
0.0
  0
LINE
  5
C6
330
1E
100
AcDbEntity
  8
0
100
AcDbLine
 10
48.5
 20
17.15462
 30
0.0
 11
48.5
 21
25.73145
 31
0.0
  0
LINE
  5
C7
330
1E
100
AcDbEntity
  8
0
100
AcDbLine
 10
47.7274
 20
32.32585
 30
0.0
 11
48.4775
 21
32.30995
 31
0.0
  0
LINE
  5
C8
330
1E
100
AcDbEntity
  8
0
100
AcDbLine
 10
47.7274
 20
32.32585
 30
0.0
 11
47.7323448275862
 21
32.56485
 31
0.0
  0
LINE
  5
C9
330
1E
100
AcDbEntity
  8
0
100
AcDbLine
 10
48.2687
 20
32.28714999999999
 30
0.0
 11
48.6898
 21
32.29395
 31
0.0
  0
LINE
  5
CA
330
1E
100
AcDbEntity
  8
0
100
AcDbLine
 10
48.0393
 20
29.15885
 30
0.0
 11
48.3316
 21
29.52945
 31
0.0
  0
LINE
  5
CB
330
1E
100
AcDbEntity
  8
0
100
AcDbLine
 10
47.7762
 20
24.81685
 30
0.0
 11
48.0393
 21
29.15885
 31
0.0
  0
LINE
  5
CD
330
1E
100
AcDbEntity
  8
0
100
AcDbLine
 10
48.5
 20
25.73145
 30
0.0
 11
48.5
 21
32.09865
 31
0.0
  0
LINE
  5
CE
330
1E
100
AcDbEntity
  8
0
100
AcDbLine
 10
48.4775
 20
32.30995
 30
0.0
 11
48.6898
 21
32.29395
 31
0.0
  0
LINE
  5
CF
330
1E
100
AcDbEntity
  8
0
100
AcDbLine
 10
48.4775
 20
32.30995
 30
0.0
 11
48.4827737931035
 21
32.56485
 31
0.0
  0
LINE
  5
D0
330
1E
100
AcDbEntity
  8
0
100
AcDbLine
 10
48.5
 20
32.2908850748041
 30
0.0
 11
48.5
 21
32.09865
 31
0.0
  0
LINE
  5
D1
330
1E
100
AcDbEntity
  8
0
100
AcDbLine
 10
50.2517
 20
31.40445
 30
0.0
 11
50.9007
 21
31.40445
 31
0.0
  0
LINE
  5
D2
330
1E
100
AcDbEntity
  8
0
100
AcDbLine
 10
49.7471
 20
31.40445
 30
0.0
 11
50.2517
 21
31.40445
 31
0.0
  0
LINE
  5
D3
330
1E
100
AcDbEntity
  8
0
100
AcDbLine
 10
49.4432
 20
31.40445
 30
0.0
 11
49.7471
 21
31.40445
 31
0.0
  0
LINE
  5
D4
330
1E
100
AcDbEntity
  8
0
100
AcDbLine
 10
49.3265
 20
31.40445
 30
0.0
 11
49.4412
 21
31.40445
 31
0.0
  0
LINE
  5
D5
330
1E
100
AcDbEntity
  8
0
100
AcDbLine
 10
49.3265
 20
31.40445
 30
0.0
 11
49.4432
 21
31.40445
 31
0.0
  0
LINE
  5
D6
330
1E
100
AcDbEntity
  8
0
100
AcDbLine
 10
49.4412
 20
31.40445
 30
0.0
 11
49.74289999999999
 21
31.40445
 31
0.0
  0
LINE
  5
D7
330
1E
100
AcDbEntity
  8
0
100
AcDbLine
 10
50.9007
 20
31.40445
 30
0.0
 11
51.67629999999999
 21
31.40445
 31
0.0
  0
LINE
  5
D8
330
1E
100
AcDbEntity
  8
0
100
AcDbLine
 10
51.67629999999999
 20
31.40445
 30
0.0
 11
52.4866
 21
31.40445
 31
0.0
  0
LINE
  5
D9
330
1E
100
AcDbEntity
  8
0
100
AcDbLine
 10
51.668
 20
31.40445
 30
0.0
 11
52.4781
 21
31.40445
 31
0.0
  0
LINE
  5
DA
330
1E
100
AcDbEntity
  8
0
100
AcDbLine
 10
50.9081
 20
31.40445
 30
0.0
 11
51.668
 21
31.40445
 31
0.0
  0
LINE
  5
DB
330
1E
100
AcDbEntity
  8
0
100
AcDbLine
 10
50.2637
 20
31.40445
 30
0.0
 11
50.9081
 21
31.40445
 31
0.0
  0
LINE
  5
DC
330
1E
100
AcDbEntity
  8
0
100
AcDbLine
 10
51.1717
 20
32.36025
 30
0.0
 11
51.2945
 21
32.37624999999999
 31
0.0
  0
LINE
  5
DD
330
1E
100
AcDbEntity
  8
0
100
AcDbLine
 10
51.1717
 20
32.36025
 30
0.0
 11
51.7037
 21
32.34434999999999
 31
0.0
  0
LINE
  5
DE
330
1E
100
AcDbEntity
  8
0
100
AcDbLine
 10
51.1717
 20
32.36025
 30
0.0
 11
51.1735108275862
 21
32.56485
 31
0.0
  0
LINE
  5
DF
330
1E
100
AcDbEntity
  8
0
100
AcDbLine
 10
51.7037
 20
32.34434999999999
 30
0.0
 11
52.5553
 21
32.33744999999999
 31
0.0
  0
LINE
  5
E0
330
1E
100
AcDbEntity
  8
0
100
AcDbLine
 10
51.2945
 20
32.37624999999999
 30
0.0
 11
51.9707
 21
32.38304999999999
 31
0.0
  0
LINE
  5
E1
330
1E
100
AcDbEntity
  8
0
100
AcDbLine
 10
51.2945
 20
32.37624999999999
 30
0.0
 11
51.29615847462499
 21
32.56485
 31
0.0
  0
LINE
  5
E2
330
1E
100
AcDbEntity
  8
0
100
AcDbLine
 10
48.6898
 20
32.29395
 30
0.0
 11
48.6954203965517
 21
32.56485
 31
0.0
  0
LINE
  5
E3
330
1E
100
AcDbEntity
  8
0
100
AcDbLine
 10
48.51109605826479
 20
32.2910642559872
 30
0.0
 11
49.3265
 21
31.40445
 31
0.0
  0
LINE
  5
E4
330
1E
100
AcDbEntity
  8
0
100
AcDbLine
 10
49.74289999999999
 20
31.40445
 30
0.0
 11
50.2637
 21
31.40445
 31
0.0
  0
LINE
  5
E5
330
1E
100
AcDbEntity
  8
0
100
AcDbLine
 10
48.5
 20
32.09865
 30
0.0
 11
48.5
 21
25.73145
 31
0.0
  0
LINE
  5
E6
330
1E
100
AcDbEntity
  8
0
100
AcDbLine
 10
48.5
 20
32.09865
 30
0.0
 11
48.5
 21
32.2908850748041
 31
0.0
  0
LINE
  5
E7
330
1E
100
AcDbEntity
  8
0
100
AcDbLine
 10
48.3316
 20
29.52945
 30
0.0
 11
48.5
 21
29.60613599487619
 31
0.0
  0
LINE
  5
E8
330
1E
100
AcDbEntity
  8
0
100
AcDbLine
 10
48.2762
 20
25.02815
 30
0.0
 11
48.5
 21
28.72157303306719
 31
0.0
  0
LINE
  5
E9
330
1E
100
AcDbEntity
  8
0
100
AcDbLine
 10
48.0
 20
17.26575
 30
0.0
 11
48.2762
 21
9.503317999999991
 31
0.0
  0
LINE
  5
EA
330
1E
100
AcDbEntity
  8
0
100
AcDbLine
 10
48.0
 20
17.26575
 30
0.0
 11
48.2762
 21
25.02815
 31
0.0
  0
LINE
  5
ED
330
1E
100
AcDbEntity
  8
0
100
AcDbLine
 10
47.5
 20
17.05443999999999
 30
0.0
 11
47.5
 21
15.78659
 31
0.0
  0
LINE
  5
EE
330
1E
100
AcDbEntity
  8
0
100
AcDbLine
 10
47.5
 20
17.05443999999999
 30
0.0
 11
47.7762
 21
24.81685
 31
0.0
  0
LINE
  5
EF
330
1E
100
AcDbEntity
  8
0
100
AcDbLine
 10
47.5
 20
15.78659
 30
0.0
 11
47.7762
 21
8.024199999999989
 31
0.0
  0
LINE
  5
F0
330
1E
100
AcDbEntity
  8
0
100
AcDbLine
 10
47.5
 20
15.78659
 30
0.0
 11
47.5
 21
17.05443999999999
 31
0.0
  0
LINE
  5
F1
330
1E
100
AcDbEntity
  8
0
100
AcDbLine
 10
42.4637140344828
 20
32.56485
 30
0.0
 11
42.86494201149429
 21
32.56485
 31
0.0
  0
LINE
  5
F2
330
1E
100
AcDbEntity
  8
0
100
AcDbLine
 10
42.4637140344828
 20
32.56485
 30
0.0
 11
42.8534
 21
32.56485
 31
0.0
  0
LINE
  5
F3
330
1E
100
AcDbEntity
  8
0
100
AcDbLine
 10
38.526310408046
 20
32.56485
 30
0.0
 11
38.6145309960343
 21
32.56485
 31
0.0
  0
LINE
  5
F4
330
1E
100
AcDbEntity
  8
0
100
AcDbLine
 10
42.8549
 20
32.56485
 30
0.0
 11
44.5744843324329
 21
32.56485
 31
0.0
  0
LINE
  5
F5
330
1E
100
AcDbEntity
  8
0
100
AcDbLine
 10
50.46269999999999
 20
32.56485
 30
0.0
 11
51.1735108275862
 21
32.56485
 31
0.0
  0
LINE
  5
F6
330
1E
100
AcDbEntity
  8
0
100
AcDbLine
 10
38.526310408046
 20
32.56485
 30
0.0
 11
38.6145309960343
 21
32.56485
 31
0.0
  0
LINE
  5
F7
330
1E
100
AcDbEntity
  8
0
100
AcDbLine
 10
37.26809999999999
 20
32.56485
 30
0.0
 11
44.4918
 21
32.56485
 31
0.0
  0
LINE
  5
FD
330
1E
100
AcDbEntity
  8
0
100
AcDbLine
 10
0.4440300000000001
 20
32.85495
 30
0.0
 11
1.332089999999999
 21
32.56485
 31
0.0
  0
LINE
  5
FE
330
1E
100
AcDbEntity
  8
0
100
AcDbLine
 10
4.61791
 20
33.43515
 30
0.0
 11
8.07197
 21
33.43515
 31
0.0
  0
LINE
  5
FF
330
1E
100
AcDbEntity
  8
0
100
AcDbLine
 10
2.13134
 20
33.43515
 30
0.0
 11
4.61791
 21
33.43515
 31
0.0
  0
LINE
  5
100
330
1E
100
AcDbEntity
  8
0
100
AcDbLine
 10
8.07197
 20
33.43515
 30
0.0
 11
12.4051
 21
33.43515
 31
0.0
  0
LINE
  5
103
330
1E
100
AcDbEntity
  8
0
100
AcDbLine
 10
12.4051
 20
33.43515
 30
0.0
 11
17.4253
 21
33.43515
 31
0.0
  0
LINE
  5
104
330
1E
100
AcDbEntity
  8
0
100
AcDbLine
 10
0.6216420000000001
 20
33.43515
 30
0.0
 11
2.13134
 21
33.43515
 31
0.0
  0
LINE
  5
105
330
1E
100
AcDbEntity
  8
0
100
AcDbLine
 10
0.0
 20
33.43515
 30
0.0
 11
0.4440300000000001
 21
32.85495
 31
0.0
  0
LINE
  5
106
330
1E
100
AcDbEntity
  8
0
100
AcDbLine
 10
0.0
 20
33.43515
 30
0.0
 11
0.6216420000000001
 21
33.43515
 31
0.0
  0
LINE
  5
107
330
1E
100
AcDbEntity
  8
0
100
AcDbLine
 10
0.0
 20
33.43515
 30
0.0
 11
0.0
 21
33.72525
 31
0.0
  0
LINE
  5
108
330
1E
100
AcDbEntity
  8
0
100
AcDbLine
 10
17.4253
 20
33.43515
 30
0.0
 11
23.3278
 21
33.43515
 31
0.0
  0
LINE
  5
10B
330
1E
100
AcDbEntity
  8
0
100
AcDbLine
 10
23.3278
 20
33.43515
 30
0.0
 11
29.7956
 21
33.43515
 31
0.0
  0
LINE
  5
111
330
1E
100
AcDbEntity
  8
0
100
AcDbLine
 10
29.7956
 20
33.43515
 30
0.0
 11
36.7657
 21
33.43515
 31
0.0
  0
LINE
  5
116
330
1E
100
AcDbEntity
  8
0
100
AcDbLine
 10
36.7657
 20
33.43515
 30
0.0
 11
44.1366
 21
33.43515
 31
0.0
  0
LINE
  5
117
330
1E
100
AcDbEntity
  8
0
100
AcDbLine
 10
4.61791
 20
33.72525
 30
0.0
 11
8.07197
 21
33.72525
 31
0.0
  0
LINE
  5
118
330
1E
100
AcDbEntity
  8
0
100
AcDbLine
 10
2.13134
 20
33.72525
 30
0.0
 11
4.61791
 21
33.72525
 31
0.0
  0
LINE
  5
119
330
1E
100
AcDbEntity
  8
0
100
AcDbLine
 10
0.6216420000000001
 20
33.72525
 30
0.0
 11
2.13134
 21
33.72525
 31
0.0
  0
LINE
  5
11A
330
1E
100
AcDbEntity
  8
0
100
AcDbLine
 10
8.07197
 20
33.72525
 30
0.0
 11
12.4051
 21
33.72525
 31
0.0
  0
LINE
  5
11B
330
1E
100
AcDbEntity
  8
0
100
AcDbLine
 10
12.4051
 20
33.72525
 30
0.0
 11
17.42729999999999
 21
33.72525
 31
0.0
  0
LINE
  5
11D
330
1E
100
AcDbEntity
  8
0
100
AcDbLine
 10
0.0
 20
33.72525
 30
0.0
 11
0.0
 21
33.43515
 31
0.0
  0
LINE
  5
11E
330
1E
100
AcDbEntity
  8
0
100
AcDbLine
 10
0.0
 20
33.72525
 30
0.0
 11
0.6216420000000001
 21
33.72525
 31
0.0
  0
LINE
  5
11F
330
1E
100
AcDbEntity
  8
0
100
AcDbLine
 10
0.0
 20
33.72525
 30
0.0
 11
0.4440300000000001
 21
34.30545
 31
0.0
  0
LINE
  5
120
330
1E
100
AcDbEntity
  8
0
100
AcDbLine
 10
29.7956
 20
33.72525
 30
0.0
 11
36.7657
 21
33.72525
 31
0.0
  0
LINE
  5
121
330
1E
100
AcDbEntity
  8
0
100
AcDbLine
 10
23.3278
 20
33.72525
 30
0.0
 11
29.7956
 21
33.72525
 31
0.0
  0
LINE
  5
123
330
1E
100
AcDbEntity
  8
0
100
AcDbLine
 10
17.42729999999999
 20
33.72525
 30
0.0
 11
23.3278
 21
33.72525
 31
0.0
  0
LINE
  5
126
330
1E
100
AcDbEntity
  8
0
100
AcDbLine
 10
36.7657
 20
33.72525
 30
0.0
 11
44.1366
 21
33.72525
 31
0.0
  0
LINE
  5
127
330
1E
100
AcDbEntity
  8
0
100
AcDbLine
 10
7.15506
 20
45.32905
 30
0.0
 11
7.531649999999999
 21
48.22995
 31
0.0
  0
LINE
  5
128
330
1E
100
AcDbEntity
  8
0
100
AcDbLine
 10
6.025319999999999
 20
41.26765
 30
0.0
 11
7.15506
 21
45.32905
 31
0.0
  0
LINE
  5
129
330
1E
100
AcDbEntity
  8
0
100
AcDbLine
 10
3.765819999999999
 20
37.20635
 30
0.0
 11
6.025319999999999
 21
41.26765
 31
0.0
  0
LINE
  5
12A
330
1E
100
AcDbEntity
  8
0
100
AcDbLine
 10
1.77612
 20
34.88555
 30
0.0
 11
3.765819999999999
 21
37.20635
 31
0.0
  0
LINE
  5
12B
330
1E
100
AcDbEntity
  8
0
100
AcDbLine
 10
0.4440300000000001
 20
34.30545
 30
0.0
 11
1.77612
 21
34.88555
 31
0.0
  0
LINE
  5
139
330
1E
100
AcDbEntity
  8
0
100
AcDbLine
 10
7.531649999999999
 20
48.22995
 30
0.0
 11
8.28481
 21
49.10025
 31
0.0
  0
LINE
  5
13A
330
1E
100
AcDbEntity
  8
0
100
AcDbLine
 10
15.6598
 20
56.23775
 30
0.0
 11
20.3601
 21
59.57115
 31
0.0
  0
LINE
  5
13B
330
1E
100
AcDbEntity
  8
0
100
AcDbLine
 10
11.5124
 20
52.57115
 30
0.0
 11
15.6598
 21
56.23775
 31
0.0
  0
LINE
  5
13C
330
1E
100
AcDbEntity
  8
0
100
AcDbLine
 10
9.0
 20
49.40445
 30
0.0
 11
11.5124
 21
52.57115
 31
0.0
  0
LINE
  5
13D
330
1E
100
AcDbEntity
  8
0
100
AcDbLine
 10
8.28481
 20
49.10025
 30
0.0
 11
9.0
 21
49.40445
 31
0.0
  0
LINE
  5
13E
330
1E
100
AcDbEntity
  8
0
100
AcDbLine
 10
50.0393
 20
69.32214999999999
 30
0.0
 11
50.0393
 21
69.97775
 31
0.0
  0
LINE
  5
13F
330
1E
100
AcDbEntity
  8
0
100
AcDbLine
 10
50.0393
 20
69.32214999999999
 30
0.0
 11
50.3316
 21
69.69705000000001
 31
0.0
  0
LINE
  5
140
330
1E
100
AcDbEntity
  8
0
100
AcDbLine
 10
50.0082821815638
 20
68.8044554187867
 30
0.0
 11
50.0393
 21
69.32214999999999
 31
0.0
  0
LINE
  5
141
330
1E
100
AcDbEntity
  8
0
100
AcDbLine
 10
50.0393
 20
69.97775
 30
0.0
 11
50.0393
 21
70.48205
 31
0.0
  0
LINE
  5
142
330
1E
100
AcDbEntity
  8
0
100
AcDbLine
 10
50.0393
 20
69.97775
 30
0.0
 11
50.0393
 21
69.32214999999999
 31
0.0
  0
LINE
  5
143
330
1E
100
AcDbEntity
  8
0
100
AcDbLine
 10
50.8
 20
69.91265
 30
0.0
 11
59.5
 21
69.91265
 31
0.0
  0
LINE
  5
144
330
1E
100
AcDbEntity
  8
0
100
AcDbLine
 10
50.3316
 20
69.69705000000001
 30
0.0
 11
50.8
 21
69.91265
 31
0.0
  0
LINE
  5
145
330
1E
100
AcDbEntity
  8
0
100
AcDbLine
 10
50.8
 20
71.07264999999999
 30
0.0
 11
59.5
 21
71.07264999999999
 31
0.0
  0
LINE
  5
146
330
1E
100
AcDbEntity
  8
0
100
AcDbLine
 10
50.3316
 20
70.85695
 30
0.0
 11
50.8
 21
71.07264999999999
 31
0.0
  0
LINE
  5
147
330
1E
100
AcDbEntity
  8
0
100
AcDbLine
 10
50.0393
 20
70.48205
 30
0.0
 11
50.3316
 21
70.85695
 31
0.0
  0
LINE
  5
148
330
1E
100
AcDbEntity
  8
0
100
AcDbLine
 10
50.0393
 20
70.48205
 30
0.0
 11
50.0393
 21
69.97775
 31
0.0
  0
LINE
  5
149
330
1E
100
AcDbEntity
  8
0
100
AcDbLine
 10
49.9387455273007
 20
68.8037725369924
 30
0.0
 11
50.0393
 21
70.48205
 31
0.0
  0
LINE
  5
14A
330
1E
100
AcDbEntity
  8
0
100
AcDbLine
 10
45.2441
 20
68.23775000000001
 30
0.0
 11
50.0087469460553
 21
68.81221244590701
 31
0.0
  0
LINE
  5
14B
330
1E
100
AcDbEntity
  8
0
100
AcDbLine
 10
38.3319
 20
66.73775
 30
0.0
 11
45.2441
 21
68.23775000000001
 31
0.0
  0
LINE
  5
14C
330
1E
100
AcDbEntity
  8
0
100
AcDbLine
 10
31.97259999999999
 20
64.90445
 30
0.0
 11
38.3319
 21
66.73775
 31
0.0
  0
LINE
  5
14D
330
1E
100
AcDbEntity
  8
0
100
AcDbLine
 10
25.8899
 20
62.40445
 30
0.0
 11
31.97259999999999
 21
64.90445
 31
0.0
  0
LINE
  5
14E
330
1E
100
AcDbEntity
  8
0
100
AcDbLine
 10
20.3601
 20
59.57115
 30
0.0
 11
25.8899
 21
62.40445
 31
0.0
  0
LINE
  5
15D
330
1E
100
AcDbEntity
  8
0
100
AcDbLine
 10
44.1366
 20
33.72525
 30
0.0
 11
51.77389999999999
 21
33.72525
 31
0.0
  0
LINE
  5
15E
330
1E
100
AcDbEntity
  8
0
100
AcDbLine
 10
51.77389999999999
 20
33.72525
 30
0.0
 11
59.5
 21
33.72525
 31
0.0
  0
LINE
  5
15F
330
1E
100
AcDbEntity
  8
0
100
AcDbLine
 10
44.1366
 20
33.43515
 30
0.0
 11
51.77389999999999
 21
33.43515
 31
0.0
  0
LINE
  5
160
330
1E
100
AcDbEntity
  8
0
100
AcDbLine
 10
51.77389999999999
 20
33.43515
 30
0.0
 11
59.5
 21
33.43515
 31
0.0
  0
LINE
  5
161
330
1E
100
AcDbEntity
  8
0
100
AcDbLine
 10
44.4918
 20
32.56485
 30
0.0
 11
51.9515
 21
32.56485
 31
0.0
  0
LINE
  5
162
330
1E
100
AcDbEntity
  8
0
100
AcDbLine
 10
56.728
 20
0.286249999999992
 30
0.0
 11
59.5
 21
-0.0726500000000101
 31
0.0
  0
LINE
  5
163
330
1E
100
AcDbEntity
  8
0
100
AcDbLine
 10
54.04399999999999
 20
1.257589999999989
 30
0.0
 11
56.684
 21
0.30054999999999
 31
0.0
  0
LINE
  5
164
330
1E
100
AcDbEntity
  8
0
100
AcDbLine
 10
59.5
 20
-0.0726500000000101
 30
0.0
 11
62.27199999999999
 21
0.286249999999992
 31
0.0
  0
LINE
  5
165
330
1E
100
AcDbEntity
  8
0
100
AcDbLine
 10
62.316
 20
0.30054999999999
 30
0.0
 11
64.956
 21
1.257589999999989
 31
0.0
  0
LINE
  5
166
330
1E
100
AcDbEntity
  8
0
100
AcDbLine
 10
64.956
 20
1.257589999999989
 30
0.0
 11
67.28799999999999
 21
2.85268999999999
 31
0.0
  0
LINE
  5
167
330
1E
100
AcDbEntity
  8
0
100
AcDbLine
 10
59.5
 20
3.09827999999999
 30
0.0
 11
70.2
 21
3.09827999999999
 31
0.0
  0
LINE
  5
168
330
1E
100
AcDbEntity
  8
0
100
AcDbLine
 10
52.4866
 20
31.40445
 30
0.0
 11
53.2967
 21
31.40445
 31
0.0
  0
LINE
  5
169
330
1E
100
AcDbEntity
  8
0
100
AcDbLine
 10
53.2967
 20
31.40445
 30
0.0
 11
54.05660000000001
 21
31.40445
 31
0.0
  0
LINE
  5
16A
330
1E
100
AcDbEntity
  8
0
100
AcDbLine
 10
54.05660000000001
 20
31.40445
 30
0.0
 11
54.7011
 21
31.40445
 31
0.0
  0
LINE
  5
16B
330
1E
100
AcDbEntity
  8
0
100
AcDbLine
 10
54.7011
 20
31.40445
 30
0.0
 11
55.2219
 21
31.40445
 31
0.0
  0
LINE
  5
16C
330
1E
100
AcDbEntity
  8
0
100
AcDbLine
 10
54.06399999999999
 20
31.40445
 30
0.0
 11
54.713
 21
31.40445
 31
0.0
  0
LINE
  5
16D
330
1E
100
AcDbEntity
  8
0
100
AcDbLine
 10
54.713
 20
31.40445
 30
0.0
 11
55.2176
 21
31.40445
 31
0.0
  0
LINE
  5
16E
330
1E
100
AcDbEntity
  8
0
100
AcDbLine
 10
55.2176
 20
31.40445
 30
0.0
 11
55.5216
 21
31.40445
 31
0.0
  0
LINE
  5
16F
330
1E
100
AcDbEntity
  8
0
100
AcDbLine
 10
55.5216
 20
31.40445
 30
0.0
 11
55.6383
 21
31.40445
 31
0.0
  0
LINE
  5
170
330
1E
100
AcDbEntity
  8
0
100
AcDbLine
 10
55.5235
 20
31.40445
 30
0.0
 11
55.6383
 21
31.40445
 31
0.0
  0
LINE
  5
171
330
1E
100
AcDbEntity
  8
0
100
AcDbLine
 10
55.6383
 20
31.40445
 30
0.0
 11
55.9802426201306
 21
31.7762549254118
 31
0.0
  0
LINE
  5
172
330
1E
100
AcDbEntity
  8
0
100
AcDbLine
 10
55.2219
 20
31.40445
 30
0.0
 11
55.5235
 21
31.40445
 31
0.0
  0
LINE
  5
173
330
1E
100
AcDbEntity
  8
0
100
AcDbLine
 10
53.2885
 20
31.40445
 30
0.0
 11
54.06399999999999
 21
31.40445
 31
0.0
  0
LINE
  5
174
330
1E
100
AcDbEntity
  8
0
100
AcDbLine
 10
52.4781
 20
31.40445
 30
0.0
 11
53.2885
 21
31.40445
 31
0.0
  0
LINE
  5
175
330
1E
100
AcDbEntity
  8
0
100
AcDbLine
 10
56.3181
 20
31.40445
 30
0.0
 11
56.4446
 21
31.40445
 31
0.0
  0
LINE
  5
176
330
1E
100
AcDbEntity
  8
0
100
AcDbLine
 10
56.4446
 20
31.40445
 30
0.0
 11
56.7504
 21
31.40445
 31
0.0
  0
LINE
  5
177
330
1E
100
AcDbEntity
  8
0
100
AcDbLine
 10
56.7504
 20
31.40445
 30
0.0
 11
57.2565
 21
31.40445
 31
0.0
  0
LINE
  5
178
330
1E
100
AcDbEntity
  8
0
100
AcDbLine
 10
57.2565
 20
31.40445
 30
0.0
 11
57.8997
 21
31.40445
 31
0.0
  0
LINE
  5
179
330
1E
100
AcDbEntity
  8
0
100
AcDbLine
 10
58.0
 20
24.93505
 30
0.0
 11
58.0
 21
24.86635
 31
0.0
  0
LINE
  5
17A
330
1E
100
AcDbEntity
  8
0
100
AcDbLine
 10
58.0
 20
24.93505
 30
0.0
 11
58.0
 21
25.01525
 31
0.0
  0
LINE
  5
17B
330
1E
100
AcDbEntity
  8
0
100
AcDbLine
 10
58.0
 20
25.01525
 30
0.0
 11
58.0
 21
24.93505
 31
0.0
  0
LINE
  5
17C
330
1E
100
AcDbEntity
  8
0
100
AcDbLine
 10
58.0
 20
25.01525
 30
0.0
 11
58.0
 21
25.21155
 31
0.0
  0
LINE
  5
17D
330
1E
100
AcDbEntity
  8
0
100
AcDbLine
 10
58.0
 20
25.21155
 30
0.0
 11
58.0
 21
25.01525
 31
0.0
  0
LINE
  5
17E
330
1E
100
AcDbEntity
  8
0
100
AcDbLine
 10
58.0
 20
25.21155
 30
0.0
 11
58.0
 21
25.79954999999999
 31
0.0
  0
LINE
  5
17F
330
1E
100
AcDbEntity
  8
0
100
AcDbLine
 10
58.0
 20
24.86635
 30
0.0
 11
58.0
 21
24.93505
 31
0.0
  0
LINE
  5
180
330
1E
100
AcDbEntity
  8
0
100
AcDbLine
 10
58.0
 20
25.79954999999999
 30
0.0
 11
58.0
 21
25.21155
 31
0.0
  0
LINE
  5
181
330
1E
100
AcDbEntity
  8
0
100
AcDbLine
 10
58.0
 20
25.79954999999999
 30
0.0
 11
58.0
 21
26.59765
 31
0.0
  0
LINE
  5
182
330
1E
100
AcDbEntity
  8
0
100
AcDbLine
 10
58.0
 20
24.84345
 30
0.0
 11
58.0
 21
24.96945
 31
0.0
  0
LINE
  5
183
330
1E
100
AcDbEntity
  8
0
100
AcDbLine
 10
58.0
 20
24.84345
 30
0.0
 11
61.0
 21
24.84345
 31
0.0
  0
LINE
  5
184
330
1E
100
AcDbEntity
  8
0
100
AcDbLine
 10
58.0
 20
26.59765
 30
0.0
 11
58.0
 21
25.79954999999999
 31
0.0
  0
LINE
  5
185
330
1E
100
AcDbEntity
  8
0
100
AcDbLine
 10
58.0
 20
26.59765
 30
0.0
 11
58.0
 21
27.79975
 31
0.0
  0
LINE
  5
186
330
1E
100
AcDbEntity
  8
0
100
AcDbLine
 10
58.0
 20
24.96945
 30
0.0
 11
58.0
 21
25.37955
 31
0.0
  0
LINE
  5
187
330
1E
100
AcDbEntity
  8
0
100
AcDbLine
 10
58.0
 20
24.96945
 30
0.0
 11
58.0
 21
24.84345
 31
0.0
  0
LINE
  5
188
330
1E
100
AcDbEntity
  8
0
100
AcDbLine
 10
58.0
 20
27.79975
 30
0.0
 11
58.0
 21
26.59765
 31
0.0
  0
LINE
  5
189
330
1E
100
AcDbEntity
  8
0
100
AcDbLine
 10
58.0
 20
27.79975
 30
0.0
 11
58.0
 21
29.06275
 31
0.0
  0
LINE
  5
18A
330
1E
100
AcDbEntity
  8
0
100
AcDbLine
 10
58.0
 20
25.37955
 30
0.0
 11
58.0
 21
26.51365
 31
0.0
  0
LINE
  5
18B
330
1E
100
AcDbEntity
  8
0
100
AcDbLine
 10
58.0
 20
25.37955
 30
0.0
 11
58.0
 21
24.96945
 31
0.0
  0
LINE
  5
18C
330
1E
100
AcDbEntity
  8
0
100
AcDbLine
 10
58.0
 20
29.06275
 30
0.0
 11
58.0
 21
27.79975
 31
0.0
  0
LINE
  5
18D
330
1E
100
AcDbEntity
  8
0
100
AcDbLine
 10
58.0
 20
29.06275
 30
0.0
 11
58.0
 21
31.36325
 31
0.0
  0
LINE
  5
18E
330
1E
100
AcDbEntity
  8
0
100
AcDbLine
 10
58.0
 20
26.51365
 30
0.0
 11
58.0
 21
27.98375
 31
0.0
  0
LINE
  5
18F
330
1E
100
AcDbEntity
  8
0
100
AcDbLine
 10
58.0
 20
26.51365
 30
0.0
 11
58.0
 21
25.37955
 31
0.0
  0
LINE
  5
190
330
1E
100
AcDbEntity
  8
0
100
AcDbLine
 10
58.0
 20
31.36325
 30
0.0
 11
58.0
 21
29.06275
 31
0.0
  0
LINE
  5
191
330
1E
100
AcDbEntity
  8
0
100
AcDbLine
 10
58.0
 20
27.98375
 30
0.0
 11
58.0
 21
30.20995
 31
0.0
  0
LINE
  5
192
330
1E
100
AcDbEntity
  8
0
100
AcDbLine
 10
58.0
 20
27.98375
 30
0.0
 11
58.0
 21
26.51365
 31
0.0
  0
LINE
  5
193
330
1E
100
AcDbEntity
  8
0
100
AcDbLine
 10
58.0
 20
31.40445
 30
0.0
 11
58.0
 21
30.20995
 31
0.0
  0
LINE
  5
194
330
1E
100
AcDbEntity
  8
0
100
AcDbLine
 10
58.0
 20
30.20995
 30
0.0
 11
58.0
 21
31.40445
 31
0.0
  0
LINE
  5
195
330
1E
100
AcDbEntity
  8
0
100
AcDbLine
 10
58.0
 20
30.20995
 30
0.0
 11
58.0
 21
27.98375
 31
0.0
  0
LINE
  5
196
330
1E
100
AcDbEntity
  8
0
100
AcDbLine
 10
59.48129999999999
 20
31.40445
 30
0.0
 11
60.3038
 21
31.40445
 31
0.0
  0
LINE
  5
197
330
1E
100
AcDbEntity
  8
0
100
AcDbLine
 10
57.8997
 20
31.40445
 30
0.0
 11
58.6589
 21
31.40445
 31
0.0
  0
LINE
  5
198
330
1E
100
AcDbEntity
  8
0
100
AcDbLine
 10
51.9707
 20
32.38304999999999
 30
0.0
 11
52.8223
 21
32.37624999999999
 31
0.0
  0
LINE
  5
199
330
1E
100
AcDbEntity
  8
0
100
AcDbLine
 10
51.9707
 20
32.38304999999999
 30
0.0
 11
51.9722985862069
 21
32.56485
 31
0.0
  0
LINE
  5
19A
330
1E
100
AcDbEntity
  8
0
100
AcDbLine
 10
53.6445
 20
32.43574999999999
 30
0.0
 11
53.8774
 21
32.45165
 31
0.0
  0
LINE
  5
19B
330
1E
100
AcDbEntity
  8
0
100
AcDbLine
 10
53.6445
 20
32.43574999999999
 30
0.0
 11
54.0838
 21
32.41975
 31
0.0
  0
LINE
  5
19C
330
1E
100
AcDbEntity
  8
0
100
AcDbLine
 10
53.6445
 20
32.43574999999999
 30
0.0
 11
53.6450787573999
 21
32.56485
 31
0.0
  0
LINE
  5
19D
330
1E
100
AcDbEntity
  8
0
100
AcDbLine
 10
54.912
 20
32.41295
 30
0.0
 11
55.6519
 21
32.41975
 31
0.0
  0
LINE
  5
19E
330
1E
100
AcDbEntity
  8
0
100
AcDbLine
 10
54.61719999999999
 20
32.45855
 30
0.0
 11
55.4455
 21
32.45165
 31
0.0
  0
LINE
  5
19F
330
1E
100
AcDbEntity
  8
0
100
AcDbLine
 10
54.61719999999999
 20
32.45855
 30
0.0
 11
54.6176704350825
 21
32.56485
 31
0.0
  0
LINE
  5
1A0
330
1E
100
AcDbEntity
  8
0
100
AcDbLine
 10
54.0838
 20
32.41975
 30
0.0
 11
54.912
 21
32.41295
 31
0.0
  0
LINE
  5
1A1
330
1E
100
AcDbEntity
  8
0
100
AcDbLine
 10
53.8774
 20
32.45165
 30
0.0
 11
54.61719999999999
 21
32.45855
 31
0.0
  0
LINE
  5
1A2
330
1E
100
AcDbEntity
  8
0
100
AcDbLine
 10
53.8774
 20
32.45165
 30
0.0
 11
53.87790094252871
 21
32.56485
 31
0.0
  0
LINE
  5
1A3
330
1E
100
AcDbEntity
  8
0
100
AcDbLine
 10
53.3543
 20
32.36025
 30
0.0
 11
53.3560990689655
 21
32.56485
 31
0.0
  0
LINE
  5
1A4
330
1E
100
AcDbEntity
  8
0
100
AcDbLine
 10
52.8223
 20
32.37624999999999
 30
0.0
 11
53.3543
 21
32.36025
 31
0.0
  0
LINE
  5
1A5
330
1E
100
AcDbEntity
  8
0
100
AcDbLine
 10
52.8223
 20
32.37624999999999
 30
0.0
 11
52.82395847462499
 21
32.56485
 31
0.0
  0
LINE
  5
1A6
330
1E
100
AcDbEntity
  8
0
100
AcDbLine
 10
53.2315
 20
32.34434999999999
 30
0.0
 11
53.3543
 21
32.36025
 31
0.0
  0
LINE
  5
1A7
330
1E
100
AcDbEntity
  8
0
100
AcDbLine
 10
52.5553
 20
32.33744999999999
 30
0.0
 11
53.2315
 21
32.34434999999999
 31
0.0
  0
LINE
  5
1A8
330
1E
100
AcDbEntity
  8
0
100
AcDbLine
 10
53.3560990689655
 20
32.56485
 30
0.0
 11
53.4466
 21
32.56485
 31
0.0
  0
LINE
  5
1A9
330
1E
100
AcDbEntity
  8
0
100
AcDbLine
 10
55.8244
 20
32.30995
 30
0.0
 11
56.0572
 21
32.32585
 31
0.0
  0
LINE
  5
1AA
330
1E
100
AcDbEntity
  8
0
100
AcDbLine
 10
55.8244
 20
32.30995
 30
0.0
 11
56.2636
 21
32.29395
 31
0.0
  0
LINE
  5
1AB
330
1E
100
AcDbEntity
  8
0
100
AcDbLine
 10
55.8244
 20
32.30995
 30
0.0
 11
55.8249385250876
 21
32.4316426821366
 31
0.0
  0
LINE
  5
1AC
330
1E
100
AcDbEntity
  8
0
100
AcDbLine
 10
57.8317
 20
32.29395
 30
0.0
 11
58.0645
 21
32.30995
 31
0.0
  0
LINE
  5
1AD
330
1E
100
AcDbEntity
  8
0
100
AcDbLine
 10
57.0919
 20
32.28714999999999
 30
0.0
 11
57.8317
 21
32.29395
 31
0.0
  0
LINE
  5
1AE
330
1E
100
AcDbEntity
  8
0
100
AcDbLine
 10
56.797
 20
32.33274999999999
 30
0.0
 11
57.6253
 21
32.32585
 31
0.0
  0
LINE
  5
1AF
330
1E
100
AcDbEntity
  8
0
100
AcDbLine
 10
56.797
 20
32.33274999999999
 30
0.0
 11
56.79804050807519
 21
32.56485
 31
0.0
  0
LINE
  5
1B0
330
1E
100
AcDbEntity
  8
0
100
AcDbLine
 10
58.0645
 20
32.30995
 30
0.0
 11
58.0656426551724
 21
32.56485
 31
0.0
  0
LINE
  5
1B1
330
1E
100
AcDbEntity
  8
0
100
AcDbLine
 10
57.6253
 20
32.32585
 30
0.0
 11
58.0645
 21
32.30995
 31
0.0
  0
LINE
  5
1B2
330
1E
100
AcDbEntity
  8
0
100
AcDbLine
 10
57.6253
 20
32.32585
 30
0.0
 11
57.6263576436782
 21
32.56485
 31
0.0
  0
LINE
  5
1B3
330
1E
100
AcDbEntity
  8
0
100
AcDbLine
 10
56.2636
 20
32.29395
 30
0.0
 11
57.0919
 21
32.28714999999999
 31
0.0
  0
LINE
  5
1B4
330
1E
100
AcDbEntity
  8
0
100
AcDbLine
 10
56.0572
 20
32.32585
 30
0.0
 11
56.797
 21
32.33274999999999
 31
0.0
  0
LINE
  5
1B5
330
1E
100
AcDbEntity
  8
0
100
AcDbLine
 10
56.0572
 20
32.32585
 30
0.0
 11
56.05825764367821
 21
32.56485
 31
0.0
  0
LINE
  5
1B6
330
1E
100
AcDbEntity
  8
0
100
AcDbLine
 10
55.8847
 20
32.43574999999999
 30
0.0
 11
55.8852713374332
 21
32.56485
 31
0.0
  0
LINE
  5
1B7
330
1E
100
AcDbEntity
  8
0
100
AcDbLine
 10
55.4455
 20
32.45165
 30
0.0
 11
55.8847
 21
32.43574999999999
 31
0.0
  0
LINE
  5
1B8
330
1E
100
AcDbEntity
  8
0
100
AcDbLine
 10
55.4455
 20
32.45165
 30
0.0
 11
55.44600094252871
 21
32.56485
 31
0.0
  0
LINE
  5
1B9
330
1E
100
AcDbEntity
  8
0
100
AcDbLine
 10
55.6519
 20
32.41975
 30
0.0
 11
55.8847
 21
32.43574999999999
 31
0.0
  0
LINE
  5
1BA
330
1E
100
AcDbEntity
  8
0
100
AcDbLine
 10
55.39762521016569
 20
32.4174131050536
 30
0.0
 11
56.3181
 21
31.40445
 31
0.0
  0
LINE
  5
1BB
330
1E
100
AcDbEntity
  8
0
100
AcDbLine
 10
58.6589
 20
31.40445
 30
0.0
 11
59.48129999999999
 21
31.40445
 31
0.0
  0
LINE
  5
1BC
330
1E
100
AcDbEntity
  8
0
100
AcDbLine
 10
61.0
 20
24.84345
 30
0.0
 11
61.0
 21
24.96945
 31
0.0
  0
LINE
  5
1BD
330
1E
100
AcDbEntity
  8
0
100
AcDbLine
 10
61.0
 20
24.96945
 30
0.0
 11
61.0
 21
24.84345
 31
0.0
  0
LINE
  5
1BE
330
1E
100
AcDbEntity
  8
0
100
AcDbLine
 10
61.0
 20
24.96945
 30
0.0
 11
61.0
 21
25.37955
 31
0.0
  0
LINE
  5
1BF
330
1E
100
AcDbEntity
  8
0
100
AcDbLine
 10
61.0
 20
25.37955
 30
0.0
 11
61.0
 21
24.96945
 31
0.0
  0
LINE
  5
1C0
330
1E
100
AcDbEntity
  8
0
100
AcDbLine
 10
61.0
 20
25.37955
 30
0.0
 11
61.0
 21
26.51365
 31
0.0
  0
LINE
  5
1C1
330
1E
100
AcDbEntity
  8
0
100
AcDbLine
 10
61.0
 20
26.51365
 30
0.0
 11
61.0
 21
25.37955
 31
0.0
  0
LINE
  5
1C2
330
1E
100
AcDbEntity
  8
0
100
AcDbLine
 10
61.0
 20
26.51365
 30
0.0
 11
61.0
 21
27.98375
 31
0.0
  0
LINE
  5
1C3
330
1E
100
AcDbEntity
  8
0
100
AcDbLine
 10
61.0
 20
27.98375
 30
0.0
 11
61.0
 21
26.51365
 31
0.0
  0
LINE
  5
1C4
330
1E
100
AcDbEntity
  8
0
100
AcDbLine
 10
61.0
 20
27.98375
 30
0.0
 11
61.0
 21
30.20995
 31
0.0
  0
LINE
  5
1C5
330
1E
100
AcDbEntity
  8
0
100
AcDbLine
 10
61.0
 20
30.20995
 30
0.0
 11
61.0
 21
27.98375
 31
0.0
  0
LINE
  5
1C6
330
1E
100
AcDbEntity
  8
0
100
AcDbLine
 10
61.0
 20
30.20995
 30
0.0
 11
61.0
 21
31.40445
 31
0.0
  0
LINE
  5
1C7
330
1E
100
AcDbEntity
  8
0
100
AcDbLine
 10
61.0
 20
31.40445
 30
0.0
 11
61.0
 21
30.20995
 31
0.0
  0
LINE
  5
1C8
330
1E
100
AcDbEntity
  8
0
100
AcDbLine
 10
63.3617
 20
31.40445
 30
0.0
 11
63.4765
 21
31.40445
 31
0.0
  0
LINE
  5
1C9
330
1E
100
AcDbEntity
  8
0
100
AcDbLine
 10
63.3617
 20
31.40445
 30
0.0
 11
63.4784
 21
31.40445
 31
0.0
  0
LINE
  5
1CA
330
1E
100
AcDbEntity
  8
0
100
AcDbLine
 10
63.7781
 20
31.40445
 30
0.0
 11
64.2989
 21
31.40445
 31
0.0
  0
LINE
  5
1CB
330
1E
100
AcDbEntity
  8
0
100
AcDbLine
 10
65.7033
 20
31.40445
 30
0.0
 11
66.51340000000001
 21
31.40445
 31
0.0
  0
LINE
  5
1CC
330
1E
100
AcDbEntity
  8
0
100
AcDbLine
 10
64.9434
 20
31.40445
 30
0.0
 11
65.7033
 21
31.40445
 31
0.0
  0
LINE
  5
1CD
330
1E
100
AcDbEntity
  8
0
100
AcDbLine
 10
64.2989
 20
31.40445
 30
0.0
 11
64.9434
 21
31.40445
 31
0.0
  0
LINE
  5
1CE
330
1E
100
AcDbEntity
  8
0
100
AcDbLine
 10
64.28699999999999
 20
31.40445
 30
0.0
 11
64.936
 21
31.40445
 31
0.0
  0
LINE
  5
1CF
330
1E
100
AcDbEntity
  8
0
100
AcDbLine
 10
63.7824
 20
31.40445
 30
0.0
 11
64.28699999999999
 21
31.40445
 31
0.0
  0
LINE
  5
1D0
330
1E
100
AcDbEntity
  8
0
100
AcDbLine
 10
63.4784
 20
31.40445
 30
0.0
 11
63.7824
 21
31.40445
 31
0.0
  0
LINE
  5
1D1
330
1E
100
AcDbEntity
  8
0
100
AcDbLine
 10
63.4765
 20
31.40445
 30
0.0
 11
63.7781
 21
31.40445
 31
0.0
  0
LINE
  5
1D2
330
1E
100
AcDbEntity
  8
0
100
AcDbLine
 10
64.936
 20
31.40445
 30
0.0
 11
65.7115
 21
31.40445
 31
0.0
  0
LINE
  5
1D3
330
1E
100
AcDbEntity
  8
0
100
AcDbLine
 10
66.51340000000001
 20
31.40445
 30
0.0
 11
67.3237
 21
31.40445
 31
0.0
  0
LINE
  5
1D4
330
1E
100
AcDbEntity
  8
0
100
AcDbLine
 10
65.7115
 20
31.40445
 30
0.0
 11
66.5219
 21
31.40445
 31
0.0
  0
LINE
  5
1D5
330
1E
100
AcDbEntity
  8
0
100
AcDbLine
 10
66.5219
 20
31.40445
 30
0.0
 11
67.332
 21
31.40445
 31
0.0
  0
LINE
  5
1D6
330
1E
100
AcDbEntity
  8
0
100
AcDbLine
 10
62.64459999999999
 20
31.40445
 30
0.0
 11
63.56538371346129
 21
32.41775306899369
 31
0.0
  0
LINE
  5
1D7
330
1E
100
AcDbEntity
  8
0
100
AcDbLine
 10
62.51809999999999
 20
31.40445
 30
0.0
 11
62.64459999999999
 21
31.40445
 31
0.0
  0
LINE
  5
1D8
330
1E
100
AcDbEntity
  8
0
100
AcDbLine
 10
62.2123
 20
31.40445
 30
0.0
 11
62.51809999999999
 21
31.40445
 31
0.0
  0
LINE
  5
1D9
330
1E
100
AcDbEntity
  8
0
100
AcDbLine
 10
61.7062
 20
31.40445
 30
0.0
 11
62.2123
 21
31.40445
 31
0.0
  0
LINE
  5
1DA
330
1E
100
AcDbEntity
  8
0
100
AcDbLine
 10
61.063
 20
31.40445
 30
0.0
 11
61.7062
 21
31.40445
 31
0.0
  0
LINE
  5
1DB
330
1E
100
AcDbEntity
  8
0
100
AcDbLine
 10
63.3481
 20
32.41975
 30
0.0
 11
64.08800000000001
 21
32.41295
 31
0.0
  0
LINE
  5
1DC
330
1E
100
AcDbEntity
  8
0
100
AcDbLine
 10
64.08800000000001
 20
32.41295
 30
0.0
 11
64.91620000000001
 21
32.41975
 31
0.0
  0
LINE
  5
1DD
330
1E
100
AcDbEntity
  8
0
100
AcDbLine
 10
63.5545
 20
32.45165
 30
0.0
 11
64.3828
 21
32.45855
 31
0.0
  0
LINE
  5
1DE
330
1E
100
AcDbEntity
  8
0
100
AcDbLine
 10
63.1153
 20
32.43574999999999
 30
0.0
 11
63.3481
 21
32.41975
 31
0.0
  0
LINE
  5
1DF
330
1E
100
AcDbEntity
  8
0
100
AcDbLine
 10
63.1153
 20
32.43574999999999
 30
0.0
 11
63.5545
 21
32.45165
 31
0.0
  0
LINE
  5
1E0
330
1E
100
AcDbEntity
  8
0
100
AcDbLine
 10
64.91620000000001
 20
32.41975
 30
0.0
 11
65.3555
 21
32.43574999999999
 31
0.0
  0
LINE
  5
1E1
330
1E
100
AcDbEntity
  8
0
100
AcDbLine
 10
65.9487
 20
32.30995
 30
0.0
 11
66.5644
 21
32.32585
 31
0.0
  0
LINE
  5
1E2
330
1E
100
AcDbEntity
  8
0
100
AcDbLine
 10
65.9593
 20
32.29395
 30
0.0
 11
66.5603
 21
32.28714999999999
 31
0.0
  0
LINE
  5
1E3
330
1E
100
AcDbEntity
  8
0
100
AcDbLine
 10
66.1777
 20
32.37624999999999
 30
0.0
 11
67.02930000000001
 21
32.38304999999999
 31
0.0
  0
LINE
  5
1E4
330
1E
100
AcDbEntity
  8
0
100
AcDbLine
 10
65.6457
 20
32.36025
 30
0.0
 11
65.7685
 21
32.34434999999999
 31
0.0
  0
LINE
  5
1E5
330
1E
100
AcDbEntity
  8
0
100
AcDbLine
 10
65.6457
 20
32.36025
 30
0.0
 11
66.1777
 21
32.37624999999999
 31
0.0
  0
LINE
  5
1E6
330
1E
100
AcDbEntity
  8
0
100
AcDbLine
 10
65.7685
 20
32.34434999999999
 30
0.0
 11
66.4447
 21
32.33744999999999
 31
0.0
  0
LINE
  5
1E7
330
1E
100
AcDbEntity
  8
0
100
AcDbLine
 10
66.5644
 20
32.32585
 30
0.0
 11
67.4247
 21
32.33274999999999
 31
0.0
  0
LINE
  5
1E8
330
1E
100
AcDbEntity
  8
0
100
AcDbLine
 10
66.5603
 20
32.28714999999999
 30
0.0
 11
67.42059999999999
 21
32.29395
 31
0.0
  0
LINE
  5
1E9
330
1E
100
AcDbEntity
  8
0
100
AcDbLine
 10
66.4447
 20
32.33744999999999
 30
0.0
 11
67.2963
 21
32.34434999999999
 31
0.0
  0
LINE
  5
1EA
330
1E
100
AcDbEntity
  8
0
100
AcDbLine
 10
67.02930000000001
 20
32.38304999999999
 30
0.0
 11
67.7055
 21
32.37624999999999
 31
0.0
  0
LINE
  5
1EB
330
1E
100
AcDbEntity
  8
0
100
AcDbLine
 10
65.12260000000001
 20
32.45165
 30
0.0
 11
65.3555
 21
32.43574999999999
 31
0.0
  0
LINE
  5
1EC
330
1E
100
AcDbEntity
  8
0
100
AcDbLine
 10
63.55399905747129
 20
32.56485
 30
0.0
 11
63.5545
 21
32.45165
 31
0.0
  0
LINE
  5
1ED
330
1E
100
AcDbEntity
  8
0
100
AcDbLine
 10
63.11472866256679
 20
32.56485
 30
0.0
 11
63.1153
 21
32.43574999999999
 31
0.0
  0
LINE
  5
1EE
330
1E
100
AcDbEntity
  8
0
100
AcDbLine
 10
66.176041525375
 20
32.56485
 30
0.0
 11
66.1777
 21
32.37624999999999
 31
0.0
  0
LINE
  5
1EF
330
1E
100
AcDbEntity
  8
0
100
AcDbLine
 10
65.64390093103449
 20
32.56485
 30
0.0
 11
65.6457
 21
32.36025
 31
0.0
  0
LINE
  5
1F0
330
1E
100
AcDbEntity
  8
0
100
AcDbLine
 10
67.02770141379311
 20
32.56485
 30
0.0
 11
67.02930000000001
 21
32.38304999999999
 31
0.0
  0
LINE
  5
1F1
330
1E
100
AcDbEntity
  8
0
100
AcDbLine
 10
65.3549212426002
 20
32.56485
 30
0.0
 11
65.3555
 21
32.43574999999999
 31
0.0
  0
LINE
  5
1F2
330
1E
100
AcDbEntity
  8
0
100
AcDbLine
 10
65.12209905747129
 20
32.56485
 30
0.0
 11
65.12260000000001
 21
32.45165
 31
0.0
  0
LINE
  5
1F3
330
1E
100
AcDbEntity
  8
0
100
AcDbLine
 10
64.38232956491749
 20
32.56485
 30
0.0
 11
64.3828
 21
32.45855
 31
0.0
  0
LINE
  5
1F4
330
1E
100
AcDbEntity
  8
0
100
AcDbLine
 10
64.3828
 20
32.45855
 30
0.0
 11
65.12260000000001
 21
32.45165
 31
0.0
  0
LINE
  5
1F5
330
1E
100
AcDbEntity
  8
0
100
AcDbLine
 10
63.0009953031839
 20
31.7966555192892
 30
0.0
 11
63.3617
 21
31.40445
 31
0.0
  0
LINE
  5
1F6
330
1E
100
AcDbEntity
  8
0
100
AcDbLine
 10
60.3038
 20
31.40445
 30
0.0
 11
61.063
 21
31.40445
 31
0.0
  0
LINE
  5
1F7
330
1E
100
AcDbEntity
  8
0
100
AcDbLine
 10
59.5
 20
5.03059999999999
 30
0.0
 11
70.2
 21
5.03059999999999
 31
0.0
  0
LINE
  5
1F8
330
1E
100
AcDbEntity
  8
0
100
AcDbLine
 10
59.5
 20
4.36613999999999
 30
0.0
 11
70.2
 21
4.36613999999999
 31
0.0
  0
LINE
  5
1F9
330
1E
100
AcDbEntity
  8
0
100
AcDbLine
 10
67.28799999999999
 20
2.85268999999999
 30
0.0
 11
67.49251211491778
 21
3.09827999999999
 31
0.0
  0
LINE
  5
1FA
330
1E
100
AcDbEntity
  8
0
100
AcDbLine
 10
70.2
 20
3.09827999999999
 30
0.0
 11
70.6684
 21
3.31153999999999
 31
0.0
  0
LINE
  5
1FB
330
1E
100
AcDbEntity
  8
0
100
AcDbLine
 10
70.2
 20
4.36613999999999
 30
0.0
 11
70.6684
 21
4.57938999999999
 31
0.0
  0
LINE
  5
1FC
330
1E
100
AcDbEntity
  8
0
100
AcDbLine
 10
70.6684
 20
4.57938999999999
 30
0.0
 11
70.9607
 21
4.95006999999999
 31
0.0
  0
LINE
  5
1FD
330
1E
100
AcDbEntity
  8
0
100
AcDbLine
 10
70.6684
 20
4.57938999999999
 30
0.0
 11
70.9607
 21
4.95004999999999
 31
0.0
  0
LINE
  5
1FF
330
1E
100
AcDbEntity
  8
0
100
AcDbLine
 10
70.6684
 20
3.31153999999999
 30
0.0
 11
70.9607
 21
3.68218999999999
 31
0.0
  0
LINE
  5
200
330
1E
100
AcDbEntity
  8
0
100
AcDbLine
 10
70.2
 20
5.03059999999999
 30
0.0
 11
70.38590000000001
 21
5.06620999999999
 31
0.0
  0
LINE
  5
201
330
1E
100
AcDbEntity
  8
0
100
AcDbLine
 10
70.38590000000001
 20
5.06620999999999
 30
0.0
 11
70.4607
 21
5.16137999999999
 31
0.0
  0
LINE
  5
202
330
1E
100
AcDbEntity
  8
0
100
AcDbLine
 10
70.4607
 20
5.16137999999999
 30
0.0
 11
70.72379999999999
 21
9.503317999999991
 31
0.0
  0
LINE
  5
204
330
1E
100
AcDbEntity
  8
0
100
AcDbLine
 10
70.9607
 20
3.68218999999999
 30
0.0
 11
71.22379999999999
 21
8.024199999999989
 31
0.0
  0
LINE
  5
206
330
1E
100
AcDbEntity
  8
0
100
AcDbLine
 10
70.72379999999999
 20
9.503317999999991
 30
0.0
 11
71.0
 21
17.26575
 31
0.0
  0
LINE
  5
208
330
1E
100
AcDbEntity
  8
0
100
AcDbLine
 10
71.5
 20
15.78659
 30
0.0
 11
71.5
 21
17.05443999999999
 31
0.0
  0
LINE
  5
209
330
1E
100
AcDbEntity
  8
0
100
AcDbLine
 10
71.5
 20
17.05443999999999
 30
0.0
 11
71.5
 21
15.78659
 31
0.0
  0
LINE
  5
20A
330
1E
100
AcDbEntity
  8
0
100
AcDbLine
 10
71.22379999999999
 20
8.024199999999989
 30
0.0
 11
71.5
 21
15.78659
 31
0.0
  0
LINE
  5
20B
330
1E
100
AcDbEntity
  8
0
100
AcDbLine
 10
71.22379999999999
 20
24.81685
 30
0.0
 11
71.5
 21
17.05443999999999
 31
0.0
  0
LINE
  5
20C
330
1E
100
AcDbEntity
  8
0
100
AcDbLine
 10
70.72379999999999
 20
25.02815
 30
0.0
 11
71.0
 21
17.26575
 31
0.0
  0
LINE
  5
20D
330
1E
100
AcDbEntity
  8
0
100
AcDbLine
 10
70.5
 20
17.15462
 30
0.0
 11
70.5
 21
25.73145
 31
0.0
  0
LINE
  5
20E
330
1E
100
AcDbEntity
  8
0
100
AcDbLine
 10
67.3237
 20
31.40445
 30
0.0
 11
68.0993
 21
31.40445
 31
0.0
  0
LINE
  5
20F
330
1E
100
AcDbEntity
  8
0
100
AcDbLine
 10
68.0993
 20
31.40445
 30
0.0
 11
68.7483
 21
31.40445
 31
0.0
  0
LINE
  5
210
330
1E
100
AcDbEntity
  8
0
100
AcDbLine
 10
67.332
 20
31.40445
 30
0.0
 11
68.0919
 21
31.40445
 31
0.0
  0
LINE
  5
211
330
1E
100
AcDbEntity
  8
0
100
AcDbLine
 10
68.0919
 20
31.40445
 30
0.0
 11
68.7363
 21
31.40445
 31
0.0
  0
LINE
  5
212
330
1E
100
AcDbEntity
  8
0
100
AcDbLine
 10
68.7483
 20
31.40445
 30
0.0
 11
69.2529
 21
31.40445
 31
0.0
  0
LINE
  5
213
330
1E
100
AcDbEntity
  8
0
100
AcDbLine
 10
69.2529
 20
31.40445
 30
0.0
 11
69.5568
 21
31.40445
 31
0.0
  0
LINE
  5
214
330
1E
100
AcDbEntity
  8
0
100
AcDbLine
 10
69.5568
 20
31.40445
 30
0.0
 11
69.6735
 21
31.40445
 31
0.0
  0
LINE
  5
215
330
1E
100
AcDbEntity
  8
0
100
AcDbLine
 10
69.5588
 20
31.40445
 30
0.0
 11
69.6735
 21
31.40445
 31
0.0
  0
LINE
  5
216
330
1E
100
AcDbEntity
  8
0
100
AcDbLine
 10
69.6735
 20
31.40445
 30
0.0
 11
70.7407
 21
32.56485
 31
0.0
  0
LINE
  5
217
330
1E
100
AcDbEntity
  8
0
100
AcDbLine
 10
69.25709999999999
 20
31.40445
 30
0.0
 11
69.5588
 21
31.40445
 31
0.0
  0
LINE
  5
218
330
1E
100
AcDbEntity
  8
0
100
AcDbLine
 10
68.7363
 20
31.40445
 30
0.0
 11
69.25709999999999
 21
31.40445
 31
0.0
  0
LINE
  5
219
330
1E
100
AcDbEntity
  8
0
100
AcDbLine
 10
70.5
 20
29.60613599487619
 30
0.0
 11
70.6684
 21
29.52945
 31
0.0
  0
LINE
  5
21A
330
1E
100
AcDbEntity
  8
0
100
AcDbLine
 10
70.5
 20
28.72157303306719
 30
0.0
 11
70.72379999999999
 21
25.02815
 31
0.0
  0
LINE
  5
21B
330
1E
100
AcDbEntity
  8
0
100
AcDbLine
 10
67.42059999999999
 20
32.29395
 30
0.0
 11
68.03619999999999
 21
32.30995
 31
0.0
  0
LINE
  5
21C
330
1E
100
AcDbEntity
  8
0
100
AcDbLine
 10
67.4247
 20
32.33274999999999
 30
0.0
 11
68.02559999999999
 21
32.32585
 31
0.0
  0
LINE
  5
21D
330
1E
100
AcDbEntity
  8
0
100
AcDbLine
 10
67.2963
 20
32.34434999999999
 30
0.0
 11
67.8282
 21
32.36025
 31
0.0
  0
LINE
  5
21E
330
1E
100
AcDbEntity
  8
0
100
AcDbLine
 10
68.0328892298851
 20
32.56485
 30
0.0
 11
68.03619999999999
 21
32.30995
 31
0.0
  0
LINE
  5
21F
330
1E
100
AcDbEntity
  8
0
100
AcDbLine
 10
68.0224957471265
 20
32.56485
 30
0.0
 11
68.02559999999999
 21
32.32585
 31
0.0
  0
LINE
  5
220
330
1E
100
AcDbEntity
  8
0
100
AcDbLine
 10
67.8264009310345
 20
32.56485
 30
0.0
 11
67.8282
 21
32.36025
 31
0.0
  0
LINE
  5
221
330
1E
100
AcDbEntity
  8
0
100
AcDbLine
 10
67.70384152537499
 20
32.56485
 30
0.0
 11
67.7055
 21
32.37624999999999
 31
0.0
  0
LINE
  5
222
330
1E
100
AcDbEntity
  8
0
100
AcDbLine
 10
67.7055
 20
32.37624999999999
 30
0.0
 11
67.8282
 21
32.36025
 31
0.0
  0
LINE
  5
223
330
1E
100
AcDbEntity
  8
0
100
AcDbLine
 10
70.4889039417352
 20
32.2910642559872
 30
0.0
 11
70.7313
 21
32.28714999999999
 31
0.0
  0
LINE
  5
224
330
1E
100
AcDbEntity
  8
0
100
AcDbLine
 10
70.5
 20
32.09865
 30
0.0
 11
70.5
 21
32.2908850748041
 31
0.0
  0
LINE
  5
225
330
1E
100
AcDbEntity
  8
0
100
AcDbLine
 10
70.5
 20
32.09865
 30
0.0
 11
70.5
 21
25.73145
 31
0.0
  0
LINE
  5
226
330
1E
100
AcDbEntity
  8
0
100
AcDbLine
 10
70.7313
 20
32.28714999999999
 30
0.0
 11
71.565
 21
32.29395
 31
0.0
  0
LINE
  5
227
330
1E
100
AcDbEntity
  8
0
100
AcDbLine
 10
71.23229999999999
 20
32.56485
 30
0.0
 11
72.33801566756709
 21
32.56485
 31
0.0
  0
LINE
  5
228
330
1E
100
AcDbEntity
  8
0
100
AcDbLine
 10
70.72588770764709
 20
32.54874413039139
 30
0.0
 11
70.7313
 21
32.28714999999999
 31
0.0
  0
LINE
  5
229
330
1E
100
AcDbEntity
  8
0
100
AcDbLine
 10
71.55937960344829
 20
32.56485
 30
0.0
 11
71.565
 21
32.29395
 31
0.0
  0
LINE
  5
22A
330
1E
100
AcDbEntity
  8
0
100
AcDbLine
 10
71.565
 20
32.29395
 30
0.0
 11
72.3151
 21
32.30995
 31
0.0
  0
LINE
  5
22B
330
1E
100
AcDbEntity
  8
0
100
AcDbLine
 10
70.6684
 20
29.52945
 30
0.0
 11
70.9607
 21
29.15885
 31
0.0
  0
LINE
  5
22C
330
1E
100
AcDbEntity
  8
0
100
AcDbLine
 10
70.9607
 20
29.15885
 30
0.0
 11
71.22379999999999
 21
24.81685
 31
0.0
  0
LINE
  5
22D
330
1E
100
AcDbEntity
  8
0
100
AcDbLine
 10
70.5
 20
32.2908850748041
 30
0.0
 11
70.5
 21
32.09865
 31
0.0
  0
LINE
  5
22E
330
1E
100
AcDbEntity
  8
0
100
AcDbLine
 10
70.5
 20
25.73145
 30
0.0
 11
70.5
 21
17.15462
 31
0.0
  0
LINE
  5
22F
330
1E
100
AcDbEntity
  8
0
100
AcDbLine
 10
70.5
 20
25.73145
 30
0.0
 11
70.5
 21
32.09865
 31
0.0
  0
LINE
  5
230
330
1E
100
AcDbEntity
  8
0
100
AcDbLine
 10
67.0485
 20
32.56485
 30
0.0
 11
74.41939999999999
 21
32.56485
 31
0.0
  0
LINE
  5
231
330
1E
100
AcDbEntity
  8
0
100
AcDbLine
 10
59.5
 20
33.72525
 30
0.0
 11
67.2261
 21
33.72525
 31
0.0
  0
LINE
  5
232
330
1E
100
AcDbEntity
  8
0
100
AcDbLine
 10
67.2261
 20
33.72525
 30
0.0
 11
74.8634
 21
33.72525
 31
0.0
  0
LINE
  5
233
330
1E
100
AcDbEntity
  8
0
100
AcDbLine
 10
67.2261
 20
33.43515
 30
0.0
 11
74.8634
 21
33.43515
 31
0.0
  0
LINE
  5
234
330
1E
100
AcDbEntity
  8
0
100
AcDbLine
 10
59.5
 20
33.43515
 30
0.0
 11
67.2261
 21
33.43515
 31
0.0
  0
LINE
  5
235
330
1E
100
AcDbEntity
  8
0
100
AcDbLine
 10
59.5
 20
32.56485
 30
0.0
 11
67.0485
 21
32.56485
 31
0.0
  0
LINE
  5
236
330
1E
100
AcDbEntity
  8
0
100
AcDbLine
 10
74.13689999999999
 20
32.28714999999999
 30
0.0
 11
74.88710000000001
 21
32.29395
 31
0.0
  0
LINE
  5
237
330
1E
100
AcDbEntity
  8
0
100
AcDbLine
 10
73.9243
 20
32.29395
 30
0.0
 11
74.3451
 21
32.30995
 31
0.0
  0
LINE
  5
238
330
1E
100
AcDbEntity
  8
0
100
AcDbLine
 10
73.9243
 20
32.29395
 30
0.0
 11
74.13689999999999
 21
32.28714999999999
 31
0.0
  0
LINE
  5
239
330
1E
100
AcDbEntity
  8
0
100
AcDbLine
 10
75.7206
 20
32.30995
 30
0.0
 11
76.14149999999999
 21
32.32585
 31
0.0
  0
LINE
  5
23A
330
1E
100
AcDbEntity
  8
0
100
AcDbLine
 10
74.88710000000001
 20
32.29395
 30
0.0
 11
75.7206
 21
32.30995
 31
0.0
  0
LINE
  5
23B
330
1E
100
AcDbEntity
  8
0
100
AcDbLine
 10
74.3451
 20
32.30995
 30
0.0
 11
75.1786
 21
32.32585
 31
0.0
  0
LINE
  5
23C
330
1E
100
AcDbEntity
  8
0
100
AcDbLine
 10
72.33969999999999
 20
32.43574999999999
 30
0.0
 11
72.95529999999999
 21
32.45165
 31
0.0
  0
LINE
  5
23D
330
1E
100
AcDbEntity
  8
0
100
AcDbLine
 10
72.3503
 20
32.41975
 30
0.0
 11
72.9512
 21
32.41295
 31
0.0
  0
LINE
  5
23E
330
1E
100
AcDbEntity
  8
0
100
AcDbLine
 10
72.5254982608217
 20
32.4177673936203
 30
0.0
 11
72.5274
 21
32.32585
 31
0.0
  0
LINE
  5
23F
330
1E
100
AcDbEntity
  8
0
100
AcDbLine
 10
72.9512
 20
32.41295
 30
0.0
 11
73.81149999999999
 21
32.41975
 31
0.0
  0
LINE
  5
240
330
1E
100
AcDbEntity
  8
0
100
AcDbLine
 10
75.9289
 20
32.33274999999999
 30
0.0
 11
76.14149999999999
 21
32.32585
 31
0.0
  0
LINE
  5
241
330
1E
100
AcDbEntity
  8
0
100
AcDbLine
 10
75.1786
 20
32.32585
 30
0.0
 11
75.9289
 21
32.33274999999999
 31
0.0
  0
LINE
  5
242
330
1E
100
AcDbEntity
  8
0
100
AcDbLine
 10
72.9512
 20
32.41295
 30
0.0
 11
73.81149999999999
 21
32.41975
 31
0.0
  0
LINE
  5
243
330
1E
100
AcDbEntity
  8
0
100
AcDbLine
 10
72.95529999999999
 20
32.45165
 30
0.0
 11
73.8156
 21
32.45855
 31
0.0
  0
LINE
  5
244
330
1E
100
AcDbEntity
  8
0
100
AcDbLine
 10
73.9208252143797
 20
32.4225909995616
 30
0.0
 11
73.9243
 21
32.29395
 31
0.0
  0
LINE
  5
245
330
1E
100
AcDbEntity
  8
0
100
AcDbLine
 10
73.8156
 20
32.45855
 30
0.0
 11
74.4166
 21
32.45165
 31
0.0
  0
LINE
  5
246
330
1E
100
AcDbEntity
  8
0
100
AcDbLine
 10
74.3417690236612
 20
32.4335299323998
 30
0.0
 11
74.3451
 21
32.30995
 31
0.0
  0
LINE
  5
247
330
1E
100
AcDbEntity
  8
0
100
AcDbLine
 10
73.81149999999999
 20
32.41975
 30
0.0
 11
74.4272
 21
32.43574999999999
 31
0.0
  0
LINE
  5
248
330
1E
100
AcDbEntity
  8
0
100
AcDbLine
 10
73.81149999999999
 20
32.41975
 30
0.0
 11
73.9208252143797
 21
32.4225909995616
 31
0.0
  0
LINE
  5
249
330
1E
100
AcDbEntity
  8
0
100
AcDbLine
 10
72.5254982608217
 20
32.4177673936203
 30
0.0
 11
72.5274
 21
32.32585
 31
0.0
  0
LINE
  5
24A
330
1E
100
AcDbEntity
  8
0
100
AcDbLine
 10
72.5254982608217
 20
32.4177673936203
 30
0.0
 11
72.9512
 21
32.41295
 31
0.0
  0
LINE
  5
24B
330
1E
100
AcDbEntity
  8
0
100
AcDbLine
 10
72.3151
 20
32.30995
 30
0.0
 11
72.5274
 21
32.32585
 31
0.0
  0
LINE
  5
24C
330
1E
100
AcDbEntity
  8
0
100
AcDbLine
 10
77.7916
 20
32.28714999999999
 30
0.0
 11
78.0243
 21
32.29395
 31
0.0
  0
LINE
  5
24D
330
1E
100
AcDbEntity
  8
0
100
AcDbLine
 10
77.7916
 20
32.28714999999999
 30
0.0
 11
78.2307
 21
32.29395
 31
0.0
  0
LINE
  5
24E
330
1E
100
AcDbEntity
  8
0
100
AcDbLine
 10
78.2307
 20
32.29395
 30
0.0
 11
79.0587
 21
32.30995
 31
0.0
  0
LINE
  5
24F
330
1E
100
AcDbEntity
  8
0
100
AcDbLine
 10
78.0243
 20
32.29395
 30
0.0
 11
78.76380000000001
 21
32.30995
 31
0.0
  0
LINE
  5
250
330
1E
100
AcDbEntity
  8
0
100
AcDbLine
 10
79.0587
 20
32.30995
 30
0.0
 11
79.7982
 21
32.32585
 31
0.0
  0
LINE
  5
251
330
1E
100
AcDbEntity
  8
0
100
AcDbLine
 10
78.76380000000001
 20
32.30995
 30
0.0
 11
79.5918
 21
32.32585
 31
0.0
  0
LINE
  5
252
330
1E
100
AcDbEntity
  8
0
100
AcDbLine
 10
77.16070000000001
 20
32.29395
 30
0.0
 11
77.7909750580656
 21
32.3056746842565
 31
0.0
  0
LINE
  5
253
330
1E
100
AcDbEntity
  8
0
100
AcDbLine
 10
76.545
 20
32.28714999999999
 30
0.0
 11
77.16070000000001
 21
32.29395
 31
0.0
  0
LINE
  5
254
330
1E
100
AcDbEntity
  8
0
100
AcDbLine
 10
79.2716
 20
32.37624999999999
 30
0.0
 11
80.07040000000001
 21
32.38304999999999
 31
0.0
  0
LINE
  5
255
330
1E
100
AcDbEntity
  8
0
100
AcDbLine
 10
78.473
 20
32.36025
 30
0.0
 11
79.2716
 21
32.37624999999999
 31
0.0
  0
LINE
  5
256
330
1E
100
AcDbEntity
  8
0
100
AcDbLine
 10
78.1537
 20
32.34434999999999
 30
0.0
 11
78.47329999999999
 21
32.33744999999999
 31
0.0
  0
LINE
  5
257
330
1E
100
AcDbEntity
  8
0
100
AcDbLine
 10
78.1537
 20
32.34434999999999
 30
0.0
 11
78.473
 21
32.36025
 31
0.0
  0
LINE
  5
258
330
1E
100
AcDbEntity
  8
0
100
AcDbLine
 10
78.47329999999999
 20
32.33744999999999
 30
0.0
 11
79.27209999999999
 21
32.34434999999999
 31
0.0
  0
LINE
  5
259
330
1E
100
AcDbEntity
  8
0
100
AcDbLine
 10
79.7982
 20
32.32585
 30
0.0
 11
80.03100000000001
 21
32.33274999999999
 31
0.0
  0
LINE
  5
25A
330
1E
100
AcDbEntity
  8
0
100
AcDbLine
 10
79.5918
 20
32.32585
 30
0.0
 11
80.03100000000001
 21
32.33274999999999
 31
0.0
  0
LINE
  5
25B
330
1E
100
AcDbEntity
  8
0
100
AcDbLine
 10
79.27209999999999
 20
32.34434999999999
 30
0.0
 11
80.0707
 21
32.36025
 31
0.0
  0
LINE
  5
25C
330
1E
100
AcDbEntity
  8
0
100
AcDbLine
 10
80.07040000000001
 20
32.38304999999999
 30
0.0
 11
80.38999999999999
 21
32.37624999999999
 31
0.0
  0
LINE
  5
25D
330
1E
100
AcDbEntity
  8
0
100
AcDbLine
 10
80.0707
 20
32.36025
 30
0.0
 11
80.38999999999999
 21
32.37624999999999
 31
0.0
  0
LINE
  5
25E
330
1E
100
AcDbEntity
  8
0
100
AcDbLine
 10
80.4767
 20
32.41975
 30
0.0
 11
80.89780000000001
 21
32.41295
 31
0.0
  0
LINE
  5
25F
330
1E
100
AcDbEntity
  8
0
100
AcDbLine
 10
80.4767
 20
32.41975
 30
0.0
 11
80.68899999999999
 21
32.43574999999999
 31
0.0
  0
LINE
  5
260
330
1E
100
AcDbEntity
  8
0
100
AcDbLine
 10
81.43919999999999
 20
32.45165
 30
0.0
 11
82.2728
 21
32.45855
 31
0.0
  0
LINE
  5
261
330
1E
100
AcDbEntity
  8
0
100
AcDbLine
 10
80.68899999999999
 20
32.43574999999999
 30
0.0
 11
81.43919999999999
 21
32.45165
 31
0.0
  0
LINE
  5
262
330
1E
100
AcDbEntity
  8
0
100
AcDbLine
 10
80.89780000000001
 20
32.41295
 30
0.0
 11
81.73149999999999
 21
32.41975
 31
0.0
  0
LINE
  5
263
330
1E
100
AcDbEntity
  8
0
100
AcDbLine
 10
80.4767
 20
32.41975
 30
0.0
 11
80.89780000000001
 21
32.41295
 31
0.0
  0
LINE
  5
264
330
1E
100
AcDbEntity
  8
0
100
AcDbLine
 10
80.89780000000001
 20
32.41295
 30
0.0
 11
81.73149999999999
 21
32.41975
 31
0.0
  0
LINE
  5
265
330
1E
100
AcDbEntity
  8
0
100
AcDbLine
 10
76.13505798850579
 20
32.56485
 30
0.0
 11
76.53628596551731
 21
32.56485
 31
0.0
  0
LINE
  5
266
330
1E
100
AcDbEntity
  8
0
100
AcDbLine
 10
76.1466
 20
32.56485
 30
0.0
 11
76.53628596551731
 21
32.56485
 31
0.0
  0
LINE
  5
267
330
1E
100
AcDbEntity
  8
0
100
AcDbLine
 10
77.7822316149425
 20
32.56485
 30
0.0
 11
77.7916
 21
32.28714999999999
 31
0.0
  0
LINE
  5
268
330
1E
100
AcDbEntity
  8
0
100
AcDbLine
 10
78.01516101724139
 20
32.56485
 30
0.0
 11
78.0243
 21
32.29395
 31
0.0
  0
LINE
  5
269
330
1E
100
AcDbEntity
  8
0
100
AcDbLine
 10
77.1521837758621
 20
32.56485
 30
0.0
 11
77.16070000000001
 21
32.29395
 31
0.0
  0
LINE
  5
26A
330
1E
100
AcDbEntity
  8
0
100
AcDbLine
 10
76.53628596551731
 20
32.56485
 30
0.0
 11
76.545
 21
32.28714999999999
 31
0.0
  0
LINE
  5
26B
330
1E
100
AcDbEntity
  8
0
100
AcDbLine
 10
76.13505798850579
 20
32.56485
 30
0.0
 11
76.14149999999999
 21
32.32585
 31
0.0
  0
LINE
  5
26C
330
1E
100
AcDbEntity
  8
0
100
AcDbLine
 10
75.92264361170179
 20
32.56485
 30
0.0
 11
75.9289
 21
32.33274999999999
 31
0.0
  0
LINE
  5
26D
330
1E
100
AcDbEntity
  8
0
100
AcDbLine
 10
75.17215798850578
 20
32.56485
 30
0.0
 11
75.1786
 21
32.32585
 31
0.0
  0
LINE
  5
26E
330
1E
100
AcDbEntity
  8
0
100
AcDbLine
 10
72.9538297011494
 20
32.56485
 30
0.0
 11
72.95529999999999
 21
32.45165
 31
0.0
  0
LINE
  5
26F
330
1E
100
AcDbEntity
  8
0
100
AcDbLine
 10
72.33801566756709
 20
32.56485
 30
0.0
 11
72.33969999999999
 21
32.43574999999999
 31
0.0
  0
LINE
  5
270
330
1E
100
AcDbEntity
  8
0
100
AcDbLine
 10
79.2670690039658
 20
32.56485
 30
0.0
 11
79.2716
 21
32.37624999999999
 31
0.0
  0
LINE
  5
271
330
1E
100
AcDbEntity
  8
0
100
AcDbLine
 10
78.4680848965517
 20
32.56485
 30
0.0
 11
78.473
 21
32.36025
 31
0.0
  0
LINE
  5
272
330
1E
100
AcDbEntity
  8
0
100
AcDbLine
 10
78.1483899534456
 20
32.56485
 30
0.0
 11
78.1537
 21
32.34434999999999
 31
0.0
  0
LINE
  5
273
330
1E
100
AcDbEntity
  8
0
100
AcDbLine
 10
80.06603262068971
 20
32.56485
 30
0.0
 11
80.07040000000001
 21
32.38304999999999
 31
0.0
  0
LINE
  5
274
330
1E
100
AcDbEntity
  8
0
100
AcDbLine
 10
80.3854690039658
 20
32.56485
 30
0.0
 11
80.38999999999999
 21
32.37624999999999
 31
0.0
  0
LINE
  5
275
330
1E
100
AcDbEntity
  8
0
100
AcDbLine
 10
80.473689591954
 20
32.56485
 30
0.0
 11
80.4767
 21
32.41975
 31
0.0
  0
LINE
  5
276
330
1E
100
AcDbEntity
  8
0
100
AcDbLine
 10
74.42551566756709
 20
32.56485
 30
0.0
 11
74.4272
 21
32.43574999999999
 31
0.0
  0
LINE
  5
277
330
1E
100
AcDbEntity
  8
0
100
AcDbLine
 10
74.4151231954023
 20
32.56485
 30
0.0
 11
74.4166
 21
32.45165
 31
0.0
  0
LINE
  5
278
330
1E
100
AcDbEntity
  8
0
100
AcDbLine
 10
73.81421924248519
 20
32.56485
 30
0.0
 11
73.8156
 21
32.45855
 31
0.0
  0
LINE
  5
279
330
1E
100
AcDbEntity
  8
0
100
AcDbLine
 10
72.30982620689658
 20
32.56485
 30
0.0
 11
72.3151
 21
32.30995
 31
0.0
  0
LINE
  5
27A
330
1E
100
AcDbEntity
  8
0
100
AcDbLine
 10
81.43685793103449
 20
32.56485
 30
0.0
 11
81.43919999999999
 21
32.45165
 31
0.0
  0
LINE
  5
27B
330
1E
100
AcDbEntity
  8
0
100
AcDbLine
 10
80.68632881200072
 20
32.56485
 30
0.0
 11
80.68899999999999
 21
32.43574999999999
 31
0.0
  0
LINE
  5
27C
330
1E
100
AcDbEntity
  8
0
100
AcDbLine
 10
80.473689591954
 20
32.56485
 30
0.0
 11
80.4767
 21
32.41975
 31
0.0
  0
LINE
  5
27D
330
1E
100
AcDbEntity
  8
0
100
AcDbLine
 10
80.3854690039658
 20
32.56485
 30
0.0
 11
80.473689591954
 21
32.56485
 31
0.0
  0
LINE
  5
27E
330
1E
100
AcDbEntity
  8
0
100
AcDbLine
 10
85.94990000000001
 20
32.34434999999999
 30
0.0
 11
86.8012
 21
32.36025
 31
0.0
  0
LINE
  5
27F
330
1E
100
AcDbEntity
  8
0
100
AcDbLine
 10
85.418
 20
32.33744999999999
 30
0.0
 11
85.54059999999999
 21
32.34434999999999
 31
0.0
  0
LINE
  5
280
330
1E
100
AcDbEntity
  8
0
100
AcDbLine
 10
85.418
 20
32.33744999999999
 30
0.0
 11
85.94990000000001
 21
32.34434999999999
 31
0.0
  0
LINE
  5
281
330
1E
100
AcDbEntity
  8
0
100
AcDbLine
 10
85.54059999999999
 20
32.34434999999999
 30
0.0
 11
86.21639999999999
 21
32.36025
 31
0.0
  0
LINE
  5
282
330
1E
100
AcDbEntity
  8
0
100
AcDbLine
 10
86.8012
 20
32.36025
 30
0.0
 11
87.47709999999999
 21
32.37624999999999
 31
0.0
  0
LINE
  5
283
330
1E
100
AcDbEntity
  8
0
100
AcDbLine
 10
86.21639999999999
 20
32.36025
 30
0.0
 11
87.0677
 21
32.37624999999999
 31
0.0
  0
LINE
  5
284
330
1E
100
AcDbEntity
  8
0
100
AcDbLine
 10
87.0677
 20
32.37624999999999
 30
0.0
 11
87.5997
 21
32.38304999999999
 31
0.0
  0
LINE
  5
285
330
1E
100
AcDbEntity
  8
0
100
AcDbLine
 10
87.47709999999999
 20
32.37624999999999
 30
0.0
 11
87.5997
 21
32.38304999999999
 31
0.0
  0
LINE
  5
286
330
1E
100
AcDbEntity
  8
0
100
AcDbLine
 10
88.13639999999999
 20
32.41975
 30
0.0
 11
88.9699
 21
32.43574999999999
 31
0.0
  0
LINE
  5
287
330
1E
100
AcDbEntity
  8
0
100
AcDbLine
 10
87.3862
 20
32.41295
 30
0.0
 11
88.13639999999999
 21
32.41975
 31
0.0
  0
LINE
  5
288
330
1E
100
AcDbEntity
  8
0
100
AcDbLine
 10
87.17359999999999
 20
32.41975
 30
0.0
 11
87.59439999999999
 21
32.43574999999999
 31
0.0
  0
LINE
  5
289
330
1E
100
AcDbEntity
  8
0
100
AcDbLine
 10
87.17359999999999
 20
32.41975
 30
0.0
 11
87.3862
 21
32.41295
 31
0.0
  0
LINE
  5
28A
330
1E
100
AcDbEntity
  8
0
100
AcDbLine
 10
87.59439999999999
 20
32.43574999999999
 30
0.0
 11
88.42789999999999
 21
32.45165
 31
0.0
  0
LINE
  5
28B
330
1E
100
AcDbEntity
  8
0
100
AcDbLine
 10
81.73149999999999
 20
32.41975
 30
0.0
 11
82.4816
 21
32.43574999999999
 31
0.0
  0
LINE
  5
28C
330
1E
100
AcDbEntity
  8
0
100
AcDbLine
 10
81.73149999999999
 20
32.41975
 30
0.0
 11
82.4816
 21
32.43574999999999
 31
0.0
  0
LINE
  5
28D
330
1E
100
AcDbEntity
  8
0
100
AcDbLine
 10
82.4816
 20
32.43574999999999
 30
0.0
 11
82.694
 21
32.45165
 31
0.0
  0
LINE
  5
28E
330
1E
100
AcDbEntity
  8
0
100
AcDbLine
 10
82.2728
 20
32.45855
 30
0.0
 11
82.694
 21
32.45165
 31
0.0
  0
LINE
  5
28F
330
1E
100
AcDbEntity
  8
0
100
AcDbLine
 10
88.42789999999999
 20
32.45165
 30
0.0
 11
89.17810000000001
 21
32.45855
 31
0.0
  0
LINE
  5
290
330
1E
100
AcDbEntity
  8
0
100
AcDbLine
 10
82.4816
 20
32.43574999999999
 30
0.0
 11
82.694
 21
32.45165
 31
0.0
  0
LINE
  5
291
330
1E
100
AcDbEntity
  8
0
100
AcDbLine
 10
91.97410000000001
 20
32.41295
 30
0.0
 11
92.58979999999999
 21
32.41975
 31
0.0
  0
LINE
  5
292
330
1E
100
AcDbEntity
  8
0
100
AcDbLine
 10
92.58979999999999
 20
32.41975
 30
0.0
 11
93.44990000000001
 21
32.43574999999999
 31
0.0
  0
LINE
  5
293
330
1E
100
AcDbEntity
  8
0
100
AcDbLine
 10
91.98449999999999
 20
32.41975
 30
0.0
 11
92.5852
 21
32.43574999999999
 31
0.0
  0
LINE
  5
294
330
1E
100
AcDbEntity
  8
0
100
AcDbLine
 10
92.5852
 20
32.43574999999999
 30
0.0
 11
93.44520000000001
 21
32.45165
 31
0.0
  0
LINE
  5
295
330
1E
100
AcDbEntity
  8
0
100
AcDbLine
 10
93.44990000000001
 20
32.43574999999999
 30
0.0
 11
94.05050000000001
 21
32.45165
 31
0.0
  0
LINE
  5
296
330
1E
100
AcDbEntity
  8
0
100
AcDbLine
 10
93.44520000000001
 20
32.45165
 30
0.0
 11
94.0609
 21
32.45855
 31
0.0
  0
LINE
  5
297
330
1E
100
AcDbEntity
  8
0
100
AcDbLine
 10
89.17810000000001
 20
32.45855
 30
0.0
 11
89.39069999999999
 21
32.45165
 31
0.0
  0
LINE
  5
298
330
1E
100
AcDbEntity
  8
0
100
AcDbLine
 10
88.9699
 20
32.43574999999999
 30
0.0
 11
89.39069999999999
 21
32.45165
 31
0.0
  0
LINE
  5
299
330
1E
100
AcDbEntity
  8
0
100
AcDbLine
 10
82.6916579310345
 20
32.56485
 30
0.0
 11
85.41052455172421
 21
32.56485
 31
0.0
  0
LINE
  5
29A
330
1E
100
AcDbEntity
  8
0
100
AcDbLine
 10
94.34899999999998
 20
32.41295
 30
0.0
 11
94.5817
 21
32.41975
 31
0.0
  0
LINE
  5
29B
330
1E
100
AcDbEntity
  8
0
100
AcDbLine
 10
94.34899999999998
 20
32.41295
 30
0.0
 11
94.7882
 21
32.41975
 31
0.0
  0
LINE
  5
29C
330
1E
100
AcDbEntity
  8
0
100
AcDbLine
 10
94.057564187597
 20
32.56485
 30
0.0
 11
94.3438842873563
 21
32.56485
 31
0.0
  0
LINE
  5
29D
330
1E
100
AcDbEntity
  8
0
100
AcDbLine
 10
82.6916579310345
 20
32.56485
 30
0.0
 11
82.8166
 21
32.56485
 31
0.0
  0
LINE
  5
29E
330
1E
100
AcDbEntity
  8
0
100
AcDbLine
 10
82.8166
 20
32.56485
 30
0.0
 11
83.0408
 21
32.56485
 31
0.0
  0
LINE
  5
29F
330
1E
100
AcDbEntity
  8
0
100
AcDbLine
 10
82.6916579310345
 20
32.56485
 30
0.0
 11
82.694
 21
32.45165
 31
0.0
  0
LINE
  5
2A0
330
1E
100
AcDbEntity
  8
0
100
AcDbLine
 10
82.27060056325079
 20
32.56485
 30
0.0
 11
82.2728
 21
32.45855
 31
0.0
  0
LINE
  5
2A1
330
1E
100
AcDbEntity
  8
0
100
AcDbLine
 10
85.41052455172421
 20
32.56485
 30
0.0
 11
85.418
 21
32.33744999999999
 31
0.0
  0
LINE
  5
2A2
330
1E
100
AcDbEntity
  8
0
100
AcDbLine
 10
85.53335096269901
 20
32.56485
 30
0.0
 11
85.54059999999999
 21
32.34434999999999
 31
0.0
  0
LINE
  5
2A3
330
1E
100
AcDbEntity
  8
0
100
AcDbLine
 10
86.20968582758621
 20
32.56485
 30
0.0
 11
86.21639999999999
 21
32.36025
 31
0.0
  0
LINE
  5
2A4
330
1E
100
AcDbEntity
  8
0
100
AcDbLine
 10
87.0615105293408
 20
32.56485
 30
0.0
 11
87.0677
 21
32.37624999999999
 31
0.0
  0
LINE
  5
2A5
330
1E
100
AcDbEntity
  8
0
100
AcDbLine
 10
87.16968063218391
 20
32.56485
 30
0.0
 11
87.17359999999999
 21
32.41975
 31
0.0
  0
LINE
  5
2A6
330
1E
100
AcDbEntity
  8
0
100
AcDbLine
 10
87.59092003563429
 20
32.56485
 30
0.0
 11
87.59439999999999
 21
32.43574999999999
 31
0.0
  0
LINE
  5
2A7
330
1E
100
AcDbEntity
  8
0
100
AcDbLine
 10
91.96933348275861
 20
32.56485
 30
0.0
 11
91.97410000000001
 21
32.41295
 31
0.0
  0
LINE
  5
2A8
330
1E
100
AcDbEntity
  8
0
100
AcDbLine
 10
91.97993852298848
 20
32.56485
 30
0.0
 11
91.98449999999999
 21
32.41975
 31
0.0
  0
LINE
  5
2A9
330
1E
100
AcDbEntity
  8
0
100
AcDbLine
 10
92.5811486982011
 20
32.56485
 30
0.0
 11
92.5852
 21
32.43574999999999
 31
0.0
  0
LINE
  5
2AA
330
1E
100
AcDbEntity
  8
0
100
AcDbLine
 10
94.3438842873563
 20
32.56485
 30
0.0
 11
94.34899999999998
 21
32.41295
 31
0.0
  0
LINE
  5
2AB
330
1E
100
AcDbEntity
  8
0
100
AcDbLine
 10
94.057564187597
 20
32.56485
 30
0.0
 11
94.0609
 21
32.45855
 31
0.0
  0
LINE
  5
2AC
330
1E
100
AcDbEntity
  8
0
100
AcDbLine
 10
93.44164786206899
 20
32.56485
 30
0.0
 11
93.44520000000001
 21
32.45165
 31
0.0
  0
LINE
  5
2AD
330
1E
100
AcDbEntity
  8
0
100
AcDbLine
 10
89.38764880459769
 20
32.56485
 30
0.0
 11
89.39069999999999
 21
32.45165
 31
0.0
  0
LINE
  5
2AE
330
1E
100
AcDbEntity
  8
0
100
AcDbLine
 10
89.17523462267949
 20
32.56485
 30
0.0
 11
89.17810000000001
 21
32.45855
 31
0.0
  0
LINE
  5
2AF
330
1E
100
AcDbEntity
  8
0
100
AcDbLine
 10
88.42484880459769
 20
32.56485
 30
0.0
 11
88.42789999999999
 21
32.45165
 31
0.0
  0
LINE
  5
2B0
330
1E
100
AcDbEntity
  8
0
100
AcDbLine
 10
89.38764880459769
 20
32.56485
 30
0.0
 11
91.96933348275861
 21
32.56485
 31
0.0
  0
LINE
  5
2B1
330
1E
100
AcDbEntity
  8
0
100
AcDbLine
 10
81.54349999999999
 20
32.56485
 30
0.0
 11
88.3253
 21
32.56485
 31
0.0
  0
LINE
  5
2B2
330
1E
100
AcDbEntity
  8
0
100
AcDbLine
 10
88.3253
 20
32.56485
 30
0.0
 11
94.54179999999999
 21
32.56485
 31
0.0
  0
LINE
  5
2B3
330
1E
100
AcDbEntity
  8
0
100
AcDbLine
 10
94.7882
 20
32.41975
 30
0.0
 11
95.61620000000001
 21
32.43574999999999
 31
0.0
  0
LINE
  5
2B4
330
1E
100
AcDbEntity
  8
0
100
AcDbLine
 10
94.5817
 20
32.41975
 30
0.0
 11
95.3213
 21
32.43574999999999
 31
0.0
  0
LINE
  5
2B5
330
1E
100
AcDbEntity
  8
0
100
AcDbLine
 10
95.3213
 20
32.43574999999999
 30
0.0
 11
96.14930000000001
 21
32.45165
 31
0.0
  0
LINE
  5
2B6
330
1E
100
AcDbEntity
  8
0
100
AcDbLine
 10
94.57680495977008
 20
32.56485
 30
0.0
 11
94.5817
 21
32.41975
 31
0.0
  0
LINE
  5
2B7
330
1E
100
AcDbEntity
  8
0
100
AcDbLine
 10
95.31694447956779
 20
32.56485
 30
0.0
 11
95.3213
 21
32.43574999999999
 31
0.0
  0
LINE
  5
2B8
330
1E
100
AcDbEntity
  8
0
100
AcDbLine
 10
96.14548112643682
 20
32.56485
 30
0.0
 11
96.14930000000001
 21
32.45165
 31
0.0
  0
LINE
  5
2B9
330
1E
100
AcDbEntity
  8
0
100
AcDbLine
 10
96.14930000000001
 20
32.45165
 30
0.0
 11
96.58839999999999
 21
32.45855
 31
0.0
  0
LINE
  5
2BA
330
1E
100
AcDbEntity
  8
0
100
AcDbLine
 10
96.58481980573601
 20
32.56485
 30
0.0
 11
96.58839999999999
 21
32.45855
 31
0.0
  0
LINE
  5
2BB
330
1E
100
AcDbEntity
  8
0
100
AcDbLine
 10
96.35570000000001
 20
32.45165
 30
0.0
 11
96.58839999999999
 21
32.45855
 31
0.0
  0
LINE
  5
2BC
330
1E
100
AcDbEntity
  8
0
100
AcDbLine
 10
95.61620000000001
 20
32.43574999999999
 30
0.0
 11
96.35570000000001
 21
32.45165
 31
0.0
  0
LINE
  5
2BD
330
1E
100
AcDbEntity
  8
0
100
AcDbLine
 10
96.58481980573601
 20
32.56485
 30
0.0
 11
100.3149999999999
 21
32.56485
 31
0.0
  0
LINE
  5
2BE
330
1E
100
AcDbEntity
  8
0
100
AcDbLine
 10
100.3149999999999
 20
32.56485
 30
0.0
 11
105.213
 21
32.56485
 31
0.0
  0
LINE
  5
2BF
330
1E
100
AcDbEntity
  8
0
100
AcDbLine
 10
100.6289999999999
 20
32.56485
 30
0.0
 11
105.5269999999999
 21
32.56485
 31
0.0
  0
LINE
  5
2C0
330
1E
100
AcDbEntity
  8
0
100
AcDbLine
 10
100.3149999999999
 20
32.56485
 30
0.0
 11
105.213
 21
32.56485
 31
0.0
  0
LINE
  5
2C1
330
1E
100
AcDbEntity
  8
0
100
AcDbLine
 10
109.735
 20
32.56485
 30
0.0
 11
113.126
 21
32.56485
 31
0.0
  0
LINE
  5
2C2
330
1E
100
AcDbEntity
  8
0
100
AcDbLine
 10
105.5269999999999
 20
32.56485
 30
0.0
 11
109.735
 21
32.56485
 31
0.0
  0
LINE
  5
2C3
330
1E
100
AcDbEntity
  8
0
100
AcDbLine
 10
105.213
 20
32.56485
 30
0.0
 11
109.421
 21
32.56485
 31
0.0
  0
LINE
  5
2C4
330
1E
100
AcDbEntity
  8
0
100
AcDbLine
 10
117.6679999999999
 20
32.56485
 30
0.0
 11
118.5559999999999
 21
32.85495
 31
0.0
  0
LINE
  5
2C5
330
1E
100
AcDbEntity
  8
0
100
AcDbLine
 10
115.181
 20
32.56485
 30
0.0
 11
117.046
 21
32.56485
 31
0.0
  0
LINE
  5
2C6
330
1E
100
AcDbEntity
  8
0
100
AcDbLine
 10
115.181
 20
32.56485
 30
0.0
 11
116.602
 21
32.56485
 31
0.0
  0
LINE
  5
2C7
330
1E
100
AcDbEntity
  8
0
100
AcDbLine
 10
112.687
 20
32.56485
 30
0.0
 11
115.181
 21
32.56485
 31
0.0
  0
LINE
  5
2C8
330
1E
100
AcDbEntity
  8
0
100
AcDbLine
 10
109.735
 20
32.56485
 30
0.0
 11
113.126
 21
32.56485
 31
0.0
  0
LINE
  5
2C9
330
1E
100
AcDbEntity
  8
0
100
AcDbLine
 10
105.5269999999999
 20
32.56485
 30
0.0
 11
109.735
 21
32.56485
 31
0.0
  0
LINE
  5
2CB
330
1E
100
AcDbEntity
  8
0
100
AcDbLine
 10
105.213
 20
32.56485
 30
0.0
 11
109.421
 21
32.56485
 31
0.0
  0
LINE
  5
2CC
330
1E
100
AcDbEntity
  8
0
100
AcDbLine
 10
116.602
 20
32.56485
 30
0.0
 11
117.6679999999999
 21
32.56485
 31
0.0
  0
LINE
  5
2CE
330
1E
100
AcDbEntity
  8
0
100
AcDbLine
 10
100.6289999999999
 20
32.56485
 30
0.0
 11
105.5269999999999
 21
32.56485
 31
0.0
  0
LINE
  5
2CF
330
1E
100
AcDbEntity
  8
0
100
AcDbLine
 10
94.8558
 20
32.56485
 30
0.0
 11
100.6289999999999
 21
32.56485
 31
0.0
  0
LINE
  5
2D1
330
1E
100
AcDbEntity
  8
0
100
AcDbLine
 10
94.54179999999999
 20
32.56485
 30
0.0
 11
100.3149999999999
 21
32.56485
 31
0.0
  0
LINE
  5
2D2
330
1E
100
AcDbEntity
  8
0
100
AcDbLine
 10
74.8634
 20
33.72525
 30
0.0
 11
82.2343
 21
33.72525
 31
0.0
  0
LINE
  5
2D6
330
1E
100
AcDbEntity
  8
0
100
AcDbLine
 10
118.5559999999999
 20
32.85495
 30
0.0
 11
119.0
 21
33.43515
 31
0.0
  0
LINE
  5
2DB
330
1E
100
AcDbEntity
  8
0
100
AcDbLine
 10
82.2343
 20
33.43515
 30
0.0
 11
89.20440000000001
 21
33.43515
 31
0.0
  0
LINE
  5
2DC
330
1E
100
AcDbEntity
  8
0
100
AcDbLine
 10
82.2343
 20
33.72525
 30
0.0
 11
89.20440000000001
 21
33.72525
 31
0.0
  0
LINE
  5
2EA
330
1E
100
AcDbEntity
  8
0
100
AcDbLine
 10
89.20440000000001
 20
33.72525
 30
0.0
 11
95.6722
 21
33.72525
 31
0.0
  0
LINE
  5
2EB
330
1E
100
AcDbEntity
  8
0
100
AcDbLine
 10
95.6722
 20
33.72525
 30
0.0
 11
101.573
 21
33.72525
 31
0.0
  0
LINE
  5
2EC
330
1E
100
AcDbEntity
  8
0
100
AcDbLine
 10
89.20440000000001
 20
33.43515
 30
0.0
 11
95.6722
 21
33.43515
 31
0.0
  0
LINE
  5
2F6
330
1E
100
AcDbEntity
  8
0
100
AcDbLine
 10
114.382
 20
33.43515
 30
0.0
 11
116.869
 21
33.43515
 31
0.0
  0
LINE
  5
2F7
330
1E
100
AcDbEntity
  8
0
100
AcDbLine
 10
110.928
 20
33.43515
 30
0.0
 11
114.382
 21
33.43515
 31
0.0
  0
LINE
  5
2F8
330
1E
100
AcDbEntity
  8
0
100
AcDbLine
 10
106.5949999999999
 20
33.43515
 30
0.0
 11
110.928
 21
33.43515
 31
0.0
  0
LINE
  5
2F9
330
1E
100
AcDbEntity
  8
0
100
AcDbLine
 10
101.575
 20
33.43515
 30
0.0
 11
106.5949999999999
 21
33.43515
 31
0.0
  0
LINE
  5
2FA
330
1E
100
AcDbEntity
  8
0
100
AcDbLine
 10
114.382
 20
33.72525
 30
0.0
 11
116.869
 21
33.72525
 31
0.0
  0
LINE
  5
2FB
330
1E
100
AcDbEntity
  8
0
100
AcDbLine
 10
116.869
 20
33.72525
 30
0.0
 11
118.3779999999999
 21
33.72525
 31
0.0
  0
LINE
  5
2FC
330
1E
100
AcDbEntity
  8
0
100
AcDbLine
 10
118.3779999999999
 20
33.72525
 30
0.0
 11
119.0
 21
33.72525
 31
0.0
  0
LINE
  5
2FD
330
1E
100
AcDbEntity
  8
0
100
AcDbLine
 10
116.869
 20
33.43515
 30
0.0
 11
118.3779999999999
 21
33.43515
 31
0.0
  0
LINE
  5
2FE
330
1E
100
AcDbEntity
  8
0
100
AcDbLine
 10
119.0
 20
33.43515
 30
0.0
 11
119.0
 21
33.72525
 31
0.0
  0
LINE
  5
2FF
330
1E
100
AcDbEntity
  8
0
100
AcDbLine
 10
118.3779999999999
 20
33.43515
 30
0.0
 11
119.0
 21
33.43515
 31
0.0
  0
LINE
  5
300
330
1E
100
AcDbEntity
  8
0
100
AcDbLine
 10
110.928
 20
33.72525
 30
0.0
 11
114.382
 21
33.72525
 31
0.0
  0
LINE
  5
303
330
1E
100
AcDbEntity
  8
0
100
AcDbLine
 10
106.5949999999999
 20
33.72525
 30
0.0
 11
110.928
 21
33.72525
 31
0.0
  0
LINE
  5
304
330
1E
100
AcDbEntity
  8
0
100
AcDbLine
 10
101.573
 20
33.72525
 30
0.0
 11
106.5949999999999
 21
33.72525
 31
0.0
  0
LINE
  5
311
330
1E
100
AcDbEntity
  8
0
100
AcDbLine
 10
8.28481
 20
49.10025
 30
0.0
 11
110.326
 21
49.12485
 31
0.0
  0
LINE
  5
312
330
1E
100
AcDbEntity
  8
0
100
AcDbLine
 10
110.326
 20
49.12485
 30
0.0
 11
110.715
 21
49.10025
 31
0.0
  0
LINE
  5
313
330
1E
100
AcDbEntity
  8
0
100
AcDbLine
 10
110.715
 20
49.10025
 30
0.0
 11
111.4679999999999
 21
48.22995
 31
0.0
  0
LINE
  5
314
330
1E
100
AcDbEntity
  8
0
100
AcDbLine
 10
109.6899999999999
 20
49.40445
 30
0.0
 11
110.715
 21
49.10025
 31
0.0
  0
LINE
  5
315
330
1E
100
AcDbEntity
  8
0
100
AcDbLine
 10
111.4679999999999
 20
48.22995
 30
0.0
 11
111.8449999999999
 21
45.32905
 31
0.0
  0
LINE
  5
316
330
1E
100
AcDbEntity
  8
0
100
AcDbLine
 10
111.8449999999999
 20
45.32905
 30
0.0
 11
112.975
 21
41.26765
 31
0.0
  0
LINE
  5
317
330
1E
100
AcDbEntity
  8
0
100
AcDbLine
 10
112.975
 20
41.26765
 30
0.0
 11
115.2339999999999
 21
37.20635
 31
0.0
  0
LINE
  5
318
330
1E
100
AcDbEntity
  8
0
100
AcDbLine
 10
115.2339999999999
 20
37.20635
 30
0.0
 11
117.2239999999999
 21
34.88555
 31
0.0
  0
LINE
  5
319
330
1E
100
AcDbEntity
  8
0
100
AcDbLine
 10
117.2239999999999
 20
34.88555
 30
0.0
 11
118.5559999999999
 21
34.30545
 31
0.0
  0
LINE
  5
31A
330
1E
100
AcDbEntity
  8
0
100
AcDbLine
 10
118.5559999999999
 20
34.30545
 30
0.0
 11
119.0
 21
33.72525
 31
0.0
  0
LINE
  5
31B
330
1E
100
AcDbEntity
  8
0
100
AcDbLine
 10
119.0
 20
33.72525
 30
0.0
 11
119.0
 21
33.43515
 31
0.0
  0
LINE
  5
323
330
1E
100
AcDbEntity
  8
0
100
AcDbLine
 10
95.6722
 20
33.43515
 30
0.0
 11
101.575
 21
33.43515
 31
0.0
  0
LINE
  5
328
330
1E
100
AcDbEntity
  8
0
100
AcDbLine
 10
74.8634
 20
33.43515
 30
0.0
 11
82.2343
 21
33.43515
 31
0.0
  0
LINE
  5
329
330
1E
100
AcDbEntity
  8
0
100
AcDbLine
 10
74.5082
 20
32.56485
 30
0.0
 11
81.73189999999999
 21
32.56485
 31
0.0
  0
LINE
  5
32B
330
1E
100
AcDbEntity
  8
0
100
AcDbLine
 10
59.5
 20
71.07264999999999
 30
0.0
 11
68.2
 21
71.07264999999999
 31
0.0
  0
LINE
  5
32C
330
1E
100
AcDbEntity
  8
0
100
AcDbLine
 10
68.2
 20
71.07264999999999
 30
0.0
 11
68.6684
 21
70.85695
 31
0.0
  0
LINE
  5
32D
330
1E
100
AcDbEntity
  8
0
100
AcDbLine
 10
59.5
 20
69.91265
 30
0.0
 11
68.2
 21
69.91265
 31
0.0
  0
LINE
  5
32E
330
1E
100
AcDbEntity
  8
0
100
AcDbLine
 10
68.6684
 20
70.85695
 30
0.0
 11
68.9607
 21
70.48205
 31
0.0
  0
LINE
  5
32F
330
1E
100
AcDbEntity
  8
0
100
AcDbLine
 10
68.9607
 20
70.48205
 30
0.0
 11
69.06350897107279
 21
68.7661444364324
 31
0.0
  0
LINE
  5
330
330
1E
100
AcDbEntity
  8
0
100
AcDbLine
 10
68.9607
 20
70.48205
 30
0.0
 11
68.9607
 21
69.97775
 31
0.0
  0
LINE
  5
331
330
1E
100
AcDbEntity
  8
0
100
AcDbLine
 10
68.9607
 20
69.97775
 30
0.0
 11
68.9607
 21
69.32214999999999
 31
0.0
  0
LINE
  5
332
330
1E
100
AcDbEntity
  8
0
100
AcDbLine
 10
68.9607
 20
69.97775
 30
0.0
 11
68.9607
 21
70.48205
 31
0.0
  0
LINE
  5
333
330
1E
100
AcDbEntity
  8
0
100
AcDbLine
 10
68.2
 20
69.91265
 30
0.0
 11
68.6684
 21
69.69705000000001
 31
0.0
  0
LINE
  5
334
330
1E
100
AcDbEntity
  8
0
100
AcDbLine
 10
68.6684
 20
69.69705000000001
 30
0.0
 11
68.9607
 21
69.32214999999999
 31
0.0
  0
LINE
  5
335
330
1E
100
AcDbEntity
  8
0
100
AcDbLine
 10
68.9607
 20
69.32214999999999
 30
0.0
 11
68.99400440487879
 21
68.766291760913
 31
0.0
  0
LINE
  5
336
330
1E
100
AcDbEntity
  8
0
100
AcDbLine
 10
68.9607
 20
69.32214999999999
 30
0.0
 11
68.9607
 21
69.97775
 31
0.0
  0
LINE
  5
337
330
1E
100
AcDbEntity
  8
0
100
AcDbLine
 10
68.9935075449491
 20
68.7745844683371
 30
0.0
 11
73.44599999999999
 21
68.23775000000001
 31
0.0
  0
LINE
  5
338
330
1E
100
AcDbEntity
  8
0
100
AcDbLine
 10
73.44599999999999
 20
68.23775000000001
 30
0.0
 11
80.3583
 21
66.73775
 31
0.0
  0
LINE
  5
339
330
1E
100
AcDbEntity
  8
0
100
AcDbLine
 10
80.3583
 20
66.73775
 30
0.0
 11
86.71750000000001
 21
64.90445
 31
0.0
  0
LINE
  5
33A
330
1E
100
AcDbEntity
  8
0
100
AcDbLine
 10
86.71750000000001
 20
64.90445
 30
0.0
 11
92.8003
 21
62.40445
 31
0.0
  0
LINE
  5
33B
330
1E
100
AcDbEntity
  8
0
100
AcDbLine
 10
92.8003
 20
62.40445
 30
0.0
 11
98.33010000000001
 21
59.57115
 31
0.0
  0
LINE
  5
33C
330
1E
100
AcDbEntity
  8
0
100
AcDbLine
 10
98.33010000000001
 20
59.57115
 30
0.0
 11
103.0299999999999
 21
56.23775
 31
0.0
  0
LINE
  5
33D
330
1E
100
AcDbEntity
  8
0
100
AcDbLine
 10
103.0299999999999
 20
56.23775
 30
0.0
 11
107.1779999999999
 21
52.57115
 31
0.0
  0
LINE
  5
33E
330
1E
100
AcDbEntity
  8
0
100
AcDbLine
 10
107.1779999999999
 20
52.57115
 30
0.0
 11
109.6899999999999
 21
49.40445
 31
0.0
  0
LINE
  5
340
330
1E
100
AcDbEntity
  8
0
100
AcDbLine
 10
51.9515
 20
32.56485
 30
0.0
 11
59.5
 21
32.56485
 31
0.0
  0
ENDSEC
  0
SECTION
  2
OBJECTS
  0
DICTIONARY
  5
C
330
0
100
AcDbDictionary
281
     1
  3
ACAD_GROUP
350
D
  3
ACAD_LAYOUT
350
19
  3
ACAD_MLINESTYLE
350
16
  3
ACAD_PLOTSETTINGS
350
18
  3
ACAD_PLOTSTYLENAME
350
E
  3
AcDbVariableDictionary
350
345
  0
DICTIONARY
  5
D
102
{ACAD_REACTORS
330
C
102
}
330
C
100
AcDbDictionary
281
     1
  0
DICTIONARY
  5
19
102
{ACAD_REACTORS
330
C
102
}
330
C
100
AcDbDictionary
281
     1
  3
Layout1
350
1D
  3
Model
350
21
  0
DICTIONARY
  5
16
102
{ACAD_REACTORS
330
C
102
}
330
C
100
AcDbDictionary
281
     1
  3
Standard
350
17
  0
DICTIONARY
  5
18
102
{ACAD_REACTORS
330
C
102
}
330
C
100
AcDbDictionary
281
     1
  0
ACDBDICTIONARYWDFLT
  5
E
102
{ACAD_REACTORS
330
C
102
}
330
C
100
AcDbDictionary
281
     1
  3
Normal
350
F
100
AcDbDictionaryWithDefault
340
F
  0
DICTIONARY
  5
345
102
{ACAD_REACTORS
330
C
102
}
330
C
100
AcDbDictionary
281
     1
  3
DIMASSOC
350
346
  0
LAYOUT
  5
1D
102
{ACAD_REACTORS
330
19
102
}
330
19
100
AcDbPlotSettings
  1

  2
hp deskjet 980c series
  4

  6

 40
0.0
 41
0.0
 42
0.0
 43
0.0
 44
0.0
 45
0.0
 46
0.0
 47
0.0
 48
0.0
 49
0.0
140
0.0
141
0.0
142
1.0
143
1.0
 70
   688
 72
     0
 73
     0
 74
     5
  7

 75
    16
147
1.0
148
0.0
149
0.0
100
AcDbLayout
  1
Layout1
 70
     1
 71
     1
 10
0.0
 20
0.0
 11
12.0
 21
9.0
 12
0.0
 22
0.0
 32
0.0
 14
1.000000000000000E+20
 24
1.000000000000000E+20
 34
1.000000000000000E+20
 15
-1.000000000000000E+20
 25
-1.000000000000000E+20
 35
-1.000000000000000E+20
146
0.0
 13
0.0
 23
0.0
 33
0.0
 16
1.0
 26
0.0
 36
0.0
 17
0.0
 27
1.0
 37
0.0
 76
     0
330
1A
  0
LAYOUT
  5
21
102
{ACAD_REACTORS
330
19
102
}
330
19
100
AcDbPlotSettings
  1

  2
hp deskjet 980c series
  4

  6

 40
0.0
 41
0.0
 42
0.0
 43
0.0
 44
0.0
 45
0.0
 46
0.0
 47
0.0
 48
0.0
 49
0.0
140
0.0
141
0.0
142
1.0
143
1.0
 70
  1712
 72
     0
 73
     0
 74
     0
  7

 75
     0
147
1.0
148
0.0
149
0.0
100
AcDbLayout
  1
Model
 70
     1
 71
     0
 10
0.0
 20
0.0
 11
12.0
 21
9.0
 12
0.0
 22
0.0
 32
0.0
 14
0.0
 24
0.0
 34
0.0
 15
0.0
 25
0.0
 35
0.0
146
0.0
 13
0.0
 23
0.0
 33
0.0
 16
1.0
 26
0.0
 36
0.0
 17
0.0
 27
1.0
 37
0.0
 76
     0
330
1E
  0
MLINESTYLE
  5
17
102
{ACAD_REACTORS
330
16
102
}
330
16
100
AcDbMlineStyle
  2
STANDARD
 70
     0
  3

 62
   256
 51
90.0
 52
90.0
 71
     2
 49
0.5
 62
   256
  6
BYLAYER
 49
-0.5
 62
   256
  6
BYLAYER
  0
ACDBPLACEHOLDER
  5
F
102
{ACAD_REACTORS
330
E
102
}
330
E
  0
DICTIONARYVAR
  5
346
102
{ACAD_REACTORS
330
345
102
}
330
345
100
DictionaryVariables
280
     0
  1
1
  0
ENDSEC
  0
EOF
