  0
SECTION
  2
HEADER
  9
$ACADVER
  1
AC1015
  9
$ACADMAINTVER
 70
    13
  9
$DWGCODEPAGE
  3
ANSI_1252
  9
$INSBASE
 10
0.0
 20
0.0
 30
0.0
  9
$EXTMIN
 10
-0.0000000000000027
 20
-0.0000000000000014
 30
0.0
  9
$EXTMAX
 10
30.0
 20
112.0
 30
0.0
  9
$LIMMIN
 10
0.0
 20
0.0
  9
$LIMMAX
 10
12.0
 20
9.0
  9
$ORTHOMODE
 70
     0
  9
$REGENMODE
 70
     1
  9
$FILLMODE
 70
     1
  9
$QTEXTMODE
 70
     0
  9
$MIRRTEXT
 70
     1
  9
$LTSCALE
 40
1.0
  9
$ATTMODE
 70
     1
  9
$TEXTSIZE
 40
0.2
  9
$TRACEWID
 40
0.05
  9
$TEXTSTYLE
  7
Standard
  9
$CLAYER
  8
0
  9
$CELTYPE
  6
Continuous
  9
$CECOLOR
 62
   256
  9
$CELTSCALE
 40
1.0
  9
$DISPSILH
 70
     0
  9
$DIMSCALE
 40
1.0
  9
$DIMASZ
 40
0.18
  9
$DIMEXO
 40
0.0625
  9
$DIMDLI
 40
0.38
  9
$DIMRND
 40
0.0
  9
$DIMDLE
 40
0.0
  9
$DIMEXE
 40
0.18
  9
$DIMTP
 40
0.0
  9
$DIMTM
 40
0.0
  9
$DIMTXT
 40
0.18
  9
$DIMCEN
 40
0.09
  9
$DIMTSZ
 40
0.0
  9
$DIMTOL
 70
     0
  9
$DIMLIM
 70
     0
  9
$DIMTIH
 70
     1
  9
$DIMTOH
 70
     1
  9
$DIMSE1
 70
     0
  9
$DIMSE2
 70
     0
  9
$DIMTAD
 70
     0
  9
$DIMZIN
 70
     0
  9
$DIMBLK
  1

  9
$DIMASO
 70
     1
  9
$DIMSHO
 70
     1
  9
$DIMPOST
  1

  9
$DIMAPOST
  1

  9
$DIMALT
 70
     0
  9
$DIMALTD
 70
     2
  9
$DIMALTF
 40
25.4
  9
$DIMLFAC
 40
1.0
  9
$DIMTOFL
 70
     0
  9
$DIMTVP
 40
0.0
  9
$DIMTIX
 70
     0
  9
$DIMSOXD
 70
     0
  9
$DIMSAH
 70
     0
  9
$DIMBLK1
  1

  9
$DIMBLK2
  1

  9
$DIMSTYLE
  2
Standard
  9
$DIMCLRD
 70
     0
  9
$DIMCLRE
 70
     0
  9
$DIMCLRT
 70
     0
  9
$DIMTFAC
 40
1.0
  9
$DIMGAP
 40
0.09
  9
$DIMJUST
 70
     0
  9
$DIMSD1
 70
     0
  9
$DIMSD2
 70
     0
  9
$DIMTOLJ
 70
     1
  9
$DIMTZIN
 70
     0
  9
$DIMALTZ
 70
     0
  9
$DIMALTTZ
 70
     0
  9
$DIMUPT
 70
     0
  9
$DIMDEC
 70
     4
  9
$DIMTDEC
 70
     4
  9
$DIMALTU
 70
     2
  9
$DIMALTTD
 70
     2
  9
$DIMTXSTY
  7
Standard
  9
$DIMAUNIT
 70
     0
  9
$DIMADEC
 70
     0
  9
$DIMALTRND
 40
0.0
  9
$DIMAZIN
 70
     0
  9
$DIMDSEP
 70
    46
  9
$DIMATFIT
 70
     3
  9
$DIMFRAC
 70
     0
  9
$DIMLDRBLK
  1

  9
$DIMLUNIT
 70
     2
  9
$DIMLWD
 70
    -2
  9
$DIMLWE
 70
    -2
  9
$DIMTMOVE
 70
     0
  9
$LUNITS
 70
     2
  9
$LUPREC
 70
     4
  9
$SKETCHINC
 40
0.1
  9
$FILLETRAD
 40
0.0
  9
$AUNITS
 70
     0
  9
$AUPREC
 70
     0
  9
$MENU
  1
.
  9
$ELEVATION
 40
0.0
  9
$PELEVATION
 40
0.0
  9
$THICKNESS
 40
0.0
  9
$LIMCHECK
 70
     0
  9
$CHAMFERA
 40
0.0
  9
$CHAMFERB
 40
0.0
  9
$CHAMFERC
 40
0.0
  9
$CHAMFERD
 40
0.0
  9
$SKPOLY
 70
     0
  9
$TDCREATE
 40
2454834.813509109
  9
$TDUCREATE
 40
2454834.771842441
  9
$TDUPDATE
 40
2454834.813939699
  9
$TDUUPDATE
 40
2454834.772273032
  9
$TDINDWG
 40
0.0004307755
  9
$TDUSRTIMER
 40
0.0004307755
  9
$USRTIMER
 70
     1
  9
$ANGBASE
 50
0.0
  9
$ANGDIR
 70
     0
  9
$PDMODE
 70
     0
  9
$PDSIZE
 40
0.0
  9
$PLINEWID
 40
0.0
  9
$SPLFRAME
 70
     0
  9
$SPLINETYPE
 70
     6
  9
$SPLINESEGS
 70
     8
  9
$HANDSEED
  5
394
  9
$SURFTAB1
 70
     6
  9
$SURFTAB2
 70
     6
  9
$SURFTYPE
 70
     6
  9
$SURFU
 70
     6
  9
$SURFV
 70
     6
  9
$UCSBASE
  2

  9
$UCSNAME
  2

  9
$UCSORG
 10
0.0
 20
0.0
 30
0.0
  9
$UCSXDIR
 10
1.0
 20
0.0
 30
0.0
  9
$UCSYDIR
 10
0.0
 20
1.0
 30
0.0
  9
$UCSORTHOREF
  2

  9
$UCSORTHOVIEW
 70
     1
  9
$UCSORGTOP
 10
0.0
 20
0.0
 30
0.0
  9
$UCSORGBOTTOM
 10
0.0
 20
0.0
 30
0.0
  9
$UCSORGLEFT
 10
0.0
 20
0.0
 30
0.0
  9
$UCSORGRIGHT
 10
0.0
 20
0.0
 30
0.0
  9
$UCSORGFRONT
 10
0.0
 20
0.0
 30
0.0
  9
$UCSORGBACK
 10
0.0
 20
0.0
 30
0.0
  9
$PUCSBASE
  2

  9
$PUCSNAME
  2

  9
$PUCSORG
 10
0.0
 20
0.0
 30
0.0
  9
$PUCSXDIR
 10
1.0
 20
0.0
 30
0.0
  9
$PUCSYDIR
 10
0.0
 20
1.0
 30
0.0
  9
$PUCSORTHOREF
  2

  9
$PUCSORTHOVIEW
 70
     0
  9
$PUCSORGTOP
 10
0.0
 20
0.0
 30
0.0
  9
$PUCSORGBOTTOM
 10
0.0
 20
0.0
 30
0.0
  9
$PUCSORGLEFT
 10
0.0
 20
0.0
 30
0.0
  9
$PUCSORGRIGHT
 10
0.0
 20
0.0
 30
0.0
  9
$PUCSORGFRONT
 10
0.0
 20
0.0
 30
0.0
  9
$PUCSORGBACK
 10
0.0
 20
0.0
 30
0.0
  9
$USERI1
 70
     0
  9
$USERI2
 70
     0
  9
$USERI3
 70
     0
  9
$USERI4
 70
     0
  9
$USERI5
 70
     0
  9
$USERR1
 40
0.0
  9
$USERR2
 40
0.0
  9
$USERR3
 40
0.0
  9
$USERR4
 40
0.0
  9
$USERR5
 40
0.0
  9
$WORLDVIEW
 70
     1
  9
$SHADEDGE
 70
     3
  9
$SHADEDIF
 70
    70
  9
$TILEMODE
 70
     1
  9
$MAXACTVP
 70
    64
  9
$PINSBASE
 10
0.0
 20
0.0
 30
0.0
  9
$PLIMCHECK
 70
     0
  9
$PEXTMIN
 10
1.000000000000000E+20
 20
1.000000000000000E+20
 30
1.000000000000000E+20
  9
$PEXTMAX
 10
-1.000000000000000E+20
 20
-1.000000000000000E+20
 30
-1.000000000000000E+20
  9
$PLIMMIN
 10
0.0
 20
0.0
  9
$PLIMMAX
 10
12.0
 20
9.0
  9
$UNITMODE
 70
     0
  9
$VISRETAIN
 70
     1
  9
$PLINEGEN
 70
     0
  9
$PSLTSCALE
 70
     1
  9
$TREEDEPTH
 70
  3020
  9
$CMLSTYLE
  2
Standard
  9
$CMLJUST
 70
     0
  9
$CMLSCALE
 40
1.0
  9
$PROXYGRAPHICS
 70
     1
  9
$MEASUREMENT
 70
     0
  9
$CELWEIGHT
370
    -1
  9
$ENDCAPS
280
     0
  9
$JOINSTYLE
280
     0
  9
$LWDISPLAY
290
     0
  9
$INSUNITS
 70
     0
  9
$HYPERLINKBASE
  1

  9
$STYLESHEET
  1

  9
$XEDIT
290
     1
  9
$CEPSNTYPE
380
     0
  9
$PSTYLEMODE
290
     1
  9
$FINGERPRINTGUID
  2
{07266993-E2D1-4D1E-9B96-696FD80F7E35}
  9
$VERSIONGUID
  2
{6EE99A6A-7E27-4A70-9117-E6993D06D185}
  9
$EXTNAMES
290
     1
  9
$PSVPSCALE
 40
0.0
  9
$OLESTARTUP
290
     0
  0
ENDSEC
  0
SECTION
  2
CLASSES
  0
CLASS
  1
ACDBDICTIONARYWDFLT
  2
AcDbDictionaryWithDefault
  3
AutoCAD 2000
 90
        0
280
     0
281
     0
  0
CLASS
  1
ACDBPLACEHOLDER
  2
AcDbPlaceHolder
  3
AutoCAD 2000
 90
        0
280
     0
281
     0
  0
CLASS
  1
LAYOUT
  2
AcDbLayout
  3
AutoCAD 2000
 90
        0
280
     0
281
     0
  0
CLASS
  1
DICTIONARYVAR
  2
AcDbDictionaryVar
  3
AutoCAD 2000
 90
        0
280
     0
281
     0
  0
ENDSEC
  0
SECTION
  2
TABLES
  0
TABLE
  2
VPORT
  5
8
330
0
100
AcDbSymbolTable
 70
     2
  0
VPORT
  5
393
330
8
100
AcDbSymbolTableRecord
100
AcDbViewportTableRecord
  2
*Active
 70
     0
 10
0.0
 20
0.0
 11
1.0
 21
1.0
 12
15.0
 22
56.0
 13
0.0
 23
0.0
 14
1.0
 24
1.0
 15
0.0
 25
0.0
 16
0.0
 26
0.0
 36
1.0
 17
0.0
 27
0.0
 37
0.0
 40
112.8593350383631
 41
2.078104993597951
 42
50.0
 43
0.0
 44
0.0
 50
0.0
 51
0.0
 71
     0
 72
   100
 73
     1
 74
     3
 75
     0
 76
     0
 77
     0
 78
     0
281
     0
 65
     1
110
0.0
120
0.0
130
0.0
111
1.0
121
0.0
131
0.0
112
0.0
122
1.0
132
0.0
 79
     1
146
0.0
  0
ENDTAB
  0
TABLE
  2
LTYPE
  5
5
330
0
100
AcDbSymbolTable
 70
     1
  0
LTYPE
  5
13
330
5
100
AcDbSymbolTableRecord
100
AcDbLinetypeTableRecord
  2
ByBlock
 70
     0
  3

 72
    65
 73
     0
 40
0.0
  0
LTYPE
  5
14
330
5
100
AcDbSymbolTableRecord
100
AcDbLinetypeTableRecord
  2
ByLayer
 70
     0
  3

 72
    65
 73
     0
 40
0.0
  0
LTYPE
  5
15
330
5
100
AcDbSymbolTableRecord
100
AcDbLinetypeTableRecord
  2
Continuous
 70
     0
  3
Solid line
 72
    65
 73
     0
 40
0.0
  0
ENDTAB
  0
TABLE
  2
LAYER
  5
2
330
0
100
AcDbSymbolTable
 70
     1
  0
LAYER
  5
10
330
2
100
AcDbSymbolTableRecord
100
AcDbLayerTableRecord
  2
0
 70
     0
 62
     7
  6
Continuous
370
    -3
390
F
  0
ENDTAB
  0
TABLE
  2
STYLE
  5
3
330
0
100
AcDbSymbolTable
 70
     1
  0
STYLE
  5
11
330
3
100
AcDbSymbolTableRecord
100
AcDbTextStyleTableRecord
  2
Standard
 70
     0
 40
0.0
 41
1.0
 50
0.0
 71
     0
 42
0.2
  3
txt
  4

  0
ENDTAB
  0
TABLE
  2
VIEW
  5
6
330
0
100
AcDbSymbolTable
 70
     0
  0
ENDTAB
  0
TABLE
  2
UCS
  5
7
330
0
100
AcDbSymbolTable
 70
     0
  0
ENDTAB
  0
TABLE
  2
APPID
  5
9
330
0
100
AcDbSymbolTable
 70
     1
  0
APPID
  5
12
330
9
100
AcDbSymbolTableRecord
100
AcDbRegAppTableRecord
  2
ACAD
 70
     0
  0
ENDTAB
  0
TABLE
  2
DIMSTYLE
  5
A
330
0
100
AcDbSymbolTable
 70
     1
100
AcDbDimStyleTable
 71
     0
  0
DIMSTYLE
105
38D
330
A
100
AcDbSymbolTableRecord
100
AcDbDimStyleTableRecord
  2
Standard
 70
     0
340
11
  0
ENDTAB
  0
TABLE
  2
BLOCK_RECORD
  5
1
330
0
100
AcDbSymbolTable
 70
     0
  0
BLOCK_RECORD
  5
1E
330
1
100
AcDbSymbolTableRecord
100
AcDbBlockTableRecord
  2
*Model_Space
340
21
  0
BLOCK_RECORD
  5
1A
330
1
100
AcDbSymbolTableRecord
100
AcDbBlockTableRecord
  2
*Paper_Space
340
1D
  0
ENDTAB
  0
ENDSEC
  0
SECTION
  2
BLOCKS
  0
BLOCK
  5
1F
330
1E
100
AcDbEntity
  8
0
100
AcDbBlockBegin
  2
*Model_Space
 70
     0
 10
0.0
 20
0.0
 30
0.0
  3
*Model_Space
  1

  0
ENDBLK
  5
20
330
1E
100
AcDbEntity
  8
0
100
AcDbBlockEnd
  0
BLOCK
  5
1B
330
1A
100
AcDbEntity
 67
     1
  8
0
100
AcDbBlockBegin
  2
*Paper_Space
 70
     0
 10
0.0
 20
0.0
 30
0.0
  3
*Paper_Space
  1

  0
ENDBLK
  5
1C
330
1A
100
AcDbEntity
 67
     1
  8
0
100
AcDbBlockEnd
  0
ENDSEC
  0
SECTION
  2
ENTITIES
  0
LINE
  5
22
330
1E
100
AcDbEntity
  8
0
100
AcDbLine
 10
0.130479999999997
 20
11.0
 30
0.0
 11
0.553072999999997
 21
11.0
 31
0.0
  0
LINE
  5
23
330
1E
100
AcDbEntity
  8
0
100
AcDbLine
 10
-0.0000000000000027
 20
11.0
 30
0.0
 11
0.130479999999997
 21
11.0
 31
0.0
  0
LINE
  5
24
330
1E
100
AcDbEntity
  8
0
100
AcDbLine
 10
-0.0000000000000027
 20
11.0
 30
0.0
 11
0.164481999999997
 21
11.0
 31
0.0
  0
LINE
  5
25
330
1E
100
AcDbEntity
  8
0
100
AcDbLine
 10
-0.0000000000000027
 20
11.0
 30
0.0
 11
-0.0000000000000017
 21
26.0
 31
0.0
  0
LINE
  5
26
330
1E
100
AcDbEntity
  8
0
100
AcDbLine
 10
-0.0000000000000027
 20
11.0
 30
0.0
 11
0.164481999999997
 21
11.0
 31
0.0
  0
LINE
  5
27
330
1E
100
AcDbEntity
  8
0
100
AcDbLine
 10
-0.0000000000000027
 20
11.0
 30
0.0
 11
0.130479999999997
 21
11.0
 31
0.0
  0
LINE
  5
28
330
1E
100
AcDbEntity
  8
0
100
AcDbLine
 10
0.164481999999997
 20
11.0
 30
0.0
 11
0.6210759999999971
 21
11.0
 31
0.0
  0
LINE
  5
29
330
1E
100
AcDbEntity
  8
0
100
AcDbLine
 10
0.164481999999997
 20
11.0
 30
0.0
 11
0.6210759999999971
 21
11.0
 31
0.0
  0
LINE
  5
2A
330
1E
100
AcDbEntity
  8
0
100
AcDbLine
 10
0.130479999999997
 20
11.0
 30
0.0
 11
0.553072999999997
 21
11.0
 31
0.0
  0
LINE
  5
2B
330
1E
100
AcDbEntity
  8
0
100
AcDbLine
 10
0.6210759999999971
 20
11.0
 30
0.0
 11
1.150529999999999
 21
11.0
 31
0.0
  0
LINE
  5
2C
330
1E
100
AcDbEntity
  8
0
100
AcDbLine
 10
0.553072999999997
 20
11.0
 30
0.0
 11
1.126239999999999
 21
11.0
 31
0.0
  0
LINE
  5
2D
330
1E
100
AcDbEntity
  8
0
100
AcDbLine
 10
1.150529999999999
 20
11.0
 30
0.0
 11
2.0
 21
11.0
 31
0.0
  0
LINE
  5
2E
330
1E
100
AcDbEntity
  8
0
100
AcDbLine
 10
1.126239999999999
 20
11.0
 30
0.0
 11
2.0
 21
11.0
 31
0.0
  0
LINE
  5
2F
330
1E
100
AcDbEntity
  8
0
100
AcDbLine
 10
2.0
 20
11.0
 30
0.0
 11
9.0
 21
11.0
 31
0.0
  0
LINE
  5
30
330
1E
100
AcDbEntity
  8
0
100
AcDbLine
 10
9.0
 20
11.0
 30
0.0
 11
9.0
 21
11.47057324
 31
0.0
  0
LINE
  5
31
330
1E
100
AcDbEntity
  8
0
100
AcDbLine
 10
9.0
 20
11.26144068
 30
0.0
 11
9.2498
 21
11.0
 31
0.0
  0
LINE
  5
32
330
1E
100
AcDbEntity
  8
0
100
AcDbLine
 10
9.2498
 20
11.0
 30
0.0
 11
9.2498
 21
8.907899999999999
 31
0.0
  0
LINE
  5
33
330
1E
100
AcDbEntity
  8
0
100
AcDbLine
 10
9.2498
 20
11.0
 30
0.0
 11
9.2498
 21
11.4186
 31
0.0
  0
LINE
  5
34
330
1E
100
AcDbEntity
  8
0
100
AcDbLine
 10
8.7498
 20
13.093
 30
0.0
 11
8.7498
 21
15.005
 31
0.0
  0
LINE
  5
35
330
1E
100
AcDbEntity
  8
0
100
AcDbLine
 10
8.7498
 20
13.093
 30
0.0
 11
8.7498
 21
11.9419
 31
0.0
  0
LINE
  5
36
330
1E
100
AcDbEntity
  8
0
100
AcDbLine
 10
8.7498
 20
11.9419
 30
0.0
 11
8.7498
 21
13.093
 31
0.0
  0
LINE
  5
37
330
1E
100
AcDbEntity
  8
0
100
AcDbLine
 10
8.7498
 20
11.9419
 30
0.0
 11
8.7498
 21
11.5361428571429
 31
0.0
  0
LINE
  5
38
330
1E
100
AcDbEntity
  8
0
100
AcDbLine
 10
9.0
 20
11.47057324
 30
0.0
 11
9.0
 21
11.0
 31
0.0
  0
LINE
  5
39
330
1E
100
AcDbEntity
  8
0
100
AcDbLine
 10
8.7498
 20
15.005
 30
0.0
 11
8.7498
 21
17.5213
 31
0.0
  0
LINE
  5
3A
330
1E
100
AcDbEntity
  8
0
100
AcDbLine
 10
8.7498
 20
11.5361428571429
 30
0.0
 11
8.7498
 21
11.9419
 31
0.0
  0
LINE
  5
3B
330
1E
100
AcDbEntity
  8
0
100
AcDbLine
 10
9.2498
 20
11.4186
 30
0.0
 11
9.2498
 21
8.907899999999999
 31
0.0
  0
LINE
  5
3C
330
1E
100
AcDbEntity
  8
0
100
AcDbLine
 10
9.2498
 20
11.4186
 30
0.0
 11
9.2498
 21
11.0
 31
0.0
  0
LINE
  5
3D
330
1E
100
AcDbEntity
  8
0
100
AcDbLine
 10
9.2498
 20
11.4186
 30
0.0
 11
9.2498
 21
12.5698
 31
0.0
  0
LINE
  5
3E
330
1E
100
AcDbEntity
  8
0
100
AcDbLine
 10
9.2498
 20
14.561
 30
0.0
 11
9.2498
 21
17.0772
 31
0.0
  0
LINE
  5
3F
330
1E
100
AcDbEntity
  8
0
100
AcDbLine
 10
9.2498
 20
12.5698
 30
0.0
 11
9.2498
 21
14.561
 31
0.0
  0
LINE
  5
40
330
1E
100
AcDbEntity
  8
0
100
AcDbLine
 10
9.2498
 20
12.5698
 30
0.0
 11
9.2498
 21
11.4186
 31
0.0
  0
LINE
  5
41
330
1E
100
AcDbEntity
  8
0
100
AcDbLine
 10
9.2498
 20
8.907899999999999
 30
0.0
 11
9.2619
 21
8.506299999999999
 31
0.0
  0
LINE
  5
42
330
1E
100
AcDbEntity
  8
0
100
AcDbLine
 10
9.2498
 20
8.907899999999999
 30
0.0
 11
9.2498
 21
11.4186
 31
0.0
  0
LINE
  5
43
330
1E
100
AcDbEntity
  8
0
100
AcDbLine
 10
9.2498
 20
8.907899999999999
 30
0.0
 11
9.2498
 21
11.0
 31
0.0
  0
LINE
  5
44
330
1E
100
AcDbEntity
  8
0
100
AcDbLine
 10
19.7528
 20
3.544299999999999
 30
0.0
 11
21.7511
 21
1.671599999999999
 31
0.0
  0
LINE
  5
45
330
1E
100
AcDbEntity
  8
0
100
AcDbLine
 10
21.7511
 20
1.671599999999999
 30
0.0
 11
22.2507
 21
0.417899999999999
 31
0.0
  0
LINE
  5
46
330
1E
100
AcDbEntity
  8
0
100
AcDbLine
 10
21.7511
 20
1.671599999999999
 30
0.0
 11
22.2507
 21
0.417899999999999
 31
0.0
  0
LINE
  5
47
330
1E
100
AcDbEntity
  8
0
100
AcDbLine
 10
22.2507
 20
0.417899999999999
 30
0.0
 11
22.7502
 21
-0.0000000000000014
 31
0.0
  0
LINE
  5
48
330
1E
100
AcDbEntity
  8
0
100
AcDbLine
 10
22.2507
 20
0.417899999999999
 30
0.0
 11
22.7502
 21
-0.0000000000000014
 31
0.0
  0
LINE
  5
49
330
1E
100
AcDbEntity
  8
0
100
AcDbLine
 10
10.2611
 20
7.088599999999999
 30
0.0
 11
12.7589
 21
6.7342
 31
0.0
  0
LINE
  5
4A
330
1E
100
AcDbEntity
  8
0
100
AcDbLine
 10
12.7589
 20
6.7342
 30
0.0
 11
16.2559
 21
5.670899999999999
 31
0.0
  0
LINE
  5
4B
330
1E
100
AcDbEntity
  8
0
100
AcDbLine
 10
22.7502
 20
7.5971
 30
0.0
 11
22.7502
 21
4.3463
 31
0.0
  0
LINE
  5
4C
330
1E
100
AcDbEntity
  8
0
100
AcDbLine
 10
22.7502
 20
7.5971
 30
0.0
 11
22.7502
 21
11.6754
 31
0.0
  0
LINE
  5
4D
330
1E
100
AcDbEntity
  8
0
100
AcDbLine
 10
16.2559
 20
5.670899999999999
 30
0.0
 11
19.7528
 21
3.544299999999999
 31
0.0
  0
LINE
  5
4E
330
1E
100
AcDbEntity
  8
0
100
AcDbLine
 10
22.7502
 20
4.3463
 30
0.0
 11
22.7502
 21
2.005999999999999
 31
0.0
  0
LINE
  5
4F
330
1E
100
AcDbEntity
  8
0
100
AcDbLine
 10
22.7502
 20
4.3463
 30
0.0
 11
22.7502
 21
7.5971
 31
0.0
  0
LINE
  5
50
330
1E
100
AcDbEntity
  8
0
100
AcDbLine
 10
22.7502
 20
2.005999999999999
 30
0.0
 11
22.7502
 21
0.5850999999999991
 31
0.0
  0
LINE
  5
51
330
1E
100
AcDbEntity
  8
0
100
AcDbLine
 10
22.7502
 20
2.005999999999999
 30
0.0
 11
22.7502
 21
4.3463
 31
0.0
  0
LINE
  5
52
330
1E
100
AcDbEntity
  8
0
100
AcDbLine
 10
22.7502
 20
-0.0000000000000014
 30
0.0
 11
23.0
 21
-0.0000000000000014
 31
0.0
  0
LINE
  5
53
330
1E
100
AcDbEntity
  8
0
100
AcDbLine
 10
22.7502
 20
-0.0000000000000014
 30
0.0
 11
22.7502
 21
0.5850999999999991
 31
0.0
  0
LINE
  5
54
330
1E
100
AcDbEntity
  8
0
100
AcDbLine
 10
22.7502
 20
0.5850999999999991
 30
0.0
 11
22.7502
 21
-0.0000000000000014
 31
0.0
  0
LINE
  5
55
330
1E
100
AcDbEntity
  8
0
100
AcDbLine
 10
22.7502
 20
0.5850999999999991
 30
0.0
 11
22.7502
 21
2.005999999999999
 31
0.0
  0
LINE
  5
66
330
1E
100
AcDbEntity
  8
0
100
AcDbLine
 10
22.7502
 20
11.6754
 30
0.0
 11
22.7502
 21
7.5971
 31
0.0
  0
LINE
  5
67
330
1E
100
AcDbEntity
  8
0
100
AcDbLine
 10
22.7502
 20
11.6754
 30
0.0
 11
22.7502
 21
16.4022
 31
0.0
  0
LINE
  5
68
330
1E
100
AcDbEntity
  8
0
100
AcDbLine
 10
9.511699999999999
 20
7.7975
 30
0.0
 11
10.2611
 21
7.088599999999999
 31
0.0
  0
LINE
  5
69
330
1E
100
AcDbEntity
  8
0
100
AcDbLine
 10
9.2619
 20
8.506299999999999
 30
0.0
 11
9.511699999999999
 21
7.7975
 31
0.0
  0
LINE
  5
6A
330
1E
100
AcDbEntity
  8
0
100
AcDbLine
 10
7.77313
 20
17.4634
 30
0.0
 11
7.78053
 21
17.31139999999999
 31
0.0
  0
LINE
  5
6B
330
1E
100
AcDbEntity
  8
0
100
AcDbLine
 10
7.78053
 20
17.31139999999999
 30
0.0
 11
7.78611
 21
17.2248
 31
0.0
  0
LINE
  5
6C
330
1E
100
AcDbEntity
  8
0
100
AcDbLine
 10
7.78946
 20
17.20769999999999
 30
0.0
 11
8.654625060020441
 21
17.23644101201
 31
0.0
  0
LINE
  5
6D
330
1E
100
AcDbEntity
  8
0
100
AcDbLine
 10
7.78946
 20
17.366
 30
0.0
 11
7.790719999999999
 21
17.2526
 31
0.0
  0
LINE
  5
6E
330
1E
100
AcDbEntity
  8
0
100
AcDbLine
 10
7.78611
 20
17.5314
 30
0.0
 11
7.78946
 21
17.366
 31
0.0
  0
LINE
  5
6F
330
1E
100
AcDbEntity
  8
0
100
AcDbLine
 10
8.7498
 20
17.5213
 30
0.0
 11
8.7498
 21
20.77739999999999
 31
0.0
  0
LINE
  5
70
330
1E
100
AcDbEntity
  8
0
100
AcDbLine
 10
8.7498
 20
17.5213
 30
0.0
 11
8.7498
 21
15.005
 31
0.0
  0
LINE
  5
71
330
1E
100
AcDbEntity
  8
0
100
AcDbLine
 10
9.2498
 20
17.0772
 30
0.0
 11
9.2498
 21
14.561
 31
0.0
  0
LINE
  5
72
330
1E
100
AcDbEntity
  8
0
100
AcDbLine
 10
9.2498
 20
17.0772
 30
0.0
 11
9.2498
 21
20.3334
 31
0.0
  0
LINE
  5
73
330
1E
100
AcDbEntity
  8
0
100
AcDbLine
 10
7.755819999999999
 20
17.8941
 30
0.0
 11
7.76475
 21
17.66189999999999
 31
0.0
  0
LINE
  5
74
330
1E
100
AcDbEntity
  8
0
100
AcDbLine
 10
7.76475
 20
17.66189999999999
 30
0.0
 11
7.77313
 21
17.4634
 31
0.0
  0
LINE
  5
75
330
1E
100
AcDbEntity
  8
0
100
AcDbLine
 10
7.746879999999999
 20
18.14849999999999
 30
0.0
 11
7.755819999999999
 21
17.8941
 31
0.0
  0
LINE
  5
76
330
1E
100
AcDbEntity
  8
0
100
AcDbLine
 10
7.73851
 20
18.4063
 30
0.0
 11
7.746879999999999
 21
18.14849999999999
 31
0.0
  0
LINE
  5
77
330
1E
100
AcDbEntity
  8
0
100
AcDbLine
 10
7.73111
 20
18.6573
 30
0.0
 11
7.73851
 21
18.4063
 31
0.0
  0
LINE
  5
78
330
1E
100
AcDbEntity
  8
0
100
AcDbLine
 10
7.725519999999999
 20
18.8748
 30
0.0
 11
7.73111
 21
18.6573
 31
0.0
  0
LINE
  5
79
330
1E
100
AcDbEntity
  8
0
100
AcDbLine
 10
7.746879999999999
 20
18.7443
 30
0.0
 11
7.755819999999999
 21
18.5121
 31
0.0
  0
LINE
  5
7A
330
1E
100
AcDbEntity
  8
0
100
AcDbLine
 10
7.755819999999999
 20
18.5121
 30
0.0
 11
7.76475
 21
18.2577
 31
0.0
  0
LINE
  5
7B
330
1E
100
AcDbEntity
  8
0
100
AcDbLine
 10
7.76475
 20
18.2577
 30
0.0
 11
7.77313
 21
17.9999
 31
0.0
  0
LINE
  5
7C
330
1E
100
AcDbEntity
  8
0
100
AcDbLine
 10
7.77313
 20
17.9999
 30
0.0
 11
7.78053
 21
17.749
 31
0.0
  0
LINE
  5
7D
330
1E
100
AcDbEntity
  8
0
100
AcDbLine
 10
7.78053
 20
17.749
 30
0.0
 11
7.78611
 21
17.5314
 31
0.0
  0
LINE
  5
7E
330
1E
100
AcDbEntity
  8
0
100
AcDbLine
 10
7.722169999999999
 20
19.04029999999999
 30
0.0
 11
7.725519999999999
 21
18.8748
 31
0.0
  0
LINE
  5
7F
330
1E
100
AcDbEntity
  8
0
100
AcDbLine
 10
7.73851
 20
18.9428
 30
0.0
 11
7.746879999999999
 21
18.7443
 31
0.0
  0
LINE
  5
80
330
1E
100
AcDbEntity
  8
0
100
AcDbLine
 10
7.73111
 20
19.0948
 30
0.0
 11
7.73851
 21
18.9428
 31
0.0
  0
LINE
  5
81
330
1E
100
AcDbEntity
  8
0
100
AcDbLine
 10
7.725519999999999
 20
19.1814
 30
0.0
 11
7.73111
 21
19.0948
 31
0.0
  0
LINE
  5
82
330
1E
100
AcDbEntity
  8
0
100
AcDbLine
 10
7.722169999999999
 20
19.1985
 30
0.0
 11
8.643428860774468
 21
19.2291043097851
 31
0.0
  0
LINE
  5
83
330
1E
100
AcDbEntity
  8
0
100
AcDbLine
 10
7.720919999999999
 20
19.1536
 30
0.0
 11
7.722169999999999
 21
19.04029999999999
 31
0.0
  0
LINE
  5
84
330
1E
100
AcDbEntity
  8
0
100
AcDbLine
 10
7.755819999999999
 20
23.2603
 30
0.0
 11
7.76475
 21
23.0744
 31
0.0
  0
LINE
  5
85
330
1E
100
AcDbEntity
  8
0
100
AcDbLine
 10
7.76475
 20
23.0744
 30
0.0
 11
7.77313
 21
22.9368
 31
0.0
  0
LINE
  5
86
330
1E
100
AcDbEntity
  8
0
100
AcDbLine
 10
7.77313
 20
22.9368
 30
0.0
 11
7.78053
 21
22.8595
 31
0.0
  0
LINE
  5
87
330
1E
100
AcDbEntity
  8
0
100
AcDbLine
 10
7.78611
 20
22.8547
 30
0.0
 11
7.78946
 21
22.91809999999999
 31
0.0
  0
LINE
  5
88
330
1E
100
AcDbEntity
  8
0
100
AcDbLine
 10
7.78611
 20
22.8547
 30
0.0
 11
8.68521711879495
 21
22.88011527942639
 31
0.0
  0
LINE
  5
89
330
1E
100
AcDbEntity
  8
0
100
AcDbLine
 10
7.78946
 20
22.91809999999999
 30
0.0
 11
7.790719999999999
 21
23.03949999999999
 31
0.0
  0
LINE
  5
8A
330
1E
100
AcDbEntity
  8
0
100
AcDbLine
 10
7.746879999999999
 20
23.4884
 30
0.0
 11
7.755819999999999
 21
23.2603
 31
0.0
  0
LINE
  5
8B
330
1E
100
AcDbEntity
  8
0
100
AcDbLine
 10
7.73851
 20
23.7389
 30
0.0
 11
7.746879999999999
 21
23.4884
 31
0.0
  0
LINE
  5
8C
330
1E
100
AcDbEntity
  8
0
100
AcDbLine
 10
7.73111
 20
24.0043
 30
0.0
 11
7.73851
 21
23.7389
 31
0.0
  0
LINE
  5
8D
330
1E
100
AcDbEntity
  8
0
100
AcDbLine
 10
7.725519999999999
 20
24.25829999999999
 30
0.0
 11
7.73111
 21
24.0043
 31
0.0
  0
LINE
  5
8E
330
1E
100
AcDbEntity
  8
0
100
AcDbLine
 10
7.722169999999999
 20
24.47699999999999
 30
0.0
 11
7.725519999999999
 21
24.25829999999999
 31
0.0
  0
LINE
  5
8F
330
1E
100
AcDbEntity
  8
0
100
AcDbLine
 10
7.746879999999999
 20
24.6216
 30
0.0
 11
7.755819999999999
 21
24.4358
 31
0.0
  0
LINE
  5
90
330
1E
100
AcDbEntity
  8
0
100
AcDbLine
 10
7.73851
 20
24.75929999999999
 30
0.0
 11
7.746879999999999
 21
24.6216
 31
0.0
  0
LINE
  5
91
330
1E
100
AcDbEntity
  8
0
100
AcDbLine
 10
7.73111
 20
24.8366
 30
0.0
 11
7.73851
 21
24.75929999999999
 31
0.0
  0
LINE
  5
92
330
1E
100
AcDbEntity
  8
0
100
AcDbLine
 10
7.725519999999999
 20
24.8414
 30
0.0
 11
8.62419791206439
 21
24.8668030198428
 31
0.0
  0
LINE
  5
93
330
1E
100
AcDbEntity
  8
0
100
AcDbLine
 10
7.725519999999999
 20
24.8414
 30
0.0
 11
8.62419791206439
 21
24.8668030198428
 31
0.0
  0
LINE
  5
94
330
1E
100
AcDbEntity
  8
0
100
AcDbLine
 10
7.722169999999999
 20
24.7779
 30
0.0
 11
7.725519999999999
 21
24.8414
 31
0.0
  0
LINE
  5
95
330
1E
100
AcDbEntity
  8
0
100
AcDbLine
 10
7.720919999999999
 20
24.6566
 30
0.0
 11
7.722169999999999
 21
24.7779
 31
0.0
  0
LINE
  5
96
330
1E
100
AcDbEntity
  8
0
100
AcDbLine
 10
7.720919999999999
 20
24.6566
 30
0.0
 11
7.722169999999999
 21
24.47699999999999
 31
0.0
  0
LINE
  5
97
330
1E
100
AcDbEntity
  8
0
100
AcDbLine
 10
7.755819999999999
 20
24.4358
 30
0.0
 11
7.76475
 21
24.2077
 31
0.0
  0
LINE
  5
98
330
1E
100
AcDbEntity
  8
0
100
AcDbLine
 10
7.76475
 20
24.2077
 30
0.0
 11
7.77313
 21
23.9572
 31
0.0
  0
LINE
  5
99
330
1E
100
AcDbEntity
  8
0
100
AcDbLine
 10
7.77313
 20
23.9572
 30
0.0
 11
7.78053
 21
23.6918
 31
0.0
  0
LINE
  5
9A
330
1E
100
AcDbEntity
  8
0
100
AcDbLine
 10
7.78053
 20
23.6918
 30
0.0
 11
7.78611
 21
23.4378
 31
0.0
  0
LINE
  5
9B
330
1E
100
AcDbEntity
  8
0
100
AcDbLine
 10
7.78611
 20
23.4378
 30
0.0
 11
7.78946
 21
23.2191
 31
0.0
  0
LINE
  5
9C
330
1E
100
AcDbEntity
  8
0
100
AcDbLine
 10
7.78946
 20
23.2191
 30
0.0
 11
7.790719999999999
 21
23.03949999999999
 31
0.0
  0
LINE
  5
9D
330
1E
100
AcDbEntity
  8
0
100
AcDbLine
 10
8.7498
 20
20.77739999999999
 30
0.0
 11
8.7498
 21
24.5488
 31
0.0
  0
LINE
  5
9E
330
1E
100
AcDbEntity
  8
0
100
AcDbLine
 10
8.7498
 20
20.77739999999999
 30
0.0
 11
8.7498
 21
17.5213
 31
0.0
  0
LINE
  5
9F
330
1E
100
AcDbEntity
  8
0
100
AcDbLine
 10
8.7498
 20
24.5488
 30
0.0
 11
8.7498
 21
28.9146
 31
0.0
  0
LINE
  5
A0
330
1E
100
AcDbEntity
  8
0
100
AcDbLine
 10
8.7498
 20
24.5488
 30
0.0
 11
8.7498
 21
20.77739999999999
 31
0.0
  0
LINE
  5
A1
330
1E
100
AcDbEntity
  8
0
100
AcDbLine
 10
9.2498
 20
20.3334
 30
0.0
 11
9.2498
 21
17.0772
 31
0.0
  0
LINE
  5
A2
330
1E
100
AcDbEntity
  8
0
100
AcDbLine
 10
9.2498
 20
20.3334
 30
0.0
 11
9.2498
 21
24.18029999999999
 31
0.0
  0
LINE
  5
A3
330
1E
100
AcDbEntity
  8
0
100
AcDbLine
 10
9.2498
 20
24.18029999999999
 30
0.0
 11
9.2498
 21
20.3334
 31
0.0
  0
LINE
  5
A4
330
1E
100
AcDbEntity
  8
0
100
AcDbLine
 10
9.2498
 20
24.18029999999999
 30
0.0
 11
9.2498
 21
28.6186
 31
0.0
  0
LINE
  5
A5
330
1E
100
AcDbEntity
  8
0
100
AcDbLine
 10
-0.0000000000000017
 20
26.0
 30
0.0
 11
0.130479999999998
 21
26.0
 31
0.0
  0
LINE
  5
A6
330
1E
100
AcDbEntity
  8
0
100
AcDbLine
 10
-0.0000000000000017
 20
26.0
 30
0.0
 11
0.130479999999998
 21
26.0
 31
0.0
  0
LINE
  5
A7
330
1E
100
AcDbEntity
  8
0
100
AcDbLine
 10
0.130479999999998
 20
26.0
 30
0.0
 11
0.5530729999999979
 21
26.0
 31
0.0
  0
LINE
  5
A8
330
1E
100
AcDbEntity
  8
0
100
AcDbLine
 10
0.5530729999999979
 20
26.0
 30
0.0
 11
1.126239999999999
 21
26.0
 31
0.0
  0
LINE
  5
A9
330
1E
100
AcDbEntity
  8
0
100
AcDbLine
 10
1.126239999999999
 20
26.0
 30
0.0
 11
2.0
 21
26.0
 31
0.0
  0
LINE
  5
AA
330
1E
100
AcDbEntity
  8
0
100
AcDbLine
 10
2.0
 20
26.0
 30
0.0
 11
8.43446304182032
 21
26.0
 31
0.0
  0
LINE
  5
AB
330
1E
100
AcDbEntity
  8
0
100
AcDbLine
 10
7.469389999999999
 20
30.5479
 30
0.0
 11
8.357656552348409
 21
30.5774084496923
 31
0.0
  0
LINE
  5
AC
330
1E
100
AcDbEntity
  8
0
100
AcDbLine
 10
7.435739999999999
 20
31.8523
 30
0.0
 11
7.444679999999999
 21
31.5979
 31
0.0
  0
LINE
  5
AD
330
1E
100
AcDbEntity
  8
0
100
AcDbLine
 10
7.444679999999999
 20
31.5979
 30
0.0
 11
7.45305
 21
31.34009999999999
 31
0.0
  0
LINE
  5
AE
330
1E
100
AcDbEntity
  8
0
100
AcDbLine
 10
7.42681
 20
31.4887
 30
0.0
 11
7.435739999999999
 21
31.2343
 31
0.0
  0
LINE
  5
AF
330
1E
100
AcDbEntity
  8
0
100
AcDbLine
 10
7.418429999999999
 20
31.7465
 30
0.0
 11
7.42681
 21
31.4887
 31
0.0
  0
LINE
  5
B0
330
1E
100
AcDbEntity
  8
0
100
AcDbLine
 10
7.42681
 20
32.0845
 30
0.0
 11
7.435739999999999
 21
31.8523
 31
0.0
  0
LINE
  5
B1
330
1E
100
AcDbEntity
  8
0
100
AcDbLine
 10
7.418429999999999
 20
32.28289999999999
 30
0.0
 11
7.42681
 21
32.0845
 31
0.0
  0
LINE
  5
B2
330
1E
100
AcDbEntity
  8
0
100
AcDbLine
 10
7.41103
 20
31.9974
 30
0.0
 11
7.418429999999999
 21
31.7465
 31
0.0
  0
LINE
  5
B3
330
1E
100
AcDbEntity
  8
0
100
AcDbLine
 10
7.40545
 20
32.215
 30
0.0
 11
7.41103
 21
31.9974
 31
0.0
  0
LINE
  5
B4
330
1E
100
AcDbEntity
  8
0
100
AcDbLine
 10
7.41103
 20
32.435
 30
0.0
 11
7.418429999999999
 21
32.28289999999999
 31
0.0
  0
LINE
  5
B5
330
1E
100
AcDbEntity
  8
0
100
AcDbLine
 10
7.40545
 20
32.52159999999999
 30
0.0
 11
7.41103
 21
32.435
 31
0.0
  0
LINE
  5
B6
330
1E
100
AcDbEntity
  8
0
100
AcDbLine
 10
7.402099999999999
 20
32.5387
 30
0.0
 11
7.72971477266409
 21
32.5495670586196
 31
0.0
  0
LINE
  5
B7
330
1E
100
AcDbEntity
  8
0
100
AcDbLine
 10
7.402099999999999
 20
32.3804
 30
0.0
 11
7.40545
 21
32.215
 31
0.0
  0
LINE
  5
B8
330
1E
100
AcDbEntity
  8
0
100
AcDbLine
 10
7.400839999999999
 20
32.4938
 30
0.0
 11
7.402099999999999
 21
32.3804
 31
0.0
  0
LINE
  5
B9
330
1E
100
AcDbEntity
  8
0
100
AcDbLine
 10
7.435739999999999
 20
31.2343
 30
0.0
 11
7.444679999999999
 21
31.0021
 31
0.0
  0
LINE
  5
BA
330
1E
100
AcDbEntity
  8
0
100
AcDbLine
 10
7.45305
 20
31.34009999999999
 30
0.0
 11
7.460449999999999
 21
31.08909999999999
 31
0.0
  0
LINE
  5
BB
330
1E
100
AcDbEntity
  8
0
100
AcDbLine
 10
7.460449999999999
 20
31.08909999999999
 30
0.0
 11
7.466039999999999
 21
30.8715
 31
0.0
  0
LINE
  5
BC
330
1E
100
AcDbEntity
  8
0
100
AcDbLine
 10
7.444679999999999
 20
31.0021
 30
0.0
 11
7.45305
 21
30.8036
 31
0.0
  0
LINE
  5
BD
330
1E
100
AcDbEntity
  8
0
100
AcDbLine
 10
7.45305
 20
30.8036
 30
0.0
 11
7.460449999999999
 21
30.6516
 31
0.0
  0
LINE
  5
BE
330
1E
100
AcDbEntity
  8
0
100
AcDbLine
 10
7.466039999999999
 20
30.8715
 30
0.0
 11
7.469389999999999
 21
30.7061
 31
0.0
  0
LINE
  5
BF
330
1E
100
AcDbEntity
  8
0
100
AcDbLine
 10
7.469389999999999
 20
30.7061
 30
0.0
 11
7.470639999999999
 21
30.5928
 31
0.0
  0
LINE
  5
C0
330
1E
100
AcDbEntity
  8
0
100
AcDbLine
 10
7.460449999999999
 20
30.6516
 30
0.0
 11
7.466039999999999
 21
30.565
 31
0.0
  0
LINE
  5
C1
330
1E
100
AcDbEntity
  8
0
100
AcDbLine
 10
7.77313
 20
31.6466
 30
0.0
 11
8.649366214840059
 21
31.6646176449784
 31
0.0
  0
LINE
  5
C2
330
1E
100
AcDbEntity
  8
0
100
AcDbLine
 10
7.755819999999999
 20
31.8312
 30
0.0
 11
7.76475
 21
31.71
 31
0.0
  0
LINE
  5
C3
330
1E
100
AcDbEntity
  8
0
100
AcDbLine
 10
7.76475
 20
31.71
 30
0.0
 11
7.77313
 21
31.6466
 31
0.0
  0
LINE
  5
C4
330
1E
100
AcDbEntity
  8
0
100
AcDbLine
 10
7.78053
 20
31.6516
 30
0.0
 11
7.78611
 21
31.72909999999999
 31
0.0
  0
LINE
  5
C5
330
1E
100
AcDbEntity
  8
0
100
AcDbLine
 10
7.78611
 20
31.72909999999999
 30
0.0
 11
7.78946
 21
31.8668
 31
0.0
  0
LINE
  5
C6
330
1E
100
AcDbEntity
  8
0
100
AcDbLine
 10
7.78946
 20
31.8668
 30
0.0
 11
7.790719999999999
 21
32.0528
 31
0.0
  0
LINE
  5
C7
330
1E
100
AcDbEntity
  8
0
100
AcDbLine
 10
7.746879999999999
 20
32.0107
 30
0.0
 11
7.755819999999999
 21
31.8312
 31
0.0
  0
LINE
  5
C8
330
1E
100
AcDbEntity
  8
0
100
AcDbLine
 10
7.73851
 20
32.22939999999999
 30
0.0
 11
7.746879999999999
 21
32.0107
 31
0.0
  0
LINE
  5
C9
330
1E
100
AcDbEntity
  8
0
100
AcDbLine
 10
7.73111
 20
32.4833
 30
0.0
 11
7.73851
 21
32.22939999999999
 31
0.0
  0
LINE
  5
CA
330
1E
100
AcDbEntity
  8
0
100
AcDbLine
 10
7.78611
 20
32.53159999999999
 30
0.0
 11
7.78946
 21
32.2811
 31
0.0
  0
LINE
  5
CB
330
1E
100
AcDbEntity
  8
0
100
AcDbLine
 10
7.78946
 20
32.2811
 30
0.0
 11
7.790719999999999
 21
32.0528
 31
0.0
  0
LINE
  5
CC
330
1E
100
AcDbEntity
  8
0
100
AcDbLine
 10
7.77313
 20
33.05109999999999
 30
0.0
 11
7.78053
 21
32.7971
 31
0.0
  0
LINE
  5
CD
330
1E
100
AcDbEntity
  8
0
100
AcDbLine
 10
7.78053
 20
32.7971
 30
0.0
 11
7.78611
 21
32.53159999999999
 31
0.0
  0
LINE
  5
CE
330
1E
100
AcDbEntity
  8
0
100
AcDbLine
 10
7.725519999999999
 20
32.7488
 30
0.0
 11
7.72971477266409
 21
32.5495670586196
 31
0.0
  0
LINE
  5
CF
330
1E
100
AcDbEntity
  8
0
100
AcDbLine
 10
7.725519999999999
 20
32.7488
 30
0.0
 11
7.73111
 21
32.4833
 31
0.0
  0
LINE
  5
D0
330
1E
100
AcDbEntity
  8
0
100
AcDbLine
 10
7.722169999999999
 20
32.9994
 30
0.0
 11
7.725519999999999
 21
32.7488
 31
0.0
  0
LINE
  5
D1
330
1E
100
AcDbEntity
  8
0
100
AcDbLine
 10
7.722169999999999
 20
33.4136
 30
0.0
 11
7.725519999999999
 21
33.5514
 31
0.0
  0
LINE
  5
D2
330
1E
100
AcDbEntity
  8
0
100
AcDbLine
 10
7.746879999999999
 20
33.5705
 30
0.0
 11
7.755819999999999
 21
33.4492
 31
0.0
  0
LINE
  5
D3
330
1E
100
AcDbEntity
  8
0
100
AcDbLine
 10
7.755819999999999
 20
33.4492
 30
0.0
 11
7.76475
 21
33.2697
 31
0.0
  0
LINE
  5
D4
330
1E
100
AcDbEntity
  8
0
100
AcDbLine
 10
7.76475
 20
33.2697
 30
0.0
 11
7.77313
 21
33.05109999999999
 31
0.0
  0
LINE
  5
D5
330
1E
100
AcDbEntity
  8
0
100
AcDbLine
 10
7.73851
 20
33.6338
 30
0.0
 11
8.258218077338518
 21
33.64448651976639
 31
0.0
  0
LINE
  5
D6
330
1E
100
AcDbEntity
  8
0
100
AcDbLine
 10
7.73851
 20
33.6338
 30
0.0
 11
8.258218077338529
 21
33.64448651976639
 31
0.0
  0
LINE
  5
D7
330
1E
100
AcDbEntity
  8
0
100
AcDbLine
 10
7.73851
 20
33.6338
 30
0.0
 11
8.57681988272558
 21
33.65103778313769
 31
0.0
  0
LINE
  5
D8
330
1E
100
AcDbEntity
  8
0
100
AcDbLine
 10
7.73851
 20
33.6338
 30
0.0
 11
7.746879999999999
 21
33.5705
 31
0.0
  0
LINE
  5
D9
330
1E
100
AcDbEntity
  8
0
100
AcDbLine
 10
7.725519999999999
 20
33.5514
 30
0.0
 11
7.73111
 21
33.6289
 31
0.0
  0
LINE
  5
DA
330
1E
100
AcDbEntity
  8
0
100
AcDbLine
 10
7.720919999999999
 20
33.2277
 30
0.0
 11
7.722169999999999
 21
32.9994
 31
0.0
  0
LINE
  5
DB
330
1E
100
AcDbEntity
  8
0
100
AcDbLine
 10
7.720919999999999
 20
33.2277
 30
0.0
 11
7.722169999999999
 21
33.4136
 31
0.0
  0
LINE
  5
DC
330
1E
100
AcDbEntity
  8
0
100
AcDbLine
 10
8.3263984433989
 20
30.5763700470496
 30
0.0
 11
8.428095555555549
 21
26.0
 31
0.0
  0
LINE
  5
DD
330
1E
100
AcDbEntity
  8
0
100
AcDbLine
 10
8.3263984433989
 20
30.5763700470496
 30
0.0
 11
8.428095555555549
 21
26.0
 31
0.0
  0
LINE
  5
DE
330
1E
100
AcDbEntity
  8
0
100
AcDbLine
 10
8.2498
 20
34.2325
 30
0.0
 11
8.2498
 21
34.0233
 31
0.0
  0
LINE
  5
DF
330
1E
100
AcDbEntity
  8
0
100
AcDbLine
 10
8.2498
 20
34.0233
 30
0.0
 11
8.2498
 21
34.2325
 31
0.0
  0
LINE
  5
E0
330
1E
100
AcDbEntity
  8
0
100
AcDbLine
 10
8.2498
 20
34.0233
 30
0.0
 11
8.258218077338518
 21
33.64448651976639
 31
0.0
  0
LINE
  5
E1
330
1E
100
AcDbEntity
  8
0
100
AcDbLine
 10
8.2498
 20
34.0233
 30
0.0
 11
8.258218077338518
 21
33.64448651976639
 31
0.0
  0
LINE
  5
E2
330
1E
100
AcDbEntity
  8
0
100
AcDbLine
 10
8.7498
 20
33.7984
 30
0.0
 11
8.7498
 21
38.97829999999999
 31
0.0
  0
LINE
  5
E3
330
1E
100
AcDbEntity
  8
0
100
AcDbLine
 10
8.7498
 20
33.7984
 30
0.0
 11
8.7498
 21
28.9146
 31
0.0
  0
LINE
  5
E4
330
1E
100
AcDbEntity
  8
0
100
AcDbLine
 10
8.7498
 20
28.9146
 30
0.0
 11
8.7498
 21
33.7984
 31
0.0
  0
LINE
  5
E5
330
1E
100
AcDbEntity
  8
0
100
AcDbLine
 10
8.7498
 20
28.9146
 30
0.0
 11
8.7498
 21
24.5488
 31
0.0
  0
LINE
  5
E6
330
1E
100
AcDbEntity
  8
0
100
AcDbLine
 10
9.2498
 20
28.6186
 30
0.0
 11
9.2498
 21
24.18029999999999
 31
0.0
  0
LINE
  5
E7
330
1E
100
AcDbEntity
  8
0
100
AcDbLine
 10
9.2498
 20
28.6186
 30
0.0
 11
9.2498
 21
33.50249999999999
 31
0.0
  0
LINE
  5
E8
330
1E
100
AcDbEntity
  8
0
100
AcDbLine
 10
9.2498
 20
33.50249999999999
 30
0.0
 11
9.2498
 21
28.6186
 31
0.0
  0
LINE
  5
E9
330
1E
100
AcDbEntity
  8
0
100
AcDbLine
 10
9.2498
 20
33.50249999999999
 30
0.0
 11
9.2498
 21
38.8303
 31
0.0
  0
LINE
  5
101
330
1E
100
AcDbEntity
  8
0
100
AcDbLine
 10
22.7502
 20
16.4022
 30
0.0
 11
22.7502
 21
21.95559999999999
 31
0.0
  0
LINE
  5
102
330
1E
100
AcDbEntity
  8
0
100
AcDbLine
 10
22.7502
 20
16.4022
 30
0.0
 11
22.7502
 21
11.6754
 31
0.0
  0
LINE
  5
103
330
1E
100
AcDbEntity
  8
0
100
AcDbLine
 10
22.7502
 20
28.04289999999999
 30
0.0
 11
22.7502
 21
34.603
 31
0.0
  0
LINE
  5
104
330
1E
100
AcDbEntity
  8
0
100
AcDbLine
 10
22.7502
 20
21.95559999999999
 30
0.0
 11
22.7502
 21
16.4022
 31
0.0
  0
LINE
  5
105
330
1E
100
AcDbEntity
  8
0
100
AcDbLine
 10
22.7502
 20
21.95559999999999
 30
0.0
 11
22.7502
 21
28.04289999999999
 31
0.0
  0
LINE
  5
106
330
1E
100
AcDbEntity
  8
0
100
AcDbLine
 10
8.2498
 20
37.0566
 30
0.0
 11
8.2498
 21
38.6107
 31
0.0
  0
LINE
  5
107
330
1E
100
AcDbEntity
  8
0
100
AcDbLine
 10
8.2498
 20
37.0566
 30
0.0
 11
8.2498
 21
35.72449999999999
 31
0.0
  0
LINE
  5
108
330
1E
100
AcDbEntity
  8
0
100
AcDbLine
 10
8.2498
 20
38.6107
 30
0.0
 11
8.2498
 21
39.9076832062558
 31
0.0
  0
LINE
  5
109
330
1E
100
AcDbEntity
  8
0
100
AcDbLine
 10
8.2498
 20
38.6107
 30
0.0
 11
8.2498
 21
37.0566
 31
0.0
  0
LINE
  5
10A
330
1E
100
AcDbEntity
  8
0
100
AcDbLine
 10
8.2498
 20
35.72449999999999
 30
0.0
 11
8.2498
 21
34.8605
 31
0.0
  0
LINE
  5
10B
330
1E
100
AcDbEntity
  8
0
100
AcDbLine
 10
8.2498
 20
35.72449999999999
 30
0.0
 11
8.2498
 21
37.0566
 31
0.0
  0
LINE
  5
10C
330
1E
100
AcDbEntity
  8
0
100
AcDbLine
 10
8.2498
 20
34.8605
 30
0.0
 11
8.2498
 21
35.72449999999999
 31
0.0
  0
LINE
  5
10D
330
1E
100
AcDbEntity
  8
0
100
AcDbLine
 10
7.460449999999999
 20
39.8962
 30
0.0
 11
7.466039999999999
 21
39.97379999999999
 31
0.0
  0
LINE
  5
10E
330
1E
100
AcDbEntity
  8
0
100
AcDbLine
 10
7.45305
 20
39.8913
 30
0.0
 11
8.2498
 21
39.9076832062558
 31
0.0
  0
LINE
  5
10F
330
1E
100
AcDbEntity
  8
0
100
AcDbLine
 10
7.45305
 20
39.8913
 30
0.0
 11
8.348246116386599
 21
39.9097075087721
 31
0.0
  0
LINE
  5
110
330
1E
100
AcDbEntity
  8
0
100
AcDbLine
 10
7.42681
 20
40.2554
 30
0.0
 11
7.435739999999999
 21
40.07589999999999
 31
0.0
  0
LINE
  5
111
330
1E
100
AcDbEntity
  8
0
100
AcDbLine
 10
7.418429999999999
 20
40.4741
 30
0.0
 11
7.42681
 21
40.2554
 31
0.0
  0
LINE
  5
112
330
1E
100
AcDbEntity
  8
0
100
AcDbLine
 10
7.41103
 20
40.72799999999999
 30
0.0
 11
7.418429999999999
 21
40.4741
 31
0.0
  0
LINE
  5
113
330
1E
100
AcDbEntity
  8
0
100
AcDbLine
 10
7.40545
 20
40.9935
 30
0.0
 11
7.41103
 21
40.72799999999999
 31
0.0
  0
LINE
  5
114
330
1E
100
AcDbEntity
  8
0
100
AcDbLine
 10
7.435739999999999
 20
41.69389999999999
 30
0.0
 11
7.444679999999999
 21
41.5144
 31
0.0
  0
LINE
  5
115
330
1E
100
AcDbEntity
  8
0
100
AcDbLine
 10
7.444679999999999
 20
41.5144
 30
0.0
 11
7.45305
 21
41.29579999999999
 31
0.0
  0
LINE
  5
116
330
1E
100
AcDbEntity
  8
0
100
AcDbLine
 10
7.42681
 20
41.81519999999999
 30
0.0
 11
7.435739999999999
 21
41.69389999999999
 31
0.0
  0
LINE
  5
117
330
1E
100
AcDbEntity
  8
0
100
AcDbLine
 10
7.418429999999999
 20
41.8785
 30
0.0
 11
8.290048044901871
 21
41.8963789867075
 31
0.0
  0
LINE
  5
118
330
1E
100
AcDbEntity
  8
0
100
AcDbLine
 10
7.418429999999999
 20
41.8785
 30
0.0
 11
7.42681
 21
41.81519999999999
 31
0.0
  0
LINE
  5
119
330
1E
100
AcDbEntity
  8
0
100
AcDbLine
 10
7.40545
 20
41.7961
 30
0.0
 11
7.41103
 21
41.8736
 31
0.0
  0
LINE
  5
11A
330
1E
100
AcDbEntity
  8
0
100
AcDbLine
 10
7.402099999999999
 20
41.65829999999999
 30
0.0
 11
7.40545
 21
41.7961
 31
0.0
  0
LINE
  5
11B
330
1E
100
AcDbEntity
  8
0
100
AcDbLine
 10
7.402099999999999
 20
41.2441
 30
0.0
 11
7.40545
 21
40.9935
 31
0.0
  0
LINE
  5
11C
330
1E
100
AcDbEntity
  8
0
100
AcDbLine
 10
7.400839999999999
 20
41.47229999999999
 30
0.0
 11
7.402099999999999
 21
41.2441
 31
0.0
  0
LINE
  5
11D
330
1E
100
AcDbEntity
  8
0
100
AcDbLine
 10
7.400839999999999
 20
41.47229999999999
 30
0.0
 11
7.402099999999999
 21
41.65829999999999
 31
0.0
  0
LINE
  5
11E
330
1E
100
AcDbEntity
  8
0
100
AcDbLine
 10
7.435739999999999
 20
40.07589999999999
 30
0.0
 11
7.444679999999999
 21
39.95459999999999
 31
0.0
  0
LINE
  5
11F
330
1E
100
AcDbEntity
  8
0
100
AcDbLine
 10
7.466039999999999
 20
39.97379999999999
 30
0.0
 11
7.469389999999999
 21
40.11149999999999
 31
0.0
  0
LINE
  5
120
330
1E
100
AcDbEntity
  8
0
100
AcDbLine
 10
7.469389999999999
 20
40.11149999999999
 30
0.0
 11
7.470639999999999
 21
40.29749999999999
 31
0.0
  0
LINE
  5
121
330
1E
100
AcDbEntity
  8
0
100
AcDbLine
 10
7.45305
 20
41.29579999999999
 30
0.0
 11
7.460449999999999
 21
41.0418
 31
0.0
  0
LINE
  5
122
330
1E
100
AcDbEntity
  8
0
100
AcDbLine
 10
7.460449999999999
 20
41.0418
 30
0.0
 11
7.466039999999999
 21
40.7763
 31
0.0
  0
LINE
  5
123
330
1E
100
AcDbEntity
  8
0
100
AcDbLine
 10
7.466039999999999
 20
40.7763
 30
0.0
 11
7.469389999999999
 21
40.5257
 31
0.0
  0
LINE
  5
124
330
1E
100
AcDbEntity
  8
0
100
AcDbLine
 10
7.469389999999999
 20
40.5257
 30
0.0
 11
7.470639999999999
 21
40.29749999999999
 31
0.0
  0
LINE
  5
125
330
1E
100
AcDbEntity
  8
0
100
AcDbLine
 10
7.444679999999999
 20
39.95459999999999
 30
0.0
 11
7.45305
 21
39.8913
 31
0.0
  0
LINE
  5
126
330
1E
100
AcDbEntity
  8
0
100
AcDbLine
 10
7.219089999999999
 20
44.70889999999999
 30
0.0
 11
7.22356
 21
44.4543
 31
0.0
  0
LINE
  5
127
330
1E
100
AcDbEntity
  8
0
100
AcDbLine
 10
7.2149
 20
44.9668
 30
0.0
 11
7.219089999999999
 21
44.70889999999999
 31
0.0
  0
LINE
  5
128
330
1E
100
AcDbEntity
  8
0
100
AcDbLine
 10
7.22356
 20
44.4543
 30
0.0
 11
7.228019999999999
 21
44.222
 31
0.0
  0
LINE
  5
129
330
1E
100
AcDbEntity
  8
0
100
AcDbLine
 10
7.228019999999999
 20
44.222
 30
0.0
 11
7.23221
 21
44.0235
 31
0.0
  0
LINE
  5
12A
330
1E
100
AcDbEntity
  8
0
100
AcDbLine
 10
7.23221
 20
44.0235
 30
0.0
 11
7.23591
 21
43.87129999999999
 31
0.0
  0
LINE
  5
12B
330
1E
100
AcDbEntity
  8
0
100
AcDbLine
 10
7.23591
 20
43.87129999999999
 30
0.0
 11
7.238699999999999
 21
43.7847
 31
0.0
  0
LINE
  5
12C
330
1E
100
AcDbEntity
  8
0
100
AcDbLine
 10
7.720919999999999
 20
44.0279
 30
0.0
 11
7.722169999999999
 21
44.2602
 31
0.0
  0
LINE
  5
12D
330
1E
100
AcDbEntity
  8
0
100
AcDbLine
 10
7.720919999999999
 20
44.0279
 30
0.0
 11
7.722169999999999
 21
43.77329999999999
 31
0.0
  0
LINE
  5
12E
330
1E
100
AcDbEntity
  8
0
100
AcDbLine
 10
7.24038
 20
43.76759999999999
 30
0.0
 11
7.722158714029549
 21
43.77559872646189
 31
0.0
  0
LINE
  5
12F
330
1E
100
AcDbEntity
  8
0
100
AcDbLine
 10
7.746879999999999
 20
42.8813
 30
0.0
 11
7.755819999999999
 21
42.768
 31
0.0
  0
LINE
  5
130
330
1E
100
AcDbEntity
  8
0
100
AcDbLine
 10
7.73851
 20
43.0467
 30
0.0
 11
7.746879999999999
 21
42.8813
 31
0.0
  0
LINE
  5
131
330
1E
100
AcDbEntity
  8
0
100
AcDbLine
 10
7.73111
 20
43.2643
 30
0.0
 11
7.73851
 21
43.0467
 31
0.0
  0
LINE
  5
132
330
1E
100
AcDbEntity
  8
0
100
AcDbLine
 10
7.722169999999999
 20
44.2602
 30
0.0
 11
7.725519999999999
 21
44.45879999999999
 31
0.0
  0
LINE
  5
133
330
1E
100
AcDbEntity
  8
0
100
AcDbLine
 10
7.725519999999999
 20
44.45879999999999
 30
0.0
 11
7.73111
 21
44.611
 31
0.0
  0
LINE
  5
134
330
1E
100
AcDbEntity
  8
0
100
AcDbLine
 10
7.746879999999999
 20
44.7149
 30
0.0
 11
8.71127237211537
 21
44.7253217949138
 31
0.0
  0
LINE
  5
135
330
1E
100
AcDbEntity
  8
0
100
AcDbLine
 10
7.73111
 20
44.611
 30
0.0
 11
7.73851
 21
44.69769999999999
 31
0.0
  0
LINE
  5
136
330
1E
100
AcDbEntity
  8
0
100
AcDbLine
 10
7.755819999999999
 20
44.6701
 30
0.0
 11
7.76475
 21
44.5568
 31
0.0
  0
LINE
  5
137
330
1E
100
AcDbEntity
  8
0
100
AcDbLine
 10
7.76475
 20
44.5568
 30
0.0
 11
7.77313
 21
44.3914
 31
0.0
  0
LINE
  5
138
330
1E
100
AcDbEntity
  8
0
100
AcDbLine
 10
7.722169999999999
 20
43.77329999999999
 30
0.0
 11
7.725519999999999
 21
43.51539999999999
 31
0.0
  0
LINE
  5
139
330
1E
100
AcDbEntity
  8
0
100
AcDbLine
 10
7.725519999999999
 20
43.51539999999999
 30
0.0
 11
7.73111
 21
43.2643
 31
0.0
  0
LINE
  5
13A
330
1E
100
AcDbEntity
  8
0
100
AcDbLine
 10
7.77313
 20
42.74029999999999
 30
0.0
 11
7.78053
 21
42.827
 31
0.0
  0
LINE
  5
13B
330
1E
100
AcDbEntity
  8
0
100
AcDbLine
 10
7.78053
 20
42.827
 30
0.0
 11
7.78611
 21
42.9793
 31
0.0
  0
LINE
  5
13C
330
1E
100
AcDbEntity
  8
0
100
AcDbLine
 10
7.78611
 20
42.9793
 30
0.0
 11
7.78946
 21
43.1779
 31
0.0
  0
LINE
  5
13D
330
1E
100
AcDbEntity
  8
0
100
AcDbLine
 10
7.78946
 20
43.1779
 30
0.0
 11
7.790719999999999
 21
43.4102
 31
0.0
  0
LINE
  5
13E
330
1E
100
AcDbEntity
  8
0
100
AcDbLine
 10
7.77313
 20
44.3914
 30
0.0
 11
7.78053
 21
44.1737
 31
0.0
  0
LINE
  5
13F
330
1E
100
AcDbEntity
  8
0
100
AcDbLine
 10
7.78053
 20
44.1737
 30
0.0
 11
7.78611
 21
43.92269999999999
 31
0.0
  0
LINE
  5
140
330
1E
100
AcDbEntity
  8
0
100
AcDbLine
 10
7.78611
 20
43.92269999999999
 30
0.0
 11
7.78946
 21
43.6648
 31
0.0
  0
LINE
  5
141
330
1E
100
AcDbEntity
  8
0
100
AcDbLine
 10
7.78946
 20
43.6648
 30
0.0
 11
7.790719999999999
 21
43.4102
 31
0.0
  0
LINE
  5
142
330
1E
100
AcDbEntity
  8
0
100
AcDbLine
 10
7.76475
 20
42.72319999999999
 30
0.0
 11
8.2498
 21
42.7284174701568
 31
0.0
  0
LINE
  5
143
330
1E
100
AcDbEntity
  8
0
100
AcDbLine
 10
7.76475
 20
42.72319999999999
 30
0.0
 11
8.7498
 21
42.73379575090809
 31
0.0
  0
LINE
  5
144
330
1E
100
AcDbEntity
  8
0
100
AcDbLine
 10
8.2498
 20
39.9076832062558
 30
0.0
 11
8.2498
 21
38.6107
 31
0.0
  0
LINE
  5
145
330
1E
100
AcDbEntity
  8
0
100
AcDbLine
 10
8.2498
 20
42.6053
 30
0.0
 11
8.2498
 21
41.89555340230839
 31
0.0
  0
LINE
  5
146
330
1E
100
AcDbEntity
  8
0
100
AcDbLine
 10
7.211199999999999
 20
45.21779999999999
 30
0.0
 11
7.2149
 21
44.9668
 31
0.0
  0
LINE
  5
147
330
1E
100
AcDbEntity
  8
0
100
AcDbLine
 10
7.20841
 20
45.43549999999999
 30
0.0
 11
7.211199999999999
 21
45.21779999999999
 31
0.0
  0
LINE
  5
148
330
1E
100
AcDbEntity
  8
0
100
AcDbLine
 10
7.20673
 20
45.75909999999999
 30
0.0
 11
8.2498
 21
45.776417559634
 31
0.0
  0
LINE
  5
149
330
1E
100
AcDbEntity
  8
0
100
AcDbLine
 10
7.20673
 20
45.6009
 30
0.0
 11
7.20841
 21
45.43549999999999
 31
0.0
  0
LINE
  5
14A
330
1E
100
AcDbEntity
  8
0
100
AcDbLine
 10
7.2061
 20
45.7143
 30
0.0
 11
7.20673
 21
45.6009
 31
0.0
  0
LINE
  5
14B
330
1E
100
AcDbEntity
  8
0
100
AcDbLine
 10
8.2498
 20
45.04719999999999
 30
0.0
 11
8.2498
 21
47.5631
 31
0.0
  0
LINE
  5
14C
330
1E
100
AcDbEntity
  8
0
100
AcDbLine
 10
8.2498
 20
41.89555340230839
 30
0.0
 11
8.2498
 21
42.6053
 31
0.0
  0
LINE
  5
14D
330
1E
100
AcDbEntity
  8
0
100
AcDbLine
 10
8.7498
 20
38.97829999999999
 30
0.0
 11
8.7498
 21
44.48839999999999
 31
0.0
  0
LINE
  5
14E
330
1E
100
AcDbEntity
  8
0
100
AcDbLine
 10
8.7498
 20
38.97829999999999
 30
0.0
 11
8.7498
 21
33.7984
 31
0.0
  0
LINE
  5
14F
330
1E
100
AcDbEntity
  8
0
100
AcDbLine
 10
8.7498
 20
44.48839999999999
 30
0.0
 11
8.7498
 21
50.2441
 31
0.0
  0
LINE
  5
150
330
1E
100
AcDbEntity
  8
0
100
AcDbLine
 10
7.23221
 20
48.0616
 30
0.0
 11
8.2498
 21
48.0720827494124
 31
0.0
  0
LINE
  5
151
330
1E
100
AcDbEntity
  8
0
100
AcDbLine
 10
7.22356
 20
48.24629999999999
 30
0.0
 11
7.228019999999999
 21
48.125
 31
0.0
  0
LINE
  5
152
330
1E
100
AcDbEntity
  8
0
100
AcDbLine
 10
7.228019999999999
 20
48.125
 30
0.0
 11
7.23221
 21
48.0616
 31
0.0
  0
LINE
  5
153
330
1E
100
AcDbEntity
  8
0
100
AcDbLine
 10
7.23591
 20
48.0665
 30
0.0
 11
7.238699999999999
 21
48.144
 31
0.0
  0
LINE
  5
154
330
1E
100
AcDbEntity
  8
0
100
AcDbLine
 10
7.238699999999999
 20
48.144
 30
0.0
 11
7.24038
 21
48.2817
 31
0.0
  0
LINE
  5
155
330
1E
100
AcDbEntity
  8
0
100
AcDbLine
 10
7.24038
 20
48.2817
 30
0.0
 11
7.24101
 21
48.4677
 31
0.0
  0
LINE
  5
156
330
1E
100
AcDbEntity
  8
0
100
AcDbLine
 10
7.219089999999999
 20
48.4259
 30
0.0
 11
7.22356
 21
48.24629999999999
 31
0.0
  0
LINE
  5
157
330
1E
100
AcDbEntity
  8
0
100
AcDbLine
 10
7.2149
 20
48.6446
 30
0.0
 11
7.219089999999999
 21
48.4259
 31
0.0
  0
LINE
  5
158
330
1E
100
AcDbEntity
  8
0
100
AcDbLine
 10
7.24038
 20
48.6959
 30
0.0
 11
7.24101
 21
48.4677
 31
0.0
  0
LINE
  5
159
330
1E
100
AcDbEntity
  8
0
100
AcDbLine
 10
8.2498
 20
47.5631
 30
0.0
 11
8.2498
 21
50.3488
 31
0.0
  0
LINE
  5
15A
330
1E
100
AcDbEntity
  8
0
100
AcDbLine
 10
8.2498
 20
47.5631
 30
0.0
 11
8.2498
 21
45.04719999999999
 31
0.0
  0
LINE
  5
15B
330
1E
100
AcDbEntity
  8
0
100
AcDbLine
 10
9.2498
 20
44.38369999999999
 30
0.0
 11
9.2498
 21
50.1395
 31
0.0
  0
LINE
  5
15C
330
1E
100
AcDbEntity
  8
0
100
AcDbLine
 10
9.2498
 20
38.8303
 30
0.0
 11
9.2498
 21
44.38369999999999
 31
0.0
  0
LINE
  5
15D
330
1E
100
AcDbEntity
  8
0
100
AcDbLine
 10
9.2498
 20
38.8303
 30
0.0
 11
9.2498
 21
33.50249999999999
 31
0.0
  0
LINE
  5
15E
330
1E
100
AcDbEntity
  8
0
100
AcDbLine
 10
22.7502
 20
34.603
 30
0.0
 11
22.7502
 21
41.5403
 31
0.0
  0
LINE
  5
15F
330
1E
100
AcDbEntity
  8
0
100
AcDbLine
 10
22.7502
 20
34.603
 30
0.0
 11
22.7502
 21
28.04289999999999
 31
0.0
  0
LINE
  5
160
330
1E
100
AcDbEntity
  8
0
100
AcDbLine
 10
23.0
 20
-0.0000000000000014
 30
0.0
 11
23.0
 21
0.5850999999999991
 31
0.0
  0
LINE
  5
161
330
1E
100
AcDbEntity
  8
0
100
AcDbLine
 10
23.0
 20
8.0
 30
0.0
 11
30.0
 21
8.0
 31
0.0
  0
LINE
  5
162
330
1E
100
AcDbEntity
  8
0
100
AcDbLine
 10
23.0
 20
7.5971
 30
0.0
 11
23.0
 21
4.3463
 31
0.0
  0
LINE
  5
163
330
1E
100
AcDbEntity
  8
0
100
AcDbLine
 10
23.0
 20
7.5971
 30
0.0
 11
23.0
 21
11.6754
 31
0.0
  0
LINE
  5
164
330
1E
100
AcDbEntity
  8
0
100
AcDbLine
 10
23.0
 20
11.6754
 30
0.0
 11
23.0
 21
28.04289999999999
 31
0.0
  0
LINE
  5
165
330
1E
100
AcDbEntity
  8
0
100
AcDbLine
 10
23.0
 20
11.6754
 30
0.0
 11
23.0
 21
7.5971
 31
0.0
  0
LINE
  5
166
330
1E
100
AcDbEntity
  8
0
100
AcDbLine
 10
23.0
 20
11.6754
 30
0.0
 11
23.0
 21
16.4003
 31
0.0
  0
LINE
  5
167
330
1E
100
AcDbEntity
  8
0
100
AcDbLine
 10
23.0
 20
4.3463
 30
0.0
 11
23.0
 21
2.005999999999999
 31
0.0
  0
LINE
  5
168
330
1E
100
AcDbEntity
  8
0
100
AcDbLine
 10
23.0
 20
4.3463
 30
0.0
 11
23.0
 21
7.5971
 31
0.0
  0
LINE
  5
169
330
1E
100
AcDbEntity
  8
0
100
AcDbLine
 10
23.0
 20
2.005999999999999
 30
0.0
 11
23.0
 21
0.5850999999999991
 31
0.0
  0
LINE
  5
16A
330
1E
100
AcDbEntity
  8
0
100
AcDbLine
 10
23.0
 20
2.005999999999999
 30
0.0
 11
23.0
 21
4.3463
 31
0.0
  0
LINE
  5
16B
330
1E
100
AcDbEntity
  8
0
100
AcDbLine
 10
23.0
 20
0.5850999999999991
 30
0.0
 11
23.0
 21
-0.0000000000000014
 31
0.0
  0
LINE
  5
16C
330
1E
100
AcDbEntity
  8
0
100
AcDbLine
 10
23.0
 20
0.5850999999999991
 30
0.0
 11
23.0
 21
2.005999999999999
 31
0.0
  0
LINE
  5
16D
330
1E
100
AcDbEntity
  8
0
100
AcDbLine
 10
23.0
 20
28.04289999999999
 30
0.0
 11
23.0
 21
11.6754
 31
0.0
  0
LINE
  5
16E
330
1E
100
AcDbEntity
  8
0
100
AcDbLine
 10
23.0
 20
16.4003
 30
0.0
 11
23.0
 21
21.95559999999999
 31
0.0
  0
LINE
  5
16F
330
1E
100
AcDbEntity
  8
0
100
AcDbLine
 10
23.0
 20
16.4003
 30
0.0
 11
23.0
 21
11.6754
 31
0.0
  0
LINE
  5
170
330
1E
100
AcDbEntity
  8
0
100
AcDbLine
 10
23.0
 20
28.04289999999999
 30
0.0
 11
23.0
 21
34.603
 31
0.0
  0
LINE
  5
171
330
1E
100
AcDbEntity
  8
0
100
AcDbLine
 10
23.0
 20
21.95559999999999
 30
0.0
 11
23.0
 21
16.4003
 31
0.0
  0
LINE
  5
172
330
1E
100
AcDbEntity
  8
0
100
AcDbLine
 10
23.0
 20
21.95559999999999
 30
0.0
 11
23.0
 21
28.04289999999999
 31
0.0
  0
LINE
  5
173
330
1E
100
AcDbEntity
  8
0
100
AcDbLine
 10
23.0
 20
21.95559999999999
 30
0.0
 11
23.0
 21
26.7958
 31
0.0
  0
LINE
  5
174
330
1E
100
AcDbEntity
  8
0
100
AcDbLine
 10
23.0
 20
34.603
 30
0.0
 11
23.0
 21
41.5403
 31
0.0
  0
LINE
  5
175
330
1E
100
AcDbEntity
  8
0
100
AcDbLine
 10
23.0
 20
34.603
 30
0.0
 11
23.0
 21
28.04289999999999
 31
0.0
  0
LINE
  5
176
330
1E
100
AcDbEntity
  8
0
100
AcDbLine
 10
22.7502
 20
41.5403
 30
0.0
 11
22.7502
 21
34.603
 31
0.0
  0
LINE
  5
177
330
1E
100
AcDbEntity
  8
0
100
AcDbLine
 10
22.7502
 20
41.5403
 30
0.0
 11
22.7502
 21
48.7284
 31
0.0
  0
LINE
  5
178
330
1E
100
AcDbEntity
  8
0
100
AcDbLine
 10
22.7502
 20
48.7284
 30
0.0
 11
22.7502
 21
41.5403
 31
0.0
  0
LINE
  5
179
330
1E
100
AcDbEntity
  8
0
100
AcDbLine
 10
22.7502
 20
48.7284
 30
0.0
 11
22.7502
 21
56.0
 31
0.0
  0
LINE
  5
17A
330
1E
100
AcDbEntity
  8
0
100
AcDbLine
 10
23.0
 20
41.5403
 30
0.0
 11
23.0
 21
34.603
 31
0.0
  0
LINE
  5
17B
330
1E
100
AcDbEntity
  8
0
100
AcDbLine
 10
23.0
 20
41.5403
 30
0.0
 11
23.0
 21
48.7284
 31
0.0
  0
LINE
  5
17C
330
1E
100
AcDbEntity
  8
0
100
AcDbLine
 10
7.211199999999999
 20
48.8987
 30
0.0
 11
7.2149
 21
48.6446
 31
0.0
  0
LINE
  5
17D
330
1E
100
AcDbEntity
  8
0
100
AcDbLine
 10
7.20841
 20
49.1642
 30
0.0
 11
7.211199999999999
 21
48.8987
 31
0.0
  0
LINE
  5
17E
330
1E
100
AcDbEntity
  8
0
100
AcDbLine
 10
7.20673
 20
49.4148
 30
0.0
 11
7.20841
 21
49.1642
 31
0.0
  0
LINE
  5
17F
330
1E
100
AcDbEntity
  8
0
100
AcDbLine
 10
7.20673
 20
49.82899999999999
 30
0.0
 11
7.20841
 21
49.9668
 31
0.0
  0
LINE
  5
180
330
1E
100
AcDbEntity
  8
0
100
AcDbLine
 10
7.2061
 20
49.6431
 30
0.0
 11
7.20673
 21
49.82899999999999
 31
0.0
  0
LINE
  5
181
330
1E
100
AcDbEntity
  8
0
100
AcDbLine
 10
7.2061
 20
49.6431
 30
0.0
 11
7.20673
 21
49.4148
 31
0.0
  0
LINE
  5
182
330
1E
100
AcDbEntity
  8
0
100
AcDbLine
 10
7.219089999999999
 20
49.9857
 30
0.0
 11
7.22356
 21
49.8644
 31
0.0
  0
LINE
  5
183
330
1E
100
AcDbEntity
  8
0
100
AcDbLine
 10
7.2149
 20
50.0491
 30
0.0
 11
8.2498
 21
50.05970936945229
 31
0.0
  0
LINE
  5
184
330
1E
100
AcDbEntity
  8
0
100
AcDbLine
 10
7.2149
 20
50.0491
 30
0.0
 11
7.219089999999999
 21
49.9857
 31
0.0
  0
LINE
  5
185
330
1E
100
AcDbEntity
  8
0
100
AcDbLine
 10
7.20841
 20
49.9668
 30
0.0
 11
7.211199999999999
 21
50.04419999999999
 31
0.0
  0
LINE
  5
186
330
1E
100
AcDbEntity
  8
0
100
AcDbLine
 10
7.22356
 20
49.8644
 30
0.0
 11
7.228019999999999
 21
49.6848
 31
0.0
  0
LINE
  5
187
330
1E
100
AcDbEntity
  8
0
100
AcDbLine
 10
7.228019999999999
 20
49.6848
 30
0.0
 11
7.23221
 21
49.46609999999999
 31
0.0
  0
LINE
  5
188
330
1E
100
AcDbEntity
  8
0
100
AcDbLine
 10
7.23221
 20
49.46609999999999
 30
0.0
 11
7.23591
 21
49.2121
 31
0.0
  0
LINE
  5
189
330
1E
100
AcDbEntity
  8
0
100
AcDbLine
 10
7.5
 20
51.18
 30
0.0
 11
7.5
 21
51.0
 31
0.0
  0
LINE
  5
18A
330
1E
100
AcDbEntity
  8
0
100
AcDbLine
 10
7.5
 20
51.18
 30
0.0
 11
7.5
 21
51.66
 31
0.0
  0
LINE
  5
18B
330
1E
100
AcDbEntity
  8
0
100
AcDbLine
 10
7.5
 20
51.0
 30
0.0
 11
8.2498
 21
51.0
 31
0.0
  0
LINE
  5
18C
330
1E
100
AcDbEntity
  8
0
100
AcDbLine
 10
7.5
 20
51.0
 30
0.0
 11
7.5
 21
51.18
 31
0.0
  0
LINE
  5
18D
330
1E
100
AcDbEntity
  8
0
100
AcDbLine
 10
7.5
 20
51.66
 30
0.0
 11
7.5
 21
51.18
 31
0.0
  0
LINE
  5
18E
330
1E
100
AcDbEntity
  8
0
100
AcDbLine
 10
7.5
 20
51.66
 30
0.0
 11
7.5
 21
52.46
 31
0.0
  0
LINE
  5
18F
330
1E
100
AcDbEntity
  8
0
100
AcDbLine
 10
7.5
 20
52.46
 30
0.0
 11
7.5
 21
51.66
 31
0.0
  0
LINE
  5
190
330
1E
100
AcDbEntity
  8
0
100
AcDbLine
 10
7.5
 20
52.46
 30
0.0
 11
7.5
 21
53.52
 31
0.0
  0
LINE
  5
191
330
1E
100
AcDbEntity
  8
0
100
AcDbLine
 10
7.23591
 20
49.2121
 30
0.0
 11
7.238699999999999
 21
48.9465
 31
0.0
  0
LINE
  5
192
330
1E
100
AcDbEntity
  8
0
100
AcDbLine
 10
7.238699999999999
 20
48.9465
 30
0.0
 11
7.24038
 21
48.6959
 31
0.0
  0
LINE
  5
193
330
1E
100
AcDbEntity
  8
0
100
AcDbLine
 10
8.7498
 20
50.2441
 30
0.0
 11
8.7498
 21
56.0
 31
0.0
  0
LINE
  5
194
330
1E
100
AcDbEntity
  8
0
100
AcDbLine
 10
8.7498
 20
50.2441
 30
0.0
 11
8.7498
 21
44.48839999999999
 31
0.0
  0
LINE
  5
195
330
1E
100
AcDbEntity
  8
0
100
AcDbLine
 10
8.2498
 20
50.3488
 30
0.0
 11
8.2498
 21
53.1744
 31
0.0
  0
LINE
  5
196
330
1E
100
AcDbEntity
  8
0
100
AcDbLine
 10
8.2498
 20
50.3488
 30
0.0
 11
8.2498
 21
47.5631
 31
0.0
  0
LINE
  5
197
330
1E
100
AcDbEntity
  8
0
100
AcDbLine
 10
7.5
 20
53.52
 30
0.0
 11
7.5
 21
52.46
 31
0.0
  0
LINE
  5
198
330
1E
100
AcDbEntity
  8
0
100
AcDbLine
 10
7.5
 20
53.52
 30
0.0
 11
7.5
 21
54.72
 31
0.0
  0
LINE
  5
199
330
1E
100
AcDbEntity
  8
0
100
AcDbLine
 10
7.5
 20
54.72
 30
0.0
 11
7.5
 21
53.52
 31
0.0
  0
LINE
  5
19A
330
1E
100
AcDbEntity
  8
0
100
AcDbLine
 10
7.5
 20
54.72
 30
0.0
 11
7.5
 21
55.0
 31
0.0
  0
LINE
  5
19B
330
1E
100
AcDbEntity
  8
0
100
AcDbLine
 10
7.5
 20
55.0
 30
0.0
 11
7.5
 21
54.72
 31
0.0
  0
LINE
  5
19C
330
1E
100
AcDbEntity
  8
0
100
AcDbLine
 10
7.755819999999999
 20
55.0
 30
0.0
 11
8.57284643261608
 21
55.0
 31
0.0
  0
LINE
  5
19D
330
1E
100
AcDbEntity
  8
0
100
AcDbLine
 10
7.22356
 20
55.0
 30
0.0
 11
7.5
 21
55.0
 31
0.0
  0
LINE
  5
19E
330
1E
100
AcDbEntity
  8
0
100
AcDbLine
 10
7.444679999999999
 20
55.036
 30
0.0
 11
7.45305
 21
55.132
 31
0.0
  0
LINE
  5
19F
330
1E
100
AcDbEntity
  8
0
100
AcDbLine
 10
7.76475
 20
55.036
 30
0.0
 11
7.77313
 21
55.132
 31
0.0
  0
LINE
  5
1A0
330
1E
100
AcDbEntity
  8
0
100
AcDbLine
 10
7.45305
 20
55.132
 30
0.0
 11
7.460449999999999
 21
55.292
 31
0.0
  0
LINE
  5
1A1
330
1E
100
AcDbEntity
  8
0
100
AcDbLine
 10
7.460449999999999
 20
55.292
 30
0.0
 11
7.466039999999999
 21
55.50399999999999
 31
0.0
  0
LINE
  5
1A2
330
1E
100
AcDbEntity
  8
0
100
AcDbLine
 10
7.418429999999999
 20
55.132
 30
0.0
 11
7.42681
 21
55.036
 31
0.0
  0
LINE
  5
1A3
330
1E
100
AcDbEntity
  8
0
100
AcDbLine
 10
7.41103
 20
55.292
 30
0.0
 11
7.418429999999999
 21
55.132
 31
0.0
  0
LINE
  5
1A4
330
1E
100
AcDbEntity
  8
0
100
AcDbLine
 10
7.77313
 20
55.132
 30
0.0
 11
7.78053
 21
55.292
 31
0.0
  0
LINE
  5
1A5
330
1E
100
AcDbEntity
  8
0
100
AcDbLine
 10
7.78053
 20
55.292
 30
0.0
 11
7.78611
 21
55.50399999999999
 31
0.0
  0
LINE
  5
1A6
330
1E
100
AcDbEntity
  8
0
100
AcDbLine
 10
7.73851
 20
55.132
 30
0.0
 11
7.746879999999999
 21
55.036
 31
0.0
  0
LINE
  5
1A7
330
1E
100
AcDbEntity
  8
0
100
AcDbLine
 10
7.73111
 20
55.292
 30
0.0
 11
7.73851
 21
55.132
 31
0.0
  0
LINE
  5
1A8
330
1E
100
AcDbEntity
  8
0
100
AcDbLine
 10
7.2149
 20
55.132
 30
0.0
 11
7.219089999999999
 21
55.036
 31
0.0
  0
LINE
  5
1A9
330
1E
100
AcDbEntity
  8
0
100
AcDbLine
 10
7.466039999999999
 20
55.50399999999999
 30
0.0
 11
7.469389999999999
 21
55.744
 31
0.0
  0
LINE
  5
1AA
330
1E
100
AcDbEntity
  8
0
100
AcDbLine
 10
7.469389999999999
 20
55.744
 30
0.0
 11
7.470639999999999
 21
56.0
 31
0.0
  0
LINE
  5
1AB
330
1E
100
AcDbEntity
  8
0
100
AcDbLine
 10
7.40545
 20
55.50399999999999
 30
0.0
 11
7.41103
 21
55.292
 31
0.0
  0
LINE
  5
1AC
330
1E
100
AcDbEntity
  8
0
100
AcDbLine
 10
7.402099999999999
 20
55.744
 30
0.0
 11
7.40545
 21
55.50399999999999
 31
0.0
  0
LINE
  5
1AD
330
1E
100
AcDbEntity
  8
0
100
AcDbLine
 10
7.78611
 20
55.50399999999999
 30
0.0
 11
7.78946
 21
55.744
 31
0.0
  0
LINE
  5
1AE
330
1E
100
AcDbEntity
  8
0
100
AcDbLine
 10
7.78946
 20
55.744
 30
0.0
 11
7.790719999999999
 21
56.0
 31
0.0
  0
LINE
  5
1AF
330
1E
100
AcDbEntity
  8
0
100
AcDbLine
 10
7.725519999999999
 20
55.50399999999999
 30
0.0
 11
7.73111
 21
55.292
 31
0.0
  0
LINE
  5
1B0
330
1E
100
AcDbEntity
  8
0
100
AcDbLine
 10
7.722169999999999
 20
55.744
 30
0.0
 11
7.725519999999999
 21
55.50399999999999
 31
0.0
  0
LINE
  5
1B1
330
1E
100
AcDbEntity
  8
0
100
AcDbLine
 10
7.211199999999999
 20
55.292
 30
0.0
 11
7.2149
 21
55.132
 31
0.0
  0
LINE
  5
1B2
330
1E
100
AcDbEntity
  8
0
100
AcDbLine
 10
7.20841
 20
55.50399999999999
 30
0.0
 11
7.211199999999999
 21
55.292
 31
0.0
  0
LINE
  5
1B3
330
1E
100
AcDbEntity
  8
0
100
AcDbLine
 10
7.400839999999999
 20
56.0
 30
0.0
 11
7.402099999999999
 21
56.256
 31
0.0
  0
LINE
  5
1B4
330
1E
100
AcDbEntity
  8
0
100
AcDbLine
 10
7.400839999999999
 20
56.0
 30
0.0
 11
7.402099999999999
 21
55.744
 31
0.0
  0
LINE
  5
1B5
330
1E
100
AcDbEntity
  8
0
100
AcDbLine
 10
7.720919999999999
 20
56.0
 30
0.0
 11
7.722169999999999
 21
56.256
 31
0.0
  0
LINE
  5
1B6
330
1E
100
AcDbEntity
  8
0
100
AcDbLine
 10
7.720919999999999
 20
56.0
 30
0.0
 11
7.722169999999999
 21
55.744
 31
0.0
  0
LINE
  5
1B7
330
1E
100
AcDbEntity
  8
0
100
AcDbLine
 10
7.20673
 20
55.744
 30
0.0
 11
7.20841
 21
55.50399999999999
 31
0.0
  0
LINE
  5
1B8
330
1E
100
AcDbEntity
  8
0
100
AcDbLine
 10
7.2061
 20
56.0
 30
0.0
 11
7.20673
 21
55.744
 31
0.0
  0
LINE
  5
1B9
330
1E
100
AcDbEntity
  8
0
100
AcDbLine
 10
7.2061
 20
56.0
 30
0.0
 11
7.20673
 21
56.256
 31
0.0
  0
LINE
  5
1BA
330
1E
100
AcDbEntity
  8
0
100
AcDbLine
 10
7.435739999999999
 20
55.0
 30
0.0
 11
7.5
 21
55.0
 31
0.0
  0
LINE
  5
1BB
330
1E
100
AcDbEntity
  8
0
100
AcDbLine
 10
7.435739999999999
 20
55.0
 30
0.0
 11
8.2498
 21
55.0
 31
0.0
  0
LINE
  5
1BC
330
1E
100
AcDbEntity
  8
0
100
AcDbLine
 10
8.7498
 20
56.0
 30
0.0
 11
8.7498
 21
50.2441
 31
0.0
  0
LINE
  5
1BD
330
1E
100
AcDbEntity
  8
0
100
AcDbLine
 10
8.7498
 20
56.0
 30
0.0
 11
8.7498
 21
61.75589999999999
 31
0.0
  0
LINE
  5
1BE
330
1E
100
AcDbEntity
  8
0
100
AcDbLine
 10
8.2498
 20
55.0
 30
0.0
 11
8.2498
 21
53.1744
 31
0.0
  0
LINE
  5
1BF
330
1E
100
AcDbEntity
  8
0
100
AcDbLine
 10
8.2498
 20
53.1744
 30
0.0
 11
8.2498
 21
55.0
 31
0.0
  0
LINE
  5
1C0
330
1E
100
AcDbEntity
  8
0
100
AcDbLine
 10
8.2498
 20
53.1744
 30
0.0
 11
8.2498
 21
50.3488
 31
0.0
  0
LINE
  5
1C1
330
1E
100
AcDbEntity
  8
0
100
AcDbLine
 10
9.2498
 20
50.1395
 30
0.0
 11
9.2498
 21
44.38369999999999
 31
0.0
  0
LINE
  5
1C2
330
1E
100
AcDbEntity
  8
0
100
AcDbLine
 10
9.2498
 20
50.1395
 30
0.0
 11
9.2498
 21
56.0
 31
0.0
  0
LINE
  5
1C3
330
1E
100
AcDbEntity
  8
0
100
AcDbLine
 10
7.402099999999999
 20
56.256
 30
0.0
 11
7.40545
 21
56.496
 31
0.0
  0
LINE
  5
1C4
330
1E
100
AcDbEntity
  8
0
100
AcDbLine
 10
7.40545
 20
56.496
 30
0.0
 11
7.41103
 21
56.70799999999999
 31
0.0
  0
LINE
  5
1C5
330
1E
100
AcDbEntity
  8
0
100
AcDbLine
 10
7.466039999999999
 20
56.496
 30
0.0
 11
7.469389999999999
 21
56.256
 31
0.0
  0
LINE
  5
1C6
330
1E
100
AcDbEntity
  8
0
100
AcDbLine
 10
7.469389999999999
 20
56.256
 30
0.0
 11
7.470639999999999
 21
56.0
 31
0.0
  0
LINE
  5
1C7
330
1E
100
AcDbEntity
  8
0
100
AcDbLine
 10
7.725519999999999
 20
56.496
 30
0.0
 11
7.73111
 21
56.70799999999999
 31
0.0
  0
LINE
  5
1C8
330
1E
100
AcDbEntity
  8
0
100
AcDbLine
 10
7.722169999999999
 20
56.256
 30
0.0
 11
7.725519999999999
 21
56.496
 31
0.0
  0
LINE
  5
1C9
330
1E
100
AcDbEntity
  8
0
100
AcDbLine
 10
7.78611
 20
56.496
 30
0.0
 11
7.78946
 21
56.256
 31
0.0
  0
LINE
  5
1CA
330
1E
100
AcDbEntity
  8
0
100
AcDbLine
 10
7.78946
 20
56.256
 30
0.0
 11
7.790719999999999
 21
56.0
 31
0.0
  0
LINE
  5
1CB
330
1E
100
AcDbEntity
  8
0
100
AcDbLine
 10
7.41103
 20
56.70799999999999
 30
0.0
 11
7.418429999999999
 21
56.868
 31
0.0
  0
LINE
  5
1CC
330
1E
100
AcDbEntity
  8
0
100
AcDbLine
 10
7.418429999999999
 20
56.868
 30
0.0
 11
7.42681
 21
56.964
 31
0.0
  0
LINE
  5
1CD
330
1E
100
AcDbEntity
  8
0
100
AcDbLine
 10
7.45305
 20
56.868
 30
0.0
 11
7.460449999999999
 21
56.70799999999999
 31
0.0
  0
LINE
  5
1CE
330
1E
100
AcDbEntity
  8
0
100
AcDbLine
 10
7.460449999999999
 20
56.70799999999999
 30
0.0
 11
7.466039999999999
 21
56.496
 31
0.0
  0
LINE
  5
1CF
330
1E
100
AcDbEntity
  8
0
100
AcDbLine
 10
7.73851
 20
56.868
 30
0.0
 11
7.746879999999999
 21
56.964
 31
0.0
  0
LINE
  5
1D0
330
1E
100
AcDbEntity
  8
0
100
AcDbLine
 10
7.73111
 20
56.70799999999999
 30
0.0
 11
7.73851
 21
56.868
 31
0.0
  0
LINE
  5
1D1
330
1E
100
AcDbEntity
  8
0
100
AcDbLine
 10
7.77313
 20
56.868
 30
0.0
 11
7.78053
 21
56.70799999999999
 31
0.0
  0
LINE
  5
1D2
330
1E
100
AcDbEntity
  8
0
100
AcDbLine
 10
7.78053
 20
56.70799999999999
 30
0.0
 11
7.78611
 21
56.496
 31
0.0
  0
LINE
  5
1D3
330
1E
100
AcDbEntity
  8
0
100
AcDbLine
 10
7.444679999999999
 20
56.964
 30
0.0
 11
7.45305
 21
56.868
 31
0.0
  0
LINE
  5
1D4
330
1E
100
AcDbEntity
  8
0
100
AcDbLine
 10
7.5
 20
57.0
 30
0.0
 11
7.5
 21
57.28
 31
0.0
  0
LINE
  5
1D5
330
1E
100
AcDbEntity
  8
0
100
AcDbLine
 10
7.5
 20
61.0
 30
0.0
 11
8.2498
 21
61.0
 31
0.0
  0
LINE
  5
1D6
330
1E
100
AcDbEntity
  8
0
100
AcDbLine
 10
7.5
 20
61.0
 30
0.0
 11
7.5
 21
60.82
 31
0.0
  0
LINE
  5
1D7
330
1E
100
AcDbEntity
  8
0
100
AcDbLine
 10
7.5
 20
60.82
 30
0.0
 11
7.5
 21
61.0
 31
0.0
  0
LINE
  5
1D8
330
1E
100
AcDbEntity
  8
0
100
AcDbLine
 10
7.5
 20
60.82
 30
0.0
 11
7.5
 21
60.34
 31
0.0
  0
LINE
  5
1D9
330
1E
100
AcDbEntity
  8
0
100
AcDbLine
 10
7.5
 20
60.34
 30
0.0
 11
7.5
 21
60.82
 31
0.0
  0
LINE
  5
1DA
330
1E
100
AcDbEntity
  8
0
100
AcDbLine
 10
7.5
 20
60.34
 30
0.0
 11
7.5
 21
59.54
 31
0.0
  0
LINE
  5
1DB
330
1E
100
AcDbEntity
  8
0
100
AcDbLine
 10
7.5
 20
59.54
 30
0.0
 11
7.5
 21
60.34
 31
0.0
  0
LINE
  5
1DC
330
1E
100
AcDbEntity
  8
0
100
AcDbLine
 10
7.5
 20
59.54
 30
0.0
 11
7.5
 21
58.47999999999999
 31
0.0
  0
LINE
  5
1DD
330
1E
100
AcDbEntity
  8
0
100
AcDbLine
 10
7.5
 20
58.47999999999999
 30
0.0
 11
7.5
 21
59.54
 31
0.0
  0
LINE
  5
1DE
330
1E
100
AcDbEntity
  8
0
100
AcDbLine
 10
7.5
 20
58.47999999999999
 30
0.0
 11
7.5
 21
57.28
 31
0.0
  0
LINE
  5
1DF
330
1E
100
AcDbEntity
  8
0
100
AcDbLine
 10
7.5
 20
57.28
 30
0.0
 11
7.5
 21
58.47999999999999
 31
0.0
  0
LINE
  5
1E0
330
1E
100
AcDbEntity
  8
0
100
AcDbLine
 10
7.5
 20
57.28
 30
0.0
 11
7.5
 21
57.0
 31
0.0
  0
LINE
  5
1E1
330
1E
100
AcDbEntity
  8
0
100
AcDbLine
 10
7.435739999999999
 20
57.0
 30
0.0
 11
7.755819999999999
 21
57.0
 31
0.0
  0
LINE
  5
1E2
330
1E
100
AcDbEntity
  8
0
100
AcDbLine
 10
8.2498
 20
58.8256
 30
0.0
 11
8.2498
 21
57.0
 31
0.0
  0
LINE
  5
1E3
330
1E
100
AcDbEntity
  8
0
100
AcDbLine
 10
8.7498
 20
61.75589999999999
 30
0.0
 11
8.7498
 21
67.5116
 31
0.0
  0
LINE
  5
1E4
330
1E
100
AcDbEntity
  8
0
100
AcDbLine
 10
8.7498
 20
61.75589999999999
 30
0.0
 11
8.7498
 21
56.0
 31
0.0
  0
LINE
  5
1E5
330
1E
100
AcDbEntity
  8
0
100
AcDbLine
 10
8.2498
 20
61.6512
 30
0.0
 11
8.2498
 21
64.4369
 31
0.0
  0
LINE
  5
1E6
330
1E
100
AcDbEntity
  8
0
100
AcDbLine
 10
8.2498
 20
57.0
 30
0.0
 11
8.2498
 21
58.8256
 31
0.0
  0
LINE
  5
1E7
330
1E
100
AcDbEntity
  8
0
100
AcDbLine
 10
7.755819999999999
 20
57.0
 30
0.0
 11
8.7498
 21
57.0
 31
0.0
  0
LINE
  5
1E8
330
1E
100
AcDbEntity
  8
0
100
AcDbLine
 10
7.76475
 20
56.964
 30
0.0
 11
7.77313
 21
56.868
 31
0.0
  0
LINE
  5
1E9
330
1E
100
AcDbEntity
  8
0
100
AcDbLine
 10
7.22356
 20
57.0
 30
0.0
 11
7.435739999999999
 21
57.0
 31
0.0
  0
LINE
  5
1EA
330
1E
100
AcDbEntity
  8
0
100
AcDbLine
 10
7.2149
 20
56.868
 30
0.0
 11
7.219089999999999
 21
56.964
 31
0.0
  0
LINE
  5
1EB
330
1E
100
AcDbEntity
  8
0
100
AcDbLine
 10
7.211199999999999
 20
56.70799999999999
 30
0.0
 11
7.2149
 21
56.868
 31
0.0
  0
LINE
  5
1EC
330
1E
100
AcDbEntity
  8
0
100
AcDbLine
 10
7.20841
 20
56.496
 30
0.0
 11
7.211199999999999
 21
56.70799999999999
 31
0.0
  0
LINE
  5
1ED
330
1E
100
AcDbEntity
  8
0
100
AcDbLine
 10
7.20673
 20
56.256
 30
0.0
 11
7.20841
 21
56.496
 31
0.0
  0
LINE
  5
1EE
330
1E
100
AcDbEntity
  8
0
100
AcDbLine
 10
7.20673
 20
62.17100000000001
 30
0.0
 11
7.20841
 21
62.0332
 31
0.0
  0
LINE
  5
1EF
330
1E
100
AcDbEntity
  8
0
100
AcDbLine
 10
7.20673
 20
62.5852
 30
0.0
 11
7.20841
 21
62.8358
 31
0.0
  0
LINE
  5
1F0
330
1E
100
AcDbEntity
  8
0
100
AcDbLine
 10
7.2061
 20
62.3569
 30
0.0
 11
7.20673
 21
62.5852
 31
0.0
  0
LINE
  5
1F1
330
1E
100
AcDbEntity
  8
0
100
AcDbLine
 10
7.2061
 20
62.3569
 30
0.0
 11
7.20673
 21
62.17100000000001
 31
0.0
  0
LINE
  5
1F2
330
1E
100
AcDbEntity
  8
0
100
AcDbLine
 10
7.20841
 20
62.0332
 30
0.0
 11
7.211199999999999
 21
61.9558
 31
0.0
  0
LINE
  5
1F3
330
1E
100
AcDbEntity
  8
0
100
AcDbLine
 10
7.22356
 20
62.1356
 30
0.0
 11
7.228019999999999
 21
62.31519999999999
 31
0.0
  0
LINE
  5
1F4
330
1E
100
AcDbEntity
  8
0
100
AcDbLine
 10
7.228019999999999
 20
62.31519999999999
 30
0.0
 11
7.23221
 21
62.5339
 31
0.0
  0
LINE
  5
1F5
330
1E
100
AcDbEntity
  8
0
100
AcDbLine
 10
7.23221
 20
62.5339
 30
0.0
 11
7.23591
 21
62.7879
 31
0.0
  0
LINE
  5
1F6
330
1E
100
AcDbEntity
  8
0
100
AcDbLine
 10
7.23591
 20
62.7879
 30
0.0
 11
7.238699999999999
 21
63.0535
 31
0.0
  0
LINE
  5
1F7
330
1E
100
AcDbEntity
  8
0
100
AcDbLine
 10
7.238699999999999
 20
63.0535
 30
0.0
 11
7.24038
 21
63.3041
 31
0.0
  0
LINE
  5
1F8
330
1E
100
AcDbEntity
  8
0
100
AcDbLine
 10
7.219089999999999
 20
62.0143
 30
0.0
 11
7.22356
 21
62.1356
 31
0.0
  0
LINE
  5
1F9
330
1E
100
AcDbEntity
  8
0
100
AcDbLine
 10
7.2149
 20
61.9509
 30
0.0
 11
8.2498
 21
61.9402906305477
 31
0.0
  0
LINE
  5
1FA
330
1E
100
AcDbEntity
  8
0
100
AcDbLine
 10
7.2149
 20
61.9509
 30
0.0
 11
7.219089999999999
 21
62.0143
 31
0.0
  0
LINE
  5
1FB
330
1E
100
AcDbEntity
  8
0
100
AcDbLine
 10
7.24038
 20
63.3041
 30
0.0
 11
7.24101
 21
63.53229999999999
 31
0.0
  0
LINE
  5
1FC
330
1E
100
AcDbEntity
  8
0
100
AcDbLine
 10
7.219089999999999
 20
63.5741
 30
0.0
 11
7.22356
 21
63.7537
 31
0.0
  0
LINE
  5
1FD
330
1E
100
AcDbEntity
  8
0
100
AcDbLine
 10
7.2149
 20
63.3554
 30
0.0
 11
7.219089999999999
 21
63.5741
 31
0.0
  0
LINE
  5
1FE
330
1E
100
AcDbEntity
  8
0
100
AcDbLine
 10
7.211199999999999
 20
63.1013
 30
0.0
 11
7.2149
 21
63.3554
 31
0.0
  0
LINE
  5
1FF
330
1E
100
AcDbEntity
  8
0
100
AcDbLine
 10
7.20841
 20
62.8358
 30
0.0
 11
7.211199999999999
 21
63.1013
 31
0.0
  0
LINE
  5
200
330
1E
100
AcDbEntity
  8
0
100
AcDbLine
 10
7.22356
 20
63.7537
 30
0.0
 11
7.228019999999999
 21
63.875
 31
0.0
  0
LINE
  5
201
330
1E
100
AcDbEntity
  8
0
100
AcDbLine
 10
7.228019999999999
 20
63.875
 30
0.0
 11
7.23221
 21
63.9384
 31
0.0
  0
LINE
  5
202
330
1E
100
AcDbEntity
  8
0
100
AcDbLine
 10
7.23221
 20
63.9384
 30
0.0
 11
8.2498
 21
63.9279172505876
 31
0.0
  0
LINE
  5
203
330
1E
100
AcDbEntity
  8
0
100
AcDbLine
 10
7.23591
 20
63.9335
 30
0.0
 11
7.238699999999999
 21
63.856
 31
0.0
  0
LINE
  5
204
330
1E
100
AcDbEntity
  8
0
100
AcDbLine
 10
7.238699999999999
 20
63.856
 30
0.0
 11
7.24038
 21
63.7183
 31
0.0
  0
LINE
  5
205
330
1E
100
AcDbEntity
  8
0
100
AcDbLine
 10
7.24038
 20
63.7183
 30
0.0
 11
7.24101
 21
63.53229999999999
 31
0.0
  0
LINE
  5
206
330
1E
100
AcDbEntity
  8
0
100
AcDbLine
 10
7.20673
 20
66.24089999999999
 30
0.0
 11
8.2498
 21
66.2235824403661
 31
0.0
  0
LINE
  5
207
330
1E
100
AcDbEntity
  8
0
100
AcDbLine
 10
7.22356
 20
67.5457
 30
0.0
 11
7.228019999999999
 21
67.778
 31
0.0
  0
LINE
  5
208
330
1E
100
AcDbEntity
  8
0
100
AcDbLine
 10
7.228019999999999
 20
67.778
 30
0.0
 11
7.23221
 21
67.9765
 31
0.0
  0
LINE
  5
209
330
1E
100
AcDbEntity
  8
0
100
AcDbLine
 10
7.23221
 20
67.9765
 30
0.0
 11
7.23591
 21
68.1287
 31
0.0
  0
LINE
  5
20A
330
1E
100
AcDbEntity
  8
0
100
AcDbLine
 10
7.23591
 20
68.1287
 30
0.0
 11
7.238699999999999
 21
68.2153
 31
0.0
  0
LINE
  5
20B
330
1E
100
AcDbEntity
  8
0
100
AcDbLine
 10
7.24038
 20
68.2324
 30
0.0
 11
7.722158714029549
 21
68.22440127353819
 31
0.0
  0
LINE
  5
20C
330
1E
100
AcDbEntity
  8
0
100
AcDbLine
 10
7.219089999999999
 20
67.2911
 30
0.0
 11
7.22356
 21
67.5457
 31
0.0
  0
LINE
  5
20D
330
1E
100
AcDbEntity
  8
0
100
AcDbLine
 10
7.2149
 20
67.03319999999999
 30
0.0
 11
7.219089999999999
 21
67.2911
 31
0.0
  0
LINE
  5
20E
330
1E
100
AcDbEntity
  8
0
100
AcDbLine
 10
7.211199999999999
 20
66.7822
 30
0.0
 11
7.2149
 21
67.03319999999999
 31
0.0
  0
LINE
  5
20F
330
1E
100
AcDbEntity
  8
0
100
AcDbLine
 10
7.20841
 20
66.56449999999999
 30
0.0
 11
7.211199999999999
 21
66.7822
 31
0.0
  0
LINE
  5
210
330
1E
100
AcDbEntity
  8
0
100
AcDbLine
 10
7.20673
 20
66.3991
 30
0.0
 11
7.20841
 21
66.56449999999999
 31
0.0
  0
LINE
  5
211
330
1E
100
AcDbEntity
  8
0
100
AcDbLine
 10
7.2061
 20
66.28579999999999
 30
0.0
 11
7.20673
 21
66.3991
 31
0.0
  0
LINE
  5
212
330
1E
100
AcDbEntity
  8
0
100
AcDbLine
 10
7.720919999999999
 20
67.97209999999999
 30
0.0
 11
7.722169999999999
 21
68.22669999999999
 31
0.0
  0
LINE
  5
213
330
1E
100
AcDbEntity
  8
0
100
AcDbLine
 10
7.720919999999999
 20
67.97209999999999
 30
0.0
 11
7.722169999999999
 21
67.7398
 31
0.0
  0
LINE
  5
214
330
1E
100
AcDbEntity
  8
0
100
AcDbLine
 10
7.725519999999999
 20
67.5412
 30
0.0
 11
7.73111
 21
67.389
 31
0.0
  0
LINE
  5
215
330
1E
100
AcDbEntity
  8
0
100
AcDbLine
 10
7.722169999999999
 20
67.7398
 30
0.0
 11
7.725519999999999
 21
67.5412
 31
0.0
  0
LINE
  5
216
330
1E
100
AcDbEntity
  8
0
100
AcDbLine
 10
7.725519999999999
 20
68.4846
 30
0.0
 11
7.73111
 21
68.73569999999999
 31
0.0
  0
LINE
  5
217
330
1E
100
AcDbEntity
  8
0
100
AcDbLine
 10
7.722169999999999
 20
68.22669999999999
 30
0.0
 11
7.725519999999999
 21
68.4846
 31
0.0
  0
LINE
  5
218
330
1E
100
AcDbEntity
  8
0
100
AcDbLine
 10
7.42681
 20
70.1848
 30
0.0
 11
7.435739999999999
 21
70.3061
 31
0.0
  0
LINE
  5
219
330
1E
100
AcDbEntity
  8
0
100
AcDbLine
 10
7.418429999999999
 20
70.1215
 30
0.0
 11
8.2498
 21
70.1044465976916
 31
0.0
  0
LINE
  5
21A
330
1E
100
AcDbEntity
  8
0
100
AcDbLine
 10
7.418429999999999
 20
70.1215
 30
0.0
 11
8.290048044901871
 21
70.1036210132926
 31
0.0
  0
LINE
  5
21B
330
1E
100
AcDbEntity
  8
0
100
AcDbLine
 10
7.418429999999999
 20
70.1215
 30
0.0
 11
7.42681
 21
70.1848
 31
0.0
  0
LINE
  5
21C
330
1E
100
AcDbEntity
  8
0
100
AcDbLine
 10
7.435739999999999
 20
70.3061
 30
0.0
 11
7.444679999999999
 21
70.48560000000001
 31
0.0
  0
LINE
  5
21D
330
1E
100
AcDbEntity
  8
0
100
AcDbLine
 10
7.444679999999999
 20
70.48560000000001
 30
0.0
 11
7.45305
 21
70.7042
 31
0.0
  0
LINE
  5
21E
330
1E
100
AcDbEntity
  8
0
100
AcDbLine
 10
7.40545
 20
70.2039
 30
0.0
 11
7.41103
 21
70.12640000000001
 31
0.0
  0
LINE
  5
21F
330
1E
100
AcDbEntity
  8
0
100
AcDbLine
 10
7.402099999999999
 20
70.3417
 30
0.0
 11
7.40545
 21
70.2039
 31
0.0
  0
LINE
  5
220
330
1E
100
AcDbEntity
  8
0
100
AcDbLine
 10
7.45305
 20
70.7042
 30
0.0
 11
7.460449999999999
 21
70.9582
 31
0.0
  0
LINE
  5
221
330
1E
100
AcDbEntity
  8
0
100
AcDbLine
 10
7.460449999999999
 20
70.9582
 30
0.0
 11
7.466039999999999
 21
71.2237
 31
0.0
  0
LINE
  5
222
330
1E
100
AcDbEntity
  8
0
100
AcDbLine
 10
7.466039999999999
 20
71.2237
 30
0.0
 11
7.469389999999999
 21
71.47429999999999
 31
0.0
  0
LINE
  5
223
330
1E
100
AcDbEntity
  8
0
100
AcDbLine
 10
7.469389999999999
 20
71.47429999999999
 30
0.0
 11
7.470639999999999
 21
71.7025
 31
0.0
  0
LINE
  5
224
330
1E
100
AcDbEntity
  8
0
100
AcDbLine
 10
7.435739999999999
 20
71.92409999999999
 30
0.0
 11
7.444679999999999
 21
72.0454
 31
0.0
  0
LINE
  5
225
330
1E
100
AcDbEntity
  8
0
100
AcDbLine
 10
7.466039999999999
 20
72.0262
 30
0.0
 11
7.469389999999999
 21
71.88849999999999
 31
0.0
  0
LINE
  5
226
330
1E
100
AcDbEntity
  8
0
100
AcDbLine
 10
7.469389999999999
 20
71.88849999999999
 30
0.0
 11
7.470639999999999
 21
71.7025
 31
0.0
  0
LINE
  5
227
330
1E
100
AcDbEntity
  8
0
100
AcDbLine
 10
7.45305
 20
72.10869999999999
 30
0.0
 11
8.348246116386599
 21
72.0902924912279
 31
0.0
  0
LINE
  5
228
330
1E
100
AcDbEntity
  8
0
100
AcDbLine
 10
7.460449999999999
 20
72.1038
 30
0.0
 11
7.466039999999999
 21
72.0262
 31
0.0
  0
LINE
  5
229
330
1E
100
AcDbEntity
  8
0
100
AcDbLine
 10
7.722169999999999
 20
78.5864
 30
0.0
 11
7.725519999999999
 21
78.4486
 31
0.0
  0
LINE
  5
22A
330
1E
100
AcDbEntity
  8
0
100
AcDbLine
 10
7.444679999999999
 20
72.0454
 30
0.0
 11
7.45305
 21
72.10869999999999
 31
0.0
  0
LINE
  5
22B
330
1E
100
AcDbEntity
  8
0
100
AcDbLine
 10
7.42681
 20
71.7446
 30
0.0
 11
7.435739999999999
 21
71.92409999999999
 31
0.0
  0
LINE
  5
22C
330
1E
100
AcDbEntity
  8
0
100
AcDbLine
 10
7.418429999999999
 20
71.5259
 30
0.0
 11
7.42681
 21
71.7446
 31
0.0
  0
LINE
  5
22D
330
1E
100
AcDbEntity
  8
0
100
AcDbLine
 10
7.41103
 20
71.27199999999999
 30
0.0
 11
7.418429999999999
 21
71.5259
 31
0.0
  0
LINE
  5
22E
330
1E
100
AcDbEntity
  8
0
100
AcDbLine
 10
7.40545
 20
71.0065
 30
0.0
 11
7.41103
 21
71.27199999999999
 31
0.0
  0
LINE
  5
22F
330
1E
100
AcDbEntity
  8
0
100
AcDbLine
 10
7.402099999999999
 20
70.7559
 30
0.0
 11
7.40545
 21
71.0065
 31
0.0
  0
LINE
  5
230
330
1E
100
AcDbEntity
  8
0
100
AcDbLine
 10
7.400839999999999
 20
70.52769999999999
 30
0.0
 11
7.402099999999999
 21
70.3417
 31
0.0
  0
LINE
  5
231
330
1E
100
AcDbEntity
  8
0
100
AcDbLine
 10
7.400839999999999
 20
70.52769999999999
 30
0.0
 11
7.402099999999999
 21
70.7559
 31
0.0
  0
LINE
  5
232
330
1E
100
AcDbEntity
  8
0
100
AcDbLine
 10
7.73111
 20
67.389
 30
0.0
 11
7.73851
 21
67.3023
 31
0.0
  0
LINE
  5
233
330
1E
100
AcDbEntity
  8
0
100
AcDbLine
 10
7.73851
 20
68.9533
 30
0.0
 11
7.746879999999999
 21
69.1187
 31
0.0
  0
LINE
  5
234
330
1E
100
AcDbEntity
  8
0
100
AcDbLine
 10
7.73111
 20
68.73569999999999
 30
0.0
 11
7.73851
 21
68.9533
 31
0.0
  0
LINE
  5
235
330
1E
100
AcDbEntity
  8
0
100
AcDbLine
 10
7.755819999999999
 20
67.3299
 30
0.0
 11
7.76475
 21
67.4432
 31
0.0
  0
LINE
  5
236
330
1E
100
AcDbEntity
  8
0
100
AcDbLine
 10
7.76475
 20
67.4432
 30
0.0
 11
7.77313
 21
67.6086
 31
0.0
  0
LINE
  5
237
330
1E
100
AcDbEntity
  8
0
100
AcDbLine
 10
7.77313
 20
67.6086
 30
0.0
 11
7.78053
 21
67.82630000000001
 31
0.0
  0
LINE
  5
238
330
1E
100
AcDbEntity
  8
0
100
AcDbLine
 10
7.78053
 20
67.82630000000001
 30
0.0
 11
7.78611
 21
68.07729999999999
 31
0.0
  0
LINE
  5
239
330
1E
100
AcDbEntity
  8
0
100
AcDbLine
 10
7.78611
 20
68.07729999999999
 30
0.0
 11
7.78946
 21
68.3352
 31
0.0
  0
LINE
  5
23A
330
1E
100
AcDbEntity
  8
0
100
AcDbLine
 10
7.78946
 20
68.3352
 30
0.0
 11
7.790719999999999
 21
68.58979999999999
 31
0.0
  0
LINE
  5
23B
330
1E
100
AcDbEntity
  8
0
100
AcDbLine
 10
7.746879999999999
 20
67.28509999999999
 30
0.0
 11
8.71127237211537
 21
67.2746782050863
 31
0.0
  0
LINE
  5
23C
330
1E
100
AcDbEntity
  8
0
100
AcDbLine
 10
7.78611
 20
69.02070000000001
 30
0.0
 11
7.78946
 21
68.8221
 31
0.0
  0
LINE
  5
23D
330
1E
100
AcDbEntity
  8
0
100
AcDbLine
 10
8.2498
 20
66.9528
 30
0.0
 11
8.2498
 21
64.4369
 31
0.0
  0
LINE
  5
23E
330
1E
100
AcDbEntity
  8
0
100
AcDbLine
 10
8.2498
 20
64.4369
 30
0.0
 11
8.2498
 21
66.2235824403661
 31
0.0
  0
LINE
  5
23F
330
1E
100
AcDbEntity
  8
0
100
AcDbLine
 10
8.2498
 20
64.4369
 30
0.0
 11
8.2498
 21
61.6512
 31
0.0
  0
LINE
  5
240
330
1E
100
AcDbEntity
  8
0
100
AcDbLine
 10
8.2498
 20
64.4369
 30
0.0
 11
8.2498
 21
66.9528
 31
0.0
  0
LINE
  5
241
330
1E
100
AcDbEntity
  8
0
100
AcDbLine
 10
8.7498
 20
67.5116
 30
0.0
 11
8.7498
 21
73.0217
 31
0.0
  0
LINE
  5
242
330
1E
100
AcDbEntity
  8
0
100
AcDbLine
 10
8.7498
 20
67.5116
 30
0.0
 11
8.7498
 21
61.75589999999999
 31
0.0
  0
LINE
  5
243
330
1E
100
AcDbEntity
  8
0
100
AcDbLine
 10
8.2498
 20
66.2235824403661
 30
0.0
 11
8.2498
 21
64.4369
 31
0.0
  0
LINE
  5
244
330
1E
100
AcDbEntity
  8
0
100
AcDbLine
 10
7.78946
 20
68.8221
 30
0.0
 11
7.790719999999999
 21
68.58979999999999
 31
0.0
  0
LINE
  5
245
330
1E
100
AcDbEntity
  8
0
100
AcDbLine
 10
8.2498
 20
69.3947
 30
0.0
 11
8.2498
 21
70.1044465976916
 31
0.0
  0
LINE
  5
246
330
1E
100
AcDbEntity
  8
0
100
AcDbLine
 10
8.2498
 20
74.9434
 30
0.0
 11
8.2498
 21
73.38930000000001
 31
0.0
  0
LINE
  5
247
330
1E
100
AcDbEntity
  8
0
100
AcDbLine
 10
8.2498
 20
73.38930000000001
 30
0.0
 11
8.2498
 21
74.9434
 31
0.0
  0
LINE
  5
248
330
1E
100
AcDbEntity
  8
0
100
AcDbLine
 10
8.2498
 20
76.27549999999999
 30
0.0
 11
8.2498
 21
77.1395
 31
0.0
  0
LINE
  5
249
330
1E
100
AcDbEntity
  8
0
100
AcDbLine
 10
8.2498
 20
77.76749999999999
 30
0.0
 11
8.2498
 21
77.9767
 31
0.0
  0
LINE
  5
24A
330
1E
100
AcDbEntity
  8
0
100
AcDbLine
 10
8.2498
 20
77.76749999999999
 30
0.0
 11
8.2498
 21
77.1395
 31
0.0
  0
LINE
  5
24B
330
1E
100
AcDbEntity
  8
0
100
AcDbLine
 10
8.2498
 20
77.1395
 30
0.0
 11
8.2498
 21
76.27549999999999
 31
0.0
  0
LINE
  5
24C
330
1E
100
AcDbEntity
  8
0
100
AcDbLine
 10
8.2498
 20
77.1395
 30
0.0
 11
8.2498
 21
77.76749999999999
 31
0.0
  0
LINE
  5
24D
330
1E
100
AcDbEntity
  8
0
100
AcDbLine
 10
8.7498
 20
73.0217
 30
0.0
 11
8.7498
 21
78.2016
 31
0.0
  0
LINE
  5
24E
330
1E
100
AcDbEntity
  8
0
100
AcDbLine
 10
8.7498
 20
78.2016
 30
0.0
 11
8.7498
 21
83.0854
 31
0.0
  0
LINE
  5
24F
330
1E
100
AcDbEntity
  8
0
100
AcDbLine
 10
8.7498
 20
78.2016
 30
0.0
 11
8.7498
 21
73.0217
 31
0.0
  0
LINE
  5
250
330
1E
100
AcDbEntity
  8
0
100
AcDbLine
 10
8.2498
 20
77.9767
 30
0.0
 11
8.2498
 21
77.76749999999999
 31
0.0
  0
LINE
  5
251
330
1E
100
AcDbEntity
  8
0
100
AcDbLine
 10
8.2498
 20
77.9767
 30
0.0
 11
8.25821796515026
 21
78.3555134825405
 31
0.0
  0
LINE
  5
252
330
1E
100
AcDbEntity
  8
0
100
AcDbLine
 10
8.2498
 20
77.9767
 30
0.0
 11
8.25821796515026
 21
78.3555134825405
 31
0.0
  0
LINE
  5
253
330
1E
100
AcDbEntity
  8
0
100
AcDbLine
 10
8.2498
 20
70.1044465976916
 30
0.0
 11
8.2498
 21
69.3947
 31
0.0
  0
LINE
  5
254
330
1E
100
AcDbEntity
  8
0
100
AcDbLine
 10
7.77313
 20
69.25969999999999
 30
0.0
 11
7.78053
 21
69.173
 31
0.0
  0
LINE
  5
255
330
1E
100
AcDbEntity
  8
0
100
AcDbLine
 10
7.78053
 20
69.173
 30
0.0
 11
7.78611
 21
69.02070000000001
 31
0.0
  0
LINE
  5
256
330
1E
100
AcDbEntity
  8
0
100
AcDbLine
 10
7.76475
 20
69.27679999999999
 30
0.0
 11
8.2498
 21
69.2715825298432
 31
0.0
  0
LINE
  5
257
330
1E
100
AcDbEntity
  8
0
100
AcDbLine
 10
7.76475
 20
69.27679999999999
 30
0.0
 11
8.7498
 21
69.2662042490919
 31
0.0
  0
LINE
  5
258
330
1E
100
AcDbEntity
  8
0
100
AcDbLine
 10
7.746879999999999
 20
69.1187
 30
0.0
 11
7.755819999999999
 21
69.232
 31
0.0
  0
LINE
  5
259
330
1E
100
AcDbEntity
  8
0
100
AcDbLine
 10
7.73851
 20
78.3662
 30
0.0
 11
8.25821796515026
 21
78.3555134825405
 31
0.0
  0
LINE
  5
25A
330
1E
100
AcDbEntity
  8
0
100
AcDbLine
 10
7.73851
 20
78.3662
 30
0.0
 11
8.576819882725589
 21
78.34896221686229
 31
0.0
  0
LINE
  5
25B
330
1E
100
AcDbEntity
  8
0
100
AcDbLine
 10
7.73851
 20
78.3662
 30
0.0
 11
7.746879999999999
 21
78.4295
 31
0.0
  0
LINE
  5
25C
330
1E
100
AcDbEntity
  8
0
100
AcDbLine
 10
7.755819999999999
 20
78.5508
 30
0.0
 11
7.76475
 21
78.73029999999999
 31
0.0
  0
LINE
  5
25D
330
1E
100
AcDbEntity
  8
0
100
AcDbLine
 10
7.76475
 20
78.73029999999999
 30
0.0
 11
7.77313
 21
78.9489
 31
0.0
  0
LINE
  5
25E
330
1E
100
AcDbEntity
  8
0
100
AcDbLine
 10
7.746879999999999
 20
78.4295
 30
0.0
 11
7.755819999999999
 21
78.5508
 31
0.0
  0
LINE
  5
25F
330
1E
100
AcDbEntity
  8
0
100
AcDbLine
 10
7.725519999999999
 20
78.4486
 30
0.0
 11
7.73111
 21
78.3711
 31
0.0
  0
LINE
  5
260
330
1E
100
AcDbEntity
  8
0
100
AcDbLine
 10
7.40545
 20
79.47839999999999
 30
0.0
 11
7.41103
 21
79.565
 31
0.0
  0
LINE
  5
261
330
1E
100
AcDbEntity
  8
0
100
AcDbLine
 10
7.402099999999999
 20
79.4613
 30
0.0
 11
7.7297147726641
 21
79.45043294138049
 31
0.0
  0
LINE
  5
262
330
1E
100
AcDbEntity
  8
0
100
AcDbLine
 10
7.418429999999999
 20
79.7171
 30
0.0
 11
7.42681
 21
79.9155
 31
0.0
  0
LINE
  5
263
330
1E
100
AcDbEntity
  8
0
100
AcDbLine
 10
7.41103
 20
79.565
 30
0.0
 11
7.418429999999999
 21
79.7171
 31
0.0
  0
LINE
  5
264
330
1E
100
AcDbEntity
  8
0
100
AcDbLine
 10
7.435739999999999
 20
80.1477
 30
0.0
 11
7.444679999999999
 21
80.4021
 31
0.0
  0
LINE
  5
265
330
1E
100
AcDbEntity
  8
0
100
AcDbLine
 10
7.42681
 20
79.9155
 30
0.0
 11
7.435739999999999
 21
80.1477
 31
0.0
  0
LINE
  5
266
330
1E
100
AcDbEntity
  8
0
100
AcDbLine
 10
7.444679999999999
 20
80.4021
 30
0.0
 11
7.45305
 21
80.65989999999999
 31
0.0
  0
LINE
  5
267
330
1E
100
AcDbEntity
  8
0
100
AcDbLine
 10
7.435739999999999
 20
80.7657
 30
0.0
 11
7.444679999999999
 21
80.9979
 31
0.0
  0
LINE
  5
268
330
1E
100
AcDbEntity
  8
0
100
AcDbLine
 10
7.45305
 20
80.65989999999999
 30
0.0
 11
7.460449999999999
 21
80.91089999999999
 31
0.0
  0
LINE
  5
269
330
1E
100
AcDbEntity
  8
0
100
AcDbLine
 10
7.460449999999999
 20
80.91089999999999
 30
0.0
 11
7.466039999999999
 21
81.12849999999999
 31
0.0
  0
LINE
  5
26A
330
1E
100
AcDbEntity
  8
0
100
AcDbLine
 10
7.444679999999999
 20
80.9979
 30
0.0
 11
7.45305
 21
81.1964
 31
0.0
  0
LINE
  5
26B
330
1E
100
AcDbEntity
  8
0
100
AcDbLine
 10
7.45305
 20
81.1964
 30
0.0
 11
7.460449999999999
 21
81.3484
 31
0.0
  0
LINE
  5
26C
330
1E
100
AcDbEntity
  8
0
100
AcDbLine
 10
7.466039999999999
 20
81.12849999999999
 30
0.0
 11
7.469389999999999
 21
81.29389999999999
 31
0.0
  0
LINE
  5
26D
330
1E
100
AcDbEntity
  8
0
100
AcDbLine
 10
7.469389999999999
 20
81.29389999999999
 30
0.0
 11
7.470639999999999
 21
81.40719999999999
 31
0.0
  0
LINE
  5
26E
330
1E
100
AcDbEntity
  8
0
100
AcDbLine
 10
7.460449999999999
 20
81.3484
 30
0.0
 11
7.466039999999999
 21
81.43500000000001
 31
0.0
  0
LINE
  5
26F
330
1E
100
AcDbEntity
  8
0
100
AcDbLine
 10
7.469389999999999
 20
81.4521
 30
0.0
 11
8.357656552348409
 21
81.42259155030769
 31
0.0
  0
LINE
  5
270
330
1E
100
AcDbEntity
  8
0
100
AcDbLine
 10
7.42681
 20
80.5113
 30
0.0
 11
7.435739999999999
 21
80.7657
 31
0.0
  0
LINE
  5
271
330
1E
100
AcDbEntity
  8
0
100
AcDbLine
 10
7.418429999999999
 20
80.25350000000001
 30
0.0
 11
7.42681
 21
80.5113
 31
0.0
  0
LINE
  5
272
330
1E
100
AcDbEntity
  8
0
100
AcDbLine
 10
7.41103
 20
80.0026
 30
0.0
 11
7.418429999999999
 21
80.25350000000001
 31
0.0
  0
LINE
  5
273
330
1E
100
AcDbEntity
  8
0
100
AcDbLine
 10
7.40545
 20
79.785
 30
0.0
 11
7.41103
 21
80.0026
 31
0.0
  0
LINE
  5
274
330
1E
100
AcDbEntity
  8
0
100
AcDbLine
 10
7.402099999999999
 20
79.61960000000001
 30
0.0
 11
7.40545
 21
79.785
 31
0.0
  0
LINE
  5
275
330
1E
100
AcDbEntity
  8
0
100
AcDbLine
 10
7.400839999999999
 20
79.5062
 30
0.0
 11
7.402099999999999
 21
79.61960000000001
 31
0.0
  0
LINE
  5
276
330
1E
100
AcDbEntity
  8
0
100
AcDbLine
 10
7.722169999999999
 20
87.2221
 30
0.0
 11
7.725519999999999
 21
87.15860000000001
 31
0.0
  0
LINE
  5
277
330
1E
100
AcDbEntity
  8
0
100
AcDbLine
 10
7.720919999999999
 20
94.74259999999999
 30
0.0
 11
7.78386780526799
 21
94.74040178068241
 31
0.0
  0
LINE
  5
278
330
1E
100
AcDbEntity
  8
0
100
AcDbLine
 10
7.722169999999999
 20
94.77859999999999
 30
0.0
 11
7.725519999999999
 21
94.8745
 31
0.0
  0
LINE
  5
279
330
1E
100
AcDbEntity
  8
0
100
AcDbLine
 10
7.722169999999999
 20
92.9597
 30
0.0
 11
7.725519999999999
 21
93.12520000000001
 31
0.0
  0
LINE
  5
27A
330
1E
100
AcDbEntity
  8
0
100
AcDbLine
 10
7.720919999999999
 20
92.84640000000001
 30
0.0
 11
7.722169999999999
 21
92.9597
 31
0.0
  0
LINE
  5
27B
330
1E
100
AcDbEntity
  8
0
100
AcDbLine
 10
7.722169999999999
 20
92.8015
 30
0.0
 11
8.57860337593687
 21
92.7730491991844
 31
0.0
  0
LINE
  5
27C
330
1E
100
AcDbEntity
  8
0
100
AcDbLine
 10
7.722169999999999
 20
92.8015
 30
0.0
 11
8.643428860774468
 21
92.77089569021489
 31
0.0
  0
LINE
  5
27D
330
1E
100
AcDbEntity
  8
0
100
AcDbLine
 10
7.722169999999999
 20
87.52299999999999
 30
0.0
 11
7.725519999999999
 21
87.74169999999999
 31
0.0
  0
LINE
  5
27E
330
1E
100
AcDbEntity
  8
0
100
AcDbLine
 10
7.720919999999999
 20
87.34340000000001
 30
0.0
 11
7.722169999999999
 21
87.2221
 31
0.0
  0
LINE
  5
27F
330
1E
100
AcDbEntity
  8
0
100
AcDbLine
 10
7.720919999999999
 20
87.34340000000001
 30
0.0
 11
7.722169999999999
 21
87.52299999999999
 31
0.0
  0
LINE
  5
280
330
1E
100
AcDbEntity
  8
0
100
AcDbLine
 10
7.77313
 20
78.9489
 30
0.0
 11
7.78053
 21
79.2029
 31
0.0
  0
LINE
  5
281
330
1E
100
AcDbEntity
  8
0
100
AcDbLine
 10
7.78053
 20
79.2029
 30
0.0
 11
7.78611
 21
79.4684
 31
0.0
  0
LINE
  5
282
330
1E
100
AcDbEntity
  8
0
100
AcDbLine
 10
7.725519999999999
 20
87.15860000000001
 30
0.0
 11
8.62419791206439
 21
87.13319698015721
 31
0.0
  0
LINE
  5
283
330
1E
100
AcDbEntity
  8
0
100
AcDbLine
 10
7.725519999999999
 20
87.15860000000001
 30
0.0
 11
8.62419791206439
 21
87.13319698015721
 31
0.0
  0
LINE
  5
284
330
1E
100
AcDbEntity
  8
0
100
AcDbLine
 10
7.725519999999999
 20
92.81859999999999
 30
0.0
 11
7.73111
 21
92.90519999999999
 31
0.0
  0
LINE
  5
285
330
1E
100
AcDbEntity
  8
0
100
AcDbLine
 10
7.725519999999999
 20
94.8745
 30
0.0
 11
7.73111
 21
95.03440000000001
 31
0.0
  0
LINE
  5
286
330
1E
100
AcDbEntity
  8
0
100
AcDbLine
 10
7.725519999999999
 20
93.12520000000001
 30
0.0
 11
7.73111
 21
93.3427
 31
0.0
  0
LINE
  5
287
330
1E
100
AcDbEntity
  8
0
100
AcDbLine
 10
7.73111
 20
79.5167
 30
0.0
 11
7.73851
 21
79.7706
 31
0.0
  0
LINE
  5
288
330
1E
100
AcDbEntity
  8
0
100
AcDbLine
 10
7.746879999999999
 20
79.9893
 30
0.0
 11
7.755819999999999
 21
80.1688
 31
0.0
  0
LINE
  5
289
330
1E
100
AcDbEntity
  8
0
100
AcDbLine
 10
7.73851
 20
79.7706
 30
0.0
 11
7.746879999999999
 21
79.9893
 31
0.0
  0
LINE
  5
28A
330
1E
100
AcDbEntity
  8
0
100
AcDbLine
 10
7.78611
 20
79.4684
 30
0.0
 11
7.78946
 21
79.71890000000001
 31
0.0
  0
LINE
  5
28B
330
1E
100
AcDbEntity
  8
0
100
AcDbLine
 10
7.78946
 20
79.71890000000001
 30
0.0
 11
7.790719999999999
 21
79.9472
 31
0.0
  0
LINE
  5
28C
330
1E
100
AcDbEntity
  8
0
100
AcDbLine
 10
7.755819999999999
 20
80.1688
 30
0.0
 11
7.76475
 21
80.29000000000001
 31
0.0
  0
LINE
  5
28D
330
1E
100
AcDbEntity
  8
0
100
AcDbLine
 10
7.76475
 20
80.29000000000001
 30
0.0
 11
7.77313
 21
80.35339999999999
 31
0.0
  0
LINE
  5
28E
330
1E
100
AcDbEntity
  8
0
100
AcDbLine
 10
7.77313
 20
80.35339999999999
 30
0.0
 11
8.649366214840059
 21
80.3353823550216
 31
0.0
  0
LINE
  5
28F
330
1E
100
AcDbEntity
  8
0
100
AcDbLine
 10
7.77313
 20
80.35339999999999
 30
0.0
 11
8.649366214840059
 21
80.3353823550216
 31
0.0
  0
LINE
  5
290
330
1E
100
AcDbEntity
  8
0
100
AcDbLine
 10
7.78053
 20
80.3484
 30
0.0
 11
7.78611
 21
80.27089999999999
 31
0.0
  0
LINE
  5
291
330
1E
100
AcDbEntity
  8
0
100
AcDbLine
 10
7.78611
 20
80.27089999999999
 30
0.0
 11
7.78946
 21
80.1332
 31
0.0
  0
LINE
  5
292
330
1E
100
AcDbEntity
  8
0
100
AcDbLine
 10
8.7498
 20
83.0854
 30
0.0
 11
8.7498
 21
87.4512
 31
0.0
  0
LINE
  5
293
330
1E
100
AcDbEntity
  8
0
100
AcDbLine
 10
8.7498
 20
83.0854
 30
0.0
 11
8.7498
 21
78.2016
 31
0.0
  0
LINE
  5
294
330
1E
100
AcDbEntity
  8
0
100
AcDbLine
 10
8.326397422853331
 20
81.4236299868533
 30
0.0
 11
8.453382295403789
 21
87.13802544254759
 31
0.0
  0
LINE
  5
295
330
1E
100
AcDbEntity
  8
0
100
AcDbLine
 10
7.78946
 20
80.1332
 30
0.0
 11
7.790719999999999
 21
79.9472
 31
0.0
  0
LINE
  5
296
330
1E
100
AcDbEntity
  8
0
100
AcDbLine
 10
8.7498
 20
87.4512
 30
0.0
 11
8.7498
 21
83.0854
 31
0.0
  0
LINE
  5
297
330
1E
100
AcDbEntity
  8
0
100
AcDbLine
 10
8.7498
 20
87.4512
 30
0.0
 11
8.7498
 21
91.2226
 31
0.0
  0
LINE
  5
298
330
1E
100
AcDbEntity
  8
0
100
AcDbLine
 10
7.755819999999999
 20
87.5642
 30
0.0
 11
7.76475
 21
87.7923
 31
0.0
  0
LINE
  5
299
330
1E
100
AcDbEntity
  8
0
100
AcDbLine
 10
7.76475
 20
87.7923
 30
0.0
 11
7.77313
 21
88.0428
 31
0.0
  0
LINE
  5
29A
330
1E
100
AcDbEntity
  8
0
100
AcDbLine
 10
7.746879999999999
 20
87.3783
 30
0.0
 11
7.755819999999999
 21
87.5642
 31
0.0
  0
LINE
  5
29B
330
1E
100
AcDbEntity
  8
0
100
AcDbLine
 10
7.73851
 20
87.24070000000001
 30
0.0
 11
7.746879999999999
 21
87.3783
 31
0.0
  0
LINE
  5
29C
330
1E
100
AcDbEntity
  8
0
100
AcDbLine
 10
7.73111
 20
87.1634
 30
0.0
 11
7.73851
 21
87.24070000000001
 31
0.0
  0
LINE
  5
29D
330
1E
100
AcDbEntity
  8
0
100
AcDbLine
 10
7.73851
 20
93.05719999999999
 30
0.0
 11
7.746879999999999
 21
93.2557
 31
0.0
  0
LINE
  5
29E
330
1E
100
AcDbEntity
  8
0
100
AcDbLine
 10
7.73111
 20
92.90519999999999
 30
0.0
 11
7.73851
 21
93.05719999999999
 31
0.0
  0
LINE
  5
29F
330
1E
100
AcDbEntity
  8
0
100
AcDbLine
 10
7.73111
 20
95.03440000000001
 30
0.0
 11
7.738510000000009
 21
95.2463
 31
0.0
  0
LINE
  5
2A0
330
1E
100
AcDbEntity
  8
0
100
AcDbLine
 10
7.73851
 20
93.5937
 30
0.0
 11
7.746879999999999
 21
93.85150000000001
 31
0.0
  0
LINE
  5
2A1
330
1E
100
AcDbEntity
  8
0
100
AcDbLine
 10
7.73111
 20
93.3427
 30
0.0
 11
7.73851
 21
93.5937
 31
0.0
  0
LINE
  5
2A2
330
1E
100
AcDbEntity
  8
0
100
AcDbLine
 10
7.77313
 20
88.0428
 30
0.0
 11
7.78053
 21
88.30820000000001
 31
0.0
  0
LINE
  5
2A3
330
1E
100
AcDbEntity
  8
0
100
AcDbLine
 10
7.78053
 20
88.30820000000001
 30
0.0
 11
7.78611
 21
88.5622
 31
0.0
  0
LINE
  5
2A4
330
1E
100
AcDbEntity
  8
0
100
AcDbLine
 10
7.755819999999999
 20
88.73969999999999
 30
0.0
 11
7.76475
 21
88.92560000000001
 31
0.0
  0
LINE
  5
2A5
330
1E
100
AcDbEntity
  8
0
100
AcDbLine
 10
7.76475
 20
88.92560000000001
 30
0.0
 11
7.77313
 21
89.06319999999999
 31
0.0
  0
LINE
  5
2A6
330
1E
100
AcDbEntity
  8
0
100
AcDbLine
 10
7.78611
 20
88.5622
 30
0.0
 11
7.78946
 21
88.7809
 31
0.0
  0
LINE
  5
2A7
330
1E
100
AcDbEntity
  8
0
100
AcDbLine
 10
7.77313
 20
89.06319999999999
 30
0.0
 11
7.78053
 21
89.14050000000001
 31
0.0
  0
LINE
  5
2A8
330
1E
100
AcDbEntity
  8
0
100
AcDbLine
 10
7.746879999999999
 20
93.2557
 30
0.0
 11
7.755819999999999
 21
93.48789999999999
 31
0.0
  0
LINE
  5
2A9
330
1E
100
AcDbEntity
  8
0
100
AcDbLine
 10
7.738510000000009
 20
95.2463
 30
0.0
 11
7.746879999999999
 21
95.48619999999999
 31
0.0
  0
LINE
  5
2AA
330
1E
100
AcDbEntity
  8
0
100
AcDbLine
 10
7.755819999999999
 20
93.48789999999999
 30
0.0
 11
7.76475
 21
93.7423
 31
0.0
  0
LINE
  5
2AB
330
1E
100
AcDbEntity
  8
0
100
AcDbLine
 10
7.76475
 20
93.7423
 30
0.0
 11
7.77313
 21
94.00009999999999
 31
0.0
  0
LINE
  5
2AC
330
1E
100
AcDbEntity
  8
0
100
AcDbLine
 10
7.77313
 20
94.00009999999999
 30
0.0
 11
7.78053
 21
94.251
 31
0.0
  0
LINE
  5
2AD
330
1E
100
AcDbEntity
  8
0
100
AcDbLine
 10
7.755819999999999
 20
94.1059
 30
0.0
 11
7.76475
 21
94.33809999999999
 31
0.0
  0
LINE
  5
2AE
330
1E
100
AcDbEntity
  8
0
100
AcDbLine
 10
7.76475
 20
94.33809999999999
 30
0.0
 11
7.77313
 21
94.53660000000001
 31
0.0
  0
LINE
  5
2AF
330
1E
100
AcDbEntity
  8
0
100
AcDbLine
 10
7.78053
 20
94.251
 30
0.0
 11
7.78611
 21
94.46859999999999
 31
0.0
  0
LINE
  5
2B0
330
1E
100
AcDbEntity
  8
0
100
AcDbLine
 10
7.78611
 20
94.46859999999999
 30
0.0
 11
7.78946
 21
94.634
 31
0.0
  0
LINE
  5
2B1
330
1E
100
AcDbEntity
  8
0
100
AcDbLine
 10
7.77313
 20
94.53660000000001
 30
0.0
 11
7.78053
 21
94.68859999999999
 31
0.0
  0
LINE
  5
2B2
330
1E
100
AcDbEntity
  8
0
100
AcDbLine
 10
7.746879999999999
 20
95.48619999999999
 30
0.0
 11
7.755820000000009
 21
95.74200000000001
 31
0.0
  0
LINE
  5
2B3
330
1E
100
AcDbEntity
  8
0
100
AcDbLine
 10
7.76475
 20
95.9978
 30
0.0
 11
7.77313
 21
96.2377
 31
0.0
  0
LINE
  5
2B4
330
1E
100
AcDbEntity
  8
0
100
AcDbLine
 10
7.755820000000009
 20
95.74200000000001
 30
0.0
 11
7.76475
 21
95.9978
 31
0.0
  0
LINE
  5
2B5
330
1E
100
AcDbEntity
  8
0
100
AcDbLine
 10
7.77313
 20
96.2377
 30
0.0
 11
7.780530000000009
 21
96.44960000000001
 31
0.0
  0
LINE
  5
2B6
330
1E
100
AcDbEntity
  8
0
100
AcDbLine
 10
7.780530000000009
 20
96.44960000000001
 30
0.0
 11
7.786110000000009
 21
96.60949999999999
 31
0.0
  0
LINE
  5
2B7
330
1E
100
AcDbEntity
  8
0
100
AcDbLine
 10
7.78053
 20
94.68859999999999
 30
0.0
 11
7.78386780526799
 21
94.74040178068241
 31
0.0
  0
LINE
  5
2B8
330
1E
100
AcDbEntity
  8
0
100
AcDbLine
 10
7.78053
 20
94.68859999999999
 30
0.0
 11
7.78611
 21
94.7752
 31
0.0
  0
LINE
  5
2B9
330
1E
100
AcDbEntity
  8
0
100
AcDbLine
 10
7.746879999999999
 20
93.85150000000001
 30
0.0
 11
7.755819999999999
 21
94.1059
 31
0.0
  0
LINE
  5
2BA
330
1E
100
AcDbEntity
  8
0
100
AcDbLine
 10
7.78946
 20
88.7809
 30
0.0
 11
7.790719999999999
 21
88.9605
 31
0.0
  0
LINE
  5
2BB
330
1E
100
AcDbEntity
  8
0
100
AcDbLine
 10
7.78946
 20
89.08179999999999
 30
0.0
 11
7.790719999999999
 21
88.9605
 31
0.0
  0
LINE
  5
2BC
330
1E
100
AcDbEntity
  8
0
100
AcDbLine
 10
8.7498
 20
94.47869999999999
 30
0.0
 11
8.7498
 21
96.995
 31
0.0
  0
LINE
  5
2BD
330
1E
100
AcDbEntity
  8
0
100
AcDbLine
 10
8.7498
 20
94.47869999999999
 30
0.0
 11
8.7498
 21
91.2226
 31
0.0
  0
LINE
  5
2BE
330
1E
100
AcDbEntity
  8
0
100
AcDbLine
 10
8.7498
 20
91.2226
 30
0.0
 11
8.7498
 21
94.47869999999999
 31
0.0
  0
LINE
  5
2BF
330
1E
100
AcDbEntity
  8
0
100
AcDbLine
 10
8.7498
 20
91.2226
 30
0.0
 11
8.7498
 21
87.4512
 31
0.0
  0
LINE
  5
2C0
330
1E
100
AcDbEntity
  8
0
100
AcDbLine
 10
8.497540914775388
 20
89.1251898094414
 30
0.0
 11
8.57860337593687
 21
92.7730491991844
 31
0.0
  0
LINE
  5
2C1
330
1E
100
AcDbEntity
  8
0
100
AcDbLine
 10
7.78946
 20
94.634
 30
0.0
 11
7.790719999999999
 21
94.7474
 31
0.0
  0
LINE
  5
2C2
330
1E
100
AcDbEntity
  8
0
100
AcDbLine
 10
8.665757854500849
 20
96.6950530272507
 30
0.0
 11
8.7498
 21
100.477
 31
0.0
  0
LINE
  5
2C3
330
1E
100
AcDbEntity
  8
0
100
AcDbLine
 10
8.665757854500849
 20
96.6950530272507
 30
0.0
 11
8.7498
 21
100.477
 31
0.0
  0
LINE
  5
2C4
330
1E
100
AcDbEntity
  8
0
100
AcDbLine
 10
7.78946
 20
94.79229999999999
 30
0.0
 11
8.65462506002045
 21
94.76355898798999
 31
0.0
  0
LINE
  5
2C5
330
1E
100
AcDbEntity
  8
0
100
AcDbLine
 10
7.786110000000009
 20
96.60949999999999
 30
0.0
 11
7.789460000000009
 21
96.7054
 31
0.0
  0
LINE
  5
2C6
330
1E
100
AcDbEntity
  8
0
100
AcDbLine
 10
8.7498
 20
96.995
 30
0.0
 11
8.7498
 21
98.90700000000002
 31
0.0
  0
LINE
  5
2C7
330
1E
100
AcDbEntity
  8
0
100
AcDbLine
 10
8.7498
 20
98.90700000000002
 30
0.0
 11
8.7498
 21
100.058
 31
0.0
  0
LINE
  5
2C8
330
1E
100
AcDbEntity
  8
0
100
AcDbLine
 10
8.7498
 20
98.90700000000002
 30
0.0
 11
8.7498
 21
96.995
 31
0.0
  0
LINE
  5
2C9
330
1E
100
AcDbEntity
  8
0
100
AcDbLine
 10
8.7498
 20
100.058
 30
0.0
 11
8.7498
 21
100.477
 31
0.0
  0
LINE
  5
2CA
330
1E
100
AcDbEntity
  8
0
100
AcDbLine
 10
8.7498
 20
100.058
 30
0.0
 11
8.7498
 21
98.90700000000002
 31
0.0
  0
LINE
  5
2CB
330
1E
100
AcDbEntity
  8
0
100
AcDbLine
 10
8.7498
 20
100.477
 30
0.0
 11
9.2498
 21
101.0
 31
0.0
  0
LINE
  5
2CC
330
1E
100
AcDbEntity
  8
0
100
AcDbLine
 10
8.7498
 20
100.477
 30
0.0
 11
8.7498
 21
100.058
 31
0.0
  0
LINE
  5
2CD
330
1E
100
AcDbEntity
  8
0
100
AcDbLine
 10
7.790720000000009
 20
96.74140000000001
 30
0.0
 11
8.66610845578444
 21
96.71083029537332
 31
0.0
  0
LINE
  5
2CE
330
1E
100
AcDbEntity
  8
0
100
AcDbLine
 10
7.78611
 20
89.1453
 30
0.0
 11
8.497540914775388
 21
89.1251898094414
 31
0.0
  0
LINE
  5
2CF
330
1E
100
AcDbEntity
  8
0
100
AcDbLine
 10
7.78611
 20
89.1453
 30
0.0
 11
8.497540914775388
 21
89.1251898094414
 31
0.0
  0
LINE
  5
2D0
330
1E
100
AcDbEntity
  8
0
100
AcDbLine
 10
7.78611
 20
89.1453
 30
0.0
 11
7.78946
 21
89.08179999999999
 31
0.0
  0
LINE
  5
2D1
330
1E
100
AcDbEntity
  8
0
100
AcDbLine
 10
7.78611
 20
89.1453
 30
0.0
 11
8.685217118794959
 21
89.11988472057359
 31
0.0
  0
LINE
  5
2D2
330
1E
100
AcDbEntity
  8
0
100
AcDbLine
 10
7.746879999999999
 20
88.5116
 30
0.0
 11
7.755819999999999
 21
88.73969999999999
 31
0.0
  0
LINE
  5
2D3
330
1E
100
AcDbEntity
  8
0
100
AcDbLine
 10
7.73851
 20
88.26109999999999
 30
0.0
 11
7.746879999999999
 21
88.5116
 31
0.0
  0
LINE
  5
2D4
330
1E
100
AcDbEntity
  8
0
100
AcDbLine
 10
7.73111
 20
87.99570000000001
 30
0.0
 11
7.73851
 21
88.26109999999999
 31
0.0
  0
LINE
  5
2D5
330
1E
100
AcDbEntity
  8
0
100
AcDbLine
 10
7.725519999999999
 20
87.74169999999999
 30
0.0
 11
7.73111
 21
87.99570000000001
 31
0.0
  0
LINE
  5
2D6
330
1E
100
AcDbEntity
  8
0
100
AcDbLine
 10
7.725519999999999
 20
79.25119999999999
 30
0.0
 11
7.7297147726641
 21
79.45043294138049
 31
0.0
  0
LINE
  5
2D7
330
1E
100
AcDbEntity
  8
0
100
AcDbLine
 10
7.725519999999999
 20
79.25119999999999
 30
0.0
 11
7.73111
 21
79.5167
 31
0.0
  0
LINE
  5
2D8
330
1E
100
AcDbEntity
  8
0
100
AcDbLine
 10
7.722169999999999
 20
79.0006
 30
0.0
 11
7.725519999999999
 21
79.25119999999999
 31
0.0
  0
LINE
  5
2D9
330
1E
100
AcDbEntity
  8
0
100
AcDbLine
 10
7.720919999999999
 20
78.7723
 30
0.0
 11
7.722169999999999
 21
78.5864
 31
0.0
  0
LINE
  5
2DA
330
1E
100
AcDbEntity
  8
0
100
AcDbLine
 10
7.720919999999999
 20
78.7723
 30
0.0
 11
7.722169999999999
 21
79.0006
 31
0.0
  0
LINE
  5
2DB
330
1E
100
AcDbEntity
  8
0
100
AcDbLine
 10
9.2498
 20
73.16970000000001
 30
0.0
 11
9.2498
 21
78.4975
 31
0.0
  0
LINE
  5
2DC
330
1E
100
AcDbEntity
  8
0
100
AcDbLine
 10
9.2498
 20
94.92279999999999
 30
0.0
 11
9.2498
 21
91.6666
 31
0.0
  0
LINE
  5
2DD
330
1E
100
AcDbEntity
  8
0
100
AcDbLine
 10
9.2498
 20
94.92279999999999
 30
0.0
 11
9.2498
 21
97.439
 31
0.0
  0
LINE
  5
2DE
330
1E
100
AcDbEntity
  8
0
100
AcDbLine
 10
9.2498
 20
91.6666
 30
0.0
 11
9.2498
 21
87.81969999999999
 31
0.0
  0
LINE
  5
2DF
330
1E
100
AcDbEntity
  8
0
100
AcDbLine
 10
9.2498
 20
91.6666
 30
0.0
 11
9.2498
 21
94.92279999999999
 31
0.0
  0
LINE
  5
2E0
330
1E
100
AcDbEntity
  8
0
100
AcDbLine
 10
9.2498
 20
87.81969999999999
 30
0.0
 11
9.2498
 21
83.3814
 31
0.0
  0
LINE
  5
2E1
330
1E
100
AcDbEntity
  8
0
100
AcDbLine
 10
9.2498
 20
87.81969999999999
 30
0.0
 11
9.2498
 21
91.6666
 31
0.0
  0
LINE
  5
2E2
330
1E
100
AcDbEntity
  8
0
100
AcDbLine
 10
9.2498
 20
97.439
 30
0.0
 11
9.2498
 21
99.4302
 31
0.0
  0
LINE
  5
2E3
330
1E
100
AcDbEntity
  8
0
100
AcDbLine
 10
9.2498
 20
100.581
 30
0.0
 11
9.2498
 21
99.4302
 31
0.0
  0
LINE
  5
2E4
330
1E
100
AcDbEntity
  8
0
100
AcDbLine
 10
9.2498
 20
100.581
 30
0.0
 11
9.2498
 21
103.092
 31
0.0
  0
LINE
  5
2E5
330
1E
100
AcDbEntity
  8
0
100
AcDbLine
 10
9.2498
 20
100.581
 30
0.0
 11
9.2498
 21
101.0
 31
0.0
  0
LINE
  5
2E6
330
1E
100
AcDbEntity
  8
0
100
AcDbLine
 10
9.2498
 20
99.4302
 30
0.0
 11
9.2498
 21
97.439
 31
0.0
  0
LINE
  5
2E7
330
1E
100
AcDbEntity
  8
0
100
AcDbLine
 10
9.2498
 20
99.4302
 30
0.0
 11
9.2498
 21
100.581
 31
0.0
  0
LINE
  5
2E8
330
1E
100
AcDbEntity
  8
0
100
AcDbLine
 10
9.2498
 20
83.3814
 30
0.0
 11
9.2498
 21
78.4975
 31
0.0
  0
LINE
  5
2E9
330
1E
100
AcDbEntity
  8
0
100
AcDbLine
 10
9.2498
 20
83.3814
 30
0.0
 11
9.2498
 21
87.81969999999999
 31
0.0
  0
LINE
  5
2EA
330
1E
100
AcDbEntity
  8
0
100
AcDbLine
 10
9.2498
 20
78.4975
 30
0.0
 11
9.2498
 21
73.16970000000001
 31
0.0
  0
LINE
  5
2EB
330
1E
100
AcDbEntity
  8
0
100
AcDbLine
 10
9.2498
 20
78.4975
 30
0.0
 11
9.2498
 21
83.3814
 31
0.0
  0
LINE
  5
2EC
330
1E
100
AcDbEntity
  8
0
100
AcDbLine
 10
9.2498
 20
67.6163
 30
0.0
 11
9.2498
 21
61.8605
 31
0.0
  0
LINE
  5
2ED
330
1E
100
AcDbEntity
  8
0
100
AcDbLine
 10
9.2498
 20
67.6163
 30
0.0
 11
9.2498
 21
73.16970000000001
 31
0.0
  0
LINE
  5
2EE
330
1E
100
AcDbEntity
  8
0
100
AcDbLine
 10
9.2498
 20
61.8605
 30
0.0
 11
9.2498
 21
56.0
 31
0.0
  0
LINE
  5
2EF
330
1E
100
AcDbEntity
  8
0
100
AcDbLine
 10
9.2498
 20
61.8605
 30
0.0
 11
9.2498
 21
67.6163
 31
0.0
  0
LINE
  5
2F0
330
1E
100
AcDbEntity
  8
0
100
AcDbLine
 10
9.2498
 20
101.0
 30
0.0
 11
9.2498
 21
103.092
 31
0.0
  0
LINE
  5
2F1
330
1E
100
AcDbEntity
  8
0
100
AcDbLine
 10
9.2498
 20
101.0
 30
0.0
 11
9.2498
 21
100.581
 31
0.0
  0
LINE
  5
2F2
330
1E
100
AcDbEntity
  8
0
100
AcDbLine
 10
9.2498
 20
103.092
 30
0.0
 11
9.2619
 21
103.4939999999999
 31
0.0
  0
LINE
  5
2F3
330
1E
100
AcDbEntity
  8
0
100
AcDbLine
 10
9.2498
 20
103.092
 30
0.0
 11
9.2498
 21
101.0
 31
0.0
  0
LINE
  5
2F4
330
1E
100
AcDbEntity
  8
0
100
AcDbLine
 10
9.2498
 20
103.092
 30
0.0
 11
9.2498
 21
100.581
 31
0.0
  0
LINE
  5
31F
330
1E
100
AcDbEntity
  8
0
100
AcDbLine
 10
22.7502
 20
77.39699999999999
 30
0.0
 11
22.7502
 21
70.4597
 31
0.0
  0
LINE
  5
320
330
1E
100
AcDbEntity
  8
0
100
AcDbLine
 10
22.7502
 20
77.39699999999999
 30
0.0
 11
22.7502
 21
83.95709999999999
 31
0.0
  0
LINE
  5
321
330
1E
100
AcDbEntity
  8
0
100
AcDbLine
 10
22.7502
 20
70.4597
 30
0.0
 11
22.7502
 21
63.2716
 31
0.0
  0
LINE
  5
322
330
1E
100
AcDbEntity
  8
0
100
AcDbLine
 10
22.7502
 20
70.4597
 30
0.0
 11
22.7502
 21
77.39699999999999
 31
0.0
  0
LINE
  5
323
330
1E
100
AcDbEntity
  8
0
100
AcDbLine
 10
22.7502
 20
63.2716
 30
0.0
 11
22.7502
 21
56.0
 31
0.0
  0
LINE
  5
324
330
1E
100
AcDbEntity
  8
0
100
AcDbLine
 10
22.7502
 20
63.2716
 30
0.0
 11
22.7502
 21
70.4597
 31
0.0
  0
LINE
  5
325
330
1E
100
AcDbEntity
  8
0
100
AcDbLine
 10
10.2611
 20
104.9109999999999
 30
0.0
 11
12.7589
 21
105.266
 31
0.0
  0
LINE
  5
326
330
1E
100
AcDbEntity
  8
0
100
AcDbLine
 10
12.7589
 20
105.266
 30
0.0
 11
16.2559
 21
106.3289999999999
 31
0.0
  0
LINE
  5
327
330
1E
100
AcDbEntity
  8
0
100
AcDbLine
 10
16.2559
 20
106.3289999999999
 30
0.0
 11
19.7528
 21
108.4559999999999
 31
0.0
  0
LINE
  5
328
330
1E
100
AcDbEntity
  8
0
100
AcDbLine
 10
19.7528
 20
108.4559999999999
 30
0.0
 11
21.7511
 21
110.3279999999999
 31
0.0
  0
LINE
  5
329
330
1E
100
AcDbEntity
  8
0
100
AcDbLine
 10
21.7511
 20
110.3279999999999
 30
0.0
 11
22.2507
 21
111.582
 31
0.0
  0
LINE
  5
32A
330
1E
100
AcDbEntity
  8
0
100
AcDbLine
 10
22.2507
 20
111.582
 30
0.0
 11
22.7502
 21
112.0
 31
0.0
  0
LINE
  5
32B
330
1E
100
AcDbEntity
  8
0
100
AcDbLine
 10
9.511699999999999
 20
104.202
 30
0.0
 11
10.2611
 21
104.9109999999999
 31
0.0
  0
LINE
  5
32C
330
1E
100
AcDbEntity
  8
0
100
AcDbLine
 10
9.2619
 20
103.4939999999999
 30
0.0
 11
9.511699999999999
 21
104.202
 31
0.0
  0
LINE
  5
32D
330
1E
100
AcDbEntity
  8
0
100
AcDbLine
 10
9.2498
 20
56.0
 30
0.0
 11
9.2498
 21
50.1395
 31
0.0
  0
LINE
  5
32E
330
1E
100
AcDbEntity
  8
0
100
AcDbLine
 10
9.2498
 20
56.0
 30
0.0
 11
9.2498
 21
61.8605
 31
0.0
  0
LINE
  5
32F
330
1E
100
AcDbEntity
  8
0
100
AcDbLine
 10
22.7502
 20
83.95709999999999
 30
0.0
 11
22.7502
 21
90.0444
 31
0.0
  0
LINE
  5
330
330
1E
100
AcDbEntity
  8
0
100
AcDbLine
 10
22.7502
 20
90.0444
 30
0.0
 11
22.7502
 21
83.95709999999999
 31
0.0
  0
LINE
  5
331
330
1E
100
AcDbEntity
  8
0
100
AcDbLine
 10
22.7502
 20
90.0444
 30
0.0
 11
22.7502
 21
95.59780000000001
 31
0.0
  0
LINE
  5
332
330
1E
100
AcDbEntity
  8
0
100
AcDbLine
 10
22.7502
 20
104.403
 30
0.0
 11
22.7502
 21
100.3249999999999
 31
0.0
  0
LINE
  5
333
330
1E
100
AcDbEntity
  8
0
100
AcDbLine
 10
22.7502
 20
104.403
 30
0.0
 11
22.7502
 21
107.654
 31
0.0
  0
LINE
  5
334
330
1E
100
AcDbEntity
  8
0
100
AcDbLine
 10
22.7502
 20
100.3249999999999
 30
0.0
 11
22.7502
 21
95.59780000000001
 31
0.0
  0
LINE
  5
335
330
1E
100
AcDbEntity
  8
0
100
AcDbLine
 10
22.7502
 20
100.3249999999999
 30
0.0
 11
22.7502
 21
104.403
 31
0.0
  0
LINE
  5
336
330
1E
100
AcDbEntity
  8
0
100
AcDbLine
 10
22.7502
 20
107.654
 30
0.0
 11
22.7502
 21
109.9939999999999
 31
0.0
  0
LINE
  5
337
330
1E
100
AcDbEntity
  8
0
100
AcDbLine
 10
22.7502
 20
107.654
 30
0.0
 11
22.7502
 21
104.403
 31
0.0
  0
LINE
  5
338
330
1E
100
AcDbEntity
  8
0
100
AcDbLine
 10
22.7502
 20
109.9939999999999
 30
0.0
 11
22.7502
 21
107.654
 31
0.0
  0
LINE
  5
339
330
1E
100
AcDbEntity
  8
0
100
AcDbLine
 10
22.7502
 20
109.9939999999999
 30
0.0
 11
22.7502
 21
111.415
 31
0.0
  0
LINE
  5
33A
330
1E
100
AcDbEntity
  8
0
100
AcDbLine
 10
22.7502
 20
111.415
 30
0.0
 11
22.7502
 21
109.9939999999999
 31
0.0
  0
LINE
  5
33B
330
1E
100
AcDbEntity
  8
0
100
AcDbLine
 10
22.7502
 20
111.415
 30
0.0
 11
22.7502
 21
112.0
 31
0.0
  0
LINE
  5
33C
330
1E
100
AcDbEntity
  8
0
100
AcDbLine
 10
22.7502
 20
95.59780000000001
 30
0.0
 11
22.7502
 21
90.0444
 31
0.0
  0
LINE
  5
33D
330
1E
100
AcDbEntity
  8
0
100
AcDbLine
 10
22.7502
 20
95.59780000000001
 30
0.0
 11
22.7502
 21
100.3249999999999
 31
0.0
  0
LINE
  5
33E
330
1E
100
AcDbEntity
  8
0
100
AcDbLine
 10
23.0
 20
77.39699999999999
 30
0.0
 11
23.0
 21
70.4597
 31
0.0
  0
LINE
  5
33F
330
1E
100
AcDbEntity
  8
0
100
AcDbLine
 10
23.0
 20
77.39699999999999
 30
0.0
 11
23.0
 21
83.95709999999999
 31
0.0
  0
LINE
  5
340
330
1E
100
AcDbEntity
  8
0
100
AcDbLine
 10
23.0
 20
70.4597
 30
0.0
 11
23.0
 21
63.2716
 31
0.0
  0
LINE
  5
341
330
1E
100
AcDbEntity
  8
0
100
AcDbLine
 10
23.0
 20
70.4597
 30
0.0
 11
23.0
 21
77.39699999999999
 31
0.0
  0
LINE
  5
342
330
1E
100
AcDbEntity
  8
0
100
AcDbLine
 10
23.0
 20
63.2716
 30
0.0
 11
23.0
 21
56.0
 31
0.0
  0
LINE
  5
343
330
1E
100
AcDbEntity
  8
0
100
AcDbLine
 10
23.0
 20
63.2716
 30
0.0
 11
23.0
 21
70.4597
 31
0.0
  0
LINE
  5
344
330
1E
100
AcDbEntity
  8
0
100
AcDbLine
 10
22.7502
 20
112.0
 30
0.0
 11
23.0
 21
112.0
 31
0.0
  0
LINE
  5
345
330
1E
100
AcDbEntity
  8
0
100
AcDbLine
 10
22.7502
 20
112.0
 30
0.0
 11
22.7502
 21
111.415
 31
0.0
  0
LINE
  5
346
330
1E
100
AcDbEntity
  8
0
100
AcDbLine
 10
22.7502
 20
56.0
 30
0.0
 11
22.7502
 21
48.7284
 31
0.0
  0
LINE
  5
347
330
1E
100
AcDbEntity
  8
0
100
AcDbLine
 10
22.7502
 20
56.0
 30
0.0
 11
22.7502
 21
63.2716
 31
0.0
  0
LINE
  5
348
330
1E
100
AcDbEntity
  8
0
100
AcDbLine
 10
23.0
 20
48.7284
 30
0.0
 11
23.0
 21
41.5403
 31
0.0
  0
LINE
  5
349
330
1E
100
AcDbEntity
  8
0
100
AcDbLine
 10
23.0
 20
48.7284
 30
0.0
 11
23.0
 21
56.0
 31
0.0
  0
LINE
  5
34A
330
1E
100
AcDbEntity
  8
0
100
AcDbLine
 10
30.0
 20
18.0042
 30
0.0
 11
30.0
 21
22.0968
 31
0.0
  0
LINE
  5
34B
330
1E
100
AcDbEntity
  8
0
100
AcDbLine
 10
30.0
 20
18.0042
 30
0.0
 11
30.0
 21
14.4168
 31
0.0
  0
LINE
  5
34C
330
1E
100
AcDbEntity
  8
0
100
AcDbLine
 10
30.0
 20
14.4168
 30
0.0
 11
30.0
 21
18.0042
 31
0.0
  0
LINE
  5
34D
330
1E
100
AcDbEntity
  8
0
100
AcDbLine
 10
30.0
 20
14.4168
 30
0.0
 11
30.0
 21
11.73889999999999
 31
0.0
  0
LINE
  5
34E
330
1E
100
AcDbEntity
  8
0
100
AcDbLine
 10
30.0
 20
11.73889999999999
 30
0.0
 11
30.0
 21
14.4168
 31
0.0
  0
LINE
  5
34F
330
1E
100
AcDbEntity
  8
0
100
AcDbLine
 10
30.0
 20
11.73889999999999
 30
0.0
 11
30.0
 21
9.7179
 31
0.0
  0
LINE
  5
350
330
1E
100
AcDbEntity
  8
0
100
AcDbLine
 10
30.0
 20
9.7179
 30
0.0
 11
30.0
 21
11.73889999999999
 31
0.0
  0
LINE
  5
351
330
1E
100
AcDbEntity
  8
0
100
AcDbLine
 10
30.0
 20
9.7179
 30
0.0
 11
30.0
 21
8.505259999999999
 31
0.0
  0
LINE
  5
352
330
1E
100
AcDbEntity
  8
0
100
AcDbLine
 10
30.0
 20
8.505259999999999
 30
0.0
 11
30.0
 21
9.7179
 31
0.0
  0
LINE
  5
353
330
1E
100
AcDbEntity
  8
0
100
AcDbLine
 10
30.0
 20
8.505259999999999
 30
0.0
 11
30.0
 21
8.0
 31
0.0
  0
LINE
  5
354
330
1E
100
AcDbEntity
  8
0
100
AcDbLine
 10
30.0
 20
8.0
 30
0.0
 11
30.0
 21
8.505259999999999
 31
0.0
  0
LINE
  5
355
330
1E
100
AcDbEntity
  8
0
100
AcDbLine
 10
30.0
 20
22.0968
 30
0.0
 11
30.0
 21
26.7958
 31
0.0
  0
LINE
  5
356
330
1E
100
AcDbEntity
  8
0
100
AcDbLine
 10
30.0
 20
22.0968
 30
0.0
 11
30.0
 21
18.0042
 31
0.0
  0
LINE
  5
357
330
1E
100
AcDbEntity
  8
0
100
AcDbLine
 10
30.0
 20
26.7958
 30
0.0
 11
30.0
 21
32.1011
 31
0.0
  0
LINE
  5
358
330
1E
100
AcDbEntity
  8
0
100
AcDbLine
 10
30.0
 20
26.7958
 30
0.0
 11
30.0
 21
22.0968
 31
0.0
  0
LINE
  5
359
330
1E
100
AcDbEntity
  8
0
100
AcDbLine
 10
30.0
 20
32.1011
 30
0.0
 11
30.0
 21
37.6589
 31
0.0
  0
LINE
  5
35A
330
1E
100
AcDbEntity
  8
0
100
AcDbLine
 10
30.0
 20
32.1011
 30
0.0
 11
30.0
 21
26.7958
 31
0.0
  0
LINE
  5
35B
330
1E
100
AcDbEntity
  8
0
100
AcDbLine
 10
30.0
 20
37.6589
 30
0.0
 11
30.0
 21
43.6211
 31
0.0
  0
LINE
  5
35C
330
1E
100
AcDbEntity
  8
0
100
AcDbLine
 10
30.0
 20
37.6589
 30
0.0
 11
30.0
 21
32.1011
 31
0.0
  0
LINE
  5
35D
330
1E
100
AcDbEntity
  8
0
100
AcDbLine
 10
30.0
 20
43.6211
 30
0.0
 11
30.0
 21
49.73469999999999
 31
0.0
  0
LINE
  5
35E
330
1E
100
AcDbEntity
  8
0
100
AcDbLine
 10
30.0
 20
43.6211
 30
0.0
 11
30.0
 21
37.6589
 31
0.0
  0
LINE
  5
35F
330
1E
100
AcDbEntity
  8
0
100
AcDbLine
 10
23.0
 20
83.95709999999999
 30
0.0
 11
23.0
 21
90.0444
 31
0.0
  0
LINE
  5
360
330
1E
100
AcDbEntity
  8
0
100
AcDbLine
 10
23.0
 20
90.0444
 30
0.0
 11
23.0
 21
83.95709999999999
 31
0.0
  0
LINE
  5
361
330
1E
100
AcDbEntity
  8
0
100
AcDbLine
 10
23.0
 20
90.0444
 30
0.0
 11
23.0
 21
95.59969999999999
 31
0.0
  0
LINE
  5
362
330
1E
100
AcDbEntity
  8
0
100
AcDbLine
 10
23.0
 20
104.403
 30
0.0
 11
23.0
 21
100.3249999999999
 31
0.0
  0
LINE
  5
363
330
1E
100
AcDbEntity
  8
0
100
AcDbLine
 10
23.0
 20
104.403
 30
0.0
 11
23.0
 21
107.654
 31
0.0
  0
LINE
  5
364
330
1E
100
AcDbEntity
  8
0
100
AcDbLine
 10
23.0
 20
100.3249999999999
 30
0.0
 11
23.0
 21
95.59969999999999
 31
0.0
  0
LINE
  5
365
330
1E
100
AcDbEntity
  8
0
100
AcDbLine
 10
23.0
 20
100.3249999999999
 30
0.0
 11
23.0
 21
104.403
 31
0.0
  0
LINE
  5
366
330
1E
100
AcDbEntity
  8
0
100
AcDbLine
 10
23.0
 20
107.654
 30
0.0
 11
23.0
 21
109.9939999999999
 31
0.0
  0
LINE
  5
367
330
1E
100
AcDbEntity
  8
0
100
AcDbLine
 10
23.0
 20
107.654
 30
0.0
 11
23.0
 21
104.403
 31
0.0
  0
LINE
  5
368
330
1E
100
AcDbEntity
  8
0
100
AcDbLine
 10
23.0
 20
109.9939999999999
 30
0.0
 11
23.0
 21
107.654
 31
0.0
  0
LINE
  5
369
330
1E
100
AcDbEntity
  8
0
100
AcDbLine
 10
23.0
 20
109.9939999999999
 30
0.0
 11
23.0
 21
111.415
 31
0.0
  0
LINE
  5
36A
330
1E
100
AcDbEntity
  8
0
100
AcDbLine
 10
23.0
 20
111.415
 30
0.0
 11
23.0
 21
109.9939999999999
 31
0.0
  0
LINE
  5
36B
330
1E
100
AcDbEntity
  8
0
100
AcDbLine
 10
23.0
 20
111.415
 30
0.0
 11
23.0
 21
112.0
 31
0.0
  0
LINE
  5
36C
330
1E
100
AcDbEntity
  8
0
100
AcDbLine
 10
23.0
 20
112.0
 30
0.0
 11
23.0
 21
111.415
 31
0.0
  0
LINE
  5
36D
330
1E
100
AcDbEntity
  8
0
100
AcDbLine
 10
23.0
 20
95.59969999999999
 30
0.0
 11
23.0
 21
90.0444
 31
0.0
  0
LINE
  5
36E
330
1E
100
AcDbEntity
  8
0
100
AcDbLine
 10
23.0
 20
95.59969999999999
 30
0.0
 11
23.0
 21
100.3249999999999
 31
0.0
  0
LINE
  5
36F
330
1E
100
AcDbEntity
  8
0
100
AcDbLine
 10
30.0
 20
93.9958
 30
0.0
 11
30.0
 21
97.58320000000001
 31
0.0
  0
LINE
  5
370
330
1E
100
AcDbEntity
  8
0
100
AcDbLine
 10
30.0
 20
93.9958
 30
0.0
 11
30.0
 21
89.9032
 31
0.0
  0
LINE
  5
371
330
1E
100
AcDbEntity
  8
0
100
AcDbLine
 10
30.0
 20
97.58320000000001
 30
0.0
 11
30.0
 21
100.261
 31
0.0
  0
LINE
  5
372
330
1E
100
AcDbEntity
  8
0
100
AcDbLine
 10
30.0
 20
97.58320000000001
 30
0.0
 11
30.0
 21
93.9958
 31
0.0
  0
LINE
  5
373
330
1E
100
AcDbEntity
  8
0
100
AcDbLine
 10
30.0
 20
100.261
 30
0.0
 11
30.0
 21
102.282
 31
0.0
  0
LINE
  5
374
330
1E
100
AcDbEntity
  8
0
100
AcDbLine
 10
30.0
 20
100.261
 30
0.0
 11
30.0
 21
97.58320000000001
 31
0.0
  0
LINE
  5
375
330
1E
100
AcDbEntity
  8
0
100
AcDbLine
 10
30.0
 20
104.0
 30
0.0
 11
30.0
 21
103.495
 31
0.0
  0
LINE
  5
376
330
1E
100
AcDbEntity
  8
0
100
AcDbLine
 10
30.0
 20
102.282
 30
0.0
 11
30.0
 21
103.495
 31
0.0
  0
LINE
  5
377
330
1E
100
AcDbEntity
  8
0
100
AcDbLine
 10
30.0
 20
102.282
 30
0.0
 11
30.0
 21
100.261
 31
0.0
  0
LINE
  5
378
330
1E
100
AcDbEntity
  8
0
100
AcDbLine
 10
30.0
 20
103.495
 30
0.0
 11
30.0
 21
104.0
 31
0.0
  0
LINE
  5
379
330
1E
100
AcDbEntity
  8
0
100
AcDbLine
 10
30.0
 20
103.495
 30
0.0
 11
30.0
 21
102.282
 31
0.0
  0
LINE
  5
37A
330
1E
100
AcDbEntity
  8
0
100
AcDbLine
 10
30.0
 20
89.9032
 30
0.0
 11
30.0
 21
85.20419999999999
 31
0.0
  0
LINE
  5
37B
330
1E
100
AcDbEntity
  8
0
100
AcDbLine
 10
30.0
 20
89.9032
 30
0.0
 11
30.0
 21
93.9958
 31
0.0
  0
LINE
  5
37C
330
1E
100
AcDbEntity
  8
0
100
AcDbLine
 10
30.0
 20
85.20419999999999
 30
0.0
 11
30.0
 21
89.9032
 31
0.0
  0
LINE
  5
37D
330
1E
100
AcDbEntity
  8
0
100
AcDbLine
 10
30.0
 20
85.20419999999999
 30
0.0
 11
30.0
 21
79.89889999999999
 31
0.0
  0
LINE
  5
37E
330
1E
100
AcDbEntity
  8
0
100
AcDbLine
 10
30.0
 20
79.89889999999999
 30
0.0
 11
30.0
 21
85.20419999999999
 31
0.0
  0
LINE
  5
37F
330
1E
100
AcDbEntity
  8
0
100
AcDbLine
 10
30.0
 20
79.89889999999999
 30
0.0
 11
30.0
 21
74.3411
 31
0.0
  0
LINE
  5
380
330
1E
100
AcDbEntity
  8
0
100
AcDbLine
 10
30.0
 20
74.3411
 30
0.0
 11
30.0
 21
79.89889999999999
 31
0.0
  0
LINE
  5
381
330
1E
100
AcDbEntity
  8
0
100
AcDbLine
 10
30.0
 20
74.3411
 30
0.0
 11
30.0
 21
68.3789
 31
0.0
  0
LINE
  5
382
330
1E
100
AcDbEntity
  8
0
100
AcDbLine
 10
30.0
 20
68.3789
 30
0.0
 11
30.0
 21
74.3411
 31
0.0
  0
LINE
  5
383
330
1E
100
AcDbEntity
  8
0
100
AcDbLine
 10
30.0
 20
68.3789
 30
0.0
 11
30.0
 21
62.2653
 31
0.0
  0
LINE
  5
384
330
1E
100
AcDbEntity
  8
0
100
AcDbLine
 10
30.0
 20
62.2653
 30
0.0
 11
30.0
 21
68.3789
 31
0.0
  0
LINE
  5
385
330
1E
100
AcDbEntity
  8
0
100
AcDbLine
 10
30.0
 20
62.2653
 30
0.0
 11
30.0
 21
56.0
 31
0.0
  0
LINE
  5
386
330
1E
100
AcDbEntity
  8
0
100
AcDbLine
 10
30.0
 20
56.0
 30
0.0
 11
30.0
 21
62.2653
 31
0.0
  0
LINE
  5
387
330
1E
100
AcDbEntity
  8
0
100
AcDbLine
 10
23.0
 20
104.0
 30
0.0
 11
30.0
 21
104.0
 31
0.0
  0
LINE
  5
388
330
1E
100
AcDbEntity
  8
0
100
AcDbLine
 10
30.0
 20
49.73469999999999
 30
0.0
 11
30.0
 21
56.0
 31
0.0
  0
LINE
  5
389
330
1E
100
AcDbEntity
  8
0
100
AcDbLine
 10
30.0
 20
49.73469999999999
 30
0.0
 11
30.0
 21
43.6211
 31
0.0
  0
LINE
  5
38A
330
1E
100
AcDbEntity
  8
0
100
AcDbLine
 10
23.0
 20
56.0
 30
0.0
 11
23.0
 21
48.7284
 31
0.0
  0
LINE
  5
38B
330
1E
100
AcDbEntity
  8
0
100
AcDbLine
 10
23.0
 20
56.0
 30
0.0
 11
23.0
 21
79.89889999999999
 31
0.0
  0
LINE
  5
38C
330
1E
100
AcDbEntity
  8
0
100
AcDbLine
 10
23.0
 20
56.0
 30
0.0
 11
23.0
 21
63.2716
 31
0.0
  0
ENDSEC
  0
SECTION
  2
OBJECTS
  0
DICTIONARY
  5
C
330
0
100
AcDbDictionary
281
     1
  3
ACAD_GROUP
350
D
  3
ACAD_LAYOUT
350
19
  3
ACAD_MLINESTYLE
350
16
  3
ACAD_PLOTSETTINGS
350
18
  3
ACAD_PLOTSTYLENAME
350
E
  3
AcDbVariableDictionary
350
391
  0
DICTIONARY
  5
D
102
{ACAD_REACTORS
330
C
102
}
330
C
100
AcDbDictionary
281
     1
  0
DICTIONARY
  5
19
102
{ACAD_REACTORS
330
C
102
}
330
C
100
AcDbDictionary
281
     1
  3
Layout1
350
1D
  3
Model
350
21
  0
DICTIONARY
  5
16
102
{ACAD_REACTORS
330
C
102
}
330
C
100
AcDbDictionary
281
     1
  3
Standard
350
17
  0
DICTIONARY
  5
18
102
{ACAD_REACTORS
330
C
102
}
330
C
100
AcDbDictionary
281
     1
  0
ACDBDICTIONARYWDFLT
  5
E
102
{ACAD_REACTORS
330
C
102
}
330
C
100
AcDbDictionary
281
     1
  3
Normal
350
F
100
AcDbDictionaryWithDefault
340
F
  0
DICTIONARY
  5
391
102
{ACAD_REACTORS
330
C
102
}
330
C
100
AcDbDictionary
281
     1
  3
DIMASSOC
350
392
  0
LAYOUT
  5
1D
102
{ACAD_REACTORS
330
19
102
}
330
19
100
AcDbPlotSettings
  1

  2
hp deskjet 980c series
  4

  6

 40
0.0
 41
0.0
 42
0.0
 43
0.0
 44
0.0
 45
0.0
 46
0.0
 47
0.0
 48
0.0
 49
0.0
140
0.0
141
0.0
142
1.0
143
1.0
 70
   688
 72
     0
 73
     0
 74
     5
  7

 75
    16
147
1.0
148
0.0
149
0.0
100
AcDbLayout
  1
Layout1
 70
     1
 71
     1
 10
0.0
 20
0.0
 11
12.0
 21
9.0
 12
0.0
 22
0.0
 32
0.0
 14
1.000000000000000E+20
 24
1.000000000000000E+20
 34
1.000000000000000E+20
 15
-1.000000000000000E+20
 25
-1.000000000000000E+20
 35
-1.000000000000000E+20
146
0.0
 13
0.0
 23
0.0
 33
0.0
 16
1.0
 26
0.0
 36
0.0
 17
0.0
 27
1.0
 37
0.0
 76
     0
330
1A
  0
LAYOUT
  5
21
102
{ACAD_REACTORS
330
19
102
}
330
19
100
AcDbPlotSettings
  1

  2
hp deskjet 980c series
  4

  6

 40
0.0
 41
0.0
 42
0.0
 43
0.0
 44
0.0
 45
0.0
 46
0.0
 47
0.0
 48
0.0
 49
0.0
140
0.0
141
0.0
142
1.0
143
1.0
 70
  1712
 72
     0
 73
     0
 74
     0
  7

 75
     0
147
1.0
148
0.0
149
0.0
100
AcDbLayout
  1
Model
 70
     1
 71
     0
 10
0.0
 20
0.0
 11
12.0
 21
9.0
 12
0.0
 22
0.0
 32
0.0
 14
0.0
 24
0.0
 34
0.0
 15
0.0
 25
0.0
 35
0.0
146
0.0
 13
0.0
 23
0.0
 33
0.0
 16
1.0
 26
0.0
 36
0.0
 17
0.0
 27
1.0
 37
0.0
 76
     0
330
1E
  0
MLINESTYLE
  5
17
102
{ACAD_REACTORS
330
16
102
}
330
16
100
AcDbMlineStyle
  2
STANDARD
 70
     0
  3

 62
   256
 51
90.0
 52
90.0
 71
     2
 49
0.5
 62
   256
  6
BYLAYER
 49
-0.5
 62
   256
  6
BYLAYER
  0
ACDBPLACEHOLDER
  5
F
102
{ACAD_REACTORS
330
E
102
}
330
E
  0
DICTIONARYVAR
  5
392
102
{ACAD_REACTORS
330
391
102
}
330
391
100
DictionaryVariables
280
     0
  1
1
  0
ENDSEC
  0
EOF
